  0
SECTION
  2
HEADER
  9
$ACADVER
  1
AC1015
  9
$ACADMAINTVER
 70
     6
  9
$DWGCODEPAGE
  3
ANSI_1252
  9
$INSBASE
 10
0.0
 20
0.0
 30
0.0
  9
$EXTMIN
 10
0.0
 20
0.0
 30
0.0
  9
$EXTMAX
 10
1189.0
 20
841.0
 30
0.0
  9
$LIMMIN
 10
0.0
 20
0.0
  9
$LIMMAX
 10
1189.0
 20
841.0
  9
$ORTHOMODE
 70
     0
  9
$REGENMODE
 70
     1
  9
$FILLMODE
 70
     1
  9
$QTEXTMODE
 70
     0
  9
$MIRRTEXT
 70
     1
  9
$LTSCALE
 40
1.0
  9
$ATTMODE
 70
     1
  9
$TEXTSIZE
 40
3.5
  9
$TRACEWID
 40
1.0
  9
$TEXTSTYLE
  7
STANDARD
  9
$CLAYER
  8
0
  9
$CELTYPE
  6
ByLayer
  9
$CECOLOR
 62
   256
  9
$CELTSCALE
 40
1.0
  9
$DISPSILH
 70
     0
  9
$DIMSCALE
 40
1.0
  9
$DIMASZ
 40
3.302
  9
$DIMEXO
 40
1.0
  9
$DIMDLI
 40
3.75
  9
$DIMRND
 40
0.0
  9
$DIMDLE
 40
0.0
  9
$DIMEXE
 40
1.0
  9
$DIMTP
 40
0.0
  9
$DIMTM
 40
0.0
  9
$DIMTXT
 40
3.5
  9
$DIMCEN
 40
2.5
  9
$DIMTSZ
 40
0.0
  9
$DIMTOL
 70
     0
  9
$DIMLIM
 70
     0
  9
$DIMTIH
 70
     1
  9
$DIMTOH
 70
     1
  9
$DIMSE1
 70
     0
  9
$DIMSE2
 70
     0
  9
$DIMTAD
 70
     1
  9
$DIMZIN
 70
     1
  9
$DIMBLK
  1

  9
$DIMASO
 70
     1
  9
$DIMSHO
 70
     1
  9
$DIMPOST
  1

  9
$DIMAPOST
  1

  9
$DIMALT
 70
     0
  9
$DIMALTD
 70
     3
  9
$DIMALTF
 40
0.0393700787
  9
$DIMLFAC
 40
1.0
  9
$DIMTOFL
 70
     1
  9
$DIMTVP
 40
0.0
  9
$DIMTIX
 70
     0
  9
$DIMSOXD
 70
     0
  9
$DIMSAH
 70
     0
  9
$DIMBLK1
  1

  9
$DIMBLK2
  1

  9
$DIMSTYLE
  2
ISO-25
  9
$DIMCLRD
 70
     0
  9
$DIMCLRE
 70
     0
  9
$DIMCLRT
 70
     0
  9
$DIMTFAC
 40
1.0
  9
$DIMGAP
 40
1.524
  9
$DIMJUST
 70
     0
  9
$DIMSD1
 70
     0
  9
$DIMSD2
 70
     0
  9
$DIMTOLJ
 70
     0
  9
$DIMTZIN
 70
     1
  9
$DIMALTZ
 70
     0
  9
$DIMALTTZ
 70
     0
  9
$DIMUPT
 70
     0
  9
$DIMDEC
 70
     1
  9
$DIMTDEC
 70
     1
  9
$DIMALTU
 70
     2
  9
$DIMALTTD
 70
     3
  9
$DIMTXSTY
  7
STANDARD
  9
$DIMAUNIT
 70
     0
  9
$DIMADEC
 70
     1
  9
$DIMALTRND
 40
0.0
  9
$DIMAZIN
 70
     0
  9
$DIMDSEP
 70
    44
  9
$DIMATFIT
 70
     3
  9
$DIMFRAC
 70
     0
  9
$DIMLDRBLK
  1

  9
$DIMLUNIT
 70
     2
  9
$DIMLWD
 70
    -2
  9
$DIMLWE
 70
    -2
  9
$DIMTMOVE
 70
     0
  9
$LUNITS
 70
     2
  9
$LUPREC
 70
     1
  9
$SKETCHINC
 40
1.0
  9
$FILLETRAD
 40
10.0
  9
$AUNITS
 70
     0
  9
$AUPREC
 70
     1
  9
$MENU
  1
.
  9
$ELEVATION
 40
0.0
  9
$PELEVATION
 40
0.0
  9
$THICKNESS
 40
0.0
  9
$LIMCHECK
 70
     0
  9
$CHAMFERA
 40
10.0
  9
$CHAMFERB
 40
10.0
  9
$CHAMFERC
 40
20.0
  9
$CHAMFERD
 40
0.0
  9
$SKPOLY
 70
     0
  9
$TDCREATE
 40
2455636.293593912
  9
$TDUCREATE
 40
2455636.293593912
  9
$TDUPDATE
 40
2455636.293593924
  9
$TDUUPDATE
 40
2455636.293593924
  9
$TDINDWG
 40
0.0000000116
  9
$TDUSRTIMER
 40
0.0000000116
  9
$USRTIMER
 70
     1
  9
$ANGBASE
 50
0.0
  9
$ANGDIR
 70
     0
  9
$PDMODE
 70
     0
  9
$PDSIZE
 40
-1.0
  9
$PLINEWID
 40
0.0
  9
$SPLFRAME
 70
     0
  9
$SPLINETYPE
 70
     6
  9
$SPLINESEGS
 70
     8
  9
$HANDSEED
  5
3B3
  9
$SURFTAB1
 70
     6
  9
$SURFTAB2
 70
     6
  9
$SURFTYPE
 70
     6
  9
$SURFU
 70
     6
  9
$SURFV
 70
     6
  9
$UCSBASE
  2

  9
$UCSNAME
  2

  9
$UCSORG
 10
0.0
 20
0.0
 30
0.0
  9
$UCSXDIR
 10
1.0
 20
0.0
 30
0.0
  9
$UCSYDIR
 10
0.0
 20
1.0
 30
0.0
  9
$UCSORTHOREF
  2

  9
$UCSORTHOVIEW
 70
     0
  9
$UCSORGTOP
 10
0.0
 20
0.0
 30
0.0
  9
$UCSORGBOTTOM
 10
0.0
 20
0.0
 30
0.0
  9
$UCSORGLEFT
 10
0.0
 20
0.0
 30
0.0
  9
$UCSORGRIGHT
 10
0.0
 20
0.0
 30
0.0
  9
$UCSORGFRONT
 10
0.0
 20
0.0
 30
0.0
  9
$UCSORGBACK
 10
0.0
 20
0.0
 30
0.0
  9
$PUCSBASE
  2

  9
$PUCSNAME
  2

  9
$PUCSORG
 10
0.0
 20
0.0
 30
0.0
  9
$PUCSXDIR
 10
1.0
 20
0.0
 30
0.0
  9
$PUCSYDIR
 10
0.0
 20
1.0
 30
0.0
  9
$PUCSORTHOREF
  2

  9
$PUCSORTHOVIEW
 70
     0
  9
$PUCSORGTOP
 10
0.0
 20
0.0
 30
0.0
  9
$PUCSORGBOTTOM
 10
0.0
 20
0.0
 30
0.0
  9
$PUCSORGLEFT
 10
0.0
 20
0.0
 30
0.0
  9
$PUCSORGRIGHT
 10
0.0
 20
0.0
 30
0.0
  9
$PUCSORGFRONT
 10
0.0
 20
0.0
 30
0.0
  9
$PUCSORGBACK
 10
0.0
 20
0.0
 30
0.0
  9
$USERI1
 70
     0
  9
$USERI2
 70
     0
  9
$USERI3
 70
     0
  9
$USERI4
 70
     0
  9
$USERI5
 70
     0
  9
$USERR1
 40
0.0
  9
$USERR2
 40
0.0
  9
$USERR3
 40
0.0
  9
$USERR4
 40
0.0
  9
$USERR5
 40
0.0
  9
$WORLDVIEW
 70
     1
  9
$SHADEDGE
 70
     3
  9
$SHADEDIF
 70
    70
  9
$TILEMODE
 70
     1
  9
$MAXACTVP
 70
    64
  9
$PINSBASE
 10
0.0
 20
0.0
 30
0.0
  9
$PLIMCHECK
 70
     0
  9
$PEXTMIN
 10
1.0000000000E+20
 20
1.0000000000E+20
 30
1.0000000000E+20
  9
$PEXTMAX
 10
-1.0000000000E+20
 20
-1.0000000000E+20
 30
-1.0000000000E+20
  9
$PLIMMIN
 10
0.0
 20
0.0
  9
$PLIMMAX
 10
420.0
 20
297.0
  9
$UNITMODE
 70
     0
  9
$VISRETAIN
 70
     1
  9
$PLINEGEN
 70
     0
  9
$PSLTSCALE
 70
     1
  9
$TREEDEPTH
 70
  3020
  9
$CMLSTYLE
  2
Standard
  9
$CMLJUST
 70
     0
  9
$CMLSCALE
 40
20.0
  9
$PROXYGRAPHICS
 70
     1
  9
$MEASUREMENT
 70
     1
  9
$CELWEIGHT
370
    -1
  9
$ENDCAPS
280
     0
  9
$JOINSTYLE
280
     0
  9
$LWDISPLAY
290
     1
  9
$INSUNITS
 70
     4
  9
$HYPERLINKBASE
  1

  9
$STYLESHEET
  1

  9
$XEDIT
290
     1
  9
$CEPSNTYPE
380
     0
  9
$PSTYLEMODE
290
     1
  9
$FINGERPRINTGUID
  2
{92517144-3297-44FE-8D39-B58281B6F4F0}
  9
$VERSIONGUID
  2
{FAEB1C32-E019-11D5-929B-00C0DF256EC4}
  9
$EXTNAMES
290
     1
  9
$PSVPSCALE
 40
0.0
  9
$OLESTARTUP
290
     0
  0
ENDSEC
  0
SECTION
  2
CLASSES
  0
CLASS
  1
ACDBDICTIONARYWDFLT
  2
AcDbDictionaryWithDefault
  3
ObjectDBX Classes
 90
        0
280
     0
281
     0
  0
CLASS
  1
VISUALSTYLE
  2
AcDbVisualStyle
  3
ObjectDBX Classes
 90
     4095
280
     0
281
     0
  0
CLASS
  1
MATERIAL
  2
AcDbMaterial
  3
ObjectDBX Classes
 90
     1153
280
     0
281
     0
  0
CLASS
  1
ACDBPLACEHOLDER
  2
AcDbPlaceHolder
  3
ObjectDBX Classes
 90
        0
280
     0
281
     0
  0
CLASS
  1
LAYOUT
  2
AcDbLayout
  3
ObjectDBX Classes
 90
        0
280
     0
281
     0
  0
ENDSEC
  0
SECTION
  2
TABLES
  0
TABLE
  2
VPORT
  5
8
330
0
100
AcDbSymbolTable
 70
     1
  0
VPORT
  5
29
330
8
100
AcDbSymbolTableRecord
100
AcDbViewportTableRecord
  2
*Active
 70
     0
 10
0.0
 20
0.0
 11
1.0
 21
1.0
 12
594.5
 22
420.5
 13
0.0
 23
0.0
 14
10.0
 24
10.0
 15
10.0
 25
10.0
 16
0.0
 26
0.0
 36
1.0
 17
0.0
 27
0.0
 37
0.0
 40
841.0
 41
1.4137931034
 42
50.0
 43
0.0
 44
0.0
 50
0.0
 51
0.0
 71
     0
 72
  2000
 73
     1
 74
     3
 75
     0
 76
     0
 77
     0
 78
     0
281
     0
 65
     1
110
0.0
120
0.0
130
0.0
111
1.0
121
0.0
131
0.0
112
0.0
122
1.0
132
0.0
 79
     0
146
0.0
  0
ENDTAB
  0
TABLE
  2
LTYPE
  5
5
330
0
100
AcDbSymbolTable
 70
     8
  0
LTYPE
  5
14
330
5
100
AcDbSymbolTableRecord
100
AcDbLinetypeTableRecord
  2
ByBlock
 70
     0
  3

 72
    65
 73
     0
 40
0.0
  0
LTYPE
  5
15
330
5
100
AcDbSymbolTableRecord
100
AcDbLinetypeTableRecord
  2
ByLayer
 70
     0
  3

 72
    65
 73
     0
 40
0.0
  0
LTYPE
  5
16
330
5
100
AcDbSymbolTableRecord
100
AcDbLinetypeTableRecord
  2
Continuous
 70
     0
  3
Solid line
 72
    65
 73
     0
 40
0.0
  0
LTYPE
  5
3F
330
5
100
AcDbSymbolTableRecord
100
AcDbLinetypeTableRecord
  2
SLD-Solid
 70
     0
  3
SolidWorks Line Style
 72
    65
 73
     0
 40
0.0
  0
LTYPE
  5
40
330
5
100
AcDbSymbolTableRecord
100
AcDbLinetypeTableRecord
  2
SLD-Dashed
 70
     0
  3
SolidWorks Line Style
 72
    65
 73
     2
 40
1.905
 49
1.27
 74
     0
 49
-0.635
 74
     0
  0
LTYPE
  5
41
330
5
100
AcDbSymbolTableRecord
100
AcDbLinetypeTableRecord
  2
SLD-Phantom
 70
     0
  3
SolidWorks Line Style
 72
    65
 73
     6
 40
12.7
 49
6.35
 74
     0
 49
-1.27
 74
     0
 49
1.27
 74
     0
 49
-1.27
 74
     0
 49
1.27
 74
     0
 49
-1.27
 74
     0
  0
LTYPE
  5
42
330
5
100
AcDbSymbolTableRecord
100
AcDbLinetypeTableRecord
  2
SLD-Chain
 70
     0
  3
SolidWorks Line Style
 72
    65
 73
     4
 40
10.16
 49
6.35
 74
     0
 49
-1.27
 74
     0
 49
1.27
 74
     0
 49
-1.27
 74
     0
  0
LTYPE
  5
43
330
5
100
AcDbSymbolTableRecord
100
AcDbLinetypeTableRecord
  2
SLD-Center
 70
     0
  3
SolidWorks Line Style
 72
    65
 73
     4
 40
19.05
 49
15.24
 74
     0
 49
-1.27
 74
     0
 49
1.27
 74
     0
 49
-1.27
 74
     0
  0
LTYPE
  5
44
330
5
100
AcDbSymbolTableRecord
100
AcDbLinetypeTableRecord
  2
SLD-Stitch
 70
     0
  3
SolidWorks Line Style
 72
    65
 73
     2
 40
0.635
 49
0.0
 74
     0
 49
-0.635
 74
     0
  0
LTYPE
  5
45
330
5
100
AcDbSymbolTableRecord
100
AcDbLinetypeTableRecord
  2
SLD-Thin-Thick-Chain
 70
     0
  3
SolidWorks Line Style
 72
    65
 73
     4
 40
10.16
 49
6.35
 74
     0
 49
-1.27
 74
     0
 49
1.27
 74
     0
 49
-1.27
 74
     0
  0
ENDTAB
  0
TABLE
  2
LAYER
  5
2
330
0
100
AcDbSymbolTable
 70
     5
  0
LAYER
  5
10
330
2
100
AcDbSymbolTableRecord
100
AcDbLayerTableRecord
  2
0
 70
     0
 62
     7
  6
Continuous
370
    -3
390
F
  0
LAYER
  5
46
330
2
100
AcDbSymbolTableRecord
100
AcDbLayerTableRecord
  2
SLD-0_0
 70
     0
 62
   179
  6
SLD-Solid
370
    -3
390
F
  0
LAYER
  5
47
330
2
100
AcDbSymbolTableRecord
100
AcDbLayerTableRecord
  2
FORMAT
 70
     0
 62
   179
  6
SLD-Solid
370
    -3
390
F
  0
LAYER
  5
48
330
2
100
AcDbSymbolTableRecord
100
AcDbLayerTableRecord
  2
SLD-0
 70
     0
 62
     1
  6
SLD-Solid
370
    -3
390
F
  0
LAYER
  5
49
330
2
100
AcDbSymbolTableRecord
100
AcDbLayerTableRecord
  2
WATERMARK
 70
     0
 62
    20
  6
SLD-Solid
370
    -3
390
F
  0
ENDTAB
  0
TABLE
  2
STYLE
  5
3
330
0
100
AcDbSymbolTable
 70
     1
  0
STYLE
  5
11
330
3
100
AcDbSymbolTableRecord
100
AcDbTextStyleTableRecord
  2
STANDARD
 70
     0
 40
0.0
 41
1.0
 50
0.0
 71
     0
 42
2.5
  3
GOTHIC.TTF
  4

1001
ACAD
1000
CENTURY GOTHIC
1071
       34
  0
ENDTAB
  0
TABLE
  2
VIEW
  5
6
330
0
100
AcDbSymbolTable
 70
     0
  0
ENDTAB
  0
TABLE
  2
UCS
  5
7
330
0
100
AcDbSymbolTable
 70
     0
  0
ENDTAB
  0
TABLE
  2
APPID
  5
9
330
0
100
AcDbSymbolTable
 70
     1
  0
APPID
  5
12
330
9
100
AcDbSymbolTableRecord
100
AcDbRegAppTableRecord
  2
ACAD
 70
     0
  0
ENDTAB
  0
TABLE
  2
DIMSTYLE
  5
A
330
0
100
AcDbSymbolTable
 70
     1
100
AcDbDimStyleTable
  0
DIMSTYLE
105
27
330
A
100
AcDbSymbolTableRecord
100
AcDbDimStyleTableRecord
  2
ISO-25
 70
     0
 41
2.5
 42
0.625
 43
3.75
 44
1.25
 73
     0
 74
     0
 77
     1
 78
     8
140
2.5
141
2.5
143
0.0393700787
147
0.625
171
     3
172
     1
271
     2
272
     2
274
     3
278
    44
283
     0
284
     8
340
11
  0
ENDTAB
  0
TABLE
  2
BLOCK_RECORD
  5
1
330
0
100
AcDbSymbolTable
 70
     1
  0
BLOCK_RECORD
  5
1F
330
1
100
AcDbSymbolTableRecord
100
AcDbBlockTableRecord
  2
*Model_Space
340
22
  0
BLOCK_RECORD
  5
1B
330
1
100
AcDbSymbolTableRecord
100
AcDbBlockTableRecord
  2
*Paper_Space
340
1E
  0
BLOCK_RECORD
  5
23
330
1
100
AcDbSymbolTableRecord
100
AcDbBlockTableRecord
  2
*Paper_Space0
340
26
  0
ENDTAB
  0
ENDSEC
  0
SECTION
  2
BLOCKS
  0
BLOCK
  5
20
330
1F
100
AcDbEntity
  8
0
100
AcDbBlockBegin
  2
*Model_Space
 70
     0
 10
0.0
 20
0.0
 30
0.0
  3
*Model_Space
  1

  0
ENDBLK
  5
21
330
1F
100
AcDbEntity
  8
0
100
AcDbBlockEnd
  0
BLOCK
  5
1C
330
1B
100
AcDbEntity
 67
     1
  8
0
100
AcDbBlockBegin
  2
*Paper_Space
 70
     0
 10
0.0
 20
0.0
 30
0.0
  3
*Paper_Space
  1

  0
ENDBLK
  5
1D
330
1B
100
AcDbEntity
 67
     1
  8
0
100
AcDbBlockEnd
  0
BLOCK
  5
24
330
23
100
AcDbEntity
  8
0
100
AcDbBlockBegin
  2
*Paper_Space0
 70
     0
 10
0.0
 20
0.0
 30
0.0
  3
*Paper_Space0
  1

  0
ENDBLK
  5
25
330
23
100
AcDbEntity
  8
0
100
AcDbBlockEnd
  0
ENDSEC
  0
SECTION
  2
ENTITIES
  0
LINE
  5
4A
330
1F
100
AcDbEntity
  8
SLD-0_0
  6
SLD-Solid
 62
   179
370
    15
100
AcDbLine
 10
173.4926591118
 20
353.5641257565
 30
0.0
 11
178.5926591118
 21
353.5641257565
 31
0.0
  0
LINE
  5
4B
330
1F
100
AcDbEntity
  8
SLD-0_0
  6
SLD-Solid
 62
   179
370
    15
100
AcDbLine
 10
178.5926591118
 20
358.8902927286
 30
0.0
 11
173.4926591118
 21
358.8902927286
 31
0.0
  0
LINE
  5
4C
330
1F
100
AcDbEntity
  8
SLD-0_0
  6
SLD-Solid
 62
   179
370
    15
100
AcDbLine
 10
172.5558795245
 20
358.5897164205
 30
0.0
 11
172.2926591118
 21
358.5897164205
 31
0.0
  0
LINE
  5
4D
330
1F
100
AcDbEntity
  8
SLD-0_0
  6
SLD-Solid
 62
   179
370
    15
100
AcDbLine
 10
174.0641801286
 20
340.8891401124
 30
0.0
 11
178.5926591118
 21
340.8891401124
 31
0.0
  0
LINE
  5
4E
330
1F
100
AcDbEntity
  8
SLD-0_0
  6
SLD-Solid
 62
   179
370
    15
100
AcDbLine
 10
172.9926591118
 20
345.3970985251
 30
0.0
 11
167.8926591118
 21
345.3970985251
 31
0.0
  0
LINE
  5
4F
330
1F
100
AcDbEntity
  8
SLD-0_0
  6
SLD-Solid
 62
   179
370
    15
100
AcDbLine
 10
167.8926591118
 20
340.4592773105
 30
0.0
 11
172.9926591118
 21
340.4592773105
 31
0.0
  0
LINE
  5
50
330
1F
100
AcDbEntity
  8
SLD-0_0
  6
SLD-Solid
 62
   179
370
    15
100
AcDbLine
 10
172.9926591118
 20
359.3201555306
 30
0.0
 11
167.8926591118
 21
359.3201555306
 31
0.0
  0
LINE
  5
51
330
1F
100
AcDbEntity
  8
SLD-0_0
  6
SLD-Solid
 62
   179
370
    15
100
AcDbLine
 10
179.8926591118
 20
344.8897164205
 30
0.0
 11
180.0890160457
 21
344.5496162345
 31
0.0
  0
LINE
  5
52
330
1F
100
AcDbEntity
  8
SLD-0_0
  6
SLD-Solid
 62
   179
370
    15
100
AcDbLine
 10
180.0890160457
 20
355.2298166065
 30
0.0
 11
179.8926591118
 21
354.8897164205
 31
0.0
  0
LINE
  5
53
330
1F
100
AcDbEntity
  8
SLD-0_0
  6
SLD-Solid
 62
   179
370
    15
100
AcDbLine
 10
179.6426591118
 20
354.8897164205
 30
0.0
 11
179.5544529948
 21
355.0424938966
 31
0.0
  0
LINE
  5
54
330
1F
100
AcDbEntity
  8
SLD-0_0
  6
SLD-Solid
 62
   179
370
    15
100
AcDbLine
 10
179.5544529948
 20
344.7369389444
 30
0.0
 11
179.6426591118
 21
344.8897164205
 31
0.0
  0
LINE
  5
55
330
1F
100
AcDbEntity
  8
SLD-0_0
  6
SLD-Solid
 62
   179
370
    15
100
AcDbLine
 10
174.4426591118
 20
344.8897164205
 30
0.0
 11
174.5308652287
 21
344.7369389444
 31
0.0
  0
LINE
  5
56
330
1F
100
AcDbEntity
  8
SLD-0_0
  6
SLD-Solid
 62
   179
370
    15
100
AcDbLine
 10
179.8926591118
 20
352.8897164205
 30
0.0
 11
179.6426591118
 21
352.8897164205
 31
0.0
  0
LINE
  5
57
330
1F
100
AcDbEntity
  8
SLD-0_0
  6
SLD-Solid
 62
   179
370
    15
100
AcDbLine
 10
179.6426591118
 20
346.8897164205
 30
0.0
 11
179.8926591118
 21
346.8897164205
 31
0.0
  0
LINE
  5
58
330
1F
100
AcDbEntity
  8
SLD-0_0
  6
SLD-Solid
 62
   179
370
    15
100
AcDbLine
 10
925.6017159724
 20
932.7541395835
 30
0.0
 11
922.7485464235
 21
931.8270886003
 31
0.0
  0
LINE
  5
59
330
1F
100
AcDbEntity
  8
SLD-0_0
  6
SLD-Solid
 62
   179
370
    15
100
AcDbLine
 10
928.9134354613
 20
912.8535111003
 30
0.0
 11
931.7666050102
 21
913.7805620834
 31
0.0
  0
LINE
  5
5A
330
1F
100
AcDbEntity
  8
SLD-0_0
  6
SLD-Solid
 62
   179
370
    15
100
AcDbLine
 10
931.1253947468
 20
915.7540043547
 30
0.0
 11
934.929620812
 21
916.9900723322
 31
0.0
  0
LINE
  5
5B
330
1F
100
AcDbEntity
  8
SLD-0_0
  6
SLD-Solid
 62
   179
370
    15
100
AcDbLine
 10
934.2413366355
 20
931.2503273855
 30
0.0
 11
932.3392236029
 21
930.6322933968
 31
0.0
  0
LINE
  5
5C
330
1F
100
AcDbEntity
  8
SLD-0_0
  6
SLD-Solid
 62
   179
370
    15
100
AcDbLine
 10
934.7793896566
 20
919.0704702749
 30
0.0
 11
937.8722863194
 21
920.0754133191
 31
0.0
  0
LINE
  5
5D
330
1F
100
AcDbEntity
  8
SLD-0_0
  6
SLD-Solid
 62
   179
370
    15
100
AcDbLine
 10
291.8137010325
 20
1040.9334495258
 30
0.0
 11
291.5894764137
 21
1043.2811329955
 31
0.0
  0
LINE
  5
5E
330
1F
100
AcDbEntity
  8
SLD-0_0
  6
SLD-Solid
 62
   179
370
    15
100
AcDbLine
 10
803.7030450267
 20
1043.2804645042
 30
0.0
 11
803.4789374002
 21
1040.9462468496
 31
0.0
  0
LINE
  5
5F
330
1F
100
AcDbEntity
  8
SLD-0_0
  6
SLD-Solid
 62
   179
370
    15
100
AcDbLine
 10
523.6508465983
 20
1043.6411467186
 30
0.0
 11
523.328626548
 21
1040.2701424347
 31
0.0
  0
LINE
  5
60
330
1F
100
AcDbEntity
  8
SLD-0_0
  6
SLD-Solid
 62
   179
370
    15
100
AcDbLine
 10
571.9562584044
 20
1040.2984432373
 30
0.0
 11
571.6358247019
 21
1043.6412793768
 31
0.0
  0
LINE
  5
61
330
1F
100
AcDbEntity
  8
SLD-0_0
  6
SLD-Solid
 62
   179
370
    15
100
AcDbLine
 10
813.6426591121
 20
1012.5897164209
 30
0.0
 11
815.1330324489
 21
1001.8491746069
 31
0.0
  0
LINE
  5
62
330
1F
100
AcDbEntity
  8
SLD-0_0
  6
SLD-Solid
 62
   179
370
    15
100
AcDbLine
 10
822.1522857753
 20
1001.8491746066
 30
0.0
 11
823.4967258789
 21
1011.5380322864
 31
0.0
  0
LINE
  5
63
330
1F
100
AcDbEntity
  8
SLD-0_0
  6
SLD-Solid
 62
   179
370
    15
100
AcDbLine
 10
271.7885923452
 20
1011.5380322864
 30
0.0
 11
273.133032449
 21
1001.849174606
 31
0.0
  0
LINE
  5
64
330
1F
100
AcDbEntity
  8
SLD-0_0
  6
SLD-Solid
 62
   179
370
    15
100
AcDbLine
 10
280.1522857752
 20
1001.849174606
 30
0.0
 11
281.6426591121
 21
1012.5897164209
 31
0.0
  0
LINE
  5
65
330
1F
100
AcDbEntity
  8
SLD-0_0
  6
SLD-Solid
 62
   179
370
    15
100
AcDbLine
 10
571.9562584044
 20
1040.2984432373
 30
0.0
 11
571.6358247019
 21
1043.6412793768
 31
0.0
  0
LINE
  5
66
330
1F
100
AcDbEntity
  8
SLD-0_0
  6
SLD-Solid
 62
   179
370
    15
100
AcDbLine
 10
352.8454168476
 20
1025.7680336679
 30
0.0
 11
352.5988655818
 21
1025.1922917699
 31
0.0
  0
LINE
  5
67
330
1F
100
AcDbEntity
  8
SLD-0_0
  6
SLD-Solid
 62
   179
370
    15
100
AcDbLine
 10
642.3441399238
 20
1026.1477971818
 30
0.0
 11
642.2914849888
 21
1026.5471316704
 31
0.0
  0
LINE
  5
68
330
1F
100
AcDbEntity
  8
SLD-0_0
  6
SLD-Solid
 62
   179
370
    15
100
AcDbLine
 10
460.1280993058
 20
1004.7341564092
 30
0.0
 11
460.1280993058
 21
1005.9091352305
 31
0.0
  0
LINE
  5
69
330
1F
100
AcDbEntity
  8
SLD-0_0
  6
SLD-Solid
 62
   179
370
    15
100
AcDbLine
 10
355.1572189184
 20
1005.9091352305
 30
0.0
 11
355.1572189184
 21
1004.7341564092
 31
0.0
  0
LINE
  5
6A
330
1F
100
AcDbEntity
  8
SLD-0_0
  6
SLD-Solid
 62
   179
370
    15
100
AcDbLine
 10
355.5013861793
 20
1004.241352506
 30
0.0
 11
356.1572258546
 21
1004.0008274205
 31
0.0
  0
LINE
  5
6B
330
1F
100
AcDbEntity
  8
SLD-0_0
  6
SLD-Solid
 62
   179
370
    15
100
AcDbLine
 10
459.1280923696
 20
1004.0008274205
 30
0.0
 11
459.7839320449
 21
1004.241352506
 31
0.0
  0
LINE
  5
6C
330
1F
100
AcDbEntity
  8
SLD-0_0
  6
SLD-Solid
 62
   179
370
    15
100
AcDbLine
 10
458.1380807192
 20
1008.0058736677
 30
0.0
 11
407.6426591121
 21
1010.6449055907
 31
0.0
  0
LINE
  5
6D
330
1F
100
AcDbEntity
  8
SLD-0_0
  6
SLD-Solid
 62
   179
370
    15
100
AcDbLine
 10
407.6426591121
 20
1010.6449055907
 30
0.0
 11
357.147237505
 21
1008.0058736677
 31
0.0
  0
LINE
  5
6E
330
1F
100
AcDbEntity
  8
SLD-0_0
  6
SLD-Solid
 62
   179
370
    15
100
AcDbLine
 10
456.6393771759
 20
1002.9051360614
 30
0.0
 11
456.6393771759
 21
1003.4759274205
 31
0.0
  0
LINE
  5
6F
330
1F
100
AcDbEntity
  8
SLD-0_0
  6
SLD-Solid
 62
   179
370
    15
100
AcDbLine
 10
358.6459410483
 20
1003.4759274205
 30
0.0
 11
358.6459410483
 21
1002.9051360614
 31
0.0
  0
LINE
  5
70
330
1F
100
AcDbEntity
  8
SLD-0_0
  6
SLD-Solid
 62
   179
370
    15
100
AcDbLine
 10
358.9226971895
 20
1002.5103742143
 30
0.0
 11
358.9917066191
 21
1002.4853473371
 31
0.0
  0
LINE
  5
71
330
1F
100
AcDbEntity
  8
SLD-0_0
  6
SLD-Solid
 62
   179
370
    15
100
AcDbLine
 10
456.2936116051
 20
1002.4853473371
 30
0.0
 11
456.3626210347
 21
1002.5103742143
 31
0.0
  0
LINE
  5
72
330
1F
100
AcDbEntity
  8
SLD-0_0
  6
SLD-Solid
 62
   179
370
    15
100
AcDbLine
 10
740.1280993009
 20
1004.7341564092
 30
0.0
 11
740.1280993009
 21
1005.9091352305
 31
0.0
  0
LINE
  5
73
330
1F
100
AcDbEntity
  8
SLD-0_0
  6
SLD-Solid
 62
   179
370
    15
100
AcDbLine
 10
635.1572189135
 20
1005.9091352305
 30
0.0
 11
635.1572189135
 21
1004.7341564092
 31
0.0
  0
LINE
  5
74
330
1F
100
AcDbEntity
  8
SLD-0_0
  6
SLD-Solid
 62
   179
370
    15
100
AcDbLine
 10
635.5013861744
 20
1004.241352506
 30
0.0
 11
636.1572258497
 21
1004.0008274205
 31
0.0
  0
LINE
  5
75
330
1F
100
AcDbEntity
  8
SLD-0_0
  6
SLD-Solid
 62
   179
370
    15
100
AcDbLine
 10
739.1280923647
 20
1004.0008274205
 30
0.0
 11
739.78393204
 21
1004.241352506
 31
0.0
  0
LINE
  5
76
330
1F
100
AcDbEntity
  8
SLD-0_0
  6
SLD-Solid
 62
   179
370
    15
100
AcDbLine
 10
738.1380807143
 20
1008.0058736677
 30
0.0
 11
687.6426591072
 21
1010.6449055907
 31
0.0
  0
LINE
  5
77
330
1F
100
AcDbEntity
  8
SLD-0_0
  6
SLD-Solid
 62
   179
370
    15
100
AcDbLine
 10
687.6426591072
 20
1010.6449055907
 30
0.0
 11
637.1472375001
 21
1008.0058736677
 31
0.0
  0
LINE
  5
78
330
1F
100
AcDbEntity
  8
SLD-0_0
  6
SLD-Solid
 62
   179
370
    15
100
AcDbLine
 10
736.639377171
 20
1002.9051360614
 30
0.0
 11
736.639377171
 21
1003.4759274205
 31
0.0
  0
LINE
  5
79
330
1F
100
AcDbEntity
  8
SLD-0_0
  6
SLD-Solid
 62
   179
370
    15
100
AcDbLine
 10
638.6459410434
 20
1003.4759274205
 30
0.0
 11
638.6459410434
 21
1002.9051360614
 31
0.0
  0
LINE
  5
7A
330
1F
100
AcDbEntity
  8
SLD-0_0
  6
SLD-Solid
 62
   179
370
    15
100
AcDbLine
 10
638.9226971846
 20
1002.5103742143
 30
0.0
 11
638.9917066142
 21
1002.4853473372
 31
0.0
  0
LINE
  5
7B
330
1F
100
AcDbEntity
  8
SLD-0_0
  6
SLD-Solid
 62
   179
370
    15
100
AcDbLine
 10
736.2936116002
 20
1002.4853473372
 30
0.0
 11
736.3626210298
 21
1002.5103742143
 31
0.0
  0
LINE
  5
7C
330
1F
100
AcDbEntity
  8
SLD-0_0
  6
SLD-Solid
 62
   179
370
    15
100
AcDbLine
 10
638.6086151072
 20
1002.1853473372
 30
0.0
 11
638.6086151072
 21
1000.0897164209
 31
0.0
  0
LINE
  5
7D
330
1F
100
AcDbEntity
  8
SLD-0_0
  6
SLD-Solid
 62
   179
370
    15
100
AcDbLine
 10
736.6767031072
 20
1000.0897164209
 30
0.0
 11
736.6767031072
 21
1002.1853473372
 31
0.0
  0
LINE
  5
7E
330
1F
100
AcDbEntity
  8
SLD-0_0
  6
SLD-Solid
 62
   179
370
    15
100
AcDbLine
 10
736.3767031072
 20
1002.4853473372
 30
0.0
 11
638.9086151072
 21
1002.4853473372
 31
0.0
  0
LINE
  5
7F
330
1F
100
AcDbEntity
  8
SLD-0_0
  6
SLD-Solid
 62
   179
370
    15
100
AcDbLine
 10
358.6086151121
 20
1002.1853473371
 30
0.0
 11
358.6086151121
 21
1000.0897164209
 31
0.0
  0
LINE
  5
80
330
1F
100
AcDbEntity
  8
SLD-0_0
  6
SLD-Solid
 62
   179
370
    15
100
AcDbLine
 10
456.6767031121
 20
1000.0897164209
 30
0.0
 11
456.6767031121
 21
1002.1853473371
 31
0.0
  0
LINE
  5
81
330
1F
100
AcDbEntity
  8
SLD-0_0
  6
SLD-Solid
 62
   179
370
    15
100
AcDbLine
 10
456.3767031121
 20
1002.4853473371
 30
0.0
 11
358.9086151121
 21
1002.4853473371
 31
0.0
  0
LINE
  5
82
330
1F
100
AcDbEntity
  8
SLD-0_0
  6
SLD-Solid
 62
   179
370
    15
100
AcDbLine
 10
280.2604007723
 20
981.5897164205
 30
0.0
 11
280.0937341059
 21
982.0897164196
 31
0.0
  0
LINE
  5
83
330
1F
100
AcDbEntity
  8
SLD-0_0
  6
SLD-Solid
 62
   179
370
    15
100
AcDbLine
 10
273.1915841182
 20
982.0897164196
 30
0.0
 11
273.0249174519
 21
981.5897164205
 31
0.0
  0
LINE
  5
84
330
1F
100
AcDbEntity
  8
SLD-0_0
  6
SLD-Solid
 62
   179
370
    15
100
AcDbLine
 10
822.2604007714
 20
981.5897164205
 30
0.0
 11
822.2270674381
 21
981.6897164205
 31
0.0
  0
LINE
  5
85
330
1F
100
AcDbEntity
  8
SLD-0_0
  6
SLD-Solid
 62
   179
370
    15
100
AcDbLine
 10
815.0582507854
 20
981.6897164205
 30
0.0
 11
815.0249174521
 21
981.5897164205
 31
0.0
  0
LINE
  5
86
330
1F
100
AcDbEntity
  8
SLD-0_0
  6
SLD-Solid
 62
   179
370
    15
100
AcDbLine
 10
926.06367457
 20
921.6241732804
 30
0.0
 11
934.3873820739
 21
924.3287097941
 31
0.0
  0
LINE
  5
87
330
1F
100
AcDbEntity
  8
SLD-0_0
  6
SLD-Solid
 62
   179
370
    15
100
AcDbLine
 10
931.6062291245
 20
932.8882184408
 30
0.0
 11
923.2825216206
 21
930.1836819271
 31
0.0
  0
LINE
  5
88
330
1F
100
AcDbEntity
  8
SLD-0_0
  6
SLD-Solid
 62
   179
370
    15
100
AcDbLine
 10
944.9419709472
 20
898.3171613272
 30
0.0
 11
953.2164681326
 21
905.2115573361
 31
0.0
  0
LINE
  5
89
330
1F
100
AcDbEntity
  8
SLD-0_0
  6
SLD-Solid
 62
   179
370
    15
100
AcDbLine
 10
927.3505285726
 20
959.9700779619
 30
0.0
 11
924.8558663128
 21
960.1358348864
 31
0.0
  0
LINE
  5
8A
330
1F
100
AcDbEntity
  8
SLD-0_0
  6
SLD-Solid
 62
   179
370
    15
100
AcDbLine
 10
935.6024994533
 20
959.421778765
 30
0.0
 11
932.3393650951
 21
959.6385965378
 31
0.0
  0
LINE
  5
8B
330
1F
100
AcDbEntity
  8
SLD-0_0
  6
SLD-Solid
 62
   179
370
    15
100
AcDbLine
 10
953.2164681326
 20
905.2115573361
 30
0.0
 11
968.9776622941
 21
919.516849103
 31
0.0
  0
LINE
  5
8C
330
1F
100
AcDbEntity
  8
SLD-0_0
  6
SLD-Solid
 62
   179
370
    15
100
AcDbLine
 10
936.0995487278
 20
959.3675383861
 30
0.0
 11
935.6024994533
 21
959.421778765
 31
0.0
  0
LINE
  5
8D
330
1F
100
AcDbEntity
  8
SLD-0_0
  6
SLD-Solid
 62
   179
370
    15
100
AcDbLine
 10
935.1944756793
 20
921.844731087
 30
0.0
 11
937.1073765367
 21
922.4295635697
 31
0.0
  0
LINE
  5
8E
330
1F
100
AcDbEntity
  8
SLD-0_0
  6
SLD-Solid
 62
   179
370
    15
100
AcDbLine
 10
932.3428562913
 20
959.6483866167
 30
0.0
 11
927.3484087193
 21
959.980240865
 31
0.0
  0
LINE
  5
8F
330
1F
100
AcDbEntity
  8
SLD-0_0
  6
SLD-Solid
 62
   179
370
    15
100
AcDbLine
 10
931.7607376199
 20
932.4126901832
 30
0.0
 11
923.4370301174
 21
929.70815367
 31
0.0
  0
LINE
  5
90
330
1F
100
AcDbEntity
  8
SLD-0_0
  6
SLD-Solid
 62
   179
370
    15
100
AcDbLine
 10
925.9091660724
 20
922.0997015396
 30
0.0
 11
934.2328735749
 21
924.8042380529
 31
0.0
  0
LINE
  5
91
330
1F
100
AcDbEntity
  8
SLD-0_0
  6
SLD-Solid
 62
   179
370
    15
100
AcDbLine
 10
184.8426591132
 20
955.989716419
 30
0.0
 11
183.9426591107
 21
955.989716419
 31
0.0
  0
LINE
  5
92
330
1F
100
AcDbEntity
  8
SLD-0_0
  6
SLD-Solid
 62
   179
370
    15
100
AcDbLine
 10
183.9426591107
 20
923.989716419
 30
0.0
 11
184.8426591132
 21
923.989716419
 31
0.0
  0
LINE
  5
93
330
1F
100
AcDbEntity
  8
SLD-0_0
  6
SLD-Solid
 62
   179
370
    15
100
AcDbLine
 10
285.6426591117
 20
131.2897164205
 30
0.0
 11
285.6426591117
 21
135.2897164205
 31
0.0
  0
LINE
  5
94
330
1F
100
AcDbEntity
  8
SLD-0_0
  6
SLD-Solid
 62
   179
370
    15
100
AcDbLine
 10
228.6426591117
 20
135.2897164205
 30
0.0
 11
228.6426591117
 21
131.2897164205
 31
0.0
  0
LINE
  5
95
330
1F
100
AcDbEntity
  8
SLD-0_0
  6
SLD-Solid
 62
   179
370
    15
100
AcDbLine
 10
874.6426591117
 20
131.2897164205
 30
0.0
 11
874.6426591117
 21
135.2897164205
 31
0.0
  0
LINE
  5
96
330
1F
100
AcDbEntity
  8
SLD-0_0
  6
SLD-Solid
 62
   179
370
    15
100
AcDbLine
 10
817.6426591117
 20
135.2897164205
 30
0.0
 11
817.6426591117
 21
131.2897164205
 31
0.0
  0
LINE
  5
97
330
1F
100
AcDbEntity
  8
SLD-0_0
  6
SLD-Solid
 62
   179
370
    15
100
AcDbLine
 10
285.4426591117
 20
135.2897164205
 30
0.0
 11
285.4426591117
 21
203.2897164205
 31
0.0
  0
LINE
  5
98
330
1F
100
AcDbEntity
  8
SLD-0_0
  6
SLD-Solid
 62
   179
370
    15
100
AcDbLine
 10
228.8426591117
 20
203.2897164205
 30
0.0
 11
228.8426591117
 21
135.2897164205
 31
0.0
  0
LINE
  5
99
330
1F
100
AcDbEntity
  8
SLD-0_0
  6
SLD-Solid
 62
   179
370
    15
100
AcDbLine
 10
874.4426591117
 20
135.2897164205
 30
0.0
 11
874.4426591117
 21
203.2897164205
 31
0.0
  0
LINE
  5
9A
330
1F
100
AcDbEntity
  8
SLD-0_0
  6
SLD-Solid
 62
   179
370
    15
100
AcDbLine
 10
817.8426591117
 20
203.2897164205
 30
0.0
 11
817.8426591117
 21
135.2897164205
 31
0.0
  0
LINE
  5
9B
330
1F
100
AcDbEntity
  8
SLD-0_0
  6
SLD-Solid
 62
   179
370
    15
100
AcDbLine
 10
878.0426591117
 20
209.3222823661
 30
0.0
 11
878.0426591117
 21
295.7897164205
 31
0.0
  0
LINE
  5
9C
330
1F
100
AcDbEntity
  8
SLD-0_0
  6
SLD-Solid
 62
   179
370
    15
100
AcDbLine
 10
814.2426591117
 20
295.7897164205
 30
0.0
 11
814.2426591117
 21
209.3222823661
 31
0.0
  0
LINE
  5
9D
330
1F
100
AcDbEntity
  8
SLD-0_0
  6
SLD-Solid
 62
   179
370
    15
100
AcDbLine
 10
814.3065723387
 20
208.5498191416
 30
0.0
 11
815.1830088914
 21
203.2897164205
 31
0.0
  0
LINE
  5
9E
330
1F
100
AcDbEntity
  8
SLD-0_0
  6
SLD-Solid
 62
   179
370
    15
100
AcDbLine
 10
877.1023093321
 20
203.2897164205
 30
0.0
 11
877.9787458847
 21
208.5498191416
 31
0.0
  0
LINE
  5
9F
330
1F
100
AcDbEntity
  8
SLD-0_0
  6
SLD-Solid
 62
   179
370
    15
100
AcDbLine
 10
289.0426591117
 20
209.3222823661
 30
0.0
 11
289.0426591117
 21
295.7897164205
 31
0.0
  0
LINE
  5
A0
330
1F
100
AcDbEntity
  8
SLD-0_0
  6
SLD-Solid
 62
   179
370
    15
100
AcDbLine
 10
225.2426591117
 20
295.7897164205
 30
0.0
 11
225.2426591117
 21
209.3222823661
 31
0.0
  0
LINE
  5
A1
330
1F
100
AcDbEntity
  8
SLD-0_0
  6
SLD-Solid
 62
   179
370
    15
100
AcDbLine
 10
225.3065723387
 20
208.5498191416
 30
0.0
 11
226.1830088914
 21
203.2897164205
 31
0.0
  0
LINE
  5
A2
330
1F
100
AcDbEntity
  8
SLD-0_0
  6
SLD-Solid
 62
   179
370
    15
100
AcDbLine
 10
288.1023093321
 20
203.2897164205
 30
0.0
 11
288.9787458847
 21
208.5498191416
 31
0.0
  0
LINE
  5
A3
330
1F
100
AcDbEntity
  8
SLD-0_0
  6
SLD-Solid
 62
   179
370
    15
100
AcDbLine
 10
991.4389357999
 20
764.9729897422
 30
0.0
 11
991.4151095425
 21
764.9785074352
 31
0.0
  0
LINE
  5
A4
330
1F
100
AcDbEntity
  8
SLD-0_0
  6
SLD-Solid
 62
   179
370
    15
100
AcDbLine
 10
981.9275865088
 20
792.8860483991
 30
0.0
 11
968.1484797075
 21
792.8862320321
 31
0.0
  0
LINE
  5
A5
330
1F
100
AcDbEntity
  8
SLD-0_0
  6
SLD-Solid
 62
   179
370
    15
100
AcDbLine
 10
968.1484797075
 20
792.8862320321
 30
0.0
 11
951.4439116837
 21
792.8864415066
 31
0.0
  0
LINE
  5
A6
330
1F
100
AcDbEntity
  8
SLD-0_0
  6
SLD-Solid
 62
   179
370
    15
100
AcDbLine
 10
932.9426591121
 20
828.7897164206
 30
0.0
 11
933.4426591121
 21
828.2897164206
 31
0.0
  0
LINE
  5
A7
330
1F
100
AcDbEntity
  8
SLD-0_0
  6
SLD-Solid
 62
   179
370
    15
100
AcDbLine
 10
949.4426591121
 20
828.2897164206
 30
0.0
 11
949.9426591121
 21
828.7897164206
 31
0.0
  0
LINE
  5
A8
330
1F
100
AcDbEntity
  8
SLD-0_0
  6
SLD-Solid
 62
   179
370
    15
100
AcDbLine
 10
949.9426591121
 20
828.7897164206
 30
0.0
 11
949.9426591121
 21
830.2897164206
 31
0.0
  0
LINE
  5
A9
330
1F
100
AcDbEntity
  8
SLD-0_0
  6
SLD-Solid
 62
   179
370
    15
100
AcDbLine
 10
932.9426591121
 20
830.2897164206
 30
0.0
 11
932.9426591121
 21
828.7897164206
 31
0.0
  0
LINE
  5
AA
330
1F
100
AcDbEntity
  8
SLD-0_0
  6
SLD-Solid
 62
   179
370
    15
100
AcDbLine
 10
949.9426591121
 20
830.2897164206
 30
0.0
 11
949.4426591121
 21
830.7897164206
 31
0.0
  0
LINE
  5
AB
330
1F
100
AcDbEntity
  8
SLD-0_0
  6
SLD-Solid
 62
   179
370
    15
100
AcDbLine
 10
933.4426591121
 20
830.7897164206
 30
0.0
 11
932.9426591121
 21
830.2897164206
 31
0.0
  0
LINE
  5
AC
330
1F
100
AcDbEntity
  8
SLD-0_0
  6
SLD-Solid
 62
   179
370
    15
100
AcDbLine
 10
947.9426591121
 20
827.4190057425
 30
0.0
 11
947.9426591121
 21
827.4897164206
 31
0.0
  0
LINE
  5
AD
330
1F
100
AcDbEntity
  8
SLD-0_0
  6
SLD-Solid
 62
   179
370
    15
100
AcDbLine
 10
934.9426591121
 20
827.4897164206
 30
0.0
 11
934.9426591121
 21
827.4190057425
 31
0.0
  0
LINE
  5
AE
330
1F
100
AcDbEntity
  8
SLD-0_0
  6
SLD-Solid
 62
   179
370
    15
100
AcDbLine
 10
949.9426591121
 20
303.7897164206
 30
0.0
 11
949.4426591121
 21
304.2897164206
 31
0.0
  0
LINE
  5
AF
330
1F
100
AcDbEntity
  8
SLD-0_0
  6
SLD-Solid
 62
   179
370
    15
100
AcDbLine
 10
933.4426591121
 20
304.2897164206
 30
0.0
 11
932.9426591121
 21
303.7897164206
 31
0.0
  0
LINE
  5
B0
330
1F
100
AcDbEntity
  8
SLD-0_0
  6
SLD-Solid
 62
   179
370
    15
100
AcDbLine
 10
932.9426591121
 20
302.2897164206
 30
0.0
 11
933.4426591121
 21
301.7897164206
 31
0.0
  0
LINE
  5
B1
330
1F
100
AcDbEntity
  8
SLD-0_0
  6
SLD-Solid
 62
   179
370
    15
100
AcDbLine
 10
949.4426591121
 20
301.7897164206
 30
0.0
 11
949.9426591121
 21
302.2897164206
 31
0.0
  0
LINE
  5
B2
330
1F
100
AcDbEntity
  8
SLD-0_0
  6
SLD-Solid
 62
   179
370
    15
100
AcDbLine
 10
932.9426591121
 20
303.7897164206
 30
0.0
 11
932.9426591121
 21
302.2897164206
 31
0.0
  0
LINE
  5
B3
330
1F
100
AcDbEntity
  8
SLD-0_0
  6
SLD-Solid
 62
   179
370
    15
100
AcDbLine
 10
949.9426591121
 20
302.2897164206
 30
0.0
 11
949.9426591121
 21
303.7897164206
 31
0.0
  0
LINE
  5
B4
330
1F
100
AcDbEntity
  8
SLD-0_0
  6
SLD-Solid
 62
   179
370
    15
100
AcDbLine
 10
934.9426591121
 20
305.1604270987
 30
0.0
 11
934.9426591121
 21
305.0897164206
 31
0.0
  0
LINE
  5
B5
330
1F
100
AcDbEntity
  8
SLD-0_0
  6
SLD-Solid
 62
   179
370
    15
100
AcDbLine
 10
947.9426591121
 20
305.0897164206
 30
0.0
 11
947.9426591121
 21
305.1604270987
 31
0.0
  0
LINE
  5
B6
330
1F
100
AcDbEntity
  8
SLD-0_0
  6
SLD-Solid
 62
   179
370
    15
100
AcDbLine
 10
949.4426591121
 20
299.2897164206
 30
0.0
 11
949.4426591121
 21
301.7897164206
 31
0.0
  0
LINE
  5
B7
330
1F
100
AcDbEntity
  8
SLD-0_0
  6
SLD-Solid
 62
   179
370
    15
100
AcDbLine
 10
949.4426591121
 20
831.5897164202
 30
0.0
 11
949.4426591121
 21
834.0897164202
 31
0.0
  0
LINE
  5
B8
330
1F
100
AcDbEntity
  8
SLD-0_0
  6
SLD-Solid
 62
   179
370
    15
100
AcDbLine
 10
936.4426591121
 20
831.5897164202
 30
0.0
 11
936.4426591121
 21
830.7897164206
 31
0.0
  0
LINE
  5
B9
330
1F
100
AcDbEntity
  8
SLD-0_0
  6
SLD-Solid
 62
   179
370
    15
100
AcDbLine
 10
946.4426591121
 20
830.7897164206
 30
0.0
 11
946.4426591121
 21
831.5897164202
 31
0.0
  0
LINE
  5
BA
330
1F
100
AcDbEntity
  8
SLD-0_0
  6
SLD-Solid
 62
   179
370
    15
100
AcDbLine
 10
937.5426591121
 20
834.5897164202
 30
0.0
 11
937.5426591121
 21
834.0897164202
 31
0.0
  0
LINE
  5
BB
330
1F
100
AcDbEntity
  8
SLD-0_0
  6
SLD-Solid
 62
   179
370
    15
100
AcDbLine
 10
945.3426591121
 20
834.0897164207
 30
0.0
 11
945.3426591121
 21
834.5897164202
 31
0.0
  0
LINE
  5
BC
330
1F
100
AcDbEntity
  8
SLD-0_0
  6
SLD-Solid
 62
   179
370
    15
100
AcDbLine
 10
945.3426591121
 20
298.7897164206
 30
0.0
 11
945.3426591121
 21
299.2897164191
 31
0.0
  0
LINE
  5
BD
330
1F
100
AcDbEntity
  8
SLD-0_0
  6
SLD-Solid
 62
   179
370
    15
100
AcDbLine
 10
937.5426591121
 20
299.2897164191
 30
0.0
 11
937.5426591121
 21
298.7897164206
 31
0.0
  0
LINE
  5
BE
330
1F
100
AcDbEntity
  8
SLD-0_0
  6
SLD-Solid
 62
   179
370
    15
100
AcDbLine
 10
185.5426591117
 20
981.4897164196
 30
0.0
 11
185.5426591117
 21
982.0897164196
 31
0.0
  0
LINE
  5
BF
330
1F
100
AcDbEntity
  8
SLD-0_0
  6
SLD-Solid
 62
   179
370
    15
100
AcDbLine
 10
185.5426591117
 20
980.5503257126
 30
0.0
 11
185.5426591117
 21
980.6209953769
 31
0.0
  0
LINE
  5
C0
330
1F
100
AcDbEntity
  8
SLD-0_0
  6
SLD-Solid
 62
   179
370
    15
100
AcDbLine
 10
185.5326591117
 20
981.6581992813
 30
0.0
 11
185.5426591117
 21
981.6581992813
 31
0.0
  0
LINE
  5
C1
330
1F
100
AcDbEntity
  8
SLD-0_0
  6
SLD-Solid
 62
   179
370
    15
100
AcDbLine
 10
185.5326591117
 20
981.6581992813
 30
0.0
 11
185.5326591117
 21
982.0370772911
 31
0.0
  0
LINE
  5
C2
330
1F
100
AcDbEntity
  8
SLD-0_0
  6
SLD-Solid
 62
   179
370
    15
100
AcDbLine
 10
185.5326591117
 20
982.0370772911
 30
0.0
 11
185.5426591117
 21
982.0370772911
 31
0.0
  0
LINE
  5
C3
330
1F
100
AcDbEntity
  8
SLD-0_0
  6
SLD-Solid
 62
   179
370
    15
100
AcDbLine
 10
172.0426591118
 20
345.3970985251
 30
0.0
 11
172.0426591118
 21
353.2230320773
 31
0.0
  0
LINE
  5
C4
330
1F
100
AcDbEntity
  8
SLD-0_0
  6
SLD-Solid
 62
   179
370
    15
100
AcDbLine
 10
173.2426591118
 20
353.2230320773
 30
0.0
 11
173.2426591118
 21
345.719856344
 31
0.0
  0
LINE
  5
C5
330
1F
100
AcDbEntity
  8
SLD-0_0
  6
SLD-Solid
 62
   179
370
    15
100
AcDbLine
 10
172.9926591118
 20
353.1618781877
 30
0.0
 11
172.2926591118
 21
353.1618781877
 31
0.0
  0
LINE
  5
C6
330
1F
100
AcDbEntity
  8
SLD-0_0
  6
SLD-Solid
 62
   179
370
    15
100
AcDbLine
 10
172.0426591118
 20
353.4455177455
 30
0.0
 11
172.0426591118
 21
357.7594822954
 31
0.0
  0
LINE
  5
C7
330
1F
100
AcDbEntity
  8
SLD-0_0
  6
SLD-Solid
 62
   179
370
    15
100
AcDbLine
 10
178.8426591118
 20
358.6402927286
 30
0.0
 11
178.8426591118
 21
354.3263281787
 31
0.0
  0
LINE
  5
C8
330
1F
100
AcDbEntity
  8
SLD-0_0
  6
SLD-Solid
 62
   179
370
    15
100
AcDbLine
 10
178.8426591118
 20
354.3263281787
 30
0.0
 11
178.8426591118
 21
353.8141257565
 31
0.0
  0
LINE
  5
C9
330
1F
100
AcDbEntity
  8
SLD-0_0
  6
SLD-Solid
 62
   179
370
    15
100
AcDbLine
 10
172.0426591118
 20
353.2230320773
 30
0.0
 11
172.0426591118
 21
353.4455177455
 31
0.0
  0
LINE
  5
CA
330
1F
100
AcDbEntity
  8
SLD-0_0
  6
SLD-Solid
 62
   179
370
    15
100
AcDbLine
 10
173.2426591118
 20
353.4455177455
 30
0.0
 11
173.2426591118
 21
353.2230320773
 31
0.0
  0
LINE
  5
CB
330
1F
100
AcDbEntity
  8
SLD-0_0
  6
SLD-Solid
 62
   179
370
    15
100
AcDbLine
 10
173.4926591118
 20
358.8902927286
 30
0.0
 11
173.4926591118
 21
358.8601564549
 31
0.0
  0
LINE
  5
CC
330
1F
100
AcDbEntity
  8
SLD-0_0
  6
SLD-Solid
 62
   179
370
    15
100
AcDbLine
 10
172.0426591118
 20
357.7594822954
 30
0.0
 11
172.0426591118
 21
358.3397164205
 31
0.0
  0
LINE
  5
CD
330
1F
100
AcDbEntity
  8
SLD-0_0
  6
SLD-Solid
 62
   179
370
    15
100
AcDbLine
 10
178.8426591118
 20
341.6513425346
 30
0.0
 11
178.8426591118
 21
341.1391401124
 31
0.0
  0
LINE
  5
CE
330
1F
100
AcDbEntity
  8
SLD-0_0
  6
SLD-Solid
 62
   179
370
    15
100
AcDbLine
 10
178.8426591118
 20
344.3883981123
 30
0.0
 11
178.8426591118
 21
341.6513425346
 31
0.0
  0
LINE
  5
CF
330
1F
100
AcDbEntity
  8
SLD-0_0
  6
SLD-Solid
 62
   179
370
    15
100
AcDbLine
 10
174.4426591118
 20
353.5641257565
 30
0.0
 11
174.4426591118
 21
345.7963955911
 31
0.0
  0
LINE
  5
D0
330
1F
100
AcDbEntity
  8
SLD-0_0
  6
SLD-Solid
 62
   179
370
    15
100
AcDbLine
 10
173.2426591118
 20
345.7963955911
 30
0.0
 11
173.2426591118
 21
353.2230320773
 31
0.0
  0
LINE
  5
D1
330
1F
100
AcDbEntity
  8
SLD-0_0
  6
SLD-Solid
 62
   179
370
    15
100
AcDbLine
 10
173.4926591118
 20
345.8275892507
 30
0.0
 11
174.1926591118
 21
345.8275892507
 31
0.0
  0
LINE
  5
D2
330
1F
100
AcDbEntity
  8
SLD-0_0
  6
SLD-Solid
 62
   179
370
    15
100
AcDbLine
 10
174.4426591118
 20
345.5520023643
 30
0.0
 11
174.4426591118
 21
341.6768187513
 31
0.0
  0
LINE
  5
D3
330
1F
100
AcDbEntity
  8
SLD-0_0
  6
SLD-Solid
 62
   179
370
    15
100
AcDbLine
 10
167.6426591118
 20
340.7092773105
 30
0.0
 11
167.6426591118
 21
344.5844609235
 31
0.0
  0
LINE
  5
D4
330
1F
100
AcDbEntity
  8
SLD-0_0
  6
SLD-Solid
 62
   179
370
    15
100
AcDbLine
 10
167.6426591118
 20
344.5844609235
 30
0.0
 11
167.6426591118
 21
345.1470985251
 31
0.0
  0
LINE
  5
D5
330
1F
100
AcDbEntity
  8
SLD-0_0
  6
SLD-Solid
 62
   179
370
    15
100
AcDbLine
 10
174.4426591118
 20
345.7963955911
 30
0.0
 11
174.4426591118
 21
345.5520023643
 31
0.0
  0
LINE
  5
D6
330
1F
100
AcDbEntity
  8
SLD-0_0
  6
SLD-Solid
 62
   179
370
    15
100
AcDbLine
 10
173.2426591118
 20
345.5520023643
 30
0.0
 11
173.2426591118
 21
345.7963955911
 31
0.0
  0
LINE
  5
D7
330
1F
100
AcDbEntity
  8
SLD-0_0
  6
SLD-Solid
 62
   179
370
    15
100
AcDbLine
 10
172.9926591118
 20
340.4592773105
 30
0.0
 11
172.9926591118
 21
340.4786130112
 31
0.0
  0
LINE
  5
D8
330
1F
100
AcDbEntity
  8
SLD-0_0
  6
SLD-Solid
 62
   179
370
    15
100
AcDbLine
 10
174.4426591118
 20
341.6768187513
 30
0.0
 11
174.4426591118
 21
341.4397164205
 31
0.0
  0
LINE
  5
D9
330
1F
100
AcDbEntity
  8
SLD-0_0
  6
SLD-Solid
 62
   179
370
    15
100
AcDbLine
 10
167.6426591118
 20
358.507517929
 30
0.0
 11
167.6426591118
 21
359.0701555306
 31
0.0
  0
LINE
  5
DA
330
1F
100
AcDbEntity
  8
SLD-0_0
  6
SLD-Solid
 62
   179
370
    15
100
AcDbLine
 10
167.6426591118
 20
355.2064223728
 30
0.0
 11
167.6426591118
 21
358.507517929
 31
0.0
  0
LINE
  5
DB
330
1F
100
AcDbEntity
  8
SLD-0_0
  6
SLD-Solid
 62
   179
370
    15
100
AcDbLine
 10
184.6460771244
 20
347.9858837316
 30
0.0
 11
184.8426591132
 21
347.1564690624
 31
0.0
  0
LINE
  5
DC
330
1F
100
AcDbEntity
  8
SLD-0_0
  6
SLD-Solid
 62
   179
370
    15
100
AcDbLine
 10
184.8426591132
 20
344.9921363764
 30
0.0
 11
184.6460771244
 21
344.2174647257
 31
0.0
  0
LINE
  5
DD
330
1F
100
AcDbEntity
  8
SLD-0_0
  6
SLD-Solid
 62
   179
370
    15
100
AcDbLine
 10
184.6460771244
 20
344.2174647257
 30
0.0
 11
180.3392410992
 21
344.2174647257
 31
0.0
  0
LINE
  5
DE
330
1F
100
AcDbEntity
  8
SLD-0_0
  6
SLD-Solid
 62
   179
370
    15
100
AcDbLine
 10
180.3392410992
 20
347.9858837316
 30
0.0
 11
179.8926591118
 21
346.1016742287
 31
0.0
  0
LINE
  5
DF
330
1F
100
AcDbEntity
  8
SLD-0_0
  6
SLD-Solid
 62
   179
370
    15
100
AcDbLine
 10
184.6460771244
 20
347.9858837316
 30
0.0
 11
180.3392410992
 21
347.9858837316
 31
0.0
  0
LINE
  5
E0
330
1F
100
AcDbEntity
  8
SLD-0_0
  6
SLD-Solid
 62
   179
370
    15
100
AcDbLine
 10
179.8926591118
 20
346.1016742287
 30
0.0
 11
179.8926591118
 21
350.822009579
 31
0.0
  0
LINE
  5
E1
330
1F
100
AcDbEntity
  8
SLD-0_0
  6
SLD-Solid
 62
   179
370
    15
100
AcDbLine
 10
184.6460771244
 20
353.6581354264
 30
0.0
 11
180.3392410992
 21
353.6581354264
 31
0.0
  0
LINE
  5
E2
330
1F
100
AcDbEntity
  8
SLD-0_0
  6
SLD-Solid
 62
   179
370
    15
100
AcDbLine
 10
184.8426591132
 20
352.6711770835
 30
0.0
 11
184.6460771244
 21
353.6581354264
 31
0.0
  0
LINE
  5
E3
330
1F
100
AcDbEntity
  8
SLD-0_0
  6
SLD-Solid
 62
   179
370
    15
100
AcDbLine
 10
179.8926591118
 20
350.822009579
 30
0.0
 11
179.8926591118
 21
354.6100517708
 31
0.0
  0
LINE
  5
E4
330
1F
100
AcDbEntity
  8
SLD-0_0
  6
SLD-Solid
 62
   179
370
    15
100
AcDbLine
 10
184.8426591132
 20
354.0495051784
 30
0.0
 11
184.6460771244
 21
353.6581354264
 31
0.0
  0
LINE
  5
E5
330
1F
100
AcDbEntity
  8
SLD-0_0
  6
SLD-Solid
 62
   179
370
    15
100
AcDbLine
 10
184.6460771244
 20
355.5619681153
 30
0.0
 11
184.8220220418
 21
355.18693095
 31
0.0
  0
LINE
  5
E6
330
1F
100
AcDbEntity
  8
SLD-0_0
  6
SLD-Solid
 62
   179
370
    15
100
AcDbLine
 10
180.3392410992
 20
355.5619681153
 30
0.0
 11
179.8926591118
 21
354.6100517708
 31
0.0
  0
LINE
  5
E7
330
1F
100
AcDbEntity
  8
SLD-0_0
  6
SLD-Solid
 62
   179
370
    15
100
AcDbLine
 10
184.6460771244
 20
355.5619681153
 30
0.0
 11
180.3392410992
 21
355.5619681153
 31
0.0
  0
LINE
  5
E8
330
1F
100
AcDbEntity
  8
SLD-0_0
  6
SLD-Solid
 62
   179
370
    15
100
AcDbLine
 10
180.3392410992
 20
344.2174647257
 30
0.0
 11
180.1632961817
 21
344.5925018911
 31
0.0
  0
LINE
  5
E9
330
1F
100
AcDbEntity
  8
SLD-0_0
  6
SLD-Solid
 62
   179
370
    15
100
AcDbLine
 10
179.8926591118
 20
344.8897164205
 30
0.0
 11
179.8926591118
 21
346.1016742287
 31
0.0
  0
LINE
  5
EA
330
1F
100
AcDbEntity
  8
SLD-0_0
  6
SLD-Solid
 62
   179
370
    15
100
AcDbLine
 10
184.6460771244
 20
344.2174647257
 30
0.0
 11
184.8220220418
 21
344.5925018911
 31
0.0
  0
LINE
  5
EB
330
1F
100
AcDbEntity
  8
SLD-0_0
  6
SLD-Solid
 62
   179
370
    15
100
AcDbLine
 10
179.8926591118
 20
354.6100517708
 30
0.0
 11
179.8926591118
 21
354.8897164205
 31
0.0
  0
LINE
  5
EC
330
1F
100
AcDbEntity
  8
SLD-0_0
  6
SLD-Solid
 62
   179
370
    15
100
AcDbLine
 10
171.5960771244
 20
354.4972944639
 30
0.0
 11
172.0426591118
 21
351.8389414878
 31
0.0
  0
LINE
  5
ED
330
1F
100
AcDbEntity
  8
SLD-0_0
  6
SLD-Solid
 62
   179
370
    15
100
AcDbLine
 10
171.5960771244
 20
349.1805885116
 30
0.0
 11
167.2892410992
 21
349.1805885116
 31
0.0
  0
LINE
  5
EE
330
1F
100
AcDbEntity
  8
SLD-0_0
  6
SLD-Solid
 62
   179
370
    15
100
AcDbLine
 10
167.2892410992
 20
354.4972944639
 30
0.0
 11
166.8426591118
 21
351.8389414878
 31
0.0
  0
LINE
  5
EF
330
1F
100
AcDbEntity
  8
SLD-0_0
  6
SLD-Solid
 62
   179
370
    15
100
AcDbLine
 10
171.5960771244
 20
354.4972944639
 30
0.0
 11
167.2892410992
 21
354.4972944639
 31
0.0
  0
LINE
  5
F0
330
1F
100
AcDbEntity
  8
SLD-0_0
  6
SLD-Solid
 62
   179
370
    15
100
AcDbLine
 10
166.8426591118
 20
346.8767994899
 30
0.0
 11
166.8426591118
 21
351.8389414878
 31
0.0
  0
LINE
  5
F1
330
1F
100
AcDbEntity
  8
SLD-0_0
  6
SLD-Solid
 62
   179
370
    15
100
AcDbLine
 10
171.821576114
 20
345.3970985251
 30
0.0
 11
172.0426591118
 21
346.8767994899
 31
0.0
  0
LINE
  5
F2
330
1F
100
AcDbEntity
  8
SLD-0_0
  6
SLD-Solid
 62
   179
370
    15
100
AcDbLine
 10
167.6426591118
 20
344.5730104682
 30
0.0
 11
167.2892410992
 21
344.5730104682
 31
0.0
  0
LINE
  5
F3
330
1F
100
AcDbEntity
  8
SLD-0_0
  6
SLD-Solid
 62
   179
370
    15
100
AcDbLine
 10
166.8426591118
 20
351.8389414878
 30
0.0
 11
166.8426591118
 21
354.8518584183
 31
0.0
  0
LINE
  5
F4
330
1F
100
AcDbEntity
  8
SLD-0_0
  6
SLD-Solid
 62
   179
370
    15
100
AcDbLine
 10
167.2892410992
 20
344.5730104682
 30
0.0
 11
166.8426591118
 21
344.9275744227
 31
0.0
  0
LINE
  5
F5
330
1F
100
AcDbEntity
  8
SLD-0_0
  6
SLD-Solid
 62
   179
370
    15
100
AcDbLine
 10
166.8426591118
 20
346.8767994899
 30
0.0
 11
166.8426591118
 21
344.8898671269
 31
0.0
  0
LINE
  5
F6
330
1F
100
AcDbEntity
  8
SLD-0_0
  6
SLD-Solid
 62
   179
370
    15
100
AcDbLine
 10
171.5960771244
 20
355.2064223728
 30
0.0
 11
172.0426591118
 21
354.8518584183
 31
0.0
  0
LINE
  5
F7
330
1F
100
AcDbEntity
  8
SLD-0_0
  6
SLD-Solid
 62
   179
370
    15
100
AcDbLine
 10
167.2892410992
 20
355.2064223728
 30
0.0
 11
166.8426591118
 21
354.8518584183
 31
0.0
  0
LINE
  5
F8
330
1F
100
AcDbEntity
  8
SLD-0_0
  6
SLD-Solid
 62
   179
370
    15
100
AcDbLine
 10
171.5960771244
 20
355.2064223728
 30
0.0
 11
167.2892410992
 21
355.2064223728
 31
0.0
  0
LINE
  5
F9
330
1F
100
AcDbEntity
  8
SLD-0_0
  6
SLD-Solid
 62
   179
370
    15
100
AcDbLine
 10
179.1960771244
 20
355.3910347287
 30
0.0
 11
179.6426591118
 21
353.2571501678
 31
0.0
  0
LINE
  5
FA
330
1F
100
AcDbEntity
  8
SLD-0_0
  6
SLD-Solid
 62
   179
370
    15
100
AcDbLine
 10
179.1960771244
 20
351.1232656069
 30
0.0
 11
174.8892410992
 21
351.1232656069
 31
0.0
  0
LINE
  5
FB
330
1F
100
AcDbEntity
  8
SLD-0_0
  6
SLD-Solid
 62
   179
370
    15
100
AcDbLine
 10
174.5069033408
 20
353.5641257565
 30
0.0
 11
174.4426591118
 21
353.2571501678
 31
0.0
  0
LINE
  5
FC
330
1F
100
AcDbEntity
  8
SLD-0_0
  6
SLD-Solid
 62
   179
370
    15
100
AcDbLine
 10
179.1960771244
 20
355.3910347287
 30
0.0
 11
178.8426591118
 21
355.3910347287
 31
0.0
  0
LINE
  5
FD
330
1F
100
AcDbEntity
  8
SLD-0_0
  6
SLD-Solid
 62
   179
370
    15
100
AcDbLine
 10
179.6426591118
 20
348.3726064528
 30
0.0
 11
179.6426591118
 21
353.2571501678
 31
0.0
  0
LINE
  5
FE
330
1F
100
AcDbEntity
  8
SLD-0_0
  6
SLD-Solid
 62
   179
370
    15
100
AcDbLine
 10
179.1960771244
 20
345.6219472987
 30
0.0
 11
174.8892410992
 21
345.6219472987
 31
0.0
  0
LINE
  5
FF
330
1F
100
AcDbEntity
  8
SLD-0_0
  6
SLD-Solid
 62
   179
370
    15
100
AcDbLine
 10
174.8892410992
 20
345.6219472987
 30
0.0
 11
174.4426591118
 21
345.0051727055
 31
0.0
  0
LINE
  5
100
330
1F
100
AcDbEntity
  8
SLD-0_0
  6
SLD-Solid
 62
   179
370
    15
100
AcDbLine
 10
179.1960771244
 20
345.6219472987
 30
0.0
 11
179.6426591118
 21
345.0051727055
 31
0.0
  0
LINE
  5
101
330
1F
100
AcDbEntity
  8
SLD-0_0
  6
SLD-Solid
 62
   179
370
    15
100
AcDbLine
 10
179.6426591118
 20
348.3726064528
 30
0.0
 11
179.6426591118
 21
345.0051727055
 31
0.0
  0
LINE
  5
102
330
1F
100
AcDbEntity
  8
SLD-0_0
  6
SLD-Solid
 62
   179
370
    15
100
AcDbLine
 10
179.4935390305
 20
355.0073252029
 30
0.0
 11
179.1960771244
 21
355.3910347287
 31
0.0
  0
LINE
  5
103
330
1F
100
AcDbEntity
  8
SLD-0_0
  6
SLD-Solid
 62
   179
370
    15
100
AcDbLine
 10
179.6426591118
 20
354.8897164205
 30
0.0
 11
179.6426591118
 21
353.2571501678
 31
0.0
  0
LINE
  5
104
330
1F
100
AcDbEntity
  8
SLD-0_0
  6
SLD-Solid
 62
   179
370
    15
100
AcDbLine
 10
179.1960771244
 20
344.3883981123
 30
0.0
 11
174.8892410992
 21
344.3883981123
 31
0.0
  0
LINE
  5
105
330
1F
100
AcDbEntity
  8
SLD-0_0
  6
SLD-Solid
 62
   179
370
    15
100
AcDbLine
 10
174.5917791931
 20
344.7721076381
 30
0.0
 11
174.8892410992
 21
344.3883981123
 31
0.0
  0
LINE
  5
106
330
1F
100
AcDbEntity
  8
SLD-0_0
  6
SLD-Solid
 62
   179
370
    15
100
AcDbLine
 10
179.6426591118
 20
345.0051727055
 30
0.0
 11
179.6426591118
 21
344.8897164205
 31
0.0
  0
LINE
  5
107
330
1F
100
AcDbEntity
  8
SLD-0_0
  6
SLD-Solid
 62
   179
370
    15
100
AcDbLine
 10
926.1356911695
 20
931.1107329102
 30
0.0
 11
925.6017159724
 21
932.7541395835
 31
0.0
  0
LINE
  5
108
330
1F
100
AcDbEntity
  8
SLD-0_0
  6
SLD-Solid
 62
   179
370
    15
100
AcDbLine
 10
931.7666050102
 20
913.7805620834
 30
0.0
 11
928.9168441188
 21
922.5512242635
 31
0.0
  0
LINE
  5
109
330
1F
100
AcDbEntity
  8
SLD-0_0
  6
SLD-Solid
 62
   179
370
    15
100
AcDbLine
 10
270.6312432064
 20
1012.5897164209
 30
0.0
 11
824.6540750178
 21
1012.5897164209
 31
0.0
  0
LINE
  5
10A
330
1F
100
AcDbEntity
  8
SLD-0_0
  6
SLD-Solid
 62
   179
370
    15
100
AcDbLine
 10
267.6426591121
 20
1012.5897164209
 30
0.0
 11
268.2779551751
 21
1019.8511836492
 31
0.0
  0
LINE
  5
10B
330
1F
100
AcDbEntity
  8
SLD-0_0
  6
SLD-Solid
 62
   179
370
    15
100
AcDbLine
 10
270.6312432064
 20
1012.5897164209
 30
0.0
 11
267.6426591121
 21
1012.5897164209
 31
0.0
  0
LINE
  5
10C
330
1F
100
AcDbEntity
  8
SLD-0_0
  6
SLD-Solid
 62
   179
370
    15
100
AcDbLine
 10
827.6426591121
 20
1012.5897164209
 30
0.0
 11
827.0073630491
 21
1019.8511836492
 31
0.0
  0
LINE
  5
10D
330
1F
100
AcDbEntity
  8
SLD-0_0
  6
SLD-Solid
 62
   179
370
    15
100
AcDbLine
 10
824.6540750178
 20
1012.5897164209
 30
0.0
 11
827.6426591121
 21
1012.5897164209
 31
0.0
  0
LINE
  5
10E
330
1F
100
AcDbEntity
  8
SLD-0_0
  6
SLD-Solid
 62
   179
370
    15
100
AcDbLine
 10
271.2665392694
 20
1022.5897164209
 30
0.0
 11
824.0187789548
 21
1022.5897164209
 31
0.0
  0
LINE
  5
10F
330
1F
100
AcDbEntity
  8
SLD-0_0
  6
SLD-Solid
 62
   179
370
    15
100
AcDbLine
 10
275.3907185834
 20
1000.7724117645
 30
0.0
 11
271.6651304228
 21
1011.9070210773
 31
0.0
  0
LINE
  5
110
330
1F
100
AcDbEntity
  8
SLD-0_0
  6
SLD-Solid
 62
   179
370
    15
100
AcDbLine
 10
823.6201878013
 20
1011.9070210773
 30
0.0
 11
819.8945996408
 21
1000.7724117645
 31
0.0
  0
LINE
  5
111
330
1F
100
AcDbEntity
  8
SLD-0_0
  6
SLD-Solid
 62
   179
370
    15
100
AcDbLine
 10
279.6068974019
 20
1011.6768721637
 30
0.0
 11
278.6730161559
 21
1001.0025606782
 31
0.0
  0
LINE
  5
112
330
1F
100
AcDbEntity
  8
SLD-0_0
  6
SLD-Solid
 62
   179
370
    15
100
AcDbLine
 10
816.6123020682
 20
1001.0025606782
 30
0.0
 11
815.6784208223
 21
1011.6768721637
 31
0.0
  0
LINE
  5
113
330
1F
100
AcDbEntity
  8
SLD-0_0
  6
SLD-Solid
 62
   179
370
    15
100
AcDbLine
 10
537.6251708868
 20
1002.5025606782
 30
0.0
 11
536.8225226362
 21
1011.6768721636
 31
0.0
  0
LINE
  5
114
330
1F
100
AcDbEntity
  8
SLD-0_0
  6
SLD-Solid
 62
   179
370
    15
100
AcDbLine
 10
558.462795588
 20
1011.6768721636
 30
0.0
 11
557.6601473374
 21
1002.5025606782
 31
0.0
  0
LINE
  5
115
330
1F
100
AcDbEntity
  8
SLD-0_0
  6
SLD-Solid
 62
   179
370
    15
100
AcDbLine
 10
556.6639526393
 20
1001.5897164209
 30
0.0
 11
538.6213655849
 21
1001.5897164209
 31
0.0
  0
LINE
  5
116
330
1F
100
AcDbEntity
  8
SLD-0_0
  6
SLD-Solid
 62
   179
370
    15
100
AcDbLine
 10
352.8850443963
 20
1025.8452332642
 30
0.0
 11
353.0379968455
 21
1026.6173327831
 31
0.0
  0
LINE
  5
117
330
1F
100
AcDbEntity
  8
SLD-0_0
  6
SLD-Solid
 62
   179
370
    15
100
AcDbLine
 10
403.0297497627
 20
1026.5449490659
 30
0.0
 11
404.9405836495
 21
1043.3161228484
 31
0.0
  0
LINE
  5
118
330
1F
100
AcDbEntity
  8
SLD-0_0
  6
SLD-Solid
 62
   179
370
    15
100
AcDbLine
 10
692.2555684615
 20
1026.5449490659
 30
0.0
 11
690.3447345747
 21
1043.3161228484
 31
0.0
  0
LINE
  5
119
330
1F
100
AcDbEntity
  8
SLD-0_0
  6
SLD-Solid
 62
   179
370
    15
100
AcDbLine
 10
410.3447345747
 20
1043.3161228484
 30
0.0
 11
412.257318467
 21
1026.5295894647
 31
0.0
  0
LINE
  5
11A
330
1F
100
AcDbEntity
  8
SLD-0_0
  6
SLD-Solid
 62
   179
370
    15
100
AcDbLine
 10
684.9405836495
 20
1043.3161228485
 30
0.0
 11
683.0279997572
 21
1026.5295894647
 31
0.0
  0
LINE
  5
11B
330
1F
100
AcDbEntity
  8
SLD-0_0
  6
SLD-Solid
 62
   179
370
    15
100
AcDbLine
 10
408.3575908633
 20
1045.0897164209
 30
0.0
 11
406.9277273609
 21
1045.0897164209
 31
0.0
  0
LINE
  5
11C
330
1F
100
AcDbEntity
  8
SLD-0_0
  6
SLD-Solid
 62
   179
370
    15
100
AcDbLine
 10
686.9277273609
 20
1045.0897164209
 30
0.0
 11
688.3575908633
 21
1045.0897164209
 31
0.0
  0
LINE
  5
11D
330
1F
100
AcDbEntity
  8
SLD-0_0
  6
SLD-Solid
 62
   179
370
    15
100
AcDbLine
 10
353.0379968455
 20
1026.6173327831
 30
0.0
 11
354.9405836495
 21
1043.3161228485
 31
0.0
  0
LINE
  5
11E
330
1F
100
AcDbEntity
  8
SLD-0_0
  6
SLD-Solid
 62
   179
370
    15
100
AcDbLine
 10
360.3447345746
 20
1043.3161228485
 30
0.0
 11
362.2490357677
 21
1026.6022857836
 31
0.0
  0
LINE
  5
11F
330
1F
100
AcDbEntity
  8
SLD-0_0
  6
SLD-Solid
 62
   179
370
    15
100
AcDbLine
 10
453.0289416009
 20
1026.5378559206
 30
0.0
 11
454.9405836495
 21
1043.3161228485
 31
0.0
  0
LINE
  5
120
330
1F
100
AcDbEntity
  8
SLD-0_0
  6
SLD-Solid
 62
   179
370
    15
100
AcDbLine
 10
460.3447345746
 20
1043.3161228485
 30
0.0
 11
462.2581854101
 21
1026.5219804027
 31
0.0
  0
LINE
  5
121
330
1F
100
AcDbEntity
  8
SLD-0_0
  6
SLD-Solid
 62
   179
370
    15
100
AcDbLine
 10
634.9405836495
 20
1043.3161228485
 30
0.0
 11
633.0271328141
 21
1026.5219804027
 31
0.0
  0
LINE
  5
122
330
1F
100
AcDbEntity
  8
SLD-0_0
  6
SLD-Solid
 62
   179
370
    15
100
AcDbLine
 10
642.2563766233
 20
1026.5378559206
 30
0.0
 11
640.3447345746
 21
1043.3161228485
 31
0.0
  0
LINE
  5
123
330
1F
100
AcDbEntity
  8
SLD-0_0
  6
SLD-Solid
 62
   179
370
    15
100
AcDbLine
 10
734.9405836495
 20
1043.3161228485
 30
0.0
 11
733.0362824565
 21
1026.6022857836
 31
0.0
  0
LINE
  5
124
330
1F
100
AcDbEntity
  8
SLD-0_0
  6
SLD-Solid
 62
   179
370
    15
100
AcDbLine
 10
742.2473213786
 20
1026.6173327831
 30
0.0
 11
740.3447345746
 21
1043.3161228485
 31
0.0
  0
LINE
  5
125
330
1F
100
AcDbEntity
  8
SLD-0_0
  6
SLD-Solid
 62
   179
370
    15
100
AcDbLine
 10
356.9277273609
 20
1045.0897164209
 30
0.0
 11
358.3575908633
 21
1045.0897164209
 31
0.0
  0
LINE
  5
126
330
1F
100
AcDbEntity
  8
SLD-0_0
  6
SLD-Solid
 62
   179
370
    15
100
AcDbLine
 10
456.9277273609
 20
1045.0897164209
 30
0.0
 11
458.3575908633
 21
1045.0897164209
 31
0.0
  0
LINE
  5
127
330
1F
100
AcDbEntity
  8
SLD-0_0
  6
SLD-Solid
 62
   179
370
    15
100
AcDbLine
 10
638.3575908633
 20
1045.0897164209
 30
0.0
 11
636.9277273609
 21
1045.0897164209
 31
0.0
  0
LINE
  5
128
330
1F
100
AcDbEntity
  8
SLD-0_0
  6
SLD-Solid
 62
   179
370
    15
100
AcDbLine
 10
738.3575908633
 20
1045.0897164209
 30
0.0
 11
736.9277273609
 21
1045.0897164209
 31
0.0
  0
LINE
  5
129
330
1F
100
AcDbEntity
  8
SLD-0_0
  6
SLD-Solid
 62
   179
370
    15
100
AcDbLine
 10
305.0842379587
 20
1045.0897164209
 30
0.0
 11
304.07317178
 21
1045.0897164209
 31
0.0
  0
LINE
  5
12A
330
1F
100
AcDbEntity
  8
SLD-0_0
  6
SLD-Solid
 62
   179
370
    15
100
AcDbLine
 10
790.2010802655
 20
1045.0897164209
 30
0.0
 11
791.2121464442
 21
1045.0897164209
 31
0.0
  0
LINE
  5
12B
330
1F
100
AcDbEntity
  8
SLD-0_0
  6
SLD-Solid
 62
   179
370
    15
100
AcDbLine
 10
509.1404200937
 20
1045.0897164209
 30
0.0
 11
510.1514862724
 21
1045.0897164209
 31
0.0
  0
LINE
  5
12C
330
1F
100
AcDbEntity
  8
SLD-0_0
  6
SLD-Solid
 62
   179
370
    15
100
AcDbLine
 10
586.1448981305
 20
1045.0897164209
 30
0.0
 11
585.1338319517
 21
1045.0897164209
 31
0.0
  0
LINE
  5
12D
330
1F
100
AcDbEntity
  8
SLD-0_0
  6
SLD-Solid
 62
   179
370
    15
100
AcDbLine
 10
305.0842379587
 20
1045.0897164209
 30
0.0
 11
335.5229878363
 21
1045.0897164209
 31
0.0
  0
LINE
  5
12E
330
1F
100
AcDbEntity
  8
SLD-0_0
  6
SLD-Solid
 62
   179
370
    15
100
AcDbLine
 10
790.2010802655
 20
1045.0897164209
 30
0.0
 11
759.7623303879
 21
1045.0897164209
 31
0.0
  0
LINE
  5
12F
330
1F
100
AcDbEntity
  8
SLD-0_0
  6
SLD-Solid
 62
   179
370
    15
100
AcDbLine
 10
479.1436921153
 20
1045.0897164209
 30
0.0
 11
509.1404200937
 21
1045.0897164209
 31
0.0
  0
LINE
  5
130
330
1F
100
AcDbEntity
  8
SLD-0_0
  6
SLD-Solid
 62
   179
370
    15
100
AcDbLine
 10
616.1416261089
 20
1045.0897164209
 30
0.0
 11
586.1448981305
 21
1045.0897164209
 31
0.0
  0
LINE
  5
131
330
1F
100
AcDbEntity
  8
SLD-0_0
  6
SLD-Solid
 62
   179
370
    15
100
AcDbLine
 10
278.9623514097
 20
1025.5590240906
 30
0.0
 11
287.114782193
 21
1043.901993353
 31
0.0
  0
LINE
  5
132
330
1F
100
AcDbEntity
  8
SLD-0_0
  6
SLD-Solid
 62
   179
370
    15
100
AcDbLine
 10
816.3229668144
 20
1025.5590240906
 30
0.0
 11
808.1705360312
 21
1043.901993353
 31
0.0
  0
LINE
  5
133
330
1F
100
AcDbEntity
  8
SLD-0_0
  6
SLD-Solid
 62
   179
370
    15
100
AcDbLine
 10
288.9424052903
 20
1045.0897164209
 30
0.0
 11
289.584331072
 21
1045.0897164209
 31
0.0
  0
LINE
  5
134
330
1F
100
AcDbEntity
  8
SLD-0_0
  6
SLD-Solid
 62
   179
370
    15
100
AcDbLine
 10
806.3429129339
 20
1045.0897164209
 30
0.0
 11
805.7009871521
 21
1045.0897164209
 31
0.0
  0
LINE
  5
135
330
1F
100
AcDbEntity
  8
SLD-0_0
  6
SLD-Solid
 62
   179
370
    15
100
AcDbLine
 10
523.6579272407
 20
1043.670841563
 30
0.0
 11
523.6558004966
 21
1043.6827120283
 31
0.0
  0
LINE
  5
136
330
1F
100
AcDbEntity
  8
SLD-0_0
  6
SLD-Solid
 62
   179
370
    15
100
AcDbLine
 10
525.2511909653
 20
1045.0897164209
 30
0.0
 11
525.6028621695
 21
1045.0897164209
 31
0.0
  0
LINE
  5
137
330
1F
100
AcDbEntity
  8
SLD-0_0
  6
SLD-Solid
 62
   179
370
    15
100
AcDbLine
 10
570.0341272589
 20
1045.0897164209
 30
0.0
 11
569.6824560546
 21
1045.0897164209
 31
0.0
  0
LINE
  5
138
330
1F
100
AcDbEntity
  8
SLD-0_0
  6
SLD-Solid
 62
   179
370
    15
100
AcDbLine
 10
571.6273909835
 20
1043.670841563
 30
0.0
 11
571.6295187467
 21
1043.6827034195
 31
0.0
  0
LINE
  5
139
330
1F
100
AcDbEntity
  8
SLD-0_0
  6
SLD-Solid
 62
   179
370
    15
100
AcDbLine
 10
527.0649606473
 20
1044.1395379666
 30
0.0
 11
527.0779799919
 21
1044.1102444414
 31
0.0
  0
LINE
  5
13A
330
1F
100
AcDbEntity
  8
SLD-0_0
  6
SLD-Solid
 62
   179
370
    15
100
AcDbLine
 10
568.2203575768
 20
1044.1395379666
 30
0.0
 11
568.2073382323
 21
1044.1102444414
 31
0.0
  0
LINE
  5
13B
330
1F
100
AcDbEntity
  8
SLD-0_0
  6
SLD-Solid
 62
   179
370
    15
100
AcDbLine
 10
335.5229878363
 20
1045.0897164209
 30
0.0
 11
356.9277273609
 21
1045.0897164209
 31
0.0
  0
LINE
  5
13C
330
1F
100
AcDbEntity
  8
SLD-0_0
  6
SLD-Solid
 62
   179
370
    15
100
AcDbLine
 10
358.3575908633
 20
1045.0897164209
 30
0.0
 11
364.9351101288
 21
1045.0897164209
 31
0.0
  0
LINE
  5
13D
330
1F
100
AcDbEntity
  8
SLD-0_0
  6
SLD-Solid
 62
   179
370
    15
100
AcDbLine
 10
450.3502080954
 20
1045.0897164209
 30
0.0
 11
456.9277273609
 21
1045.0897164209
 31
0.0
  0
LINE
  5
13E
330
1F
100
AcDbEntity
  8
SLD-0_0
  6
SLD-Solid
 62
   179
370
    15
100
AcDbLine
 10
458.3575908633
 20
1045.0897164209
 30
0.0
 11
479.1436921153
 21
1045.0897164209
 31
0.0
  0
LINE
  5
13F
330
1F
100
AcDbEntity
  8
SLD-0_0
  6
SLD-Solid
 62
   179
370
    15
100
AcDbLine
 10
644.9351101288
 20
1045.0897164209
 30
0.0
 11
638.3575908633
 21
1045.0897164209
 31
0.0
  0
LINE
  5
140
330
1F
100
AcDbEntity
  8
SLD-0_0
  6
SLD-Solid
 62
   179
370
    15
100
AcDbLine
 10
636.9277273609
 20
1045.0897164209
 30
0.0
 11
616.1416261089
 21
1045.0897164209
 31
0.0
  0
LINE
  5
141
330
1F
100
AcDbEntity
  8
SLD-0_0
  6
SLD-Solid
 62
   179
370
    15
100
AcDbLine
 10
759.7623303879
 20
1045.0897164209
 30
0.0
 11
738.3575908633
 21
1045.0897164209
 31
0.0
  0
LINE
  5
142
330
1F
100
AcDbEntity
  8
SLD-0_0
  6
SLD-Solid
 62
   179
370
    15
100
AcDbLine
 10
736.9277273609
 20
1045.0897164209
 30
0.0
 11
730.3502080954
 21
1045.0897164209
 31
0.0
  0
LINE
  5
143
330
1F
100
AcDbEntity
  8
SLD-0_0
  6
SLD-Solid
 62
   179
370
    15
100
AcDbLine
 10
452.977359293
 20
1026.0851238151
 30
0.0
 11
453.0855214743
 21
1027.0344510961
 31
0.0
  0
LINE
  5
144
330
1F
100
AcDbEntity
  8
SLD-0_0
  6
SLD-Solid
 62
   179
370
    15
100
AcDbLine
 10
642.2563766233
 20
1026.5378559206
 30
0.0
 11
642.1997967499
 21
1027.0344510961
 31
0.0
  0
LINE
  5
145
330
1F
100
AcDbEntity
  8
SLD-0_0
  6
SLD-Solid
 62
   179
370
    15
100
AcDbLine
 10
683.0279997572
 20
1026.5295894647
 30
0.0
 11
683.015590526
 21
1026.4300293597
 31
0.0
  0
LINE
  5
146
330
1F
100
AcDbEntity
  8
SLD-0_0
  6
SLD-Solid
 62
   179
370
    15
100
AcDbLine
 10
353.0379968455
 20
1026.6173327831
 30
0.0
 11
352.856594134
 21
1025.7492168589
 31
0.0
  0
LINE
  5
147
330
1F
100
AcDbEntity
  8
SLD-0_0
  6
SLD-Solid
 62
   179
370
    15
100
AcDbLine
 10
892.4426591121
 20
843.8930402023
 30
0.0
 11
892.4426591121
 21
962.5807147295
 31
0.0
  0
LINE
  5
148
330
1F
100
AcDbEntity
  8
SLD-0_0
  6
SLD-Solid
 62
   179
370
    15
100
AcDbLine
 10
892.4426591121
 20
842.8930402023
 30
0.0
 11
892.4426591121
 21
842.0930402023
 31
0.0
  0
LINE
  5
149
330
1F
100
AcDbEntity
  8
SLD-0_0
  6
SLD-Solid
 62
   179
370
    15
100
AcDbLine
 10
892.4426591121
 20
842.0930402023
 30
0.0
 11
953.0867284129
 21
842.0930402023
 31
0.0
  0
LINE
  5
14A
330
1F
100
AcDbEntity
  8
SLD-0_0
  6
SLD-Solid
 62
   179
370
    15
100
AcDbLine
 10
892.4426591121
 20
842.8930402023
 30
0.0
 11
953.0867284129
 21
842.8930402023
 31
0.0
  0
LINE
  5
14B
330
1F
100
AcDbEntity
  8
SLD-0_0
  6
SLD-Solid
 62
   179
370
    15
100
AcDbLine
 10
936.1947575269
 20
887.8550516682
 30
0.0
 11
911.8706405733
 21
962.7169859724
 31
0.0
  0
LINE
  5
14C
330
1F
100
AcDbEntity
  8
SLD-0_0
  6
SLD-Solid
 62
   179
370
    15
100
AcDbLine
 10
936.9556027399
 20
888.1022652637
 30
0.0
 11
912.6314857864
 21
962.9641995679
 31
0.0
  0
LINE
  5
14D
330
1F
100
AcDbEntity
  8
SLD-0_0
  6
SLD-Solid
 62
   179
370
    15
100
AcDbLine
 10
892.4426591121
 20
964.3807147295
 30
0.0
 11
910.6818199279
 21
964.3807147295
 31
0.0
  0
LINE
  5
14E
330
1F
100
AcDbEntity
  8
SLD-0_0
  6
SLD-Solid
 62
   179
370
    15
100
AcDbLine
 10
892.4426591121
 20
963.5807147295
 30
0.0
 11
910.6818199279
 21
963.5807147295
 31
0.0
  0
LINE
  5
14F
330
1F
100
AcDbEntity
  8
SLD-0_0
  6
SLD-Solid
 62
   179
370
    15
100
AcDbLine
 10
892.4426591121
 20
964.3807147295
 30
0.0
 11
892.4426591121
 21
963.5807147295
 31
0.0
  0
LINE
  5
150
330
1F
100
AcDbEntity
  8
SLD-0_0
  6
SLD-Solid
 62
   179
370
    15
100
AcDbLine
 10
962.49635923
 20
874.71614499
 30
0.0
 11
943.0459664696
 21
881.7955089995
 31
0.0
  0
LINE
  5
151
330
1F
100
AcDbEntity
  8
SLD-0_0
  6
SLD-Solid
 62
   179
370
    15
100
AcDbLine
 10
962.2227431153
 20
873.9643908934
 30
0.0
 11
942.772350355
 21
881.0437549029
 31
0.0
  0
LINE
  5
152
330
1F
100
AcDbEntity
  8
SLD-0_0
  6
SLD-Solid
 62
   179
370
    15
100
AcDbLine
 10
954.0442839668
 20
843.3395556902
 30
0.0
 11
966.4629861133
 21
858.1395885887
 31
0.0
  0
LINE
  5
153
330
1F
100
AcDbEntity
  8
SLD-0_0
  6
SLD-Solid
 62
   179
370
    15
100
AcDbLine
 10
954.6571195213
 20
842.8253256025
 30
0.0
 11
967.0758216677
 21
857.6253585009
 31
0.0
  0
LINE
  5
154
330
1F
100
AcDbEntity
  8
SLD-0_0
  6
SLD-Solid
 62
   179
370
    15
100
AcDbLine
 10
912.2351179988
 20
964.1840941824
 30
0.0
 11
912.6314857864
 21
962.9641995679
 31
0.0
  0
LINE
  5
155
330
1F
100
AcDbEntity
  8
SLD-0_0
  6
SLD-Solid
 62
   179
370
    15
100
AcDbLine
 10
911.6868125399
 20
965.6588932835
 30
0.0
 11
911.551170456
 21
965.4041755437
 31
0.0
  0
LINE
  5
156
330
1F
100
AcDbEntity
  8
SLD-0_0
  6
SLD-Solid
 62
   179
370
    15
100
AcDbLine
 10
911.551170456
 20
965.4041755437
 30
0.0
 11
911.4368125399
 21
965.0741807148
 31
0.0
  0
LINE
  5
157
330
1F
100
AcDbEntity
  8
SLD-0_0
  6
SLD-Solid
 62
   179
370
    15
100
AcDbLine
 10
925.4829397271
 20
971.5971463418
 30
0.0
 11
925.5236149402
 21
971.5057883174
 31
0.0
  0
LINE
  5
158
330
1F
100
AcDbEntity
  8
SLD-0_0
  6
SLD-Solid
 62
   179
370
    15
100
AcDbLine
 10
808.3526591121
 20
996.8397164205
 30
0.0
 11
808.3526591121
 21
984.1397164205
 31
0.0
  0
LINE
  5
159
330
1F
100
AcDbEntity
  8
SLD-0_0
  6
SLD-Solid
 62
   179
370
    15
100
AcDbLine
 10
831.3926591121
 20
998.0797164205
 30
0.0
 11
809.5926591121
 21
998.0797164205
 31
0.0
  0
LINE
  5
15A
330
1F
100
AcDbEntity
  8
SLD-0_0
  6
SLD-Solid
 62
   179
370
    15
100
AcDbLine
 10
833.8526591121
 20
1016.7897164205
 30
0.0
 11
833.8526591121
 21
1000.5397164205
 31
0.0
  0
LINE
  5
15B
330
1F
100
AcDbEntity
  8
SLD-0_0
  6
SLD-Solid
 62
   179
370
    15
100
AcDbLine
 10
835.0926591121
 20
1016.7897164205
 30
0.0
 11
833.8526591121
 21
1016.7897164205
 31
0.0
  0
LINE
  5
15C
330
1F
100
AcDbEntity
  8
SLD-0_0
  6
SLD-Solid
 62
   179
370
    15
100
AcDbLine
 10
835.0926591121
 20
1016.8397164205
 30
0.0
 11
835.0926591121
 21
1016.7897164205
 31
0.0
  0
LINE
  5
15D
330
1F
100
AcDbEntity
  8
SLD-0_0
  6
SLD-Solid
 62
   179
370
    15
100
AcDbLine
 10
926.4094676106
 20
1016.7897164205
 30
0.0
 11
926.4094676106
 21
1016.8397164205
 31
0.0
  0
LINE
  5
15E
330
1F
100
AcDbEntity
  8
SLD-0_0
  6
SLD-Solid
 62
   179
370
    15
100
AcDbLine
 10
926.9094676106
 20
1016.7897164205
 30
0.0
 11
926.4094676106
 21
1016.7897164205
 31
0.0
  0
LINE
  5
15F
330
1F
100
AcDbEntity
  8
SLD-0_0
  6
SLD-Solid
 62
   179
370
    15
100
AcDbLine
 10
926.9094676106
 20
1017.9840338684
 30
0.0
 11
926.9094676106
 21
1016.7897164205
 31
0.0
  0
LINE
  5
160
330
1F
100
AcDbEntity
  8
SLD-0_0
  6
SLD-Solid
 62
   179
370
    15
100
AcDbLine
 10
911.6868125399
 20
965.5984195142
 30
0.0
 11
935.181947127
 21
975.814394784
 31
0.0
  0
LINE
  5
161
330
1F
100
AcDbEntity
  8
SLD-0_0
  6
SLD-Solid
 62
   179
370
    15
100
AcDbLine
 10
911.6868125399
 20
965.5984195142
 30
0.0
 11
911.6868125399
 21
966.7397164205
 31
0.0
  0
LINE
  5
162
330
1F
100
AcDbEntity
  8
SLD-0_0
  6
SLD-Solid
 62
   179
370
    15
100
AcDbLine
 10
891.2426591121
 20
984.1897164205
 30
0.0
 11
891.2426591121
 21
966.7397164205
 31
0.0
  0
LINE
  5
163
330
1F
100
AcDbEntity
  8
SLD-0_0
  6
SLD-Solid
 62
   179
370
    15
100
AcDbLine
 10
891.2322235045
 20
984.1897164205
 30
0.0
 11
891.2426591121
 21
984.1897164205
 31
0.0
  0
LINE
  5
164
330
1F
100
AcDbEntity
  8
SLD-0_0
  6
SLD-Solid
 62
   179
370
    15
100
AcDbLine
 10
890.9926591121
 20
984.1897164205
 30
0.0
 11
891.0030947197
 21
984.1897164205
 31
0.0
  0
LINE
  5
165
330
1F
100
AcDbEntity
  8
SLD-0_0
  6
SLD-Solid
 62
   179
370
    15
100
AcDbLine
 10
890.9926591121
 20
984.1397164205
 30
0.0
 11
890.9926591121
 21
984.1897164205
 31
0.0
  0
LINE
  5
166
330
1F
100
AcDbEntity
  8
SLD-0_0
  6
SLD-Solid
 62
   179
370
    15
100
AcDbLine
 10
890.9926591121
 20
984.1397164205
 30
0.0
 11
890.9926591121
 21
981.6897164205
 31
0.0
  0
LINE
  5
167
330
1F
100
AcDbEntity
  8
SLD-0_0
  6
SLD-Solid
 62
   179
370
    15
100
AcDbLine
 10
890.9926591121
 20
981.6897164205
 30
0.0
 11
808.3526591121
 21
981.6897164205
 31
0.0
  0
LINE
  5
168
330
1F
100
AcDbEntity
  8
SLD-0_0
  6
SLD-Solid
 62
   179
370
    15
100
AcDbLine
 10
808.3526591121
 20
981.6897164205
 30
0.0
 11
808.3526591121
 21
984.1397164205
 31
0.0
  0
LINE
  5
169
330
1F
100
AcDbEntity
  8
SLD-0_0
  6
SLD-Solid
 62
   179
370
    15
100
AcDbLine
 10
926.4094676106
 20
1019.2897164205
 30
0.0
 11
926.4094676106
 21
1016.8397164205
 31
0.0
  0
LINE
  5
16A
330
1F
100
AcDbEntity
  8
SLD-0_0
  6
SLD-Solid
 62
   179
370
    15
100
AcDbLine
 10
835.0926591121
 20
1016.8397164205
 30
0.0
 11
835.0926591121
 21
1019.2897164205
 31
0.0
  0
LINE
  5
16B
330
1F
100
AcDbEntity
  8
SLD-0_0
  6
SLD-Solid
 62
   179
370
    15
100
AcDbLine
 10
835.0926591121
 20
1019.2897164205
 30
0.0
 11
926.4094676106
 21
1019.2897164205
 31
0.0
  0
LINE
  5
16C
330
1F
100
AcDbEntity
  8
SLD-0_0
  6
SLD-Solid
 62
   179
370
    15
100
AcDbLine
 10
911.4368125399
 20
966.7397164205
 30
0.0
 11
911.4368125399
 21
964.2897164205
 31
0.0
  0
LINE
  5
16D
330
1F
100
AcDbEntity
  8
SLD-0_0
  6
SLD-Solid
 62
   179
370
    15
100
AcDbLine
 10
911.2858169268
 20
964.2897164205
 30
0.0
 11
911.4368125399
 21
964.2897164205
 31
0.0
  0
LINE
  5
16E
330
1F
100
AcDbEntity
  8
SLD-0_0
  6
SLD-Solid
 62
   179
370
    15
100
AcDbLine
 10
891.2426591121
 20
965.8069145395
 30
0.0
 11
891.2426591121
 21
966.7397164205
 31
0.0
  0
LINE
  5
16F
330
1F
100
AcDbEntity
  8
SLD-0_0
  6
SLD-Solid
 62
   179
370
    15
100
AcDbLine
 10
831.3926591121
 20
998.0897164205
 30
0.0
 11
809.5926591121
 21
998.0897164205
 31
0.0
  0
LINE
  5
170
330
1F
100
AcDbEntity
  8
SLD-0_0
  6
SLD-Solid
 62
   179
370
    15
100
AcDbLine
 10
831.3926591121
 20
999.2897164205
 30
0.0
 11
826.5428136076
 21
999.2897164205
 31
0.0
  0
LINE
  5
171
330
1F
100
AcDbEntity
  8
SLD-0_0
  6
SLD-Solid
 62
   179
370
    15
100
AcDbLine
 10
807.1426591121
 20
996.8397164205
 30
0.0
 11
807.1426591121
 21
990.2897164205
 31
0.0
  0
LINE
  5
172
330
1F
100
AcDbEntity
  8
SLD-0_0
  6
SLD-Solid
 62
   179
370
    15
100
AcDbLine
 10
808.3426591121
 20
996.8397164205
 30
0.0
 11
808.3426591121
 21
990.2897164205
 31
0.0
  0
LINE
  5
173
330
1F
100
AcDbEntity
  8
SLD-0_0
  6
SLD-Solid
 62
   179
370
    15
100
AcDbLine
 10
833.8426591121
 20
1016.8397164205
 30
0.0
 11
833.8426591121
 21
1000.5397164205
 31
0.0
  0
LINE
  5
174
330
1F
100
AcDbEntity
  8
SLD-0_0
  6
SLD-Solid
 62
   179
370
    15
100
AcDbLine
 10
832.6426591121
 20
1016.8397164205
 30
0.0
 11
832.6426591121
 21
1000.5397164205
 31
0.0
  0
LINE
  5
175
330
1F
100
AcDbEntity
  8
SLD-0_0
  6
SLD-Solid
 62
   179
370
    15
100
AcDbLine
 10
833.8426591121
 20
1016.8397164205
 30
0.0
 11
832.6426591121
 21
1016.8397164205
 31
0.0
  0
LINE
  5
176
330
1F
100
AcDbEntity
  8
SLD-0_0
  6
SLD-Solid
 62
   179
370
    15
100
AcDbLine
 10
808.3426591121
 20
989.2897164205
 30
0.0
 11
807.1426591121
 21
989.2897164205
 31
0.0
  0
LINE
  5
177
330
1F
100
AcDbEntity
  8
SLD-0_0
  6
SLD-Solid
 62
   179
370
    15
100
AcDbLine
 10
807.1426591121
 20
989.2897164205
 30
0.0
 11
807.1426591121
 21
990.2897164205
 31
0.0
  0
LINE
  5
178
330
1F
100
AcDbEntity
  8
SLD-0_0
  6
SLD-Solid
 62
   179
370
    15
100
AcDbLine
 10
808.3426591121
 20
990.2897164205
 30
0.0
 11
808.3426591121
 21
989.2897164205
 31
0.0
  0
LINE
  5
179
330
1F
100
AcDbEntity
  8
SLD-0_0
  6
SLD-Solid
 62
   179
370
    15
100
AcDbLine
 10
913.4462782379
 20
964.9458835378
 30
0.0
 11
935.7003209165
 21
974.6222166873
 31
0.0
  0
LINE
  5
17A
330
1F
100
AcDbEntity
  8
SLD-0_0
  6
SLD-Solid
 62
   179
370
    15
100
AcDbLine
 10
912.9677793552
 20
966.046355627
 30
0.0
 11
935.2218220338
 21
975.7226887766
 31
0.0
  0
LINE
  5
17B
330
1F
100
AcDbEntity
  8
SLD-0_0
  6
SLD-Solid
 62
   179
370
    15
100
AcDbLine
 10
913.4462782379
 20
964.9458835378
 30
0.0
 11
912.5292181635
 21
964.5471344688
 31
0.0
  0
LINE
  5
17C
330
1F
100
AcDbEntity
  8
SLD-0_0
  6
SLD-Solid
 62
   179
370
    15
100
AcDbLine
 10
912.5292181635
 20
964.5471344688
 30
0.0
 11
912.0507192808
 21
965.6476065581
 31
0.0
  0
LINE
  5
17D
330
1F
100
AcDbEntity
  8
SLD-0_0
  6
SLD-Solid
 62
   179
370
    15
100
AcDbLine
 10
912.0507192808
 20
965.6476065581
 30
0.0
 11
912.9677793552
 21
966.046355627
 31
0.0
  0
LINE
  5
17E
330
1F
100
AcDbEntity
  8
SLD-0_0
  6
SLD-Solid
 62
   179
370
    15
100
AcDbLine
 10
926.9094676106
 20
1018.0840595879
 30
0.0
 11
926.9094676106
 21
1019.2843509959
 31
0.0
  0
LINE
  5
17F
330
1F
100
AcDbEntity
  8
SLD-0_0
  6
SLD-Solid
 62
   179
370
    15
100
AcDbLine
 10
812.7917386013
 20
1000.5383991227
 30
0.0
 11
812.7409185952
 21
1000.5383991227
 31
0.0
  0
LINE
  5
180
330
1F
100
AcDbEntity
  8
SLD-0_0
  6
SLD-Solid
 62
   179
370
    15
100
AcDbLine
 10
824.5443996284
 20
1000.5383991227
 30
0.0
 11
819.7805716386
 21
1000.5383991227
 31
0.0
  0
LINE
  5
181
330
1F
100
AcDbEntity
  8
SLD-0_0
  6
SLD-Solid
 62
   179
370
    15
100
AcDbLine
 10
816.7742011133
 20
1000.5383991227
 30
0.0
 11
812.7917386013
 21
1000.5383991227
 31
0.0
  0
LINE
  5
182
330
1F
100
AcDbEntity
  8
SLD-0_0
  6
SLD-Solid
 62
   179
370
    15
100
AcDbLine
 10
813.659433062
 20
1001.0897164219
 30
0.0
 11
813.4826506237
 21
1001.0897164219
 31
0.0
  0
LINE
  5
183
330
1F
100
AcDbEntity
  8
SLD-0_0
  6
SLD-Solid
 62
   179
370
    15
100
AcDbLine
 10
270.7917386016
 20
1000.5383991219
 30
0.0
 11
270.7409185955
 21
1000.5383991219
 31
0.0
  0
LINE
  5
184
330
1F
100
AcDbEntity
  8
SLD-0_0
  6
SLD-Solid
 62
   179
370
    15
100
AcDbLine
 10
282.5443996287
 20
1000.5383991219
 30
0.0
 11
278.5111171104
 21
1000.5383991219
 31
0.0
  0
LINE
  5
185
330
1F
100
AcDbEntity
  8
SLD-0_0
  6
SLD-Solid
 62
   179
370
    15
100
AcDbLine
 10
275.5047465861
 20
1000.5383991219
 30
0.0
 11
270.7917386016
 21
1000.5383991219
 31
0.0
  0
LINE
  5
186
330
1F
100
AcDbEntity
  8
SLD-0_0
  6
SLD-Solid
 62
   179
370
    15
100
AcDbLine
 10
281.0113179685
 20
1001.4710259303
 30
0.0
 11
278.7922310538
 21
1002.3651931964
 31
0.0
  0
LINE
  5
187
330
1F
100
AcDbEntity
  8
SLD-0_0
  6
SLD-Solid
 62
   179
370
    15
100
AcDbLine
 10
271.6594330623
 20
1001.0897164211
 30
0.0
 11
271.4826506241
 21
1001.0897164211
 31
0.0
  0
LINE
  5
188
330
1F
100
AcDbEntity
  8
SLD-0_0
  6
SLD-Solid
 62
   179
370
    15
100
AcDbLine
 10
459.1280923696
 20
1004.0008274205
 30
0.0
 11
356.1572258546
 21
1004.0008274205
 31
0.0
  0
LINE
  5
189
330
1F
100
AcDbEntity
  8
SLD-0_0
  6
SLD-Solid
 62
   179
370
    15
100
AcDbLine
 10
739.1280923647
 20
1004.0008274205
 30
0.0
 11
636.1572258497
 21
1004.0008274205
 31
0.0
  0
LINE
  5
18A
330
1F
100
AcDbEntity
  8
SLD-0_0
  6
SLD-Solid
 62
   179
370
    15
100
AcDbLine
 10
286.6426591121
 20
981.5897164205
 30
0.0
 11
286.6426591121
 21
982.1357772181
 31
0.0
  0
LINE
  5
18B
330
1F
100
AcDbEntity
  8
SLD-0_0
  6
SLD-Solid
 62
   179
370
    15
100
AcDbLine
 10
808.6426591121
 20
981.6897164205
 30
0.0
 11
808.6426591121
 21
981.5897164205
 31
0.0
  0
LINE
  5
18C
330
1F
100
AcDbEntity
  8
SLD-0_0
  6
SLD-Solid
 62
   179
370
    15
100
AcDbLine
 10
268.7425046164
 20
1000.0897164209
 30
0.0
 11
289.7425046164
 21
1000.0897164209
 31
0.0
  0
LINE
  5
18D
330
1F
100
AcDbEntity
  8
SLD-0_0
  6
SLD-Solid
 62
   179
370
    15
100
AcDbLine
 10
289.7425046164
 20
999.2897164209
 30
0.0
 11
289.7425046164
 21
1000.0897164209
 31
0.0
  0
LINE
  5
18E
330
1F
100
AcDbEntity
  8
SLD-0_0
  6
SLD-Solid
 62
   179
370
    15
100
AcDbLine
 10
268.7425046164
 20
999.2897164209
 30
0.0
 11
289.7425046164
 21
999.2897164209
 31
0.0
  0
LINE
  5
18F
330
1F
100
AcDbEntity
  8
SLD-0_0
  6
SLD-Solid
 62
   179
370
    15
100
AcDbLine
 10
264.4740391554
 20
1007.4788873873
 30
0.0
 11
265.237012716
 21
1007.7194520269
 31
0.0
  0
LINE
  5
190
330
1F
100
AcDbEntity
  8
SLD-0_0
  6
SLD-Solid
 62
   179
370
    15
100
AcDbLine
 10
265.9775681529
 20
1002.7103026336
 30
0.0
 11
264.4740391554
 21
1007.4788873873
 31
0.0
  0
LINE
  5
191
330
1F
100
AcDbEntity
  8
SLD-0_0
  6
SLD-Solid
 62
   179
370
    15
100
AcDbLine
 10
265.237012716
 20
1007.7194520269
 30
0.0
 11
266.7405417135
 21
1002.9508672732
 31
0.0
  0
LINE
  5
192
330
1F
100
AcDbEntity
  8
SLD-0_0
  6
SLD-Solid
 62
   179
370
    15
100
AcDbLine
 10
266.5489556297
 20
1000.898093082
 30
0.0
 11
265.9775681529
 21
1002.7103026336
 31
0.0
  0
LINE
  5
193
330
1F
100
AcDbEntity
  8
SLD-0_0
  6
SLD-Solid
 62
   179
370
    15
100
AcDbLine
 10
267.3119291903
 20
1001.1386577216
 30
0.0
 11
266.7405417135
 21
1002.9508672732
 31
0.0
  0
LINE
  5
194
330
1F
100
AcDbEntity
  8
SLD-0_0
  6
SLD-Solid
 62
   179
370
    15
100
AcDbLine
 10
805.1425046164
 20
997.7897164209
 30
0.0
 11
805.1425046164
 21
988.2897164209
 31
0.0
  0
LINE
  5
195
330
1F
100
AcDbEntity
  8
SLD-0_0
  6
SLD-Solid
 62
   179
370
    15
100
AcDbLine
 10
800.1425046164
 20
983.2897164209
 30
0.0
 11
295.1425046164
 21
983.2897164209
 31
0.0
  0
LINE
  5
196
330
1F
100
AcDbEntity
  8
SLD-0_0
  6
SLD-Solid
 62
   179
370
    15
100
AcDbLine
 10
290.1425046164
 20
988.2897164209
 30
0.0
 11
290.1425046164
 21
997.7897164209
 31
0.0
  0
LINE
  5
197
330
1F
100
AcDbEntity
  8
SLD-0_0
  6
SLD-Solid
 62
   179
370
    15
100
AcDbLine
 10
805.1425046164
 20
1000.0897164209
 30
0.0
 11
805.1425046164
 21
997.7897164209
 31
0.0
  0
LINE
  5
198
330
1F
100
AcDbEntity
  8
SLD-0_0
  6
SLD-Solid
 62
   179
370
    15
100
AcDbLine
 10
290.1425046164
 20
1000.0897164209
 30
0.0
 11
805.1425046164
 21
1000.0897164209
 31
0.0
  0
LINE
  5
199
330
1F
100
AcDbEntity
  8
SLD-0_0
  6
SLD-Solid
 62
   179
370
    15
100
AcDbLine
 10
290.1425046164
 20
997.7897164209
 30
0.0
 11
290.1425046164
 21
1000.0897164209
 31
0.0
  0
LINE
  5
19A
330
1F
100
AcDbEntity
  8
SLD-0_0
  6
SLD-Solid
 62
   179
370
    15
100
AcDbLine
 10
805.5425046164
 20
999.2897164209
 30
0.0
 11
805.5425046164
 21
1000.0897164209
 31
0.0
  0
LINE
  5
19B
330
1F
100
AcDbEntity
  8
SLD-0_0
  6
SLD-Solid
 62
   179
370
    15
100
AcDbLine
 10
805.5425046164
 20
1000.0897164209
 30
0.0
 11
826.5428136076
 21
1000.0897164209
 31
0.0
  0
LINE
  5
19C
330
1F
100
AcDbEntity
  8
SLD-0_0
  6
SLD-Solid
 62
   179
370
    15
100
AcDbLine
 10
805.5425046164
 20
999.2897164209
 30
0.0
 11
826.5428136076
 21
999.2897164205
 31
0.0
  0
LINE
  5
19D
330
1F
100
AcDbEntity
  8
SLD-0_0
  6
SLD-Solid
 62
   179
370
    15
100
AcDbLine
 10
828.5447765105
 20
1002.9508672732
 30
0.0
 11
830.0483055081
 21
1007.7194520269
 31
0.0
  0
LINE
  5
19E
330
1F
100
AcDbEntity
  8
SLD-0_0
  6
SLD-Solid
 62
   179
370
    15
100
AcDbLine
 10
830.0483055081
 20
1007.7194520269
 30
0.0
 11
830.8112790687
 21
1007.4788873873
 31
0.0
  0
LINE
  5
19F
330
1F
100
AcDbEntity
  8
SLD-0_0
  6
SLD-Solid
 62
   179
370
    15
100
AcDbLine
 10
830.8112790687
 20
1007.4788873873
 30
0.0
 11
829.3077500711
 21
1002.7103026336
 31
0.0
  0
LINE
  5
1A0
330
1F
100
AcDbEntity
  8
SLD-0_0
  6
SLD-Solid
 62
   179
370
    15
100
AcDbLine
 10
829.3077500711
 20
1002.7103026336
 30
0.0
 11
828.7363625944
 21
1000.8980930821
 31
0.0
  0
LINE
  5
1A1
330
1F
100
AcDbEntity
  8
SLD-0_0
  6
SLD-Solid
 62
   179
370
    15
100
AcDbLine
 10
828.5447765105
 20
1002.9508672732
 30
0.0
 11
827.9733890338
 21
1001.1386577217
 31
0.0
  0
LINE
  5
1A2
330
1F
100
AcDbEntity
  8
SLD-0_0
  6
SLD-Solid
 62
   179
370
    15
100
AcDbLine
 10
289.7425046164
 20
1000.0897164209
 30
0.0
 11
290.1425046164
 21
1000.0897164209
 31
0.0
  0
LINE
  5
1A3
330
1F
100
AcDbEntity
  8
SLD-0_0
  6
SLD-Solid
 62
   179
370
    15
100
AcDbLine
 10
289.7425046164
 20
999.2897164209
 30
0.0
 11
290.1425046164
 21
999.2897164209
 31
0.0
  0
LINE
  5
1A4
330
1F
100
AcDbEntity
  8
SLD-0_0
  6
SLD-Solid
 62
   179
370
    15
100
AcDbLine
 10
805.1425046164
 20
1000.0897164209
 30
0.0
 11
805.5425046164
 21
1000.0897164209
 31
0.0
  0
LINE
  5
1A5
330
1F
100
AcDbEntity
  8
SLD-0_0
  6
SLD-Solid
 62
   179
370
    15
100
AcDbLine
 10
805.1425046164
 20
999.2897164209
 30
0.0
 11
805.5425046164
 21
999.2897164209
 31
0.0
  0
LINE
  5
1A6
330
1F
100
AcDbEntity
  8
SLD-0_0
  6
SLD-Solid
 62
   179
370
    15
100
AcDbLine
 10
298.8065414099
 20
983.2897164209
 30
0.0
 11
299.2343734487
 21
982.7523619515
 31
0.0
  0
LINE
  5
1A7
330
1F
100
AcDbEntity
  8
SLD-0_0
  6
SLD-Solid
 62
   179
370
    15
100
AcDbLine
 10
299.2343734487
 20
982.7523619515
 30
0.0
 11
300.3378374623
 21
981.4897164205
 31
0.0
  0
LINE
  5
1A8
330
1F
100
AcDbEntity
  8
SLD-0_0
  6
SLD-Solid
 62
   179
370
    15
100
AcDbLine
 10
796.4787768141
 20
983.2897164209
 30
0.0
 11
796.0509447753
 21
982.7523619515
 31
0.0
  0
LINE
  5
1A9
330
1F
100
AcDbEntity
  8
SLD-0_0
  6
SLD-Solid
 62
   179
370
    15
100
AcDbLine
 10
796.0509447753
 20
982.7523619515
 30
0.0
 11
794.9474807618
 21
981.4897164205
 31
0.0
  0
LINE
  5
1AA
330
1F
100
AcDbEntity
  8
SLD-0_0
  6
SLD-Solid
 62
   179
370
    15
100
AcDbLine
 10
805.1428136076
 20
997.7897164209
 30
0.0
 11
805.1428136076
 21
998.9164572054
 31
0.0
  0
LINE
  5
1AB
330
1F
100
AcDbEntity
  8
SLD-0_0
  6
SLD-Solid
 62
   179
370
    15
100
AcDbLine
 10
805.1428136076
 20
988.2897164209
 30
0.0
 11
805.1428136076
 21
997.7897164209
 31
0.0
  0
LINE
  5
1AC
330
1F
100
AcDbEntity
  8
SLD-0_0
  6
SLD-Solid
 62
   179
370
    15
100
AcDbLine
 10
813.792659112
 20
981.6398651819
 30
0.0
 11
813.792659112
 21
981.6897164205
 31
0.0
  0
LINE
  5
1AD
330
1F
100
AcDbEntity
  8
SLD-0_0
  6
SLD-Solid
 62
   179
370
    15
100
AcDbLine
 10
809.842659112
 20
981.6398651819
 30
0.0
 11
809.842659112
 21
981.6897164205
 31
0.0
  0
LINE
  5
1AE
330
1F
100
AcDbEntity
  8
SLD-0_0
  6
SLD-Solid
 62
   179
370
    15
100
AcDbLine
 10
823.492659112
 20
981.6897164205
 30
0.0
 11
823.492659112
 21
981.6398651819
 31
0.0
  0
LINE
  5
1AF
330
1F
100
AcDbEntity
  8
SLD-0_0
  6
SLD-Solid
 62
   179
370
    15
100
AcDbLine
 10
827.442659112
 20
981.6398651819
 30
0.0
 11
827.442659112
 21
981.6897164205
 31
0.0
  0
LINE
  5
1B0
330
1F
100
AcDbEntity
  8
SLD-0_0
  6
SLD-Solid
 62
   179
370
    15
100
AcDbLine
 10
827.442659112
 20
981.5897164205
 30
0.0
 11
827.442659112
 21
981.6398651819
 31
0.0
  0
LINE
  5
1B1
330
1F
100
AcDbEntity
  8
SLD-0_0
  6
SLD-Solid
 62
   179
370
    15
100
AcDbLine
 10
823.492659112
 20
981.6398651819
 30
0.0
 11
823.492659112
 21
981.5897164205
 31
0.0
  0
LINE
  5
1B2
330
1F
100
AcDbEntity
  8
SLD-0_0
  6
SLD-Solid
 62
   179
370
    15
100
AcDbLine
 10
809.842659112
 20
981.5897164205
 30
0.0
 11
809.842659112
 21
981.6398651819
 31
0.0
  0
LINE
  5
1B3
330
1F
100
AcDbEntity
  8
SLD-0_0
  6
SLD-Solid
 62
   179
370
    15
100
AcDbLine
 10
813.792659112
 20
981.5897164205
 30
0.0
 11
813.792659112
 21
981.6398651819
 31
0.0
  0
LINE
  5
1B4
330
1F
100
AcDbEntity
  8
SLD-0_0
  6
SLD-Solid
 62
   179
370
    15
100
AcDbLine
 10
267.842659112
 20
982.0897164196
 30
0.0
 11
267.842659112
 21
982.0398651819
 31
0.0
  0
LINE
  5
1B5
330
1F
100
AcDbEntity
  8
SLD-0_0
  6
SLD-Solid
 62
   179
370
    15
100
AcDbLine
 10
285.442659112
 20
982.0897164196
 30
0.0
 11
285.442659112
 21
982.0398651819
 31
0.0
  0
LINE
  5
1B6
330
1F
100
AcDbEntity
  8
SLD-0_0
  6
SLD-Solid
 62
   179
370
    15
100
AcDbLine
 10
281.492659112
 20
982.0897164196
 30
0.0
 11
281.492659112
 21
982.0398651819
 31
0.0
  0
LINE
  5
1B7
330
1F
100
AcDbEntity
  8
SLD-0_0
  6
SLD-Solid
 62
   179
370
    15
100
AcDbLine
 10
271.792659112
 20
982.0398651819
 30
0.0
 11
271.792659112
 21
982.0897164196
 31
0.0
  0
LINE
  5
1B8
330
1F
100
AcDbEntity
  8
SLD-0_0
  6
SLD-Solid
 62
   179
370
    15
100
AcDbLine
 10
285.442659112
 20
982.0398651819
 30
0.0
 11
285.442659112
 21
981.5897164205
 31
0.0
  0
LINE
  5
1B9
330
1F
100
AcDbEntity
  8
SLD-0_0
  6
SLD-Solid
 62
   179
370
    15
100
AcDbLine
 10
281.492659112
 20
982.0398651819
 30
0.0
 11
281.492659112
 21
981.5897164205
 31
0.0
  0
LINE
  5
1BA
330
1F
100
AcDbEntity
  8
SLD-0_0
  6
SLD-Solid
 62
   179
370
    15
100
AcDbLine
 10
267.842659112
 20
982.0398651819
 30
0.0
 11
267.842659112
 21
981.5897164205
 31
0.0
  0
LINE
  5
1BB
330
1F
100
AcDbEntity
  8
SLD-0_0
  6
SLD-Solid
 62
   179
370
    15
100
AcDbLine
 10
271.792659112
 20
981.5897164205
 30
0.0
 11
271.792659112
 21
982.0398651819
 31
0.0
  0
LINE
  5
1BC
330
1F
100
AcDbEntity
  8
SLD-0_0
  6
SLD-Solid
 62
   179
370
    15
100
AcDbLine
 10
931.6062291245
 20
932.8882184408
 30
0.0
 11
931.7607376199
 21
932.4126901832
 31
0.0
  0
LINE
  5
1BD
330
1F
100
AcDbEntity
  8
SLD-0_0
  6
SLD-Solid
 62
   179
370
    15
100
AcDbLine
 10
937.0858495308
 20
954.8564966514
 30
0.0
 11
935.6024994533
 21
959.421778765
 31
0.0
  0
LINE
  5
1BE
330
1F
100
AcDbEntity
  8
SLD-0_0
  6
SLD-Solid
 62
   179
370
    15
100
AcDbLine
 10
953.2164681326
 20
905.2115573361
 30
0.0
 11
951.7331180551
 21
909.7768394497
 31
0.0
  0
LINE
  5
1BF
330
1F
100
AcDbEntity
  8
SLD-0_0
  6
SLD-Solid
 62
   179
370
    15
100
AcDbLine
 10
944.9419709472
 20
898.3171613272
 30
0.0
 11
924.8558663128
 21
960.1358348864
 31
0.0
  0
LINE
  5
1C0
330
1F
100
AcDbEntity
  8
SLD-0_0
  6
SLD-Solid
 62
   179
370
    15
100
AcDbLine
 10
937.6527038353
 20
953.1118984905
 30
0.0
 11
951.1662637506
 21
911.5214376106
 31
0.0
  0
LINE
  5
1C1
330
1F
100
AcDbEntity
  8
SLD-0_0
  6
SLD-Solid
 62
   179
370
    15
100
AcDbLine
 10
936.3319121998
 20
959.3410384554
 30
0.0
 11
955.3097722466
 21
957.2205004855
 31
0.0
  0
LINE
  5
1C2
330
1F
100
AcDbEntity
  8
SLD-0_0
  6
SLD-Solid
 62
   179
370
    15
100
AcDbLine
 10
955.3097722466
 20
957.2205004855
 30
0.0
 11
956.7796268861
 21
957.0585418642
 31
0.0
  0
LINE
  5
1C3
330
1F
100
AcDbEntity
  8
SLD-0_0
  6
SLD-Solid
 62
   179
370
    15
100
AcDbLine
 10
958.6199410689
 20
953.3027371866
 30
0.0
 11
968.2412871688
 21
923.6912786895
 31
0.0
  0
LINE
  5
1C4
330
1F
100
AcDbEntity
  8
SLD-0_0
  6
SLD-Solid
 62
   179
370
    15
100
AcDbLine
 10
968.2412871688
 20
923.6912786895
 30
0.0
 11
969.2566395674
 21
920.566345328
 31
0.0
  0
LINE
  5
1C5
330
1F
100
AcDbEntity
  8
SLD-0_0
  6
SLD-Solid
 62
   179
370
    15
100
AcDbLine
 10
957.623057262
 20
956.3708300675
 30
0.0
 11
958.6199410689
 21
953.3027371866
 31
0.0
  0
LINE
  5
1C6
330
1F
100
AcDbEntity
  8
SLD-0_0
  6
SLD-Solid
 62
   179
370
    15
100
AcDbLine
 10
932.6105343544
 20
929.7972847634
 30
0.0
 11
932.7322848664
 21
929.4225752172
 31
0.0
  0
LINE
  5
1C7
330
1F
100
AcDbEntity
  8
SLD-0_0
  6
SLD-Solid
 62
   179
370
    15
100
AcDbLine
 10
932.7322848664
 20
929.4225752172
 30
0.0
 11
933.2285683432
 21
927.8951717308
 31
0.0
  0
LINE
  5
1C8
330
1F
100
AcDbEntity
  8
SLD-0_0
  6
SLD-Solid
 62
   179
370
    15
100
AcDbLine
 10
933.2285683432
 20
927.8951717308
 30
0.0
 11
933.3830768404
 21
927.4196434727
 31
0.0
  0
LINE
  5
1C9
330
1F
100
AcDbEntity
  8
SLD-0_0
  6
SLD-Solid
 62
   179
370
    15
100
AcDbLine
 10
935.2959776978
 20
928.0044759554
 30
0.0
 11
933.3830768404
 21
927.4196434727
 31
0.0
  0
LINE
  5
1CA
330
1F
100
AcDbEntity
  8
SLD-0_0
  6
SLD-Solid
 62
   179
370
    15
100
AcDbLine
 10
936.2156532988
 20
925.1740054937
 30
0.0
 11
934.312398437
 21
924.559485694
 31
0.0
  0
LINE
  5
1CB
330
1F
100
AcDbEntity
  8
SLD-0_0
  6
SLD-Solid
 62
   179
370
    15
100
AcDbLine
 10
933.3830768404
 20
927.4196434727
 30
0.0
 11
934.312398437
 21
924.559485694
 31
0.0
  0
LINE
  5
1CC
330
1F
100
AcDbEntity
  8
SLD-0_0
  6
SLD-Solid
 62
   179
370
    15
100
AcDbLine
 10
934.6584580604
 20
923.4944236883
 30
0.0
 11
934.84222425
 21
922.9288495117
 31
0.0
  0
LINE
  5
1CD
330
1F
100
AcDbEntity
  8
SLD-0_0
  6
SLD-Solid
 62
   179
370
    15
100
AcDbLine
 10
934.312398437
 20
924.559485694
 30
0.0
 11
934.6584580604
 21
923.4944236883
 31
0.0
  0
LINE
  5
1CE
330
1F
100
AcDbEntity
  8
SLD-0_0
  6
SLD-Solid
 62
   179
370
    15
100
AcDbLine
 10
934.84222425
 20
922.9288495117
 30
0.0
 11
935.1679812343
 21
921.9262726041
 31
0.0
  0
LINE
  5
1CF
330
1F
100
AcDbEntity
  8
SLD-0_0
  6
SLD-Solid
 62
   179
370
    15
100
AcDbLine
 10
935.1679812343
 20
921.9262726041
 30
0.0
 11
935.1944756793
 21
921.844731087
 31
0.0
  0
LINE
  5
1D0
330
1F
100
AcDbEntity
  8
SLD-0_0
  6
SLD-Solid
 62
   179
370
    15
100
AcDbLine
 10
932.6105343544
 20
929.7972847634
 30
0.0
 11
931.7607376199
 21
932.4126901832
 31
0.0
  0
LINE
  5
1D1
330
1F
100
AcDbEntity
  8
SLD-0_0
  6
SLD-Solid
 62
   179
370
    15
100
AcDbLine
 10
934.3581388913
 20
930.8908470108
 30
0.0
 11
932.4560258573
 21
930.2728130216
 31
0.0
  0
LINE
  5
1D2
330
1F
100
AcDbEntity
  8
SLD-0_0
  6
SLD-Solid
 62
   179
370
    15
100
AcDbLine
 10
183.9426591107
 20
955.989716419
 30
0.0
 11
183.9426591107
 21
923.989716419
 31
0.0
  0
LINE
  5
1D3
330
1F
100
AcDbEntity
  8
SLD-0_0
  6
SLD-Solid
 62
   179
370
    15
100
AcDbLine
 10
286.3426591121
 20
982.0897164196
 30
0.0
 11
184.9426591121
 21
982.0897164196
 31
0.0
  0
LINE
  5
1D4
330
1F
100
AcDbEntity
  8
SLD-0_0
  6
SLD-Solid
 62
   179
370
    15
100
AcDbLine
 10
183.9426591121
 20
983.0897164196
 30
0.0
 11
183.9426591121
 21
1018.4897164196
 31
0.0
  0
LINE
  5
1D5
330
1F
100
AcDbEntity
  8
SLD-0_0
  6
SLD-Solid
 62
   179
370
    15
100
AcDbLine
 10
287.3426591121
 20
988.4897164196
 30
0.0
 11
287.3426591121
 21
983.0897164196
 31
0.0
  0
LINE
  5
1D6
330
1F
100
AcDbEntity
  8
SLD-0_0
  6
SLD-Solid
 62
   179
370
    15
100
AcDbLine
 10
183.1426591121
 20
1018.4897164196
 30
0.0
 11
183.9426591121
 21
1018.4897164196
 31
0.0
  0
LINE
  5
1D7
330
1F
100
AcDbEntity
  8
SLD-0_0
  6
SLD-Solid
 62
   179
370
    15
100
AcDbLine
 10
183.1426591121
 20
1018.4897164196
 30
0.0
 11
183.1426591121
 21
1067.2691715793
 31
0.0
  0
LINE
  5
1D8
330
1F
100
AcDbEntity
  8
SLD-0_0
  6
SLD-Solid
 62
   179
370
    15
100
AcDbLine
 10
183.9426591121
 20
1018.4897164196
 30
0.0
 11
183.9426591121
 21
1067.2691715793
 31
0.0
  0
LINE
  5
1D9
330
1F
100
AcDbEntity
  8
SLD-0_0
  6
SLD-Solid
 62
   179
370
    15
100
AcDbLine
 10
185.5161829185
 20
1068.4765788622
 30
0.0
 11
218.8131352397
 21
1059.5546873773
 31
0.0
  0
LINE
  5
1DA
330
1F
100
AcDbEntity
  8
SLD-0_0
  6
SLD-Solid
 62
   179
370
    15
100
AcDbLine
 10
185.7232381546
 20
1069.2493195232
 30
0.0
 11
219.0201904757
 21
1060.3274280383
 31
0.0
  0
LINE
  5
1DB
330
1F
100
AcDbEntity
  8
SLD-0_0
  6
SLD-Solid
 62
   179
370
    15
100
AcDbLine
 10
239.3926591121
 20
1019.2897164196
 30
0.0
 11
260.5926591121
 21
1019.2897164196
 31
0.0
  0
LINE
  5
1DC
330
1F
100
AcDbEntity
  8
SLD-0_0
  6
SLD-Solid
 62
   179
370
    15
100
AcDbLine
 10
239.3926591121
 20
1018.4897164196
 30
0.0
 11
260.5926591121
 21
1018.4897164196
 31
0.0
  0
LINE
  5
1DD
330
1F
100
AcDbEntity
  8
SLD-0_0
  6
SLD-Solid
 62
   179
370
    15
100
AcDbLine
 10
237.3426591121
 20
1035.4065417201
 30
0.0
 11
237.3426591121
 21
1020.5397164196
 31
0.0
  0
LINE
  5
1DE
330
1F
100
AcDbEntity
  8
SLD-0_0
  6
SLD-Solid
 62
   179
370
    15
100
AcDbLine
 10
238.1426591121
 20
1035.4065417201
 30
0.0
 11
238.1426591121
 21
1020.5397164196
 31
0.0
  0
LINE
  5
1DF
330
1F
100
AcDbEntity
  8
SLD-0_0
  6
SLD-Solid
 62
   179
370
    15
100
AcDbLine
 10
262.6426591121
 20
1017.2397164196
 30
0.0
 11
262.6426591121
 21
1000.5397164196
 31
0.0
  0
LINE
  5
1E0
330
1F
100
AcDbEntity
  8
SLD-0_0
  6
SLD-Solid
 62
   179
370
    15
100
AcDbLine
 10
261.8426591121
 20
1017.2397164196
 30
0.0
 11
261.8426591121
 21
1000.5397164196
 31
0.0
  0
LINE
  5
1E1
330
1F
100
AcDbEntity
  8
SLD-0_0
  6
SLD-Solid
 62
   179
370
    15
100
AcDbLine
 10
263.8926591121
 20
998.4897164196
 30
0.0
 11
286.0926591121
 21
998.4897164196
 31
0.0
  0
LINE
  5
1E2
330
1F
100
AcDbEntity
  8
SLD-0_0
  6
SLD-Solid
 62
   179
370
    15
100
AcDbLine
 10
263.8926591121
 20
999.2897164196
 30
0.0
 11
286.0926591121
 21
999.2897164196
 31
0.0
  0
LINE
  5
1E3
330
1F
100
AcDbEntity
  8
SLD-0_0
  6
SLD-Solid
 62
   179
370
    15
100
AcDbLine
 10
287.3426591121
 20
988.4897164196
 30
0.0
 11
288.1426591121
 21
988.4897164196
 31
0.0
  0
LINE
  5
1E4
330
1F
100
AcDbEntity
  8
SLD-0_0
  6
SLD-Solid
 62
   179
370
    15
100
AcDbLine
 10
287.3426591121
 20
997.2397164196
 30
0.0
 11
287.3426591121
 21
988.4897164196
 31
0.0
  0
LINE
  5
1E5
330
1F
100
AcDbEntity
  8
SLD-0_0
  6
SLD-Solid
 62
   179
370
    15
100
AcDbLine
 10
288.1426591121
 20
997.2397164196
 30
0.0
 11
288.1426591121
 21
988.4897164196
 31
0.0
  0
LINE
  5
1E6
330
1F
100
AcDbEntity
  8
SLD-0_0
  6
SLD-Solid
 62
   179
370
    15
100
AcDbLine
 10
185.6426591117
 20
982.0897164196
 30
0.0
 11
185.6426591117
 21
981.7498054579
 31
0.0
  0
LINE
  5
1E7
330
1F
100
AcDbEntity
  8
SLD-0_0
  6
SLD-Solid
 62
   179
370
    15
100
AcDbLine
 10
186.4426591117
 20
982.0897164196
 30
0.0
 11
186.4426591117
 21
981.5897164205
 31
0.0
  0
LINE
  5
1E8
330
1F
100
AcDbEntity
  8
SLD-0_0
  6
SLD-Solid
 62
   179
370
    15
100
AcDbLine
 10
186.4426591117
 20
980.2314946614
 30
0.0
 11
186.4426591117
 21
979.8170632569
 31
0.0
  0
LINE
  5
1E9
330
1F
100
AcDbEntity
  8
SLD-0_0
  6
SLD-Solid
 62
   179
370
    15
100
AcDbLine
 10
186.4426591117
 20
299.8897164205
 30
0.0
 11
185.6426591117
 21
299.8897164205
 31
0.0
  0
LINE
  5
1EA
330
1F
100
AcDbEntity
  8
SLD-0_0
  6
SLD-Solid
 62
   179
370
    15
100
AcDbLine
 10
186.4426591117
 20
300.2529209788
 30
0.0
 11
186.4426591117
 21
299.8897164205
 31
0.0
  0
LINE
  5
1EB
330
1F
100
AcDbEntity
  8
SLD-0_0
  6
SLD-Solid
 62
   179
370
    15
100
AcDbLine
 10
283.6426591117
 20
129.2897164205
 30
0.0
 11
230.6426591117
 21
129.2897164205
 31
0.0
  0
LINE
  5
1EC
330
1F
100
AcDbEntity
  8
SLD-0_0
  6
SLD-Solid
 62
   179
370
    15
100
AcDbLine
 10
285.6426591117
 20
135.2897164205
 30
0.0
 11
228.6426591117
 21
135.2897164205
 31
0.0
  0
LINE
  5
1ED
330
1F
100
AcDbEntity
  8
SLD-0_0
  6
SLD-Solid
 62
   179
370
    15
100
AcDbLine
 10
872.6426591117
 20
129.2897164205
 30
0.0
 11
819.6426591117
 21
129.2897164205
 31
0.0
  0
LINE
  5
1EE
330
1F
100
AcDbEntity
  8
SLD-0_0
  6
SLD-Solid
 62
   179
370
    15
100
AcDbLine
 10
874.6426591117
 20
135.2897164205
 30
0.0
 11
817.6426591117
 21
135.2897164205
 31
0.0
  0
LINE
  5
1EF
330
1F
100
AcDbEntity
  8
SLD-0_0
  6
SLD-Solid
 62
   179
370
    15
100
AcDbLine
 10
881.1426591117
 20
297.2897164205
 30
0.0
 11
881.1426591117
 21
298.4897164205
 31
0.0
  0
LINE
  5
1F0
330
1F
100
AcDbEntity
  8
SLD-0_0
  6
SLD-Solid
 62
   179
370
    15
100
AcDbLine
 10
811.1426591117
 20
297.2897164205
 30
0.0
 11
881.1426591117
 21
297.2897164205
 31
0.0
  0
LINE
  5
1F1
330
1F
100
AcDbEntity
  8
SLD-0_0
  6
SLD-Solid
 62
   179
370
    15
100
AcDbLine
 10
811.1426591117
 20
297.2897164205
 30
0.0
 11
811.1426591117
 21
298.4897164205
 31
0.0
  0
LINE
  5
1F2
330
1F
100
AcDbEntity
  8
SLD-0_0
  6
SLD-Solid
 62
   179
370
    15
100
AcDbLine
 10
877.1023093321
 20
203.2897164205
 30
0.0
 11
815.1830088914
 21
203.2897164205
 31
0.0
  0
LINE
  5
1F3
330
1F
100
AcDbEntity
  8
SLD-0_0
  6
SLD-Solid
 62
   179
370
    15
100
AcDbLine
 10
292.1426591117
 20
297.2897164205
 30
0.0
 11
292.1426591117
 21
298.4897164205
 31
0.0
  0
LINE
  5
1F4
330
1F
100
AcDbEntity
  8
SLD-0_0
  6
SLD-Solid
 62
   179
370
    15
100
AcDbLine
 10
222.1426591117
 20
297.2897164205
 30
0.0
 11
292.1426591117
 21
297.2897164205
 31
0.0
  0
LINE
  5
1F5
330
1F
100
AcDbEntity
  8
SLD-0_0
  6
SLD-Solid
 62
   179
370
    15
100
AcDbLine
 10
222.1426591117
 20
297.2897164205
 30
0.0
 11
222.1426591117
 21
298.4897164205
 31
0.0
  0
LINE
  5
1F6
330
1F
100
AcDbEntity
  8
SLD-0_0
  6
SLD-Solid
 62
   179
370
    15
100
AcDbLine
 10
288.1023093321
 20
203.2897164205
 30
0.0
 11
226.1830088914
 21
203.2897164205
 31
0.0
  0
LINE
  5
1F7
330
1F
100
AcDbEntity
  8
SLD-0_0
  6
SLD-Solid
 62
   179
370
    15
100
AcDbLine
 10
929.4473447194
 20
834.5147164204
 30
0.0
 11
929.6937279757
 21
834.0997135877
 31
0.0
  0
LINE
  5
1F8
330
1F
100
AcDbEntity
  8
SLD-0_0
  6
SLD-Solid
 62
   179
370
    15
100
AcDbLine
 10
929.6937279757
 20
834.0997135877
 30
0.0
 11
929.7006633387
 21
834.0897164202
 31
0.0
  0
LINE
  5
1F9
330
1F
100
AcDbEntity
  8
SLD-0_0
  6
SLD-Solid
 62
   179
370
    15
100
AcDbLine
 10
917.5846548854
 20
834.0897164202
 30
0.0
 11
917.5915902485
 21
834.0997135877
 31
0.0
  0
LINE
  5
1FA
330
1F
100
AcDbEntity
  8
SLD-0_0
  6
SLD-Solid
 62
   179
370
    15
100
AcDbLine
 10
917.5915902485
 20
834.0997135877
 30
0.0
 11
917.8379735048
 21
834.5147164204
 31
0.0
  0
LINE
  5
1FB
330
1F
100
AcDbEntity
  8
SLD-0_0
  6
SLD-Solid
 62
   179
370
    15
100
AcDbLine
 10
893.6426591121
 20
821.5897164204
 30
0.0
 11
893.6426591121
 21
831.0897164204
 31
0.0
  0
LINE
  5
1FC
330
1F
100
AcDbEntity
  8
SLD-0_0
  6
SLD-Solid
 62
   179
370
    15
100
AcDbLine
 10
892.4426591132
 20
821.5897164204
 30
0.0
 11
893.6426591121
 21
821.5897164204
 31
0.0
  0
LINE
  5
1FD
330
1F
100
AcDbEntity
  8
SLD-0_0
  6
SLD-Solid
 62
   179
370
    15
100
AcDbLine
 10
914.7123735623
 20
834.5897164204
 30
0.0
 11
896.2843467165
 21
834.5897164204
 31
0.0
  0
LINE
  5
1FE
330
1F
100
AcDbEntity
  8
SLD-0_0
  6
SLD-Solid
 62
   179
370
    15
100
AcDbLine
 10
946.878168641
 20
834.5897164204
 30
0.0
 11
945.3426591121
 21
834.5897164202
 31
0.0
  0
LINE
  5
1FF
330
1F
100
AcDbEntity
  8
SLD-0_0
  6
SLD-Solid
 62
   179
370
    15
100
AcDbLine
 10
937.5426591121
 20
834.5897164202
 30
0.0
 11
932.5729446618
 21
834.5897164204
 31
0.0
  0
LINE
  5
200
330
1F
100
AcDbEntity
  8
SLD-0_0
  6
SLD-Solid
 62
   179
370
    15
100
AcDbLine
 10
949.0220443537
 20
835.2737567071
 30
0.0
 11
947.391198856
 21
834.6801774892
 31
0.0
  0
LINE
  5
201
330
1F
100
AcDbEntity
  8
SLD-0_0
  6
SLD-Solid
 62
   179
370
    15
100
AcDbLine
 10
949.4426591121
 20
833.2984924143
 30
0.0
 11
949.7060846403
 21
833.3943714655
 31
0.0
  0
LINE
  5
202
330
1F
100
AcDbEntity
  8
SLD-0_0
  6
SLD-Solid
 62
   179
370
    15
100
AcDbLine
 10
953.7205074576
 20
836.9838574237
 30
0.0
 11
954.4045477442
 21
835.1044721821
 31
0.0
  0
LINE
  5
203
330
1F
100
AcDbEntity
  8
SLD-0_0
  6
SLD-Solid
 62
   179
370
    15
100
AcDbLine
 10
954.4045477442
 20
835.1044721821
 30
0.0
 11
949.7060846403
 21
833.3943714655
 31
0.0
  0
LINE
  5
204
330
1F
100
AcDbEntity
  8
SLD-0_0
  6
SLD-Solid
 62
   179
370
    15
100
AcDbLine
 10
949.0220443537
 20
835.2737567071
 30
0.0
 11
953.7205074576
 21
836.9838574237
 31
0.0
  0
LINE
  5
205
330
1F
100
AcDbEntity
  8
SLD-0_0
  6
SLD-Solid
 62
   179
370
    15
100
AcDbLine
 10
953.0426591121
 20
336.2836997505
 30
0.0
 11
953.0426591121
 21
392.2953385409
 31
0.0
  0
LINE
  5
206
330
1F
100
AcDbEntity
  8
SLD-0_0
  6
SLD-Solid
 62
   179
370
    15
100
AcDbLine
 10
951.4426591121
 20
394.2897164206
 30
0.0
 11
953.0426591121
 21
394.2897164206
 31
0.0
  0
LINE
  5
207
330
1F
100
AcDbEntity
  8
SLD-0_0
  6
SLD-Solid
 62
   179
370
    15
100
AcDbLine
 10
951.4426591121
 20
334.2897164206
 30
0.0
 11
953.0426591121
 21
334.2897164206
 31
0.0
  0
LINE
  5
208
330
1F
100
AcDbEntity
  8
SLD-0_0
  6
SLD-Solid
 62
   179
370
    15
100
AcDbLine
 10
954.4426591121
 20
391.7520009125
 30
0.0
 11
954.4426591121
 21
336.8274319287
 31
0.0
  0
LINE
  5
209
330
1F
100
AcDbEntity
  8
SLD-0_0
  6
SLD-Solid
 62
   179
370
    15
100
AcDbLine
 10
913.4426591121
 20
831.2897164206
 30
0.0
 11
914.4426591121
 21
831.2897164206
 31
0.0
  0
LINE
  5
20A
330
1F
100
AcDbEntity
  8
SLD-0_0
  6
SLD-Solid
 62
   179
370
    15
100
AcDbLine
 10
911.4426591121
 20
829.2897164206
 30
0.0
 11
911.4426591121
 21
828.2897164206
 31
0.0
  0
LINE
  5
20B
330
1F
100
AcDbEntity
  8
SLD-0_0
  6
SLD-Solid
 62
   179
370
    15
100
AcDbLine
 10
914.4426591121
 20
831.2897164206
 30
0.0
 11
936.4426591121
 21
831.2897164206
 31
0.0
  0
LINE
  5
20C
330
1F
100
AcDbEntity
  8
SLD-0_0
  6
SLD-Solid
 62
   179
370
    15
100
AcDbLine
 10
919.3189347551
 20
831.2897164206
 30
0.0
 11
919.4501638052
 21
831.5897164202
 31
0.0
  0
LINE
  5
20D
330
1F
100
AcDbEntity
  8
SLD-0_0
  6
SLD-Solid
 62
   179
370
    15
100
AcDbLine
 10
931.4351544189
 20
831.5897164202
 30
0.0
 11
931.566383469
 21
831.2897164206
 31
0.0
  0
LINE
  5
20E
330
1F
100
AcDbEntity
  8
SLD-0_0
  6
SLD-Solid
 62
   179
370
    15
100
AcDbLine
 10
927.0297244839
 20
831.2142704258
 30
0.0
 11
926.9989017329
 21
831.5897164202
 31
0.0
  0
LINE
  5
20F
330
1F
100
AcDbEntity
  8
SLD-0_0
  6
SLD-Solid
 62
   179
370
    15
100
AcDbLine
 10
923.874681827
 20
831.5897164202
 30
0.0
 11
923.8666248742
 21
831.2897164206
 31
0.0
  0
LINE
  5
210
330
1F
100
AcDbEntity
  8
SLD-0_0
  6
SLD-Solid
 62
   179
370
    15
100
AcDbLine
 10
926.4426591121
 20
831.2897164206
 30
0.0
 11
926.3965983136
 21
831.5897164202
 31
0.0
  0
LINE
  5
211
330
1F
100
AcDbEntity
  8
SLD-0_0
  6
SLD-Solid
 62
   179
370
    15
100
AcDbLine
 10
924.4887199105
 20
831.5897164202
 30
0.0
 11
924.4426591121
 21
831.2897164206
 31
0.0
  0
LINE
  5
212
330
1F
100
AcDbEntity
  8
SLD-0_0
  6
SLD-Solid
 62
   179
370
    15
100
AcDbLine
 10
931.9426591121
 20
831.2897164206
 30
0.0
 11
931.9357323444
 21
831.5897164202
 31
0.0
  0
LINE
  5
213
330
1F
100
AcDbEntity
  8
SLD-0_0
  6
SLD-Solid
 62
   179
370
    15
100
AcDbLine
 10
918.9495858798
 20
831.5897164202
 30
0.0
 11
918.9426591121
 21
831.2897164206
 31
0.0
  0
LINE
  5
214
330
1F
100
AcDbEntity
  8
SLD-0_0
  6
SLD-Solid
 62
   179
370
    15
100
AcDbLine
 10
986.0272889835
 20
763.6320314207
 30
0.0
 11
985.9229986729
 21
763.5911793173
 31
0.0
  0
LINE
  5
215
330
1F
100
AcDbEntity
  8
SLD-0_0
  6
SLD-Solid
 62
   179
370
    15
100
AcDbLine
 10
987.1679049927
 20
792.8388936531
 30
0.0
 11
987.5737803366
 21
792.8390179557
 31
0.0
  0
LINE
  5
216
330
1F
100
AcDbEntity
  8
SLD-0_0
  6
SLD-Solid
 62
   179
370
    15
100
AcDbLine
 10
991.8898784875
 20
764.8565253721
 30
0.0
 11
991.7479193235
 21
764.9035762263
 31
0.0
  0
LINE
  5
217
330
1F
100
AcDbEntity
  8
SLD-0_0
  6
SLD-Solid
 62
   179
370
    15
100
AcDbLine
 10
991.7479193235
 20
764.9035762263
 30
0.0
 11
991.4307508533
 21
764.9803419488
 31
0.0
  0
LINE
  5
218
330
1F
100
AcDbEntity
  8
SLD-0_0
  6
SLD-Solid
 62
   179
370
    15
100
AcDbLine
 10
991.8993092275
 20
764.8095227152
 30
0.0
 11
992.0340786407
 21
764.8087317659
 31
0.0
  0
LINE
  5
219
330
1F
100
AcDbEntity
  8
SLD-0_0
  6
SLD-Solid
 62
   179
370
    15
100
AcDbLine
 10
988.3431549425
 20
792.6978909304
 30
0.0
 11
985.9229986729
 21
792.9882535238
 31
0.0
  0
LINE
  5
21A
330
1F
100
AcDbEntity
  8
SLD-0_0
  6
SLD-Solid
 62
   179
370
    15
100
AcDbLine
 10
990.7260295527
 20
765.1980480387
 30
0.0
 11
991.0149637399
 21
765.0876240303
 31
0.0
  0
LINE
  5
21B
330
1F
100
AcDbEntity
  8
SLD-0_0
  6
SLD-Solid
 62
   179
370
    15
100
AcDbLine
 10
991.0149637399
 20
765.0876240303
 30
0.0
 11
992.0340786407
 21
764.8087317659
 31
0.0
  0
LINE
  5
21C
330
1F
100
AcDbEntity
  8
SLD-0_0
  6
SLD-Solid
 62
   179
370
    15
100
AcDbLine
 10
1007.5287881303
 20
787.6084142043
 30
0.0
 11
1007.707773225
 21
787.4587922322
 31
0.0
  0
LINE
  5
21D
330
1F
100
AcDbEntity
  8
SLD-0_0
  6
SLD-Solid
 62
   179
370
    15
100
AcDbLine
 10
1007.707773225
 20
769.120640609
 30
0.0
 11
1007.528771318
 21
768.9710187331
 31
0.0
  0
LINE
  5
21E
330
1F
100
AcDbEntity
  8
SLD-0_0
  6
SLD-Solid
 62
   179
370
    15
100
AcDbLine
 10
942.7490410739
 20
828.7897164206
 30
0.0
 11
932.9426591121
 21
828.7897164206
 31
0.0
  0
LINE
  5
21F
330
1F
100
AcDbEntity
  8
SLD-0_0
  6
SLD-Solid
 62
   179
370
    15
100
AcDbLine
 10
949.9426591121
 20
828.7897164206
 30
0.0
 11
942.7490410739
 21
828.7897164206
 31
0.0
  0
LINE
  5
220
330
1F
100
AcDbEntity
  8
SLD-0_0
  6
SLD-Solid
 62
   179
370
    15
100
AcDbLine
 10
949.4426591121
 20
828.2897164206
 30
0.0
 11
949.3926591121
 21
828.2897164206
 31
0.0
  0
LINE
  5
221
330
1F
100
AcDbEntity
  8
SLD-0_0
  6
SLD-Solid
 62
   179
370
    15
100
AcDbLine
 10
942.7490410739
 20
830.2897164206
 30
0.0
 11
932.9426591121
 21
830.2897164206
 31
0.0
  0
LINE
  5
222
330
1F
100
AcDbEntity
  8
SLD-0_0
  6
SLD-Solid
 62
   179
370
    15
100
AcDbLine
 10
949.9426591121
 20
830.2897164206
 30
0.0
 11
942.7490410739
 21
830.2897164206
 31
0.0
  0
LINE
  5
223
330
1F
100
AcDbEntity
  8
SLD-0_0
  6
SLD-Solid
 62
   179
370
    15
100
AcDbLine
 10
942.6721950761
 20
830.7897164206
 30
0.0
 11
933.4426591121
 21
830.7897164206
 31
0.0
  0
LINE
  5
224
330
1F
100
AcDbEntity
  8
SLD-0_0
  6
SLD-Solid
 62
   179
370
    15
100
AcDbLine
 10
949.4426591121
 20
830.7897164206
 30
0.0
 11
942.6721950761
 21
830.7897164206
 31
0.0
  0
LINE
  5
225
330
1F
100
AcDbEntity
  8
SLD-0_0
  6
SLD-Solid
 62
   179
370
    15
100
AcDbLine
 10
948.5585964989
 20
303.7897164206
 30
0.0
 11
949.9426591121
 21
303.7897164206
 31
0.0
  0
LINE
  5
226
330
1F
100
AcDbEntity
  8
SLD-0_0
  6
SLD-Solid
 62
   179
370
    15
100
AcDbLine
 10
932.9426591121
 20
303.7897164206
 30
0.0
 11
948.5585964989
 21
303.7897164206
 31
0.0
  0
LINE
  5
227
330
1F
100
AcDbEntity
  8
SLD-0_0
  6
SLD-Solid
 62
   179
370
    15
100
AcDbLine
 10
949.3926591121
 20
304.2897164206
 30
0.0
 11
949.4426591121
 21
304.2897164206
 31
0.0
  0
LINE
  5
228
330
1F
100
AcDbEntity
  8
SLD-0_0
  6
SLD-Solid
 62
   179
370
    15
100
AcDbLine
 10
936.9010397565
 20
304.2897164206
 30
0.0
 11
936.7965980765
 21
304.0988197817
 31
0.0
  0
LINE
  5
229
330
1F
100
AcDbEntity
  8
SLD-0_0
  6
SLD-Solid
 62
   179
370
    15
100
AcDbLine
 10
936.7965980765
 20
304.0988197817
 30
0.0
 11
936.7916175632
 21
304.0897164206
 31
0.0
  0
LINE
  5
22A
330
1F
100
AcDbEntity
  8
SLD-0_0
  6
SLD-Solid
 62
   179
370
    15
100
AcDbLine
 10
937.1264852049
 20
304.0897164206
 30
0.0
 11
936.7916175632
 21
304.0897164206
 31
0.0
  0
LINE
  5
22B
330
1F
100
AcDbEntity
  8
SLD-0_0
  6
SLD-Solid
 62
   179
370
    15
100
AcDbLine
 10
937.1264852049
 20
304.0897164206
 30
0.0
 11
937.1314657182
 21
304.0988197817
 31
0.0
  0
LINE
  5
22C
330
1F
100
AcDbEntity
  8
SLD-0_0
  6
SLD-Solid
 62
   179
370
    15
100
AcDbLine
 10
937.1314657182
 20
304.0988197817
 30
0.0
 11
937.2359073982
 21
304.2897164206
 31
0.0
  0
LINE
  5
22D
330
1F
100
AcDbEntity
  8
SLD-0_0
  6
SLD-Solid
 62
   179
370
    15
100
AcDbLine
 10
948.5585964989
 20
302.2897164206
 30
0.0
 11
949.9426591121
 21
302.2897164206
 31
0.0
  0
LINE
  5
22E
330
1F
100
AcDbEntity
  8
SLD-0_0
  6
SLD-Solid
 62
   179
370
    15
100
AcDbLine
 10
932.9426591121
 20
302.2897164206
 30
0.0
 11
948.5585964989
 21
302.2897164206
 31
0.0
  0
LINE
  5
22F
330
1F
100
AcDbEntity
  8
SLD-0_0
  6
SLD-Solid
 62
   179
370
    15
100
AcDbLine
 10
948.1400119467
 20
301.7897164206
 30
0.0
 11
949.4426591121
 21
301.7897164206
 31
0.0
  0
LINE
  5
230
330
1F
100
AcDbEntity
  8
SLD-0_0
  6
SLD-Solid
 62
   179
370
    15
100
AcDbLine
 10
941.4426591121
 20
301.7897164206
 30
0.0
 11
948.1400119467
 21
301.7897164206
 31
0.0
  0
LINE
  5
231
330
1F
100
AcDbEntity
  8
SLD-0_0
  6
SLD-Solid
 62
   179
370
    15
100
AcDbLine
 10
936.9010397565
 20
304.0897164206
 30
0.0
 11
936.9010397565
 21
304.2897164206
 31
0.0
  0
LINE
  5
232
330
1F
100
AcDbEntity
  8
SLD-0_0
  6
SLD-Solid
 62
   179
370
    15
100
AcDbLine
 10
899.6426591121
 20
307.9397164206
 30
0.0
 11
899.6426591121
 21
824.6397164206
 31
0.0
  0
LINE
  5
233
330
1F
100
AcDbEntity
  8
SLD-0_0
  6
SLD-Solid
 62
   179
370
    15
100
AcDbLine
 10
949.3926591121
 20
305.1604270987
 30
0.0
 11
901.4426591121
 21
305.1604270987
 31
0.0
  0
LINE
  5
234
330
1F
100
AcDbEntity
  8
SLD-0_0
  6
SLD-Solid
 62
   179
370
    15
100
AcDbLine
 10
901.4426591121
 20
827.4190057425
 30
0.0
 11
901.4426591121
 21
305.1604270987
 31
0.0
  0
LINE
  5
235
330
1F
100
AcDbEntity
  8
SLD-0_0
  6
SLD-Solid
 62
   179
370
    15
100
AcDbLine
 10
949.3926591121
 20
827.4190057425
 30
0.0
 11
901.4426591121
 21
827.4190057425
 31
0.0
  0
LINE
  5
236
330
1F
100
AcDbEntity
  8
SLD-0_0
  6
SLD-Solid
 62
   179
370
    15
100
AcDbLine
 10
951.4426591121
 20
826.2397164206
 30
0.0
 11
951.4426591121
 21
306.3397164206
 31
0.0
  0
LINE
  5
237
330
1F
100
AcDbEntity
  8
SLD-0_0
  6
SLD-Solid
 62
   179
370
    15
100
AcDbLine
 10
949.3926591121
 20
305.0897164206
 30
0.0
 11
949.3926591121
 21
304.2897164206
 31
0.0
  0
LINE
  5
238
330
1F
100
AcDbEntity
  8
SLD-0_0
  6
SLD-Solid
 62
   179
370
    15
100
AcDbLine
 10
949.3926591121
 20
827.4897164206
 30
0.0
 11
949.3926591121
 21
828.2897164206
 31
0.0
  0
LINE
  5
239
330
1F
100
AcDbEntity
  8
SLD-0_0
  6
SLD-Solid
 62
   179
370
    15
100
AcDbLine
 10
949.3926591121
 20
827.4897164206
 30
0.0
 11
901.4426591121
 21
827.4897164206
 31
0.0
  0
LINE
  5
23A
330
1F
100
AcDbEntity
  8
SLD-0_0
  6
SLD-Solid
 62
   179
370
    15
100
AcDbLine
 10
901.4426591121
 20
828.2897164206
 30
0.0
 11
901.4426591121
 21
827.4897164206
 31
0.0
  0
LINE
  5
23B
330
1F
100
AcDbEntity
  8
SLD-0_0
  6
SLD-Solid
 62
   179
370
    15
100
AcDbLine
 10
949.3926591121
 20
828.2897164206
 30
0.0
 11
901.4426591121
 21
828.2897164206
 31
0.0
  0
LINE
  5
23C
330
1F
100
AcDbEntity
  8
SLD-0_0
  6
SLD-Solid
 62
   179
370
    15
100
AcDbLine
 10
901.4426591121
 20
304.2897164206
 30
0.0
 11
901.4426591121
 21
305.0897164206
 31
0.0
  0
LINE
  5
23D
330
1F
100
AcDbEntity
  8
SLD-0_0
  6
SLD-Solid
 62
   179
370
    15
100
AcDbLine
 10
949.3926591121
 20
305.0897164206
 30
0.0
 11
901.4426591121
 21
305.0897164206
 31
0.0
  0
LINE
  5
23E
330
1F
100
AcDbEntity
  8
SLD-0_0
  6
SLD-Solid
 62
   179
370
    15
100
AcDbLine
 10
949.3926591121
 20
304.2897164206
 30
0.0
 11
901.4426591121
 21
304.2897164206
 31
0.0
  0
LINE
  5
23F
330
1F
100
AcDbEntity
  8
SLD-0_0
  6
SLD-Solid
 62
   179
370
    15
100
AcDbLine
 10
900.3926591121
 20
827.4190057425
 30
0.0
 11
900.3926591121
 21
826.2397164206
 31
0.0
  0
LINE
  5
240
330
1F
100
AcDbEntity
  8
SLD-0_0
  6
SLD-Solid
 62
   179
370
    15
100
AcDbLine
 10
901.4426591121
 20
827.4190057425
 30
0.0
 11
900.3926591121
 21
827.4190057425
 31
0.0
  0
LINE
  5
241
330
1F
100
AcDbEntity
  8
SLD-0_0
  6
SLD-Solid
 62
   179
370
    15
100
AcDbLine
 10
899.6426591121
 20
379.7897164206
 30
0.0
 11
898.3426591121
 21
379.7897164206
 31
0.0
  0
LINE
  5
242
330
1F
100
AcDbEntity
  8
SLD-0_0
  6
SLD-Solid
 62
   179
370
    15
100
AcDbLine
 10
898.3426591121
 20
826.2397164206
 30
0.0
 11
898.3426591121
 21
814.5792797859
 31
0.0
  0
LINE
  5
243
330
1F
100
AcDbEntity
  8
SLD-0_0
  6
SLD-Solid
 62
   179
370
    15
100
AcDbLine
 10
898.3426591121
 20
380.2303173178
 30
0.0
 11
898.3426591121
 21
379.7897164206
 31
0.0
  0
LINE
  5
244
330
1F
100
AcDbEntity
  8
SLD-0_0
  6
SLD-Solid
 62
   179
370
    15
100
AcDbLine
 10
898.3426591121
 20
826.2397164206
 30
0.0
 11
900.3926591121
 21
826.2397164206
 31
0.0
  0
LINE
  5
245
330
1F
100
AcDbEntity
  8
SLD-0_0
  6
SLD-Solid
 62
   179
370
    15
100
AcDbLine
 10
892.4426591121
 20
319.7897164206
 30
0.0
 11
894.9426591121
 21
319.7897164206
 31
0.0
  0
LINE
  5
246
330
1F
100
AcDbEntity
  8
SLD-0_0
  6
SLD-Solid
 62
   179
370
    15
100
AcDbLine
 10
894.9426591121
 20
314.7897164206
 30
0.0
 11
894.9426591121
 21
319.7897164206
 31
0.0
  0
LINE
  5
247
330
1F
100
AcDbEntity
  8
SLD-0_0
  6
SLD-Solid
 62
   179
370
    15
100
AcDbLine
 10
894.9426591121
 20
304.7897164206
 30
0.0
 11
894.9426591121
 21
314.7897164206
 31
0.0
  0
LINE
  5
248
330
1F
100
AcDbEntity
  8
SLD-0_0
  6
SLD-Solid
 62
   179
370
    15
100
AcDbLine
 10
897.9426591121
 20
299.2897164206
 30
0.0
 11
941.4426591121
 21
299.2897164206
 31
0.0
  0
LINE
  5
249
330
1F
100
AcDbEntity
  8
SLD-0_0
  6
SLD-Solid
 62
   179
370
    15
100
AcDbLine
 10
897.9426591121
 20
301.7897164206
 30
0.0
 11
941.4426591121
 21
301.7897164206
 31
0.0
  0
LINE
  5
24A
330
1F
100
AcDbEntity
  8
SLD-0_0
  6
SLD-Solid
 62
   179
370
    15
100
AcDbLine
 10
941.4426591121
 20
299.2897164206
 30
0.0
 11
949.4426591121
 21
299.2897164206
 31
0.0
  0
LINE
  5
24B
330
1F
100
AcDbEntity
  8
SLD-0_0
  6
SLD-Solid
 62
   179
370
    15
100
AcDbLine
 10
941.4426591121
 20
301.7897164206
 30
0.0
 11
949.4426591121
 21
301.7897164206
 31
0.0
  0
LINE
  5
24C
330
1F
100
AcDbEntity
  8
SLD-0_0
  6
SLD-Solid
 62
   179
370
    15
100
AcDbLine
 10
897.9426591121
 20
834.0897164202
 30
0.0
 11
941.4426591121
 21
834.0897164202
 31
0.0
  0
LINE
  5
24D
330
1F
100
AcDbEntity
  8
SLD-0_0
  6
SLD-Solid
 62
   179
370
    15
100
AcDbLine
 10
897.9426591121
 20
831.5897164202
 30
0.0
 11
941.4426591121
 21
831.5897164202
 31
0.0
  0
LINE
  5
24E
330
1F
100
AcDbEntity
  8
SLD-0_0
  6
SLD-Solid
 62
   179
370
    15
100
AcDbLine
 10
894.9426591121
 20
837.0897164202
 30
0.0
 11
894.9426591121
 21
842.0930402023
 31
0.0
  0
LINE
  5
24F
330
1F
100
AcDbEntity
  8
SLD-0_0
  6
SLD-Solid
 62
   179
370
    15
100
AcDbLine
 10
941.4426591121
 20
834.0897164202
 30
0.0
 11
949.4426591121
 21
834.0897164202
 31
0.0
  0
LINE
  5
250
330
1F
100
AcDbEntity
  8
SLD-0_0
  6
SLD-Solid
 62
   179
370
    15
100
AcDbLine
 10
941.4426591121
 20
831.5897164202
 30
0.0
 11
949.4426591121
 21
831.5897164202
 31
0.0
  0
LINE
  5
251
330
1F
100
AcDbEntity
  8
SLD-0_0
  6
SLD-Solid
 62
   179
370
    15
100
AcDbLine
 10
945.3426591121
 20
834.5897164202
 30
0.0
 11
937.5426591121
 21
834.5897164202
 31
0.0
  0
LINE
  5
252
330
1F
100
AcDbEntity
  8
SLD-0_0
  6
SLD-Solid
 62
   179
370
    15
100
AcDbLine
 10
937.5426591121
 20
298.7897164206
 30
0.0
 11
945.3426591121
 21
298.7897164206
 31
0.0
  0
LINE
  5
253
330
1F
100
AcDbEntity
  8
SLD-0_0
  6
SLD-Solid
 62
   179
370
    15
100
AcDbLine
 10
184.8426591132
 20
980.7190057423
 30
0.0
 11
184.8426591132
 21
299.3604270986
 31
0.0
  0
LINE
  5
254
330
1F
100
AcDbEntity
  8
SLD-0_0
  6
SLD-Solid
 62
   179
370
    15
100
AcDbLine
 10
185.7133697913
 20
981.5897164205
 30
0.0
 11
185.7133697913
 21
980.7897164205
 31
0.0
  0
LINE
  5
255
330
1F
100
AcDbEntity
  8
SLD-0_0
  6
SLD-Solid
 62
   179
370
    15
100
AcDbLine
 10
891.2426591121
 20
981.5897164205
 30
0.0
 11
185.7133697913
 21
981.5897164205
 31
0.0
  0
LINE
  5
256
330
1F
100
AcDbEntity
  8
SLD-0_0
  6
SLD-Solid
 62
   179
370
    15
100
AcDbLine
 10
185.6426591132
 20
980.7190057423
 30
0.0
 11
184.8426591132
 21
980.7190057423
 31
0.0
  0
LINE
  5
257
330
1F
100
AcDbEntity
  8
SLD-0_0
  6
SLD-Solid
 62
   179
370
    15
100
AcDbLine
 10
185.7133697913
 20
298.4897164205
 30
0.0
 11
891.5719484351
 21
298.4897164205
 31
0.0
  0
LINE
  5
258
330
1F
100
AcDbEntity
  8
SLD-0_0
  6
SLD-Solid
 62
   179
370
    15
100
AcDbLine
 10
185.7133697913
 20
298.4897164205
 30
0.0
 11
185.7133697913
 21
299.2897164205
 31
0.0
  0
LINE
  5
259
330
1F
100
AcDbEntity
  8
SLD-0_0
  6
SLD-Solid
 62
   179
370
    15
100
AcDbLine
 10
185.6426591132
 20
299.3604270986
 30
0.0
 11
184.8426591132
 21
299.3604270986
 31
0.0
  0
LINE
  5
25A
330
1F
100
AcDbEntity
  8
SLD-0_0
  6
SLD-Solid
 62
   179
370
    15
100
AcDbLine
 10
892.4426591132
 20
299.3604270986
 30
0.0
 11
892.4426591121
 21
842.0930402023
 31
0.0
  0
LINE
  5
25B
330
1F
100
AcDbEntity
  8
SLD-0_0
  6
SLD-Solid
 62
   179
370
    15
100
AcDbLine
 10
892.4426591121
 20
842.8930402023
 30
0.0
 11
892.4426591121
 21
843.8930402023
 31
0.0
  0
LINE
  5
25C
330
1F
100
AcDbEntity
  8
SLD-0_0
  6
SLD-Solid
 62
   179
370
    15
100
AcDbLine
 10
892.4426591121
 20
962.5807147295
 30
0.0
 11
892.4426591121
 21
963.5807147295
 31
0.0
  0
LINE
  5
25D
330
1F
100
AcDbEntity
  8
SLD-0_0
  6
SLD-Solid
 62
   179
370
    15
100
AcDbLine
 10
891.5719484351
 20
299.2897164205
 30
0.0
 11
891.5719484351
 21
298.4897164205
 31
0.0
  0
LINE
  5
25E
330
1F
100
AcDbEntity
  8
SLD-0_0
  6
SLD-Solid
 62
   179
370
    15
100
AcDbLine
 10
891.6426591132
 20
299.3604270986
 30
0.0
 11
892.4426591132
 21
299.3604270986
 31
0.0
  0
LINE
  5
25F
330
1F
100
AcDbEntity
  8
SLD-0_0
  6
SLD-Solid
 62
   179
370
    15
100
AcDbLine
 10
843.6926591121
 20
981.5897164205
 30
0.0
 11
843.6926591121
 21
981.6897164205
 31
0.0
  0
LINE
  5
260
330
1F
100
AcDbEntity
  8
SLD-0_0
  6
SLD-Solid
 62
   179
370
    15
100
AcDbLine
 10
810.6426591121
 20
998.0797164205
 30
0.0
 11
810.6426591121
 21
998.0897164205
 31
0.0
  0
LINE
  5
261
330
1F
100
AcDbEntity
  8
SLD-0_0
  6
SLD-Solid
 62
   179
370
    15
100
AcDbLine
 10
831.6142443099
 20
998.0897164205
 30
0.0
 11
831.3926591121
 21
998.0897164205
 31
0.0
  0
LINE
  5
262
330
1F
100
AcDbEntity
  8
SLD-0_0
  6
SLD-Solid
 62
   179
370
    15
100
AcDbLine
 10
929.1705939931
 20
973.0915399408
 30
0.0
 11
928.8566387208
 21
973.0640724136
 31
0.0
  0
LINE
  5
263
330
1F
100
AcDbEntity
  8
SLD-0_0
  6
SLD-Solid
 62
   179
370
    15
100
AcDbLine
 10
929.9402674525
 20
973.535247596
 30
0.0
 11
929.9494579585
 21
973.4301996313
 31
0.0
  0
LINE
  5
264
330
1F
100
AcDbEntity
  8
SLD-0_0
  6
SLD-Solid
 62
   179
370
    15
100
AcDbLine
 10
251.6426591119
 20
981.5897164205
 30
0.0
 11
251.6426591119
 21
982.0897164196
 31
0.0
  0
LINE
  5
265
330
1F
100
AcDbEntity
  8
SLD-0_0
  6
SLD-Solid
 62
   179
370
    15
100
AcDbLine
 10
240.4426591121
 20
981.5897164205
 30
0.0
 11
240.4426591121
 21
982.0897164196
 31
0.0
  0
LINE
  5
266
330
1F
100
AcDbEntity
  8
SLD-0_0
  6
SLD-Solid
 62
   179
370
    15
100
AcDbLine
 10
190.4426591121
 20
982.0897164196
 30
0.0
 11
190.4426591121
 21
981.5897164205
 31
0.0
  0
LINE
  5
267
330
1F
100
AcDbEntity
  8
SLD-0_0
  6
SLD-Solid
 62
   179
370
    15
100
AcDbLine
 10
893.1186240368
 20
372.7678437722
 30
0.0
 11
893.0697780805
 21
363.7679763247
 31
0.0
  0
LINE
  5
268
330
1F
100
AcDbEntity
  8
SLD-0_0
  6
SLD-Solid
 62
   179
370
    15
100
AcDbLine
 10
893.0426414381
 20
358.7680499649
 30
0.0
 11
892.4426591117
 21
358.7713063141
 31
0.0
  0
LINE
  5
269
330
1F
100
AcDbEntity
  8
SLD-0_0
  6
SLD-Solid
 62
   179
370
    15
100
AcDbLine
 10
893.0697780805
 20
363.7679763247
 30
0.0
 11
893.0426414381
 21
358.7680499649
 31
0.0
  0
LINE
  5
26A
330
1F
100
AcDbEntity
  8
SLD-0_0
  6
SLD-Solid
 62
   179
370
    15
100
AcDbLine
 10
890.8104169733
 20
299.8922043881
 30
0.0
 11
891.03720276
 21
300.0951727722
 31
0.0
  0
LINE
  5
26B
330
1F
100
AcDbEntity
  8
SLD-0_0
  6
SLD-Solid
 62
   179
370
    15
100
AcDbLine
 10
891.03720276
 20
300.0951727722
 30
0.0
 11
891.0530449532
 21
300.1111450963
 31
0.0
  0
LINE
  5
26C
330
1F
100
AcDbEntity
  8
SLD-0_0
  6
SLD-Center
 62
   179
370
     0
100
AcDbLine
 10
183.9426591107
 20
939.989716419
 30
0.0
 11
239.6025098938
 21
939.989716419
 31
0.0
  0
LINE
  5
26D
330
1F
100
AcDbEntity
  8
SLD-0_0
  6
SLD-Center
 62
   179
370
     0
100
AcDbLine
 10
257.1426591117
 20
131.2897164205
 30
0.0
 11
257.1426591117
 21
329.5176920357
 31
0.0
  0
LINE
  5
26E
330
1F
100
AcDbEntity
  8
SLD-0_0
  6
SLD-Center
 62
   179
370
     0
100
AcDbLine
 10
846.1426591117
 20
129.2897164205
 30
0.0
 11
846.1426591117
 21
332.7897164203
 31
0.0
  0
ARC
  5
26F
330
1F
100
AcDbEntity
  8
SLD-0_0
  6
SLD-Solid
 62
   179
370
    15
100
AcDbCircle
 10
178.5926591118
 20
353.8141257565
 30
0.0
 40
0.2500000000000568
100
AcDbArc
 50
270.0
 51
0.0
  0
ARC
  5
270
330
1F
100
AcDbEntity
  8
SLD-0_0
  6
SLD-Solid
 62
   179
370
    15
100
AcDbCircle
 10
178.5926591118
 20
358.6402927286
 30
0.0
 40
0.2500000000000284
100
AcDbArc
 50
0.0
 51
90.0
  0
ARC
  5
271
330
1F
100
AcDbEntity
  8
SLD-0_0
  6
SLD-Solid
 62
   179
370
    15
100
AcDbCircle
 10
172.2926591118
 20
358.3397164205
 30
0.0
 40
0.2500000000000568
100
AcDbArc
 50
90.0
 51
180.0
  0
ARC
  5
272
330
1F
100
AcDbEntity
  8
SLD-0_0
  6
SLD-Solid
 62
   179
370
    15
100
AcDbCircle
 10
178.5926591118
 20
341.1391401124
 30
0.0
 40
0.2500000000000284
100
AcDbArc
 50
270.0
 51
0.0
  0
ARC
  5
273
330
1F
100
AcDbEntity
  8
SLD-0_0
  6
SLD-Solid
 62
   179
370
    15
100
AcDbCircle
 10
167.8926591118
 20
345.1470985251
 30
0.0
 40
0.25
100
AcDbArc
 50
90.0
 51
180.0
  0
ARC
  5
274
330
1F
100
AcDbEntity
  8
SLD-0_0
  6
SLD-Solid
 62
   179
370
    15
100
AcDbCircle
 10
167.8926591118
 20
340.7092773105
 30
0.0
 40
0.25
100
AcDbArc
 50
180.0
 51
270.0
  0
ARC
  5
275
330
1F
100
AcDbEntity
  8
SLD-0_0
  6
SLD-Solid
 62
   179
370
    15
100
AcDbCircle
 10
174.1926591118
 20
341.4397164205
 30
0.0
 40
0.25
100
AcDbArc
 50
301.0756875734
 51
0.0
  0
ARC
  5
276
330
1F
100
AcDbEntity
  8
SLD-0_0
  6
SLD-Solid
 62
   179
370
    15
100
AcDbCircle
 10
167.8926591118
 20
359.0701555306
 30
0.0
 40
0.2500000000000568
100
AcDbArc
 50
90.0
 51
180.0
  0
ARC
  5
277
330
1F
100
AcDbEntity
  8
SLD-0_0
  6
SLD-Solid
 62
   179
370
    15
100
AcDbCircle
 10
934.7751123148
 20
917.4656005903
 30
0.0
 40
0.5000000000002714
100
AcDbArc
 50
288.0
 51
18.0
  0
ARC
  5
278
330
1F
100
AcDbEntity
  8
SLD-0_0
  6
SLD-Solid
 62
   179
370
    15
100
AcDbCircle
 10
275.2916894078
 20
1027.5897162696
 30
0.0
 40
4.999999848689108
100
AcDbArc
 50
270.0000590045
 51
336.65132703
  0
ARC
  5
279
330
1F
100
AcDbEntity
  8
SLD-0_0
  6
SLD-Solid
 62
   179
370
    15
100
AcDbCircle
 10
819.9936288163
 20
1027.5897162694
 30
0.0
 40
4.999999848487882
100
AcDbArc
 50
203.4071792443
 51
269.9999409964
  0
ARC
  5
27A
330
1F
100
AcDbEntity
  8
SLD-0_0
  6
SLD-Solid
 62
   179
370
    15
100
AcDbCircle
 10
538.9329683694
 20
1027.5897160163
 30
0.0
 40
4.999999595430429
100
AcDbArc
 50
203.2536477345
 51
269.9873896756
  0
ARC
  5
27B
330
1F
100
AcDbEntity
  8
SLD-0_0
  6
SLD-Solid
 62
   179
370
    15
100
AcDbCircle
 10
556.3523498543
 20
1027.5897160175
 30
0.0
 40
4.99999959656692
100
AcDbArc
 50
270.0126103297
 51
336.8698176015
  0
ARC
  5
27C
330
1F
100
AcDbEntity
  8
SLD-0_0
  6
SLD-Solid
 62
   179
370
    15
100
AcDbCircle
 10
335.5229878363
 20
1043.0897164209
 30
0.0
 40
2.0
100
AcDbArc
 50
8.1460564929
 51
90.0
  0
ARC
  5
27D
330
1F
100
AcDbEntity
  8
SLD-0_0
  6
SLD-Solid
 62
   179
370
    15
100
AcDbCircle
 10
759.7623303879
 20
1043.0897164209
 30
0.0
 40
2.0
100
AcDbArc
 50
90.0
 51
171.8968628339
  0
ARC
  5
27E
330
1F
100
AcDbEntity
  8
SLD-0_0
  6
SLD-Solid
 62
   179
370
    15
100
AcDbCircle
 10
479.1436921153
 20
1043.0897164209
 30
0.0
 40
2.0
100
AcDbArc
 50
90.0
 51
171.8973955384
  0
ARC
  5
27F
330
1F
100
AcDbEntity
  8
SLD-0_0
  6
SLD-Solid
 62
   179
370
    15
100
AcDbCircle
 10
616.1416261089
 20
1043.0897164209
 30
0.0
 40
2.0
100
AcDbArc
 50
8.1447798754
 51
90.0
  0
ARC
  5
280
330
1F
100
AcDbEntity
  8
SLD-0_0
  6
SLD-Solid
 62
   179
370
    15
100
AcDbCircle
 10
289.584331072
 20
1043.0897164209
 30
0.0
 40
2.000000000000111
100
AcDbArc
 50
5.4535414403
 51
90.0
  0
ARC
  5
281
330
1F
100
AcDbEntity
  8
SLD-0_0
  6
SLD-Solid
 62
   179
370
    15
100
AcDbCircle
 10
805.7009871521
 20
1043.0897164209
 30
0.0
 40
2.000000000000054
100
AcDbArc
 50
90.0
 51
174.5464585597
  0
ARC
  5
282
330
1F
100
AcDbEntity
  8
SLD-0_0
  6
SLD-Solid
 62
   179
370
    15
100
AcDbCircle
 10
824.3926591118
 20
1000.3397164219
 30
0.0
 40
0.2500000000003411
100
AcDbArc
 50
270.0
 51
52.629836736
  0
ARC
  5
283
330
1F
100
AcDbEntity
  8
SLD-0_0
  6
SLD-Solid
 62
   179
370
    15
100
AcDbCircle
 10
812.8926591118
 20
1000.3397164219
 30
0.0
 40
0.2500000000003411
100
AcDbArc
 50
127.370163264
 51
270.0
  0
ARC
  5
284
330
1F
100
AcDbEntity
  8
SLD-0_0
  6
SLD-Solid
 62
   179
370
    15
100
AcDbCircle
 10
818.8376513995
 20
993.6352616349
 30
0.0
 40
8.95657761225895
100
AcDbArc
 50
50.419833167
 51
61.9436132739
  0
ARC
  5
285
330
1F
100
AcDbEntity
  8
SLD-0_0
  6
SLD-Solid
 62
   179
370
    15
100
AcDbCircle
 10
818.4476668241
 20
993.6352616349
 30
0.0
 40
8.956577612259023
100
AcDbArc
 50
118.3538478883
 51
129.580166833
  0
ARC
  5
286
330
1F
100
AcDbEntity
  8
SLD-0_0
  6
SLD-Solid
 62
   179
370
    15
100
AcDbCircle
 10
282.3926591121
 20
1000.3397164211
 30
0.0
 40
0.2500000000003411
100
AcDbArc
 50
270.0
 51
52.629836736
  0
ARC
  5
287
330
1F
100
AcDbEntity
  8
SLD-0_0
  6
SLD-Solid
 62
   179
370
    15
100
AcDbCircle
 10
270.8926591121
 20
1000.3397164211
 30
0.0
 40
0.2500000000003411
100
AcDbArc
 50
127.370163264
 51
270.0
  0
ARC
  5
288
330
1F
100
AcDbEntity
  8
SLD-0_0
  6
SLD-Solid
 62
   179
370
    15
100
AcDbCircle
 10
276.8376513998
 20
993.6352616342
 30
0.0
 40
8.956577612210816
100
AcDbArc
 50
50.4198331666
 51
61.9436132739
  0
ARC
  5
289
330
1F
100
AcDbEntity
  8
SLD-0_0
  6
SLD-Solid
 62
   179
370
    15
100
AcDbCircle
 10
276.4476668244
 20
993.6352616342
 30
0.0
 40
8.956577612210731
100
AcDbArc
 50
118.3538478883
 51
129.5801668334
  0
ARC
  5
28A
330
1F
100
AcDbEntity
  8
SLD-0_0
  6
SLD-Solid
 62
   179
370
    15
100
AcDbCircle
 10
459.6031993058
 20
1004.7341564092
 30
0.0
 40
0.5249000000001106
100
AcDbArc
 50
290.140195206
 51
0.0
  0
ARC
  5
28B
330
1F
100
AcDbEntity
  8
SLD-0_0
  6
SLD-Solid
 62
   179
370
    15
100
AcDbCircle
 10
355.6821189184
 20
1004.7341564092
 30
0.0
 40
0.5249000000001106
100
AcDbArc
 50
180.0
 51
249.859804794
  0
ARC
  5
28C
330
1F
100
AcDbEntity
  8
SLD-0_0
  6
SLD-Solid
 62
   179
370
    15
100
AcDbCircle
 10
458.0284993058
 20
1005.9091352305
 30
0.0
 40
2.099600000000116
100
AcDbArc
 50
0.0
 51
87.0082842346
  0
ARC
  5
28D
330
1F
100
AcDbEntity
  8
SLD-0_0
  6
SLD-Solid
 62
   179
370
    15
100
AcDbCircle
 10
357.2568189184
 20
1005.9091352305
 30
0.0
 40
2.099600000000114
100
AcDbArc
 50
92.9917157654
 51
180.0
  0
ARC
  5
28E
330
1F
100
AcDbEntity
  8
SLD-0_0
  6
SLD-Solid
 62
   179
370
    15
100
AcDbCircle
 10
457.1642771759
 20
1003.4759274205
 30
0.0
 40
0.524900000000116
100
AcDbArc
 50
90.0
 51
180.0
  0
ARC
  5
28F
330
1F
100
AcDbEntity
  8
SLD-0_0
  6
SLD-Solid
 62
   179
370
    15
100
AcDbCircle
 10
358.1210410483
 20
1003.4759274205
 30
0.0
 40
0.524900000000116
100
AcDbArc
 50
0.0
 51
90.0
  0
ARC
  5
290
330
1F
100
AcDbEntity
  8
SLD-0_0
  6
SLD-Solid
 62
   179
370
    15
100
AcDbCircle
 10
456.2194571759
 20
1002.9051360614
 30
0.0
 40
0.419920000000154
100
AcDbArc
 50
289.9336222061
 51
0.0
  0
ARC
  5
291
330
1F
100
AcDbEntity
  8
SLD-0_0
  6
SLD-Solid
 62
   179
370
    15
100
AcDbCircle
 10
359.0658610483
 20
1002.9051360614
 30
0.0
 40
0.4199200000001734
100
AcDbArc
 50
180.0
 51
250.0663777939
  0
ARC
  5
292
330
1F
100
AcDbEntity
  8
SLD-0_0
  6
SLD-Solid
 62
   179
370
    15
100
AcDbCircle
 10
738.0284993009
 20
1005.9091352305
 30
0.0
 40
2.099600000000116
100
AcDbArc
 50
0.0
 51
87.0082842346
  0
ARC
  5
293
330
1F
100
AcDbEntity
  8
SLD-0_0
  6
SLD-Solid
 62
   179
370
    15
100
AcDbCircle
 10
637.2568189135
 20
1005.9091352305
 30
0.0
 40
2.099600000000116
100
AcDbArc
 50
92.9917157654
 51
180.0
  0
ARC
  5
294
330
1F
100
AcDbEntity
  8
SLD-0_0
  6
SLD-Solid
 62
   179
370
    15
100
AcDbCircle
 10
739.6031993009
 20
1004.7341564092
 30
0.0
 40
0.5249000000001498
100
AcDbArc
 50
290.140195206
 51
0.0
  0
ARC
  5
295
330
1F
100
AcDbEntity
  8
SLD-0_0
  6
SLD-Solid
 62
   179
370
    15
100
AcDbCircle
 10
635.6821189135
 20
1004.7341564092
 30
0.0
 40
0.5249000000001498
100
AcDbArc
 50
180.0
 51
249.859804794
  0
ARC
  5
296
330
1F
100
AcDbEntity
  8
SLD-0_0
  6
SLD-Solid
 62
   179
370
    15
100
AcDbCircle
 10
737.164277171
 20
1003.4759274205
 30
0.0
 40
0.524900000000116
100
AcDbArc
 50
90.0
 51
180.0
  0
ARC
  5
297
330
1F
100
AcDbEntity
  8
SLD-0_0
  6
SLD-Solid
 62
   179
370
    15
100
AcDbCircle
 10
638.1210410434
 20
1003.4759274205
 30
0.0
 40
0.524900000000116
100
AcDbArc
 50
0.0
 51
90.0
  0
ARC
  5
298
330
1F
100
AcDbEntity
  8
SLD-0_0
  6
SLD-Solid
 62
   179
370
    15
100
AcDbCircle
 10
736.219457171
 20
1002.9051360614
 30
0.0
 40
0.4199200000004065
100
AcDbArc
 50
289.9336222061
 51
0.0
  0
ARC
  5
299
330
1F
100
AcDbEntity
  8
SLD-0_0
  6
SLD-Solid
 62
   179
370
    15
100
AcDbCircle
 10
639.0658610434
 20
1002.9051360614
 30
0.0
 40
0.4199200000004065
100
AcDbArc
 50
180.0
 51
250.0663777939
  0
ARC
  5
29A
330
1F
100
AcDbEntity
  8
SLD-0_0
  6
SLD-Solid
 62
   179
370
    15
100
AcDbCircle
 10
638.9086151072
 20
1002.1853473372
 30
0.0
 40
0.3000000000001819
100
AcDbArc
 50
90.0
 51
180.0
  0
ARC
  5
29B
330
1F
100
AcDbEntity
  8
SLD-0_0
  6
SLD-Solid
 62
   179
370
    15
100
AcDbCircle
 10
736.3767031072
 20
1002.1853473372
 30
0.0
 40
0.3000000000000682
100
AcDbArc
 50
0.0
 51
90.0
  0
ARC
  5
29C
330
1F
100
AcDbEntity
  8
SLD-0_0
  6
SLD-Solid
 62
   179
370
    15
100
AcDbCircle
 10
358.9086151121
 20
1002.1853473371
 30
0.0
 40
0.3000000000001819
100
AcDbArc
 50
90.0
 51
180.0
  0
ARC
  5
29D
330
1F
100
AcDbEntity
  8
SLD-0_0
  6
SLD-Solid
 62
   179
370
    15
100
AcDbCircle
 10
456.3767031121
 20
1002.1853473371
 30
0.0
 40
0.3000000000001819
100
AcDbArc
 50
0.0
 51
90.0
  0
ARC
  5
29E
330
1F
100
AcDbEntity
  8
SLD-0_0
  6
SLD-Solid
 62
   179
370
    15
100
AcDbCircle
 10
968.3055830511
 20
920.2573283336
 30
0.0
 40
1.000000000000075
100
AcDbArc
 50
312.2277453175
 51
18.0
  0
ARC
  5
29F
330
1F
100
AcDbEntity
  8
SLD-0_0
  6
SLD-Solid
 62
   179
370
    15
100
AcDbCircle
 10
283.6426591117
 20
131.2897164205
 30
0.0
 40
2.0
100
AcDbArc
 50
270.0
 51
0.0
  0
ARC
  5
2A0
330
1F
100
AcDbEntity
  8
SLD-0_0
  6
SLD-Solid
 62
   179
370
    15
100
AcDbCircle
 10
230.6426591117
 20
131.2897164205
 30
0.0
 40
2.000000000000028
100
AcDbArc
 50
180.0
 51
270.0
  0
ARC
  5
2A1
330
1F
100
AcDbEntity
  8
SLD-0_0
  6
SLD-Solid
 62
   179
370
    15
100
AcDbCircle
 10
872.6426591117
 20
131.2897164205
 30
0.0
 40
2.000000000000028
100
AcDbArc
 50
270.0
 51
0.0
  0
ARC
  5
2A2
330
1F
100
AcDbEntity
  8
SLD-0_0
  6
SLD-Solid
 62
   179
370
    15
100
AcDbCircle
 10
819.6426591117
 20
131.2897164205
 30
0.0
 40
2.000000000000028
100
AcDbArc
 50
180.0
 51
270.0
  0
ARC
  5
2A3
330
1F
100
AcDbEntity
  8
SLD-0_0
  6
SLD-Solid
 62
   179
370
    15
100
AcDbCircle
 10
879.5426591117
 20
295.7897164205
 30
0.0
 40
1.5
100
AcDbArc
 50
90.0
 51
180.0
  0
ARC
  5
2A4
330
1F
100
AcDbEntity
  8
SLD-0_0
  6
SLD-Solid
 62
   179
370
    15
100
AcDbCircle
 10
812.7426591117
 20
295.7897164205
 30
0.0
 40
1.5
100
AcDbArc
 50
0.0
 51
90.0
  0
ARC
  5
2A5
330
1F
100
AcDbEntity
  8
SLD-0_0
  6
SLD-Solid
 62
   179
370
    15
100
AcDbCircle
 10
873.3426591117
 20
209.3222823661
 30
0.0
 40
4.699999999999944
100
AcDbArc
 50
350.5402980318
 51
0.0
  0
ARC
  5
2A6
330
1F
100
AcDbEntity
  8
SLD-0_0
  6
SLD-Solid
 62
   179
370
    15
100
AcDbCircle
 10
818.9426591117
 20
209.3222823661
 30
0.0
 40
4.700000000000159
100
AcDbArc
 50
180.0
 51
189.4597019682
  0
ARC
  5
2A7
330
1F
100
AcDbEntity
  8
SLD-0_0
  6
SLD-Solid
 62
   179
370
    15
100
AcDbCircle
 10
290.5426591117
 20
295.7897164205
 30
0.0
 40
1.5
100
AcDbArc
 50
90.0
 51
180.0
  0
ARC
  5
2A8
330
1F
100
AcDbEntity
  8
SLD-0_0
  6
SLD-Solid
 62
   179
370
    15
100
AcDbCircle
 10
223.7426591117
 20
295.7897164205
 30
0.0
 40
1.5
100
AcDbArc
 50
0.0
 51
90.0
  0
ARC
  5
2A9
330
1F
100
AcDbEntity
  8
SLD-0_0
  6
SLD-Solid
 62
   179
370
    15
100
AcDbCircle
 10
284.3426591117
 20
209.3222823661
 30
0.0
 40
4.7
100
AcDbArc
 50
350.5402980318
 51
0.0
  0
ARC
  5
2AA
330
1F
100
AcDbEntity
  8
SLD-0_0
  6
SLD-Solid
 62
   179
370
    15
100
AcDbCircle
 10
229.9426591117
 20
209.3222823661
 30
0.0
 40
4.700000000000017
100
AcDbArc
 50
180.0
 51
189.4597019682
  0
ARC
  5
2AB
330
1F
100
AcDbEntity
  8
SLD-0_0
  6
SLD-Solid
 62
   179
370
    15
100
AcDbCircle
 10
962.3824937332
 20
778.2897164206
 30
0.0
 40
46.2499997094432
100
AcDbArc
 50
348.5111848764
 51
11.4945663561
  0
ARC
  5
2AC
330
1F
100
AcDbEntity
  8
SLD-0_0
  6
SLD-Solid
 62
   179
370
    15
100
AcDbCircle
 10
271.2665392694
 20
1019.5897164209
 30
0.0
 40
3.000000000029704
100
AcDbArc
 50
90.0
 51
174.999999999
  0
ARC
  5
2AD
330
1F
100
AcDbEntity
  8
SLD-0_0
  6
SLD-Solid
 62
   179
370
    15
100
AcDbCircle
 10
824.0187789548
 20
1019.5897164209
 30
0.0
 40
3.000000000029647
100
AcDbArc
 50
5.000000001
 51
90.0
  0
ARC
  5
2AE
330
1F
100
AcDbEntity
  8
SLD-0_0
  6
SLD-Solid
 62
   179
370
    15
100
AcDbCircle
 10
270.7168067676
 20
1011.5897164209
 30
0.0
 40
0.9999999999999445
100
AcDbArc
 50
18.5
 51
90.0
  0
ARC
  5
2AF
330
1F
100
AcDbEntity
  8
SLD-0_0
  6
SLD-Solid
 62
   179
370
    15
100
AcDbCircle
 10
824.5685114565
 20
1011.5897164209
 30
0.0
 40
1.000000000000114
100
AcDbArc
 50
90.0
 51
161.5
  0
ARC
  5
2B0
330
1F
100
AcDbEntity
  8
SLD-0_0
  6
SLD-Solid
 62
   179
370
    15
100
AcDbCircle
 10
559.4589902861
 20
1011.5897164209
 30
0.0
 40
1.000000000000114
100
AcDbArc
 50
90.0
 51
175.0
  0
ARC
  5
2B1
330
1F
100
AcDbEntity
  8
SLD-0_0
  6
SLD-Solid
 62
   179
370
    15
100
AcDbCircle
 10
535.8263279381
 20
1011.5897164209
 30
0.0
 40
1.000000000000114
100
AcDbArc
 50
5.0
 51
90.0
  0
ARC
  5
2B2
330
1F
100
AcDbEntity
  8
SLD-0_0
  6
SLD-Solid
 62
   179
370
    15
100
AcDbCircle
 10
276.3390422386
 20
1001.0897164209
 30
0.0
 40
1.000000000000114
100
AcDbArc
 50
198.4999999998
 51
270.0
  0
ARC
  5
2B3
330
1F
100
AcDbEntity
  8
SLD-0_0
  6
SLD-Solid
 62
   179
370
    15
100
AcDbCircle
 10
277.6768214578
 20
1001.0897164209
 30
0.0
 40
1.000000000004069
100
AcDbArc
 50
270.0
 51
355.0000000028
  0
ARC
  5
2B4
330
1F
100
AcDbEntity
  8
SLD-0_0
  6
SLD-Solid
 62
   179
370
    15
100
AcDbCircle
 10
817.6084967663
 20
1001.0897164209
 30
0.0
 40
1.000000000004069
100
AcDbArc
 50
184.9999999972
 51
270.0
  0
ARC
  5
2B5
330
1F
100
AcDbEntity
  8
SLD-0_0
  6
SLD-Solid
 62
   179
370
    15
100
AcDbCircle
 10
818.9462759856
 20
1001.0897164209
 30
0.0
 40
1.000000000000114
100
AcDbArc
 50
270.0
 51
341.5000000002
  0
ARC
  5
2B6
330
1F
100
AcDbEntity
  8
SLD-0_0
  6
SLD-Solid
 62
   179
370
    15
100
AcDbCircle
 10
538.6213655849
 20
1002.5897164209
 30
0.0
 40
1.000000000004069
100
AcDbArc
 50
184.9999999972
 51
270.0
  0
ARC
  5
2B7
330
1F
100
AcDbEntity
  8
SLD-0_0
  6
SLD-Solid
 62
   179
370
    15
100
AcDbCircle
 10
556.6639526393
 20
1002.5897164209
 30
0.0
 40
1.000000000004069
100
AcDbArc
 50
270.0
 51
355.0000000028
  0
ARC
  5
2B8
330
1F
100
AcDbEntity
  8
SLD-0_0
  6
SLD-Solid
 62
   179
370
    15
100
AcDbCircle
 10
406.9277273609
 20
1043.0897164209
 30
0.0
 40
2.0
100
AcDbArc
 50
90.0
 51
173.5
  0
ARC
  5
2B9
330
1F
100
AcDbEntity
  8
SLD-0_0
  6
SLD-Solid
 62
   179
370
    15
100
AcDbCircle
 10
688.3575908633
 20
1043.0897164209
 30
0.0
 40
2.0
100
AcDbArc
 50
6.5
 51
90.0
  0
ARC
  5
2BA
330
1F
100
AcDbEntity
  8
SLD-0_0
  6
SLD-Solid
 62
   179
370
    15
100
AcDbCircle
 10
408.3575908633
 20
1043.0897164209
 30
0.0
 40
2.0
100
AcDbArc
 50
6.5
 51
90.0
  0
ARC
  5
2BB
330
1F
100
AcDbEntity
  8
SLD-0_0
  6
SLD-Solid
 62
   179
370
    15
100
AcDbCircle
 10
686.9277273609
 20
1043.0897164209
 30
0.0
 40
2.000000000053793
100
AcDbArc
 50
90.0
 51
173.4999999983
  0
ARC
  5
2BC
330
1F
100
AcDbEntity
  8
SLD-0_0
  6
SLD-Solid
 62
   179
370
    15
100
AcDbCircle
 10
356.9277273609
 20
1043.0897164209
 30
0.0
 40
2.000000000053793
100
AcDbArc
 50
90.0
 51
173.4999999983
  0
ARC
  5
2BD
330
1F
100
AcDbEntity
  8
SLD-0_0
  6
SLD-Solid
 62
   179
370
    15
100
AcDbCircle
 10
358.3575908633
 20
1043.0897164209
 30
0.0
 40
2.0
100
AcDbArc
 50
6.500000002
 51
90.0
  0
ARC
  5
2BE
330
1F
100
AcDbEntity
  8
SLD-0_0
  6
SLD-Solid
 62
   179
370
    15
100
AcDbCircle
 10
456.9277273609
 20
1043.0897164209
 30
0.0
 40
2.000000000053849
100
AcDbArc
 50
90.0
 51
173.4999999983
  0
ARC
  5
2BF
330
1F
100
AcDbEntity
  8
SLD-0_0
  6
SLD-Solid
 62
   179
370
    15
100
AcDbCircle
 10
458.3575908633
 20
1043.0897164209
 30
0.0
 40
2.0
100
AcDbArc
 50
6.500000002
 51
90.0
  0
ARC
  5
2C0
330
1F
100
AcDbEntity
  8
SLD-0_0
  6
SLD-Solid
 62
   179
370
    15
100
AcDbCircle
 10
638.3575908633
 20
1043.0897164209
 30
0.0
 40
2.0
100
AcDbArc
 50
6.500000002
 51
90.0
  0
ARC
  5
2C1
330
1F
100
AcDbEntity
  8
SLD-0_0
  6
SLD-Solid
 62
   179
370
    15
100
AcDbCircle
 10
636.9277273609
 20
1043.0897164209
 30
0.0
 40
2.000000000053793
100
AcDbArc
 50
90.0
 51
173.4999999983
  0
ARC
  5
2C2
330
1F
100
AcDbEntity
  8
SLD-0_0
  6
SLD-Solid
 62
   179
370
    15
100
AcDbCircle
 10
738.3575908633
 20
1043.0897164209
 30
0.0
 40
2.0
100
AcDbArc
 50
6.500000002
 51
90.0
  0
ARC
  5
2C3
330
1F
100
AcDbEntity
  8
SLD-0_0
  6
SLD-Solid
 62
   179
370
    15
100
AcDbCircle
 10
736.9277273609
 20
1043.0897164209
 30
0.0
 40
2.000000000053793
100
AcDbArc
 50
90.0
 51
173.4999999983
  0
ARC
  5
2C4
330
1F
100
AcDbEntity
  8
SLD-0_0
  6
SLD-Solid
 62
   179
370
    15
100
AcDbCircle
 10
274.3932936666
 20
1027.5897164209
 30
0.0
 40
5.000000000000004
100
AcDbArc
 50
270.0
 51
336.0375110254
  0
ARC
  5
2C5
330
1F
100
AcDbEntity
  8
SLD-0_0
  6
SLD-Solid
 62
   179
370
    15
100
AcDbCircle
 10
820.8920245575
 20
1027.5897164209
 30
0.0
 40
5.000000000000004
100
AcDbArc
 50
203.9624889746
 51
270.0
  0
ARC
  5
2C6
330
1F
100
AcDbEntity
  8
SLD-0_0
  6
SLD-Solid
 62
   179
370
    15
100
AcDbCircle
 10
539.8920245575
 20
1027.5897164209
 30
0.0
 40
5.000000000000107
100
AcDbArc
 50
203.9624889746
 51
270.0
  0
ARC
  5
2C7
330
1F
100
AcDbEntity
  8
SLD-0_0
  6
SLD-Solid
 62
   179
370
    15
100
AcDbCircle
 10
555.3932936666
 20
1027.5897164209
 30
0.0
 40
5.000000000000004
100
AcDbArc
 50
270.0
 51
336.0375110254
  0
ARC
  5
2C8
330
1F
100
AcDbEntity
  8
SLD-0_0
  6
SLD-Solid
 62
   179
370
    15
100
AcDbCircle
 10
288.9424052903
 20
1043.0897164209
 30
0.0
 40
2.000000000051568
100
AcDbArc
 50
90.0
 51
156.0375110263
  0
ARC
  5
2C9
330
1F
100
AcDbEntity
  8
SLD-0_0
  6
SLD-Solid
 62
   179
370
    15
100
AcDbCircle
 10
806.3429129339
 20
1043.0897164209
 30
0.0
 40
2.000000000051516
100
AcDbArc
 50
23.9624889737
 51
90.0
  0
ARC
  5
2CA
330
1F
100
AcDbEntity
  8
SLD-0_0
  6
SLD-Solid
 62
   179
370
    15
100
AcDbCircle
 10
525.6028621695
 20
1043.4897164209
 30
0.0
 40
1.600000000012858
100
AcDbArc
 50
23.9624889749
 51
90.0
  0
ARC
  5
2CB
330
1F
100
AcDbEntity
  8
SLD-0_0
  6
SLD-Solid
 62
   179
370
    15
100
AcDbCircle
 10
569.6824560546
 20
1043.4897164209
 30
0.0
 40
1.600000000012858
100
AcDbArc
 50
90.0
 51
156.0375110251
  0
ARC
  5
2CC
330
1F
100
AcDbEntity
  8
SLD-0_0
  6
SLD-Solid
 62
   179
370
    15
100
AcDbCircle
 10
372.3925773146
 20
900.1733042352
 30
0.0
 40
135.0000000000002
100
AcDbArc
 50
93.487847246
 51
94.7028122098
  0
ARC
  5
2CD
330
1F
100
AcDbEntity
  8
SLD-0_0
  6
SLD-Solid
 62
   179
370
    15
100
AcDbCircle
 10
372.3925773146
 20
900.1733042352
 30
0.0
 40
135.0000000000001
100
AcDbArc
 50
97.9001814258
 51
112.6591189244
  0
ARC
  5
2CE
330
1F
100
AcDbEntity
  8
SLD-0_0
  6
SLD-Solid
 62
   179
370
    15
100
AcDbCircle
 10
722.8927409095
 20
900.1733042352
 30
0.0
 40
135.0000000000003
100
AcDbArc
 50
85.2971877902
 51
86.512152754
  0
ARC
  5
2CF
330
1F
100
AcDbEntity
  8
SLD-0_0
  6
SLD-Solid
 62
   179
370
    15
100
AcDbCircle
 10
722.8927409095
 20
900.1733042352
 30
0.0
 40
135.0000000000001
100
AcDbArc
 50
67.3408810756
 51
82.0998185742
  0
ARC
  5
2D0
330
1F
100
AcDbEntity
  8
SLD-0_0
  6
SLD-Solid
 62
   179
370
    15
100
AcDbCircle
 10
442.8927409095
 20
900.1733042352
 30
0.0
 40
135.0
100
AcDbArc
 50
67.3515265346
 51
82.1127497541
  0
ARC
  5
2D1
330
1F
100
AcDbEntity
  8
SLD-0_0
  6
SLD-Solid
 62
   179
370
    15
100
AcDbCircle
 10
442.8927409095
 20
900.1733042352
 30
0.0
 40
135.0000000000002
100
AcDbArc
 50
85.2971877902
 51
86.512152754
  0
ARC
  5
2D2
330
1F
100
AcDbEntity
  8
SLD-0_0
  6
SLD-Solid
 62
   179
370
    15
100
AcDbCircle
 10
652.3925773146
 20
900.1733042352
 30
0.0
 40
135.0
100
AcDbArc
 50
97.8872502459
 51
112.6484734654
  0
ARC
  5
2D3
330
1F
100
AcDbEntity
  8
SLD-0_0
  6
SLD-Solid
 62
   179
370
    15
100
AcDbCircle
 10
652.3925773146
 20
900.1733042352
 30
0.0
 40
135.0000000000002
100
AcDbArc
 50
93.487847246
 51
94.7028167161
  0
ARC
  5
2D4
330
1F
100
AcDbEntity
  8
SLD-0_0
  6
SLD-Solid
 62
   179
370
    15
100
AcDbCircle
 10
364.9351101288
 20
1043.0897164209
 30
0.0
 40
2.0
100
AcDbArc
 50
5.000000001
 51
90.0
  0
ARC
  5
2D5
330
1F
100
AcDbEntity
  8
SLD-0_0
  6
SLD-Solid
 62
   179
370
    15
100
AcDbCircle
 10
450.3502080954
 20
1043.0897164209
 30
0.0
 40
2.000000000037482
100
AcDbArc
 50
90.0
 51
174.9999999991
  0
ARC
  5
2D6
330
1F
100
AcDbEntity
  8
SLD-0_0
  6
SLD-Solid
 62
   179
370
    15
100
AcDbCircle
 10
644.9351101288
 20
1043.0897164209
 30
0.0
 40
2.000000000012113
100
AcDbArc
 50
5.000000001
 51
90.0
  0
ARC
  5
2D7
330
1F
100
AcDbEntity
  8
SLD-0_0
  6
SLD-Solid
 62
   179
370
    15
100
AcDbCircle
 10
730.3502080954
 20
1043.0897164209
 30
0.0
 40
2.000000000007356
100
AcDbArc
 50
90.0
 51
174.999999999
  0
ARC
  5
2D8
330
1F
100
AcDbEntity
  8
SLD-0_0
  6
SLD-Solid
 62
   179
370
    15
100
AcDbCircle
 10
893.4426591121
 20
962.5807147295
 30
0.0
 40
1.0
100
AcDbArc
 50
90.0
 51
180.0
  0
ARC
  5
2D9
330
1F
100
AcDbEntity
  8
SLD-0_0
  6
SLD-Solid
 62
   179
370
    15
100
AcDbCircle
 10
893.4426591121
 20
843.8930402023
 30
0.0
 40
1.0
100
AcDbArc
 50
180.0
 51
270.0
  0
ARC
  5
2DA
330
1F
100
AcDbEntity
  8
SLD-0_0
  6
SLD-Solid
 62
   179
370
    15
100
AcDbCircle
 10
910.6818199279
 20
962.3307147295
 30
0.0
 40
2.050000000069082
100
AcDbArc
 50
17.9999999974
 51
90.0
  0
ARC
  5
2DB
330
1F
100
AcDbEntity
  8
SLD-0_0
  6
SLD-Solid
 62
   179
370
    15
100
AcDbCircle
 10
910.6818199279
 20
962.3307147295
 30
0.0
 40
1.250000000008365
100
AcDbArc
 50
17.9999999966
 51
90.0
  0
ARC
  5
2DC
330
1F
100
AcDbEntity
  8
SLD-0_0
  6
SLD-Solid
 62
   179
370
    15
100
AcDbCircle
 10
946.4661679029
 20
891.1924352074
 30
0.0
 40
10.8
100
AcDbArc
 50
197.9999999997
 51
250.0
  0
ARC
  5
2DD
330
1F
100
AcDbEntity
  8
SLD-0_0
  6
SLD-Solid
 62
   179
370
    15
100
AcDbCircle
 10
946.4661679029
 20
891.1924352074
 30
0.0
 40
10.00000000003092
100
AcDbArc
 50
197.9999999996
 51
250.0
  0
ARC
  5
2DE
330
1F
100
AcDbEntity
  8
SLD-0_0
  6
SLD-Solid
 62
   179
370
    15
100
AcDbCircle
 10
953.0867284129
 20
844.1430402023
 30
0.0
 40
1.25
100
AcDbArc
 50
270.0
 51
320.0000000003
  0
ARC
  5
2DF
330
1F
100
AcDbEntity
  8
SLD-0_0
  6
SLD-Solid
 62
   179
370
    15
100
AcDbCircle
 10
953.0867284129
 20
844.1430402023
 30
0.0
 40
2.049999999999955
100
AcDbArc
 50
270.0
 51
320.0000000013
  0
ARC
  5
2E0
330
1F
100
AcDbEntity
  8
SLD-0_0
  6
SLD-Solid
 62
   179
370
    15
100
AcDbCircle
 10
958.8025416821
 20
864.5674646855
 30
0.0
 40
10.80000000000556
100
AcDbArc
 50
319.9999999998
 51
70.0000000001
  0
ARC
  5
2E1
330
1F
100
AcDbEntity
  8
SLD-0_0
  6
SLD-Solid
 62
   179
370
    15
100
AcDbCircle
 10
958.8025416821
 20
864.5674646855
 30
0.0
 40
10.00000000001908
100
AcDbArc
 50
320.0000000003
 51
70.0000000004
  0
ARC
  5
2E2
330
1F
100
AcDbEntity
  8
SLD-0_0
  6
SLD-Solid
 62
   179
370
    15
100
AcDbCircle
 10
913.4239386442
 20
964.5703654253
 30
0.0
 40
1.250000000008365
100
AcDbArc
 50
155.0919087087
 51
197.9999999966
  0
ARC
  5
2E3
330
1F
100
AcDbEntity
  8
SLD-0_0
  6
SLD-Solid
 62
   179
370
    15
100
AcDbCircle
 10
809.5926591121
 20
996.8397164205
 30
0.0
 40
1.240000000000009
100
AcDbArc
 50
90.0
 51
180.0
  0
ARC
  5
2E4
330
1F
100
AcDbEntity
  8
SLD-0_0
  6
SLD-Solid
 62
   179
370
    15
100
AcDbCircle
 10
831.3926591121
 20
1000.5397164205
 30
0.0
 40
2.46000000000015
100
AcDbArc
 50
270.0
 51
0.0
  0
ARC
  5
2E5
330
1F
100
AcDbEntity
  8
SLD-0_0
  6
SLD-Solid
 62
   179
370
    15
100
AcDbCircle
 10
926.4094676106
 20
995.9897164205
 30
0.0
 40
21.99999999999999
100
AcDbArc
 50
293.5
 51
88.6977110648
  0
ARC
  5
2E6
330
1F
100
AcDbEntity
  8
SLD-0_0
  6
SLD-Solid
 62
   179
370
    15
100
AcDbCircle
 10
911.5618125399
 20
966.7397164205
 30
0.0
 40
0.1250000000001137
100
AcDbArc
 50
0.0
 51
180.0
  0
ARC
  5
2E7
330
1F
100
AcDbEntity
  8
SLD-0_0
  6
SLD-Solid
 62
   179
370
    15
100
AcDbCircle
 10
891.1176591121
 20
984.1397164205
 30
0.0
 40
0.125000000023892
100
AcDbArc
 50
23.5781784734
 51
156.4218215218
  0
ARC
  5
2E8
330
1F
100
AcDbEntity
  8
SLD-0_0
  6
SLD-Solid
 62
   179
370
    15
100
AcDbCircle
 10
914.4015307484
 20
980.6825160592
 30
0.0
 40
0.2500000000000793
100
AcDbArc
 50
99.9421486627
 51
279.9421486627
  0
ARC
  5
2E9
330
1F
100
AcDbEntity
  8
SLD-0_0
  6
SLD-Solid
 62
   179
370
    15
100
AcDbCircle
 10
913.9094676106
 20
983.4897164205
 30
0.0
 40
3.100000000011521
100
AcDbArc
 50
279.9421486626
 51
80.0578513373
  0
ARC
  5
2EA
330
1F
100
AcDbEntity
  8
SLD-0_0
  6
SLD-Solid
 62
   179
370
    15
100
AcDbCircle
 10
914.4015307484
 20
986.2969167818
 30
0.0
 40
0.2500000000000793
100
AcDbArc
 50
80.0578513357
 51
260.0578513373
  0
ARC
  5
2EB
330
1F
100
AcDbEntity
  8
SLD-0_0
  6
SLD-Solid
 62
   179
370
    15
100
AcDbCircle
 10
913.9094676106
 20
983.4897164205
 30
0.0
 40
2.600000000011363
100
AcDbArc
 50
279.9421486625
 51
80.0578513375
  0
ARC
  5
2EC
330
1F
100
AcDbEntity
  8
SLD-0_0
  6
SLD-Solid
 62
   179
370
    15
100
AcDbCircle
 10
913.4174044728
 20
986.2969167818
 30
0.0
 40
0.2500000000000989
100
AcDbArc
 50
279.9421486627
 51
99.9421486626
  0
ARC
  5
2ED
330
1F
100
AcDbEntity
  8
SLD-0_0
  6
SLD-Solid
 62
   179
370
    15
100
AcDbCircle
 10
913.9094676106
 20
983.4897164205
 30
0.0
 40
3.100000000011107
100
AcDbArc
 50
99.9421486626
 51
260.0578513373
  0
ARC
  5
2EE
330
1F
100
AcDbEntity
  8
SLD-0_0
  6
SLD-Solid
 62
   179
370
    15
100
AcDbCircle
 10
913.4174044728
 20
980.6825160592
 30
0.0
 40
0.2500000000000989
100
AcDbArc
 50
260.0578513358
 51
80.0578513373
  0
ARC
  5
2EF
330
1F
100
AcDbEntity
  8
SLD-0_0
  6
SLD-Solid
 62
   179
370
    15
100
AcDbCircle
 10
913.9094676106
 20
983.4897164205
 30
0.0
 40
2.600000000011363
100
AcDbArc
 50
99.9421486625
 51
260.0578513375
  0
ARC
  5
2F0
330
1F
100
AcDbEntity
  8
SLD-0_0
  6
SLD-Solid
 62
   179
370
    15
100
AcDbCircle
 10
809.5926591121
 20
996.8397164205
 30
0.0
 40
2.450000000000045
100
AcDbArc
 50
90.0
 51
180.0
  0
ARC
  5
2F1
330
1F
100
AcDbEntity
  8
SLD-0_0
  6
SLD-Solid
 62
   179
370
    15
100
AcDbCircle
 10
809.5926591121
 20
996.8397164205
 30
0.0
 40
1.25
100
AcDbArc
 50
90.0
 51
180.0
  0
ARC
  5
2F2
330
1F
100
AcDbEntity
  8
SLD-0_0
  6
SLD-Solid
 62
   179
370
    15
100
AcDbCircle
 10
831.3926591121
 20
1000.5397164205
 30
0.0
 40
1.250000000000114
100
AcDbArc
 50
270.0
 51
0.0
  0
ARC
  5
2F3
330
1F
100
AcDbEntity
  8
SLD-0_0
  6
SLD-Solid
 62
   179
370
    15
100
AcDbCircle
 10
831.3926591121
 20
1000.5397164205
 30
0.0
 40
2.450000000000159
100
AcDbArc
 50
270.0
 51
0.0
  0
ARC
  5
2F4
330
1F
100
AcDbEntity
  8
SLD-0_0
  6
SLD-Solid
 62
   179
370
    15
100
AcDbCircle
 10
926.4094676106
 20
995.9897164205
 30
0.0
 40
23.30000000000119
100
AcDbArc
 50
293.4999999998
 51
88.7703824493
  0
ARC
  5
2F5
330
1F
100
AcDbEntity
  8
SLD-0_0
  6
SLD-Solid
 62
   179
370
    15
100
AcDbCircle
 10
926.4094676106
 20
995.9897164205
 30
0.0
 40
22.09999999999998
100
AcDbArc
 50
293.4999999999
 51
88.703604783
  0
ARC
  5
2F6
330
1F
100
AcDbEntity
  8
SLD-0_0
  6
SLD-Solid
 62
   179
370
    15
100
AcDbCircle
 10
835.0926591121
 20
1016.8397164205
 30
0.0
 40
1.25
100
AcDbArc
 50
90.0
 51
180.0
  0
ARC
  5
2F7
330
1F
100
AcDbEntity
  8
SLD-0_0
  6
SLD-Solid
 62
   179
370
    15
100
AcDbCircle
 10
835.0926591121
 20
1016.8397164205
 30
0.0
 40
2.450000000000045
100
AcDbArc
 50
90.0
 51
180.0
  0
ARC
  5
2F8
330
1F
100
AcDbEntity
  8
SLD-0_0
  6
SLD-Solid
 62
   179
370
    15
100
AcDbCircle
 10
926.4094676106
 20
995.9897164205
 30
0.0
 40
23.2999999999999
100
AcDbArc
 50
88.7703824493
 51
90.0
  0
ARC
  5
2F9
330
1F
100
AcDbEntity
  8
SLD-0_0
  6
SLD-Solid
 62
   179
370
    15
100
AcDbCircle
 10
926.4094676106
 20
995.9897164205
 30
0.0
 40
22.10000000000002
100
AcDbArc
 50
88.703604783
 51
90.0
  0
ARC
  5
2FA
330
1F
100
AcDbEntity
  8
SLD-0_0
  6
SLD-Solid
 62
   179
370
    15
100
AcDbCircle
 10
268.7425046164
 20
1001.5897164209
 30
0.0
 40
1.500000000000114
100
AcDbArc
 50
197.5
 51
270.0
  0
ARC
  5
2FB
330
1F
100
AcDbEntity
  8
SLD-0_0
  6
SLD-Solid
 62
   179
370
    15
100
AcDbCircle
 10
268.7425046164
 20
1001.5897164209
 30
0.0
 40
2.300000000000068
100
AcDbArc
 50
197.5
 51
270.0
  0
ARC
  5
2FC
330
1F
100
AcDbEntity
  8
SLD-0_0
  6
SLD-Solid
 62
   179
370
    15
100
AcDbCircle
 10
800.1425046164
 20
988.2897164209
 30
0.0
 40
5.0
100
AcDbArc
 50
270.0
 51
0.0
  0
ARC
  5
2FD
330
1F
100
AcDbEntity
  8
SLD-0_0
  6
SLD-Solid
 62
   179
370
    15
100
AcDbCircle
 10
295.1425046164
 20
988.2897164209
 30
0.0
 40
5.0
100
AcDbArc
 50
180.0
 51
270.0
  0
ARC
  5
2FE
330
1F
100
AcDbEntity
  8
SLD-0_0
  6
SLD-Solid
 62
   179
370
    15
100
AcDbCircle
 10
826.5428136076
 20
1001.5897164209
 30
0.0
 40
2.300000000400019
100
AcDbArc
 50
270.0
 51
342.500000002
  0
ARC
  5
2FF
330
1F
100
AcDbEntity
  8
SLD-0_0
  6
SLD-Solid
 62
   179
370
    15
100
AcDbCircle
 10
826.5428136076
 20
1001.5897164209
 30
0.0
 40
1.500000000056976
100
AcDbArc
 50
270.0
 51
342.5000000029
  0
ARC
  5
300
330
1F
100
AcDbEntity
  8
SLD-0_0
  6
SLD-Solid
 62
   179
370
    15
100
AcDbCircle
 10
288.642659112
 20
996.0897164209
 30
0.0
 40
3.200000000000185
100
AcDbArc
 50
62.0436814777
 51
90.0
  0
ARC
  5
301
330
1F
100
AcDbEntity
  8
SLD-0_0
  6
SLD-Solid
 62
   179
370
    15
100
AcDbCircle
 10
806.642659112
 20
996.0897164209
 30
0.0
 40
3.200000000000164
100
AcDbArc
 50
90.0
 51
117.9500553353
  0
ARC
  5
302
330
1F
100
AcDbEntity
  8
SLD-0_0
  6
SLD-Solid
 62
   179
370
    15
100
AcDbCircle
 10
800.1428136076
 20
988.2897164209
 30
0.0
 40
5.0
100
AcDbArc
 50
270.0
 51
0.0
  0
ARC
  5
303
330
1F
100
AcDbEntity
  8
SLD-0_0
  6
SLD-Solid
 62
   179
370
    15
100
AcDbCircle
 10
184.9426591121
 20
983.0897164196
 30
0.0
 40
1.0
100
AcDbArc
 50
180.0
 51
270.0
  0
ARC
  5
304
330
1F
100
AcDbEntity
  8
SLD-0_0
  6
SLD-Solid
 62
   179
370
    15
100
AcDbCircle
 10
286.3426591121
 20
983.0897164196
 30
0.0
 40
1.000000000000057
100
AcDbArc
 50
270.0
 51
0.0
  0
ARC
  5
305
330
1F
100
AcDbEntity
  8
SLD-0_0
  6
SLD-Solid
 62
   179
370
    15
100
AcDbCircle
 10
185.1926591121
 20
1067.2691715793
 30
0.0
 40
1.250000000000024
100
AcDbArc
 50
75.0
 51
180.0
  0
ARC
  5
306
330
1F
100
AcDbEntity
  8
SLD-0_0
  6
SLD-Solid
 62
   179
370
    15
100
AcDbCircle
 10
185.1926591121
 20
1067.2691715793
 30
0.0
 40
2.05000000000009
100
AcDbArc
 50
75.0
 51
180.0
  0
ARC
  5
307
330
1F
100
AcDbEntity
  8
SLD-0_0
  6
SLD-Solid
 62
   179
370
    15
100
AcDbCircle
 10
212.3426591121
 20
1035.4065417201
 30
0.0
 40
25.0
100
AcDbArc
 50
0.0
 51
74.9999999999
  0
ARC
  5
308
330
1F
100
AcDbEntity
  8
SLD-0_0
  6
SLD-Solid
 62
   179
370
    15
100
AcDbCircle
 10
212.3426591121
 20
1035.4065417201
 30
0.0
 40
25.79999999999998
100
AcDbArc
 50
0.0
 51
75.0000000001
  0
ARC
  5
309
330
1F
100
AcDbEntity
  8
SLD-0_0
  6
SLD-Solid
 62
   179
370
    15
100
AcDbCircle
 10
239.3926591121
 20
1020.5397164196
 30
0.0
 40
2.05000000000004
100
AcDbArc
 50
180.0
 51
270.0
  0
ARC
  5
30A
330
1F
100
AcDbEntity
  8
SLD-0_0
  6
SLD-Solid
 62
   179
370
    15
100
AcDbCircle
 10
239.3926591121
 20
1020.5397164196
 30
0.0
 40
1.250000000000028
100
AcDbArc
 50
180.0
 51
270.0
  0
ARC
  5
30B
330
1F
100
AcDbEntity
  8
SLD-0_0
  6
SLD-Solid
 62
   179
370
    15
100
AcDbCircle
 10
263.8926591121
 20
1000.5397164196
 30
0.0
 40
1.250000000000114
100
AcDbArc
 50
180.0
 51
270.0
  0
ARC
  5
30C
330
1F
100
AcDbEntity
  8
SLD-0_0
  6
SLD-Solid
 62
   179
370
    15
100
AcDbCircle
 10
263.8926591121
 20
1000.5397164196
 30
0.0
 40
2.049999999999955
100
AcDbArc
 50
180.0
 51
270.0
  0
ARC
  5
30D
330
1F
100
AcDbEntity
  8
SLD-0_0
  6
SLD-Solid
 62
   179
370
    15
100
AcDbCircle
 10
260.5926591121
 20
1017.2397164196
 30
0.0
 40
2.049999999999898
100
AcDbArc
 50
0.0
 51
90.0
  0
ARC
  5
30E
330
1F
100
AcDbEntity
  8
SLD-0_0
  6
SLD-Solid
 62
   179
370
    15
100
AcDbCircle
 10
260.5926591121
 20
1017.2397164196
 30
0.0
 40
1.25
100
AcDbArc
 50
0.0
 51
90.0
  0
ARC
  5
30F
330
1F
100
AcDbEntity
  8
SLD-0_0
  6
SLD-Solid
 62
   179
370
    15
100
AcDbCircle
 10
286.0926591121
 20
997.2397164196
 30
0.0
 40
2.050000000000068
100
AcDbArc
 50
0.0
 51
90.0
  0
ARC
  5
310
330
1F
100
AcDbEntity
  8
SLD-0_0
  6
SLD-Solid
 62
   179
370
    15
100
AcDbCircle
 10
286.0926591121
 20
997.2397164196
 30
0.0
 40
1.250000000000057
100
AcDbArc
 50
0.0
 51
90.0
  0
ARC
  5
311
330
1F
100
AcDbEntity
  8
SLD-0_0
  6
SLD-Solid
 62
   179
370
    15
100
AcDbCircle
 10
923.6426591121
 20
831.5897164204
 30
0.0
 40
6.500000000000079
100
AcDbArc
 50
26.7436839505
 51
153.2563160496
  0
ARC
  5
312
330
1F
100
AcDbEntity
  8
SLD-0_0
  6
SLD-Solid
 62
   179
370
    15
100
AcDbCircle
 10
895.1426591121
 20
831.0897164204
 30
0.0
 40
1.5
100
AcDbArc
 50
102.0966649954
 51
180.0
  0
ARC
  5
313
330
1F
100
AcDbEntity
  8
SLD-0_0
  6
SLD-Solid
 62
   179
370
    15
100
AcDbCircle
 10
914.7123735623
 20
836.0897164204
 30
0.0
 40
1.50000000000001
100
AcDbArc
 50
270.0
 51
333.2563160496
  0
ARC
  5
314
330
1F
100
AcDbEntity
  8
SLD-0_0
  6
SLD-Solid
 62
   179
370
    15
100
AcDbCircle
 10
923.6426591121
 20
831.5897164204
 30
0.0
 40
8.500000000048352
100
AcDbArc
 50
26.7436839504
 51
153.2563160498
  0
ARC
  5
315
330
1F
100
AcDbEntity
  8
SLD-0_0
  6
SLD-Solid
 62
   179
370
    15
100
AcDbCircle
 10
932.5729446618
 20
836.0897164204
 30
0.0
 40
1.5
100
AcDbArc
 50
206.7436839512
 51
270.0
  0
ARC
  5
316
330
1F
100
AcDbEntity
  8
SLD-0_0
  6
SLD-Solid
 62
   179
370
    15
100
AcDbCircle
 10
946.878168641
 20
836.0897164204
 30
0.0
 40
1.500000000000038
100
AcDbArc
 50
270.0
 51
290.0
  0
ARC
  5
317
330
1F
100
AcDbEntity
  8
SLD-0_0
  6
SLD-Solid
 62
   179
370
    15
100
AcDbCircle
 10
895.1426591121
 20
831.0897164204
 30
0.0
 40
3.500000000000072
100
AcDbArc
 50
121.0987555926
 51
140.4823471747
  0
ARC
  5
318
330
1F
100
AcDbEntity
  8
SLD-0_0
  6
SLD-Solid
 62
   179
370
    15
100
AcDbCircle
 10
895.6426591121
 20
811.6280088732
 30
0.0
 40
4.000000000000068
100
AcDbArc
 50
0.0
 51
143.1301023281
  0
ARC
  5
319
330
1F
100
AcDbEntity
  8
SLD-0_0
  6
SLD-Solid
 62
   179
370
    15
100
AcDbCircle
 10
890.6426591121
 20
384.8897164207
 30
0.0
 40
9.000000000000002
100
AcDbArc
 50
281.5369590399
 51
0.0
  0
ARC
  5
31A
330
1F
100
AcDbEntity
  8
SLD-0_0
  6
SLD-Solid
 62
   179
370
    15
100
AcDbCircle
 10
913.4426591121
 20
829.2897164206
 30
0.0
 40
2.0
100
AcDbArc
 50
90.0
 51
180.0
  0
ARC
  5
31B
330
1F
100
AcDbEntity
  8
SLD-0_0
  6
SLD-Solid
 62
   179
370
    15
100
AcDbCircle
 10
925.4426591121
 20
828.7897164206
 30
0.0
 40
6.614378277661537
100
AcDbArc
 50
53.2529562265
 51
126.7470437734
  0
ARC
  5
31C
330
1F
100
AcDbEntity
  8
SLD-0_0
  6
SLD-Solid
 62
   179
370
    15
100
AcDbCircle
 10
925.4426591121
 20
831.2897164206
 30
0.0
 40
6.500000000000176
100
AcDbArc
 50
88.6070154091
 51
154.4836126381
  0
ARC
  5
31D
330
1F
100
AcDbEntity
  8
SLD-0_0
  6
SLD-Solid
 62
   179
370
    15
100
AcDbCircle
 10
925.4426591121
 20
831.2897164206
 30
0.0
 40
5.000000000000152
100
AcDbArc
 50
34.0557977365
 51
145.9442022635
  0
CIRCLE
  5
31E
330
1F
100
AcDbEntity
  8
SLD-0_0
  6
SLD-Solid
 62
   179
370
    15
100
AcDbCircle
 10
921.4426591121
 20
566.2897164206
 30
0.0
 40
1.599999999999909
  0
CIRCLE
  5
31F
330
1F
100
AcDbEntity
  8
SLD-0_0
  6
SLD-Solid
 62
   179
370
    15
100
AcDbCircle
 10
921.4426591121
 20
334.2897164206
 30
0.0
 40
1.600000000000023
  0
CIRCLE
  5
320
330
1F
100
AcDbEntity
  8
SLD-0_0
  6
SLD-Solid
 62
   179
370
    15
100
AcDbCircle
 10
921.4426591121
 20
798.2897164206
 30
0.0
 40
1.600000000000023
  0
ARC
  5
321
330
1F
100
AcDbEntity
  8
SLD-0_0
  6
SLD-Solid
 62
   179
370
    15
100
AcDbCircle
 10
897.9426591121
 20
304.7897164206
 30
0.0
 40
5.5
100
AcDbArc
 50
180.0
 51
270.0
  0
ARC
  5
322
330
1F
100
AcDbEntity
  8
SLD-0_0
  6
SLD-Solid
 62
   179
370
    15
100
AcDbCircle
 10
897.9426591121
 20
304.7897164206
 30
0.0
 40
3.0
100
AcDbArc
 50
180.0
 51
270.0
  0
ARC
  5
323
330
1F
100
AcDbEntity
  8
SLD-0_0
  6
SLD-Solid
 62
   179
370
    15
100
AcDbCircle
 10
897.9426591121
 20
837.0897164202
 30
0.0
 40
5.500000000000114
100
AcDbArc
 50
180.0
 51
270.0
  0
ARC
  5
324
330
1F
100
AcDbEntity
  8
SLD-0_0
  6
SLD-Solid
 62
   179
370
    15
100
AcDbCircle
 10
897.9426591121
 20
837.0897164202
 30
0.0
 40
3.0
100
AcDbArc
 50
180.0
 51
270.0
  0
ARC
  5
325
330
1F
100
AcDbEntity
  8
SLD-0_0
  6
SLD-Solid
 62
   179
370
    15
100
AcDbCircle
 10
890.4186638025
 20
372.782497559
 30
0.0
 40
2.700000000049873
100
AcDbArc
 50
359.6890354595
 51
41.4418449501
  0
SPLINE
  5
326
330
1F
100
AcDbEntity
  8
SLD-0_0
  6
SLD-Solid
 62
   179
370
    15
100
AcDbSpline
210
0.0
220
0.0
230
1.0
 70
     8
 71
     3
 72
    13
 73
     9
 74
     0
 42
0.00000001
 43
0.00000001
 40
0.0
 40
0.0
 40
0.0
 40
0.0
 40
0.1560186113413472
 40
0.4086735129026285
 40
0.5953335874239285
 40
0.756109060306435
 40
0.9249103809607445
 40
1.0
 40
1.0
 40
1.0
 40
1.0
 10
173.2437051658887
 20
353.4457630770297
 30
0.0
 10
173.2434487250701
 20
353.4479813460304
 30
0.0
 10
173.2427770066816
 20
353.4537918565666
 30
0.0
 10
173.2531358492876
 20
353.4768423682235
 30
0.0
 10
173.2988563264093
 20
353.5165988717886
 30
0.0
 10
173.3666308047761
 20
353.5471364722731
 30
0.0
 10
173.4354861654261
 20
353.5637336212657
 30
0.0
 10
173.4792000870521
 20
353.5625873156637
 30
0.0
 10
173.4926588146527
 20
353.5622343888554
 30
0.0
  0
SPLINE
  5
327
330
1F
100
AcDbEntity
  8
SLD-0_0
  6
SLD-Solid
 62
   179
370
    15
100
AcDbSpline
210
0.0
220
0.0
230
1.0
 70
     8
 71
     3
 72
    13
 73
     9
 74
     0
 42
0.00000001
 43
0.00000001
 40
0.0
 40
0.0
 40
0.0
 40
0.0
 40
0.1537005146058419
 40
0.4677837651295083
 40
0.6522647620248686
 40
0.8142558356574169
 40
0.981788083886634
 40
1.0
 40
1.0
 40
1.0
 40
1.0
 10
173.2402731745007
 20
345.5517696788333
 30
0.0
 10
173.2406371146357
 20
345.5446909612067
 30
0.0
 10
173.2417447575548
 20
345.523147056867
 30
0.0
 10
173.2194776288677
 20
345.4825594286767
 30
0.0
 10
173.1573401852305
 20
345.4344560093837
 30
0.0
 10
173.0858700517811
 20
345.4068444778439
 30
0.0
 10
173.0271587389959
 20
345.3956739172885
 30
0.0
 10
172.9960142900916
 20
345.3975527665173
 30
0.0
 10
172.9929606270446
 20
345.3977369846577
 30
0.0
  0
SPLINE
  5
328
330
1F
100
AcDbEntity
  8
SLD-0_0
  6
SLD-Solid
 62
   179
370
    15
100
AcDbSpline
210
0.0
220
0.0
230
1.0
 70
     8
 71
     3
 72
    15
 73
    11
 74
     0
 42
0.00000001
 43
0.00000001
 40
0.0
 40
0.0
 40
0.0
 40
0.0
 40
0.0669649299133466
 40
0.1596954388855722
 40
0.271697163504041
 40
0.4172493750141906
 40
0.5763884185978192
 40
0.7432793526491479
 40
0.9132543269730723
 40
1.0
 40
1.0
 40
1.0
 40
1.0
 10
465.8062522075206
 20
1022.5882012873
 30
0.0
 10
465.8040484855798
 20
1022.588049098946
 30
0.0
 10
465.7987931326216
 20
1022.587686165901
 30
0.0
 10
465.4919681978359
 20
1022.637531307054
 30
0.0
 10
464.9085603348943
 20
1022.826784184242
 30
0.0
 10
464.1469104685162
 20
1023.242600702231
 30
0.0
 10
463.3641713010969
 20
1023.932866924774
 30
0.0
 10
462.732700413669
 20
1024.856517839463
 30
0.0
 10
462.3533537023054
 20
1025.759089946391
 30
0.0
 10
462.308656853712
 20
1026.335776024174
 30
0.0
 10
462.2935538292634
 20
1026.530637724854
 30
0.0
  0
SPLINE
  5
329
330
1F
100
AcDbEntity
  8
SLD-0_0
  6
SLD-Solid
 62
   179
370
    15
100
AcDbSpline
210
0.0
220
0.0
230
1.0
 70
     8
 71
     3
 72
    15
 73
    11
 74
     0
 42
0.00000001
 43
0.00000001
 40
0.0
 40
0.0
 40
0.0
 40
0.0
 40
0.1406067393657865
 40
0.3206317628552485
 40
0.4810228084601808
 40
0.6253594512284022
 40
0.7542633327014132
 40
0.8626671817772393
 40
0.9533278545178601
 40
0.9999999999999999
 40
0.9999999999999999
 40
0.9999999999999999
 40
0.9999999999999999
 10
632.9988833384463
 20
1026.460841019253
 30
0.0
 10
632.9487101712622
 20
1026.149714109649
 30
0.0
 10
632.8342980803852
 20
1025.440237665288
 30
0.0
 10
632.3280854102517
 20
1024.468508885471
 30
0.0
 10
631.633229337166
 20
1023.64699259288
 30
0.0
 10
630.8889663271358
 20
1023.088198767338
 30
0.0
 10
630.1982367964054
 20
1022.759079175764
 30
0.0
 10
629.6953937577323
 20
1022.616761710644
 30
0.0
 10
629.4650002634103
 20
1022.586370062006
 30
0.0
 10
629.4752172862757
 20
1022.587368035611
 30
0.0
 10
629.4786895107865
 20
1022.587707193941
 30
0.0
  0
SPLINE
  5
32A
330
1F
100
AcDbEntity
  8
SLD-0_0
  6
SLD-Solid
 62
   179
370
    15
100
AcDbSpline
210
0.0
220
0.0
230
1.0
 70
     8
 71
     3
 72
    15
 73
    11
 74
     0
 42
0.00000001
 43
0.00000001
 40
0.0
 40
0.0
 40
0.0
 40
0.0
 40
0.1129173009836343
 40
0.2961372825028477
 40
0.4591198900333533
 40
0.6054995994083753
 40
0.7362472457873468
 40
0.8500105417096306
 40
0.9432487829850356
 40
1.0
 40
1.0
 40
1.0
 40
1.0
 10
452.9798567732885
 20
1026.405314569371
 30
0.0
 10
452.9447548081312
 20
1026.156740806575
 30
0.0
 10
452.8526962796189
 20
1025.504830444083
 30
0.0
 10
452.3869670061151
 20
1024.57307018384
 30
0.0
 10
451.7062840764252
 20
1023.726011282454
 30
0.0
 10
450.9618518017052
 20
1023.142963097491
 30
0.0
 10
450.2661971737307
 20
1022.792015086468
 30
0.0
 10
449.7207642070974
 20
1022.627213913123
 30
0.0
 10
449.4433714804235
 20
1022.587223094279
 30
0.0
 10
449.4418295555049
 20
1022.587628669158
 30
0.0
 10
449.4412461403992
 20
1022.58778212573
 30
0.0
  0
SPLINE
  5
32B
330
1F
100
AcDbEntity
  8
SLD-0_0
  6
SLD-Solid
 62
   179
370
    15
100
AcDbSpline
210
0.0
220
0.0
230
1.0
 70
     8
 71
     3
 72
    16
 73
    12
 74
     0
 42
0.00000001
 43
0.00000001
 40
0.0
 40
0.0
 40
0.0
 40
0.0
 40
0.0013614003731385
 40
0.0878459547926692
 40
0.1823071859180242
 40
0.3120992794378337
 40
0.4594150292595016
 40
0.6200132942854136
 40
0.7870656639574098
 40
0.9723651154095456
 40
1.0
 40
1.0
 40
1.0
 40
1.0
 10
645.8618439821812
 20
1022.585998211058
 30
0.0
 10
645.86241445121
 20
1022.585982426377
 30
0.0
 10
645.8992246339541
 20
1022.58496390132
 30
0.0
 10
645.7699475634927
 20
1022.591189626177
 30
0.0
 10
645.3914138728034
 20
1022.670326141055
 30
0.0
 10
644.717875499852
 20
1022.916734851189
 30
0.0
 10
643.9313823146964
 20
1023.414028538777
 30
0.0
 10
643.1716557794797
 20
1024.170696059787
 30
0.0
 10
642.5847311554292
 20
1025.176168443772
 30
0.0
 10
642.2808747132799
 20
1026.018627010832
 30
0.0
 10
642.2733310362994
 20
1026.49810776363
 30
0.0
 10
642.2723520084609
 20
1026.560335375735
 30
0.0
  0
SPLINE
  5
32C
330
1F
100
AcDbEntity
  8
SLD-0_0
  6
SLD-Solid
 62
   179
370
    15
100
AcDbSpline
210
0.0
220
0.0
230
1.0
 70
     8
 71
     3
 72
    15
 73
    11
 74
     0
 42
0.00000001
 43
0.00000001
 40
0.0
 40
0.0
 40
0.0
 40
0.0
 40
0.020418183157001
 40
0.1289781268426728
 40
0.2366653030211159
 40
0.3640259544734786
 40
0.5130022161701712
 40
0.6761085796170068
 40
0.84293876051308
 40
1.0
 40
1.0
 40
1.0
 40
1.0
 10
415.8616268299209
 20
1022.587958383741
 30
0.0
 10
415.8680759365782
 20
1022.587755293418
 30
0.0
 10
415.9088138264333
 20
1022.586472407021
 30
0.0
 10
415.6802773088778
 20
1022.604311773322
 30
0.0
 10
415.1867953344972
 20
1022.733275813155
 30
0.0
 10
414.473415822855
 20
1023.048759914957
 30
0.0
 10
413.6841356208986
 20
1023.621054122754
 30
0.0
 10
412.9695833067164
 20
1024.456939545424
 30
0.0
 10
412.4436752350823
 20
1025.465427465503
 30
0.0
 10
412.3239718887295
 20
1026.199392763856
 30
0.0
 10
412.2659254115284
 20
1026.555306790116
 30
0.0
  0
SPLINE
  5
32D
330
1F
100
AcDbEntity
  8
SLD-0_0
  6
SLD-Solid
 62
   179
370
    15
100
AcDbSpline
210
0.0
220
0.0
230
1.0
 70
     8
 71
     3
 72
    16
 73
    12
 74
     0
 42
0.00000001
 43
0.00000001
 40
0.0
 40
0.0
 40
0.0
 40
0.0
 40
0.0329308133517121
 40
0.2022201126294047
 40
0.3774357540567862
 40
0.5337419716084657
 40
0.6681356047163389
 40
0.7846275560173763
 40
0.8853729316016601
 40
0.9806309543537954
 40
1.0
 40
1.0
 40
1.0
 40
1.0
 10
682.9976933288822
 20
1026.451437019484
 30
0.0
 10
682.9947482817128
 20
1026.37794361689
 30
0.0
 10
682.9766634635846
 20
1025.926638512716
 30
0.0
 10
682.6670264164294
 20
1025.103535981181
 30
0.0
 10
682.0848699024456
 20
1024.130845780404
 30
0.0
 10
681.3294585509041
 20
1023.399468020999
 30
0.0
 10
680.5954733154093
 20
1022.938488914805
 30
0.0
 10
679.9685704987178
 20
1022.694468795297
 30
0.0
 10
679.5651599467241
 20
1022.600498238599
 30
0.0
 10
679.3792199588493
 20
1022.586563102187
 30
0.0
 10
679.4162721819085
 20
1022.587696990421
 30
0.0
 10
679.4225330608595
 20
1022.58788858856
 30
0.0
  0
SPLINE
  5
32E
330
1F
100
AcDbEntity
  8
SLD-0_0
  6
SLD-Solid
 62
   179
370
    15
100
AcDbSpline
210
0.0
220
0.0
230
1.0
 70
     8
 71
     3
 72
    16
 73
    12
 74
     0
 42
0.00000001
 43
0.00000001
 40
0.0
 40
0.0
 40
0.0
 40
0.0
 40
0.0187506172055585
 40
0.1864609682412641
 40
0.3603724677027932
 40
0.5161230479810421
 40
0.6559116341399857
 40
0.7730820228643315
 40
0.8725942626190605
 40
0.9652409836289176
 40
1.0
 40
1.0
 40
1.0
 40
1.0
 10
403.0092777465637
 20
1026.484373281152
 30
0.0
 10
403.0083273997918
 20
1026.442093110112
 30
0.0
 10
402.9988769066534
 20
1026.021648196592
 30
0.0
 10
402.7123904081229
 20
1025.221048793677
 30
0.0
 10
402.1550383029877
 20
1024.230524741547
 30
0.0
 10
401.4063840323313
 20
1023.468989982975
 30
0.0
 10
400.652743944843
 20
1022.975060119634
 30
0.0
 10
399.9996978732787
 20
1022.710218092512
 30
0.0
 10
399.5647710734946
 20
1022.605662699931
 30
0.0
 10
399.3697174185809
 20
1022.587729651613
 30
0.0
 10
399.39552166767
 20
1022.588780726131
 30
0.0
 10
399.4025616199906
 20
1022.589067481792
 30
0.0
  0
SPLINE
  5
32F
330
1F
100
AcDbEntity
  8
SLD-0_0
  6
SLD-Solid
 62
   179
370
    15
100
AcDbSpline
210
0.0
220
0.0
230
1.0
 70
     8
 71
     3
 72
    15
 73
    11
 74
     0
 42
0.00000001
 43
0.00000001
 40
0.0
 40
0.0
 40
0.0
 40
0.0
 40
0.0911646030410381
 40
0.1923032960492731
 40
0.3082835558435905
 40
0.4497101994028697
 40
0.6095756564772037
 40
0.7742796244363936
 40
0.9550182375075766
 40
1.0
 40
1.0
 40
1.0
 40
1.0
 10
695.9018557684147
 20
1022.588666211885
 30
0.0
 10
695.8841161343013
 20
1022.589264885009
 30
0.0
 10
695.8466960173151
 20
1022.59052773058
 30
0.0
 10
695.4459733186062
 20
1022.661846017292
 30
0.0
 10
694.8127288872796
 20
1022.886151298279
 30
0.0
 10
694.0264285591749
 20
1023.348700623555
 30
0.0
 10
693.2504790520212
 20
1024.081163274896
 30
0.0
 10
692.6326732072636
 20
1025.071265330939
 30
0.0
 10
692.3020655862246
 20
1025.940890932904
 30
0.0
 10
692.2839220321432
 20
1026.456464509627
 30
0.0
 10
692.2803063681234
 20
1026.559208482641
 30
0.0
  0
SPLINE
  5
330
330
1F
100
AcDbEntity
  8
SLD-0_0
  6
SLD-Solid
 62
   179
370
    15
100
AcDbSpline
210
0.0
220
0.0
230
1.0
 70
     8
 71
     3
 72
    16
 73
    12
 74
     0
 42
0.00000001
 43
0.00000001
 40
0.0
 40
0.0
 40
0.0
 40
0.0
 40
0.0089161444754907
 40
0.0950894472930979
 40
0.1884886603453654
 40
0.3242457724828843
 40
0.470979391777944
 40
0.6287428356086883
 40
0.7924077492463134
 40
0.9732548958680571
 40
1.0
 40
1.0
 40
1.0
 40
1.0
 10
365.9931772663875
 20
1022.588595546735
 30
0.0
 10
365.9966427645329
 20
1022.588558435785
 30
0.0
 10
366.0336018228061
 20
1022.588162652638
 30
0.0
 10
365.8910191899169
 20
1022.594102146007
 30
0.0
 10
365.4801806652009
 20
1022.673119465195
 30
0.0
 10
364.7575567210807
 20
1022.931023629966
 30
0.0
 10
363.9375308519834
 20
1023.450854883959
 30
0.0
 10
363.1678367484471
 20
1024.220379744483
 30
0.0
 10
362.5793369062422
 20
1025.232464174943
 30
0.0
 10
362.2749220891442
 20
1026.075807737208
 30
0.0
 10
362.2666928702109
 20
1026.556284528707
 30
0.0
 10
362.2656326605137
 20
1026.618186655473
 30
0.0
  0
SPLINE
  5
331
330
1F
100
AcDbEntity
  8
SLD-0_0
  6
SLD-Solid
 62
   179
370
    15
100
AcDbSpline
210
0.0
220
0.0
230
1.0
 70
     8
 71
     3
 72
    15
 73
    11
 74
     0
 42
0.00000001
 43
0.00000001
 40
0.0
 40
0.0
 40
0.0
 40
0.0
 40
0.0899064948367347
 40
0.2721958050967301
 40
0.4343472598479277
 40
0.5800827826057222
 40
0.7109425735629739
 40
0.8250654058322102
 40
0.9175203180419665
 40
1.0
 40
1.0
 40
1.0
 40
1.0
 10
732.9780889270035
 20
1026.429685413179
 30
0.0
 10
732.9529380970349
 20
1026.227089257871
 30
0.0
 10
732.8767928705461
 20
1025.613720627455
 30
0.0
 10
732.4386547798325
 20
1024.703863290795
 30
0.0
 10
731.7628820253154
 20
1023.825275284166
 30
0.0
 10
731.0069144511065
 20
1023.211772251469
 30
0.0
 10
730.2843861313381
 20
1022.83273172673
 30
0.0
 10
729.6925990715332
 20
1022.646296014941
 30
0.0
 10
729.3354165150106
 20
1022.590635124259
 30
0.0
 10
729.2990389047015
 20
1022.58917121546
 30
0.0
 10
729.2818872730131
 20
1022.588480999024
 30
0.0
  0
SPLINE
  5
332
330
1F
100
AcDbEntity
  8
SLD-0_0
  6
SLD-Solid
 62
   179
370
    15
100
AcDbSpline
210
0.0
220
0.0
230
1.0
 70
     8
 71
     3
 72
    15
 73
    11
 74
     0
 42
0.00000001
 43
0.00000001
 40
0.0
 40
0.0
 40
0.0
 40
0.0
 40
0.197224667151021
 40
0.3744393895848485
 40
0.5335055472257105
 40
0.6761825856998586
 40
0.8012321447799686
 40
0.9096170056338067
 40
0.9983237116295929
 40
1.0
 40
1.0
 40
1.0
 40
1.0
 10
352.885999876709
 20
1025.859037509369
 30
0.0
 10
352.7438273499532
 20
1025.470810829374
 30
0.0
 10
352.4739067821907
 20
1024.733746023144
 30
0.0
 10
351.7785954239557
 20
1023.857070821911
 30
0.0
 10
351.029615341029
 20
1023.235169491317
 30
0.0
 10
350.3064513715706
 20
1022.848941659377
 30
0.0
 10
349.6912594913608
 20
1022.652361726089
 30
0.0
 10
349.3303297319454
 20
1022.59106766045
 30
0.0
 10
349.2178893853346
 20
1022.588187547568
 30
0.0
 10
349.2463686232772
 20
1022.588495840349
 30
0.0
 10
349.2468968135158
 20
1022.588501558102
 30
0.0
  0
SPLINE
  5
333
330
1F
100
AcDbEntity
  8
SLD-0_0
  6
SLD-Solid
 62
   179
370
    15
100
AcDbSpline
210
0.0
220
0.0
230
1.0
 70
     8
 71
     3
 72
    15
 73
    11
 74
     0
 42
0.00000001
 43
0.00000001
 40
0.0
 40
0.0
 40
0.0
 40
0.0
 40
0.0335864261405612
 40
0.1155039979178654
 40
0.2251660332675765
 40
0.3554490467562256
 40
0.503383678898561
 40
0.66167446572559
 40
0.8249793358360741
 40
0.9999999999999999
 40
0.9999999999999999
 40
0.9999999999999999
 40
0.9999999999999999
 10
746.0123245088041
 20
1022.589552900512
 30
0.0
 10
746.0196405840974
 20
1022.589309442486
 30
0.0
 10
746.0448006276793
 20
1022.588472188318
 30
0.0
 10
745.8352598431984
 20
1022.605322067906
 30
0.0
 10
745.3209694863348
 20
1022.722547746031
 30
0.0
 10
744.5756281658919
 20
1023.036639284721
 30
0.0
 10
743.7641460346532
 20
1023.602860637471
 30
0.0
 10
743.0334680727726
 20
1024.422317881725
 30
0.0
 10
742.4617422438333
 20
1025.460869825368
 30
0.0
 10
742.3182038597741
 20
1026.247336631139
 30
0.0
 10
742.2439493895491
 20
1026.654187219535
 30
0.0
  0
SPLINE
  5
334
330
1F
100
AcDbEntity
  8
SLD-0_0
  6
SLD-Solid
 62
   179
370
    15
100
AcDbSpline
210
0.0
220
0.0
230
1.0
 70
     8
 71
     3
 72
     9
 73
     5
 74
     0
 42
0.00000001
 43
0.00000001
 40
0.0
 40
0.0
 40
0.0
 40
0.0
 40
0.1606383188138127
 40
1.0
 40
1.0
 40
1.0
 40
1.0
 10
278.2897467061534
 20
1022.650498339109
 30
0.0
 10
278.4338160223141
 20
1022.655725401147
 30
0.0
 10
279.3306712510326
 20
1022.688264723499
 30
0.0
 10
280.2581881702898
 20
1022.658034926234
 30
0.0
 10
281.0367103309661
 20
1022.63266119278
 30
0.0
  0
SPLINE
  5
335
330
1F
100
AcDbEntity
  8
SLD-0_0
  6
SLD-Solid
 62
   179
370
    15
100
AcDbSpline
210
0.0
220
0.0
230
1.0
 70
     8
 71
     3
 72
     9
 73
     5
 74
     0
 42
0.00000001
 43
0.00000001
 40
0.0
 40
0.0
 40
0.0
 40
0.0
 40
0.7175286564152704
 40
0.9999999999999999
 40
0.9999999999999999
 40
0.9999999999999999
 40
0.9999999999999999
 10
814.2469885942165
 20
1022.634158975217
 30
0.0
 10
814.8709430398394
 20
1022.655394999238
 30
0.0
 10
815.7405312298639
 20
1022.684991063216
 30
0.0
 10
816.5774418504092
 20
1022.657253115909
 30
0.0
 10
816.8138451178548
 20
1022.649417940666
 30
0.0
  0
SPLINE
  5
336
330
1F
100
AcDbEntity
  8
SLD-0_0
  6
SLD-Solid
 62
   179
370
    15
100
AcDbSpline
210
0.0
220
0.0
230
1.0
 70
     8
 71
     3
 72
    20
 73
    16
 74
     0
 42
0.00000001
 43
0.00000001
 40
0.0
 40
0.0
 40
0.0
 40
0.0
 40
0.0465868844696855
 40
0.1303859211133525
 40
0.2144070518007181
 40
0.2988504375686196
 40
0.3837755090218054
 40
0.469169364905676
 40
0.554969582585257
 40
0.641091767118237
 40
0.7274519196378576
 40
0.8139793870553236
 40
0.9006212194071512
 40
0.9873410769666917
 40
1.0
 40
1.0
 40
1.0
 40
1.0
 10
304.0731717799656
 20
1045.089716420935
 30
0.0
 10
303.6256846362265
 20
1045.079976861245
 30
0.0
 10
302.3732715571598
 20
1045.052718084965
 30
0.0
 10
300.3074612241164
 20
1044.759198211251
 30
0.0
 10
297.8983585021081
 20
1044.121449145861
 30
0.0
 10
295.521172862694
 20
1043.174361796521
 30
0.0
 10
293.1956919594474
 20
1041.930176939471
 30
0.0
 10
290.9423672003889
 20
1040.396965659782
 30
0.0
 10
288.7820490901694
 20
1038.587976243499
 30
0.0
 10
286.734906010465
 20
1036.519323982743
 30
0.0
 10
284.8205899106301
 20
1034.209840072877
 30
0.0
 10
283.0550842755999
 20
1031.682175997385
 30
0.0
 10
281.460723584678
 20
1028.955722197119
 30
0.0
 10
280.4361596532394
 20
1026.892942883154
 30
0.0
 10
279.9464873500261
 20
1025.749890714356
 30
0.0
 10
279.884112626157
 20
1025.604288108432
 30
0.0
  0
SPLINE
  5
337
330
1F
100
AcDbEntity
  8
SLD-0_0
  6
SLD-Solid
 62
   179
370
    15
100
AcDbSpline
210
0.0
220
0.0
230
1.0
 70
     8
 71
     3
 72
    20
 73
    16
 74
     0
 42
0.00000001
 43
0.00000001
 40
0.0
 40
0.0
 40
0.0
 40
0.0
 40
0.0296691240336831
 40
0.1164975448065778
 40
0.2033418079526314
 40
0.2901572954291407
 40
0.3769212842515878
 40
0.4635956032190689
 40
0.5501221340999
 40
0.6364211177545807
 40
0.7223959883842767
 40
0.8079485979574474
 40
0.893005620300959
 40
0.9775501674373843
 40
1.0
 40
1.0
 40
1.0
 40
1.0
 10
815.3967123916834
 20
1025.603683417624
 30
0.0
 10
815.2493436048824
 20
1025.944122794541
 30
0.0
 10
814.6706914740009
 20
1027.28087785078
 30
0.0
 10
813.5212737939223
 20
1029.510479494488
 30
0.0
 10
811.8888142046231
 20
1032.206876370081
 30
0.0
 10
810.0847926342644
 20
1034.701283333372
 30
0.0
 10
808.1313824838617
 20
1036.974654616471
 30
0.0
 10
806.0435780814558
 20
1039.004036098333
 30
0.0
 10
803.8403973750532
 20
1040.769820280486
 30
0.0
 10
801.5420649194418
 20
1042.254252935971
 30
0.0
 10
799.1708386171529
 20
1043.442093481621
 30
0.0
 10
796.7503590711199
 20
1044.322622964745
 30
0.0
 10
794.3057858555285
 20
1044.884692551283
 30
0.0
 10
792.4545232366705
 20
1045.076122522747
 30
0.0
 10
791.427614949777
 20
1045.087358797269
 30
0.0
 10
791.212146444209
 20
1045.089716420935
 30
0.0
  0
SPLINE
  5
338
330
1F
100
AcDbEntity
  8
SLD-0_0
  6
SLD-Solid
 62
   179
370
    15
100
AcDbSpline
210
0.0
220
0.0
230
1.0
 70
     8
 71
     3
 72
    20
 73
    16
 74
     0
 42
0.00000001
 43
0.00000001
 40
0.0
 40
0.0
 40
0.0
 40
0.0
 40
0.0292059272608286
 40
0.116081876548977
 40
0.2029736735886547
 40
0.2898366661986588
 40
0.3766481087565323
 40
0.4633697951113817
 40
0.5499435583357012
 40
0.6362895794223502
 40
0.7223112309551808
 40
0.807910318994754
 40
0.8930135090936874
 40
0.9776039596457952
 40
1.0
 40
1.0
 40
1.0
 40
1.0
 10
534.3278130552313
 20
1025.622457465436
 30
0.0
 10
534.1827874650645
 20
1025.957371648551
 30
0.0
 10
533.6063687640303
 20
1027.288521538492
 30
0.0
 10
532.4593457274271
 20
1029.512619870301
 30
0.0
 10
530.8268196283283
 20
1032.208922508178
 30
0.0
 10
529.0226552935851
 20
1034.703150610365
 30
0.0
 10
527.0691383385532
 20
1036.976343004273
 30
0.0
 10
524.9812346807898
 20
1039.005524522174
 30
0.0
 10
522.7779716173586
 20
1040.771095230935
 30
0.0
 10
520.479573038418
 20
1042.255301052041
 30
0.0
 10
518.1082987729282
 20
1043.442904776398
 30
0.0
 10
515.6877903742204
 20
1044.323188119044
 30
0.0
 10
513.2432076555933
 20
1044.885013330184
 30
0.0
 10
511.3925891197217
 20
1045.076174509434
 30
0.0
 10
510.366320448113
 20
1045.087372323988
 30
0.0
 10
510.151486272425
 20
1045.089716420935
 30
0.0
  0
SPLINE
  5
339
330
1F
100
AcDbEntity
  8
SLD-0_0
  6
SLD-Solid
 62
   179
370
    15
100
AcDbSpline
210
0.0
220
0.0
230
1.0
 70
     8
 71
     3
 72
    20
 73
    16
 74
     0
 42
0.00000001
 43
0.00000001
 40
0.0
 40
0.0
 40
0.0
 40
0.0
 40
0.0466115332274645
 40
0.1304549072888403
 40
0.2145204929021422
 40
0.2990085570078593
 40
0.3839785616550006
 40
0.4694175987630155
 40
0.555263212669605
 40
0.6414309637797541
 40
0.7278368087835481
 40
0.8144100572101958
 40
0.901097731080804
 40
0.9878634714416532
 40
1.0
 40
1.0
 40
1.0
 40
1.0
 10
585.1338319517495
 20
1045.089716420935
 30
0.0
 10
584.6863448080243
 20
1045.079976861235
 30
0.0
 10
583.4339317289965
 20
1045.052718084927
 30
0.0
 10
581.3681213954798
 20
1044.759198211551
 30
0.0
 10
578.9590186754469
 20
1044.121449144753
 30
0.0
 10
576.5818330286346
 20
1043.174361800685
 30
0.0
 10
574.256352153223
 20
1041.930176923796
 30
0.0
 10
572.0030272894453
 20
1040.396965718747
 30
0.0
 10
569.8427095727635
 20
1038.587976021963
 30
0.0
 10
567.7955650162837
 20
1036.519324813806
 30
0.0
 10
565.8812544502184
 20
1034.209836959646
 30
0.0
 10
564.1157281038928
 20
1031.682187646501
 30
0.0
 10
562.5214448598186
 20
1028.955678644606
 30
0.0
 10
561.4995871457878
 20
1026.898910419447
 30
0.0
 10
561.0124017552321
 20
1025.762024866693
 30
0.0
 10
560.9526180973817
 20
1025.622514983559
 30
0.0
  0
SPLINE
  5
33A
330
1F
100
AcDbEntity
  8
SLD-0_0
  6
SLD-Solid
 62
   179
370
    15
100
AcDbSpline
210
0.0
220
0.0
230
1.0
 70
     8
 71
     3
 72
     9
 73
     5
 74
     0
 42
0.00000001
 43
0.00000001
 40
0.0
 40
0.0
 40
0.0
 40
0.0
 40
0.4999858778303409
 40
1.0
 40
1.0
 40
1.0
 40
1.0
 10
338.098511372879
 20
1034.857966152605
 30
0.0
 10
337.9984252403041
 20
1036.276827874511
 30
0.0
 10
337.7982473212609
 20
1039.11463147021
 30
0.0
 10
337.6014211835933
 20
1041.952669305531
 30
0.0
 10
337.5030053351474
 20
1043.371728302444
 30
0.0
  0
SPLINE
  5
33B
330
1F
100
AcDbEntity
  8
SLD-0_0
  6
SLD-Solid
 62
   179
370
    15
100
AcDbSpline
210
0.0
220
0.0
230
1.0
 70
     8
 71
     3
 72
     9
 73
     5
 74
     0
 42
0.00000001
 43
0.00000001
 40
0.0
 40
0.0
 40
0.0
 40
0.0
 40
0.5000141221696586
 40
1.0
 40
1.0
 40
1.0
 40
1.0
 10
757.7823128890273
 20
1043.371728302444
 30
0.0
 10
757.6838970405813
 20
1041.952669305531
 30
0.0
 10
757.4870709029138
 20
1039.11463147021
 30
0.0
 10
757.2868929838706
 20
1036.276827874511
 30
0.0
 10
757.1868068512955
 20
1034.857966152605
 30
0.0
  0
SPLINE
  5
33C
330
1F
100
AcDbEntity
  8
SLD-0_0
  6
SLD-Solid
 62
   179
370
    15
100
AcDbSpline
210
0.0
220
0.0
230
1.0
 70
     8
 71
     3
 72
     9
 73
     5
 74
     0
 42
0.00000001
 43
0.00000001
 40
0.0
 40
0.0
 40
0.0
 40
0.0
 40
0.4999855089136059
 40
1.0
 40
1.0
 40
1.0
 40
1.0
 10
477.163674616462
 20
1043.371728302444
 30
0.0
 10
477.0650540523585
 20
1041.963253102242
 30
0.0
 10
476.8678072075092
 20
1039.14622105813
 30
0.0
 10
476.6739494719086
 20
1036.328953533201
 30
0.0
 10
476.5770177948992
 20
1034.92027894547
 30
0.0
  0
SPLINE
  5
33D
330
1F
100
AcDbEntity
  8
SLD-0_0
  6
SLD-Solid
 62
   179
370
    15
100
AcDbSpline
210
0.0
220
0.0
230
1.0
 70
     8
 71
     3
 72
     9
 73
     5
 74
     0
 42
0.00000001
 43
0.00000001
 40
0.0
 40
0.0
 40
0.0
 40
0.0
 40
0.500014491086394
 40
1.0
 40
1.0
 40
1.0
 40
1.0
 10
618.7083004292753
 20
1034.92027894547
 30
0.0
 10
618.6113687522659
 20
1036.328953533201
 30
0.0
 10
618.4175110166655
 20
1039.14622105813
 30
0.0
 10
618.2202641718161
 20
1041.963253102243
 30
0.0
 10
618.1216436077125
 20
1043.371728302444
 30
0.0
  0
SPLINE
  5
33E
330
1F
100
AcDbEntity
  8
SLD-0_0
  6
SLD-Solid
 62
   179
370
    15
100
AcDbSpline
210
0.0
220
0.0
230
1.0
 70
     8
 71
     3
 72
    15
 73
    11
 74
     0
 42
0.00000001
 43
0.00000001
 40
0.0
 40
0.0
 40
0.0
 40
0.0
 40
0.0000363457206741
 40
0.0001127218398789
 40
0.0003822810730718
 40
0.0029970666382481
 40
0.0080156424963693
 40
0.0506679122624287
 40
0.3555633161991641
 40
0.9999999999999999
 40
0.9999999999999999
 40
0.9999999999999999
 40
0.9999999999999999
 10
953.8668926169173
 20
393.5187723970275
 30
0.0
 10
953.8668891975422
 20
393.5187770793878
 30
0.0
 10
953.8668785927655
 20
393.5187916011596
 30
0.0
 10
953.8668426175338
 20
393.5188408631688
 30
0.0
 10
953.866563994247
 20
393.5192223692137
 30
0.0
 10
953.8658199910528
 20
393.5202406011168
 30
0.0
 10
953.8610821247629
 20
393.5267167334954
 30
0.0
 10
953.8276767840626
 20
393.5719895286596
 30
0.0
 10
953.7306343918118
 20
393.6973448704964
 30
0.0
 10
953.6257147651505
 20
393.8074023220624
 30
0.0
 10
953.5544920000672
 20
393.8821128053918
 30
0.0
  0
SPLINE
  5
33F
330
1F
100
AcDbEntity
  8
SLD-0_0
  6
SLD-Solid
 62
   179
370
    15
100
AcDbSpline
210
0.0
220
0.0
230
1.0
 70
     8
 71
     3
 72
    11
 73
     7
 74
     0
 42
0.00000001
 43
0.00000001
 40
0.0
 40
0.0
 40
0.0
 40
0.0
 40
0.1214806355471524
 40
0.567825357822952
 40
0.8436721293951317
 40
1.0
 40
1.0
 40
1.0
 40
1.0
 10
951.4438414699778
 20
763.7159798080219
 30
0.0
 10
952.8450403152651
 20
763.7147413588987
 30
0.0
 10
959.3945305457274
 20
763.7089525941852
 30
0.0
 10
969.1340529611407
 20
763.8379271368856
 30
0.0
 10
979.25741786085
 20
763.8247299686625
 30
0.0
 10
984.2285249568856
 20
763.623021940133
 30
0.0
 10
986.0266928988021
 20
763.5500593377344
 30
0.0
  0
SPLINE
  5
340
330
1F
100
AcDbEntity
  8
SLD-0_0
  6
SLD-Solid
 62
   179
370
    15
100
AcDbSpline
210
0.0
220
0.0
230
1.0
 70
     8
 71
     3
 72
    11
 73
     7
 74
     0
 42
0.00000001
 43
0.00000001
 40
0.0
 40
0.0
 40
0.0
 40
0.0
 40
0.1810035937128675
 40
0.4503585812665307
 40
0.768743652332388
 40
1.0
 40
1.0
 40
1.0
 40
1.0
 10
986.0225905014594
 20
793.012665484978
 30
0.0
 10
983.9418009093519
 20
792.9387195920381
 30
0.0
 10
978.7645476328106
 20
792.7547333697106
 30
0.0
 10
969.9023619859457
 20
792.7445049445115
 30
0.0
 10
960.4516031384769
 20
792.8549050108754
 30
0.0
 10
954.110587896693
 20
792.8528545095495
 30
0.0
 10
951.4426666386868
 20
792.8519917808112
 30
0.0
  0
SPLINE
  5
341
330
1F
100
AcDbEntity
  8
SLD-0_0
  6
SLD-Solid
 62
   179
370
    15
100
AcDbSpline
210
0.0
220
0.0
230
1.0
 70
     8
 71
     3
 72
    10
 73
     6
 74
     0
 42
0.00000001
 43
0.00000001
 40
0.0
 40
0.0
 40
0.0
 40
0.0
 40
0.0088528698504616
 40
0.5731074980424459
 40
0.9999999999999999
 40
0.9999999999999999
 40
0.9999999999999999
 40
0.9999999999999999
 10
1000.578274147666
 20
793.0412241349545
 30
0.0
 10
1000.535606897386
 20
793.0397453762399
 30
0.0
 10
997.7734606702892
 20
792.9440150965245
 30
0.0
 10
992.9651538488639
 20
792.8731080561942
 30
0.0
 10
988.179686034738
 20
792.8827332077809
 30
0.0
 10
986.1185588155113
 20
792.88687881333
 30
0.0
  0
SPLINE
  5
342
330
1F
100
AcDbEntity
  8
SLD-0_0
  6
SLD-Solid
 62
   179
370
    15
100
AcDbSpline
210
0.0
220
0.0
230
1.0
 70
     8
 71
     3
 72
     9
 73
     5
 74
     0
 42
0.00000001
 43
0.00000001
 40
0.0
 40
0.0
 40
0.0
 40
0.0
 40
0.7741808595415535
 40
1.0
 40
1.0
 40
1.0
 40
1.0
 10
951.442564106827
 20
763.6929906137099
 30
0.0
 10
959.3480583189223
 20
763.6938515616408
 30
0.0
 10
969.5594890390988
 20
763.6949636376116
 30
0.0
 10
979.7693840129023
 20
763.6922707313192
 30
0.0
 10
982.0749737200576
 20
763.6916626215351
 30
0.0
  0
SPLINE
  5
343
330
1F
100
AcDbEntity
  8
SLD-0_0
  6
SLD-Solid
 62
   179
370
    15
100
AcDbSpline
210
0.0
220
0.0
230
1.0
 70
     8
 71
     3
 72
    10
 73
     6
 74
     0
 42
0.00000001
 43
0.00000001
 40
0.0
 40
0.0
 40
0.0
 40
0.0
 40
0.4083964916894126
 40
0.9938954208389076
 40
1.0
 40
1.0
 40
1.0
 40
1.0
 10
986.7513345885221
 20
763.6905604059386
 30
0.0
 10
988.6664388443442
 20
763.6955815165987
 30
0.0
 10
993.3271384072042
 20
763.7078011585255
 30
0.0
 10
997.9936717278506
 20
763.6222686073183
 30
0.0
 10
1000.763533174888
 20
763.5313038188809
 30
0.0
 10
1000.792114544388
 20
763.5303651805123
 30
0.0
  0
SPLINE
  5
344
330
1F
100
AcDbEntity
  8
SLD-0_0
  6
SLD-Solid
 62
   179
370
    15
100
AcDbSpline
210
0.0
220
0.0
230
1.0
 70
     8
 71
     3
 72
    11
 73
     7
 74
     0
 42
0.00000001
 43
0.00000001
 40
0.0
 40
0.0
 40
0.0
 40
0.0
 40
0.2517224808232374
 40
0.5030805494143127
 40
0.7535912935115562
 40
1.0
 40
1.0
 40
1.0
 40
1.0
 10
1007.615316034647
 20
787.6279851605609
 30
0.0
 10
1007.352623477603
 20
788.4270614894557
 30
0.0
 10
1006.827618656846
 20
790.0240573447709
 30
0.0
 10
1005.027194417714
 20
791.8070861959685
 30
0.0
 10
1002.839750804536
 20
792.9322259594989
 30
0.0
 10
1001.272146074842
 20
792.9991126161074
 30
0.0
 10
1000.494813947323
 20
793.0322798719208
 30
0.0
  0
SPLINE
  5
345
330
1F
100
AcDbEntity
  8
SLD-0_0
  6
SLD-Solid
 62
   179
370
    15
100
AcDbSpline
210
0.0
220
0.0
230
1.0
 70
     8
 71
     3
 72
    11
 73
     7
 74
     0
 42
0.00000001
 43
0.00000001
 40
0.0
 40
0.0
 40
0.0
 40
0.0
 40
0.2464092407976467
 40
0.4969199021702323
 40
0.7482773968705412
 40
1.0
 40
1.0
 40
1.0
 40
1.0
 10
1000.494813947323
 20
763.547152969276
 30
0.0
 10
1001.272146178793
 20
763.580319031295
 30
0.0
 10
1002.839749143543
 20
763.6472031961929
 30
0.0
 10
1005.027187494819
 20
764.7723378559734
 30
0.0
 10
1006.827603409884
 20
766.5553749081604
 30
0.0
 10
1007.352605341775
 20
768.1523707490198
 30
0.0
 10
1007.615296816777
 20
768.9514481762175
 30
0.0
  0
SPLINE
  5
346
330
1F
100
AcDbEntity
  8
SLD-0_0
  6
SLD-Solid
 62
   179
370
    15
100
AcDbSpline
210
0.0
220
0.0
230
1.0
 70
     8
 71
     3
 72
    13
 73
     9
 74
     0
 42
0.00000001
 43
0.00000001
 40
0.0
 40
0.0
 40
0.0
 40
0.0
 40
0.0075462231143622
 40
0.272276378851294
 40
0.4815195415732004
 40
0.6613541616921553
 40
0.8304588949396914
 40
1.0
 40
1.0
 40
1.0
 40
1.0
 10
172.0426591117831
 20
353.2230320773227
 30
0.0
 10
172.0426622958257
 20
353.2228171423276
 30
0.0
 10
172.0427771797285
 20
353.2150620413606
 30
0.0
 10
172.0543628393412
 20
353.2011123858895
 30
0.0
 10
172.0970816186131
 20
353.1837586586543
 30
0.0
 10
172.1527532217176
 20
353.1715932817672
 30
0.0
 10
172.2188890150979
 20
353.1634853659985
 30
0.0
 10
172.2680479644964
 20
353.1624143738342
 30
0.0
 10
172.2926591117831
 20
353.1618781877233
 30
0.0
  0
SPLINE
  5
347
330
1F
100
AcDbEntity
  8
SLD-0_0
  6
SLD-Solid
 62
   179
370
    15
100
AcDbSpline
210
0.0
220
0.0
230
1.0
 70
     8
 71
     3
 72
    13
 73
     9
 74
     0
 42
0.00000001
 43
0.00000001
 40
0.0
 40
0.0
 40
0.0
 40
0.0
 40
0.1695411050602418
 40
0.3386458383077445
 40
0.5184804584269416
 40
0.7277236211486993
 40
0.9924537768854877
 40
0.9999999999999999
 40
0.9999999999999999
 40
0.9999999999999999
 40
0.9999999999999999
 10
172.9926591117831
 20
353.1618781877233
 30
0.0
 10
173.0172702590697
 20
353.1624143738342
 30
0.0
 10
173.0664292084682
 20
353.1634853659984
 30
0.0
 10
173.1325650018487
 20
353.1715932817672
 30
0.0
 10
173.1882366049527
 20
353.1837586586543
 30
0.0
 10
173.2309553842255
 20
353.2011123858894
 30
0.0
 10
173.2425410438366
 20
353.2150620413609
 30
0.0
 10
173.2426559277405
 20
353.2228171423275
 30
0.0
 10
173.242659111783
 20
353.2230320773227
 30
0.0
  0
SPLINE
  5
348
330
1F
100
AcDbEntity
  8
SLD-0_0
  6
SLD-Solid
 62
   179
370
    15
100
AcDbSpline
210
0.0
220
0.0
230
1.0
 70
     8
 71
     3
 72
    12
 73
     8
 74
     0
 42
0.00000001
 43
0.00000001
 40
0.0
 40
0.0
 40
0.0
 40
0.0
 40
0.2028202020467124
 40
0.4049472449426288
 40
0.609831203074037
 40
0.8226939241827241
 40
0.9999999999999999
 40
0.9999999999999999
 40
0.9999999999999999
 40
0.9999999999999999
 10
173.492659111783
 20
358.8601564549452
 30
0.0
 10
173.3355182712476
 20
358.8489402124126
 30
0.0
 10
173.0217736353553
 20
358.8265460600238
 30
0.0
 10
172.6013773848856
 20
358.6524853922508
 30
0.0
 10
172.274298849446
 20
358.3934409289658
 30
0.0
 10
172.0760895831799
 20
358.0814301474103
 30
0.0
 10
172.0531043772579
 20
357.8600740801782
 30
0.0
 10
172.0426591117831
 20
357.7594822954212
 30
0.0
  0
SPLINE
  5
349
330
1F
100
AcDbEntity
  8
SLD-0_0
  6
SLD-Solid
 62
   179
370
    15
100
AcDbSpline
210
0.0
220
0.0
230
1.0
 70
     8
 71
     3
 72
    12
 73
     8
 74
     0
 42
0.00000001
 43
0.00000001
 40
0.0
 40
0.0
 40
0.0
 40
0.0
 40
0.2289440738516378
 40
0.4594214300241517
 40
0.6825355698158251
 40
0.8947175231628819
 40
1.0
 40
1.0
 40
1.0
 40
1.0
 10
172.0426591117831
 20
353.4455177454997
 30
0.0
 10
172.0599935963606
 20
353.5615659041737
 30
0.0
 10
172.0947786578799
 20
353.7944394182717
 30
0.0
 10
172.3686485036918
 20
354.1033276056541
 30
0.0
 10
172.7656850381751
 20
354.3261967274056
 30
0.0
 10
173.1665610275277
 20
354.4264460024706
 30
0.0
 10
173.4114464206149
 20
354.434972985576
 30
0.0
 10
173.492659111783
 20
354.4378008359301
 30
0.0
  0
SPLINE
  5
34A
330
1F
100
AcDbEntity
  8
SLD-0_0
  6
SLD-Solid
 62
   179
370
    15
100
AcDbSpline
210
0.0
220
0.0
230
1.0
 70
     8
 71
     3
 72
    13
 73
     9
 74
     0
 42
0.00000001
 43
0.00000001
 40
0.0
 40
0.0
 40
0.0
 40
0.0
 40
0.0075462231143888
 40
0.2722763788513348
 40
0.4815195415731308
 40
0.6613541616920958
 40
0.8304588949396922
 40
0.9999999999999999
 40
0.9999999999999999
 40
0.9999999999999999
 40
0.9999999999999999
 10
174.4426591117831
 20
345.7963955911218
 30
0.0
 10
174.4426559277406
 20
345.7965025403912
 30
0.0
 10
174.442541043839
 20
345.8003613926032
 30
0.0
 10
174.4309553842248
 20
345.8073765456622
 30
0.0
 10
174.388236604953
 20
345.816245812493
 30
0.0
 10
174.3325650018487
 20
345.8225300223574
 30
0.0
 10
174.2664292084681
 20
345.8267496706275
 30
0.0
 10
174.2172702590699
 20
345.8273091503722
 30
0.0
 10
174.1926591117831
 20
345.8275892507115
 30
0.0
  0
SPLINE
  5
34B
330
1F
100
AcDbEntity
  8
SLD-0_0
  6
SLD-Solid
 62
   179
370
    15
100
AcDbSpline
210
0.0
220
0.0
230
1.0
 70
     8
 71
     3
 72
    13
 73
     9
 74
     0
 42
0.00000001
 43
0.00000001
 40
0.0
 40
0.0
 40
0.0
 40
0.0
 40
0.1695411050602362
 40
0.3386458383077381
 40
0.5184804584270365
 40
0.7277236211486874
 40
0.9924537768855998
 40
1.0
 40
1.0
 40
1.0
 40
1.0
 10
173.4926591117831
 20
345.8275892507115
 30
0.0
 10
173.4680479644963
 20
345.8273091503722
 30
0.0
 10
173.4188890150982
 20
345.8267496706275
 30
0.0
 10
173.3527532217174
 20
345.8225300223575
 30
0.0
 10
173.2970816186133
 20
345.8162458124932
 30
0.0
 10
173.2543628393409
 20
345.807376545662
 30
0.0
 10
173.2427771797286
 20
345.8003613926041
 30
0.0
 10
173.2426622958256
 20
345.7965025403912
 30
0.0
 10
173.2426591117831
 20
345.7963955911219
 30
0.0
  0
SPLINE
  5
34C
330
1F
100
AcDbEntity
  8
SLD-0_0
  6
SLD-Solid
 62
   179
370
    15
100
AcDbSpline
210
0.0
220
0.0
230
1.0
 70
     8
 71
     3
 72
    12
 73
     8
 74
     0
 42
0.00000001
 43
0.00000001
 40
0.0
 40
0.0
 40
0.0
 40
0.0
 40
0.20282020204671
 40
0.4049472449426301
 40
0.6098312030740313
 40
0.8226939241827178
 40
1.0
 40
1.0
 40
1.0
 40
1.0
 10
172.9926591117831
 20
340.4786130112212
 30
0.0
 10
173.1497999523185
 20
340.4908360304094
 30
0.0
 10
173.4635445882109
 20
340.5152402953454
 30
0.0
 10
173.8839408386805
 20
340.7048915016766
 30
0.0
 10
174.2110193741199
 20
340.9870216574462
 30
0.0
 10
174.4092286403863
 20
341.3266671199736
 30
0.0
 10
174.4322138463083
 20
341.5674147676494
 30
0.0
 10
174.4426591117831
 20
341.676818751279
 30
0.0
  0
SPLINE
  5
34D
330
1F
100
AcDbEntity
  8
SLD-0_0
  6
SLD-Solid
 62
   179
370
    15
100
AcDbSpline
210
0.0
220
0.0
230
1.0
 70
     8
 71
     3
 72
    12
 73
     8
 74
     0
 42
0.00000001
 43
0.00000001
 40
0.0
 40
0.0
 40
0.0
 40
0.0
 40
0.2289440738516307
 40
0.4594214300241569
 40
0.6825355698158263
 40
0.8947175231628847
 40
1.0
 40
1.0
 40
1.0
 40
1.0
 10
174.4426591117831
 20
345.5520023643434
 30
0.0
 10
174.4253246272054
 20
345.4231227880154
 30
0.0
 10
174.3905395656863
 20
345.1645005041476
 30
0.0
 10
174.116669719874
 20
344.8218896506535
 30
0.0
 10
173.7196331853912
 20
344.5748293437093
 30
0.0
 10
173.3187571960383
 20
344.4637449879569
 30
0.0
 10
173.0738718029513
 20
344.4542965006051
 30
0.0
 10
172.9926591117831
 20
344.4511630467244
 30
0.0
  0
SPLINE
  5
34E
330
1F
100
AcDbEntity
  8
SLD-0_0
  6
SLD-Solid
 62
   179
370
    15
100
AcDbSpline
210
0.0
220
0.0
230
1.0
 70
     8
 71
     3
 72
    10
 73
     6
 74
     0
 42
0.00000001
 43
0.00000001
 40
0.0
 40
0.0
 40
0.0
 40
0.0
 40
0.3816828359347874
 40
0.7620612310507155
 40
1.0
 40
1.0
 40
1.0
 40
1.0
 10
172.992659111783
 20
359.3008198298103
 30
0.0
 10
173.1489100844286
 20
359.2879634494911
 30
0.0
 10
173.4608780257574
 20
359.2622946268706
 30
0.0
 10
173.8388288753946
 20
359.1053195923225
 30
0.0
 10
174.0015588985769
 20
358.9500449887355
 30
0.0
 10
174.0641801286466
 20
358.8902927286113
 30
0.0
  0
SPLINE
  5
34F
330
1F
100
AcDbEntity
  8
SLD-0_0
  6
SLD-Solid
 62
   179
370
    15
100
AcDbSpline
210
0.0
220
0.0
230
1.0
 70
     8
 71
     3
 72
     9
 73
     5
 74
     0
 42
0.00000001
 43
0.00000001
 40
0.0
 40
0.0
 40
0.0
 40
0.0
 40
0.0702005767034177
 40
1.0
 40
1.0
 40
1.0
 40
1.0
 10
179.8926591117831
 20
346.1016742286977
 30
0.0
 10
179.8931052280506
 20
346.0570073147271
 30
0.0
 10
179.899460108431
 20
345.4207317160331
 30
0.0
 10
180.1273495903266
 20
344.79721251722
 30
0.0
 10
180.3392410991683
 20
344.217464725749
 30
0.0
  0
SPLINE
  5
350
330
1F
100
AcDbEntity
  8
SLD-0_0
  6
SLD-Solid
 62
   179
370
    15
100
AcDbSpline
210
0.0
220
0.0
230
1.0
 70
     8
 71
     3
 72
     9
 73
     5
 74
     0
 42
0.00000001
 43
0.00000001
 40
0.0
 40
0.0
 40
0.0
 40
0.0
 40
0.2575513451038079
 40
1.0
 40
1.0
 40
1.0
 40
1.0
 10
180.3392410991683
 20
347.9858837316464
 30
0.0
 10
180.2718258763935
 20
348.2239814240971
 30
0.0
 10
180.0100713794495
 20
349.1484483196385
 30
0.0
 10
179.9426878916569
 20
350.108913498735
 30
0.0
 10
179.8926591117831
 20
350.8220095790298
 30
0.0
  0
SPLINE
  5
351
330
1F
100
AcDbEntity
  8
SLD-0_0
  6
SLD-Solid
 62
   179
370
    15
100
AcDbSpline
210
0.0
220
0.0
230
1.0
 70
     8
 71
     3
 72
     9
 73
     5
 74
     0
 42
0.00000001
 43
0.00000001
 40
0.0
 40
0.0
 40
0.0
 40
0.0
 40
0.9250528559154835
 40
1.0
 40
1.0
 40
1.0
 40
1.0
 10
184.6460771243979
 20
347.9858837316464
 30
0.0
 10
184.7246308369388
 20
348.2219185315149
 30
0.0
 10
184.8095489170665
 20
348.4770767080008
 30
0.0
 10
184.8403506139672
 20
348.7422574537826
 30
0.0
 10
184.8426591131829
 20
348.7621319933452
 30
0.0
  0
SPLINE
  5
352
330
1F
100
AcDbEntity
  8
SLD-0_0
  6
SLD-Solid
 62
   179
370
    15
100
AcDbSpline
210
0.0
220
0.0
230
1.0
 70
     8
 71
     3
 72
     9
 73
     5
 74
     0
 42
0.00000001
 43
0.00000001
 40
0.0
 40
0.0
 40
0.0
 40
0.0
 40
0.2686336050555729
 40
1.0
 40
1.0
 40
1.0
 40
1.0
 10
179.8926591117831
 20
350.8220095790298
 30
0.0
 10
179.8992880643675
 20
351.0798927785752
 30
0.0
 10
179.9239646218039
 20
352.0398739376418
 30
0.0
 10
180.1638193854039
 20
352.9745469759407
 30
0.0
 10
180.3392410991683
 20
353.6581354264131
 30
0.0
  0
SPLINE
  5
353
330
1F
100
AcDbEntity
  8
SLD-0_0
  6
SLD-Solid
 62
   179
370
    15
100
AcDbSpline
210
0.0
220
0.0
230
1.0
 70
     8
 71
     3
 72
     9
 73
     5
 74
     0
 42
0.00000001
 43
0.00000001
 40
0.0
 40
0.0
 40
0.0
 40
0.0
 40
0.0702005767034093
 40
1.0
 40
1.0
 40
1.0
 40
1.0
 10
179.8926591117831
 20
354.6100517708478
 30
0.0
 10
179.8931052280506
 20
354.5874857210547
 30
0.0
 10
179.899460108431
 20
354.2660346610671
 30
0.0
 10
180.1273495903265
 20
353.9510282270742
 30
0.0
 10
180.3392410991683
 20
353.6581354264131
 30
0.0
  0
SPLINE
  5
354
330
1F
100
AcDbEntity
  8
SLD-0_0
  6
SLD-Solid
 62
   179
370
    15
100
AcDbSpline
210
0.0
220
0.0
230
1.0
 70
     8
 71
     3
 72
     9
 73
     5
 74
     0
 42
0.00000001
 43
0.00000001
 40
0.0
 40
0.0
 40
0.0
 40
0.0
 40
0.0702005767034178
 40
1.0
 40
1.0
 40
1.0
 40
1.0
 10
172.0426591117831
 20
351.8389414877678
 30
0.0
 10
172.0422129955154
 20
351.7759227929237
 30
0.0
 10
172.0358581151357
 20
350.8782279618636
 30
0.0
 10
171.8079686332399
 20
349.9985306058907
 30
0.0
 10
171.5960771243979
 20
349.1805885116316
 30
0.0
  0
SPLINE
  5
355
330
1F
100
AcDbEntity
  8
SLD-0_0
  6
SLD-Solid
 62
   179
370
    15
100
AcDbSpline
210
0.0
220
0.0
230
1.0
 70
     8
 71
     3
 72
     9
 73
     5
 74
     0
 42
0.00000001
 43
0.00000001
 40
0.0
 40
0.0
 40
0.0
 40
0.0
 40
0.0702005767034176
 40
1.0
 40
1.0
 40
1.0
 40
1.0
 10
166.8426591117831
 20
351.8389414877678
 30
0.0
 10
166.8431052280506
 20
351.7759227929237
 30
0.0
 10
166.8494601084306
 20
350.8782279618638
 30
0.0
 10
167.0773495903263
 20
349.9985306058909
 30
0.0
 10
167.2892410991683
 20
349.1805885116316
 30
0.0
  0
SPLINE
  5
356
330
1F
100
AcDbEntity
  8
SLD-0_0
  6
SLD-Solid
 62
   179
370
    15
100
AcDbSpline
210
0.0
220
0.0
230
1.0
 70
     8
 71
     3
 72
     9
 73
     5
 74
     0
 42
0.00000001
 43
0.00000001
 40
0.0
 40
0.0
 40
0.0
 40
0.0
 40
0.2686336050555754
 40
1.0
 40
1.0
 40
1.0
 40
1.0
 10
166.8426591117831
 20
346.8767994899374
 30
0.0
 10
166.8492880643676
 20
347.0862783762641
 30
0.0
 10
166.8739646218038
 20
347.8660724243073
 30
0.0
 10
167.113819385404
 20
348.6253086501937
 30
0.0
 10
167.2892410991683
 20
349.1805885116316
 30
0.0
  0
SPLINE
  5
357
330
1F
100
AcDbEntity
  8
SLD-0_0
  6
SLD-Solid
 62
   179
370
    15
100
AcDbSpline
210
0.0
220
0.0
230
1.0
 70
     8
 71
     3
 72
     9
 73
     5
 74
     0
 42
0.00000001
 43
0.00000001
 40
0.0
 40
0.0
 40
0.0
 40
0.0
 40
0.2686336050555763
 40
1.0
 40
1.0
 40
1.0
 40
1.0
 10
172.0426591117831
 20
346.8767994899374
 30
0.0
 10
172.0360301591987
 20
347.0862783762641
 30
0.0
 10
172.0113536017624
 20
347.8660724243073
 30
0.0
 10
171.7714988381623
 20
348.6253086501938
 30
0.0
 10
171.5960771243979
 20
349.1805885116316
 30
0.0
  0
SPLINE
  5
358
330
1F
100
AcDbEntity
  8
SLD-0_0
  6
SLD-Solid
 62
   179
370
    15
100
AcDbSpline
210
0.0
220
0.0
230
1.0
 70
     8
 71
     3
 72
     9
 73
     5
 74
     0
 42
0.00000001
 43
0.00000001
 40
0.0
 40
0.0
 40
0.0
 40
0.0
 40
0.257551345103812
 40
1.0
 40
1.0
 40
1.0
 40
1.0
 10
167.2892410991683
 20
344.5730104682434
 30
0.0
 10
167.2218258763934
 20
344.7664175592809
 30
0.0
 10
166.9600713794494
 20
345.5173633210259
 30
0.0
 10
166.8926878916569
 20
346.2975505392212
 30
0.0
 10
166.8426591117831
 20
346.8767994899374
 30
0.0
  0
SPLINE
  5
359
330
1F
100
AcDbEntity
  8
SLD-0_0
  6
SLD-Solid
 62
   179
370
    15
100
AcDbSpline
210
0.0
220
0.0
230
1.0
 70
     8
 71
     3
 72
     9
 73
     5
 74
     0
 42
0.00000001
 43
0.00000001
 40
0.0
 40
0.0
 40
0.0
 40
0.0
 40
0.0702005767034186
 40
1.0
 40
1.0
 40
1.0
 40
1.0
 10
166.8426591117831
 20
354.8518584183462
 30
0.0
 10
166.8431052280507
 20
354.8434531546929
 30
0.0
 10
166.8494601084309
 20
354.7237210378372
 30
0.0
 10
167.0773495903265
 20
354.6063893756967
 30
0.0
 10
167.2892410991683
 20
354.497294463904
 30
0.0
  0
SPLINE
  5
35A
330
1F
100
AcDbEntity
  8
SLD-0_0
  6
SLD-Solid
 62
   179
370
    15
100
AcDbSpline
210
0.0
220
0.0
230
1.0
 70
     8
 71
     3
 72
     9
 73
     5
 74
     0
 42
0.00000001
 43
0.00000001
 40
0.0
 40
0.0
 40
0.0
 40
0.0
 40
0.0702005767034188
 40
1.0
 40
1.0
 40
1.0
 40
1.0
 10
172.0426591117831
 20
354.8518584183462
 30
0.0
 10
172.0422129955155
 20
354.8434531546929
 30
0.0
 10
172.0358581151344
 20
354.7237210378374
 30
0.0
 10
171.8079686332393
 20
354.6063893756968
 30
0.0
 10
171.5960771243979
 20
354.497294463904
 30
0.0
  0
SPLINE
  5
35B
330
1F
100
AcDbEntity
  8
SLD-0_0
  6
SLD-Solid
 62
   179
370
    15
100
AcDbSpline
210
0.0
220
0.0
230
1.0
 70
     8
 71
     3
 72
     9
 73
     5
 74
     0
 42
0.00000001
 43
0.00000001
 40
0.0
 40
0.0
 40
0.0
 40
0.0
 40
0.0702005767034247
 40
1.0
 40
1.0
 40
1.0
 40
1.0
 10
179.6426591117831
 20
353.2571501677857
 30
0.0
 10
179.6422129955155
 20
353.2065644776298
 30
0.0
 10
179.6358581151348
 20
352.4859765205017
 30
0.0
 10
179.4079686332395
 20
351.7798353033546
 30
0.0
 10
179.1960771243979
 20
351.1232656068852
 30
0.0
  0
SPLINE
  5
35C
330
1F
100
AcDbEntity
  8
SLD-0_0
  6
SLD-Solid
 62
   179
370
    15
100
AcDbSpline
210
0.0
220
0.0
230
1.0
 70
     8
 71
     3
 72
     9
 73
     5
 74
     0
 42
0.00000001
 43
0.00000001
 40
0.0
 40
0.0
 40
0.0
 40
0.0
 40
0.0702005767034245
 40
1.0
 40
1.0
 40
1.0
 40
1.0
 10
174.4426591117831
 20
353.2571501677857
 30
0.0
 10
174.4431052280506
 20
353.2065644776298
 30
0.0
 10
174.4494601084308
 20
352.4859765205019
 30
0.0
 10
174.6773495903264
 20
351.7798353033547
 30
0.0
 10
174.8892410991683
 20
351.1232656068852
 30
0.0
  0
SPLINE
  5
35D
330
1F
100
AcDbEntity
  8
SLD-0_0
  6
SLD-Solid
 62
   179
370
    15
100
AcDbSpline
210
0.0
220
0.0
230
1.0
 70
     8
 71
     3
 72
     9
 73
     5
 74
     0
 42
0.00000001
 43
0.00000001
 40
0.0
 40
0.0
 40
0.0
 40
0.0
 40
0.268633605055574
 40
1.0
 40
1.0
 40
1.0
 40
1.0
 10
179.6426591117831
 20
348.3726064528
 30
0.0
 10
179.6360301591987
 20
348.6227183384094
 30
0.0
 10
179.6113536017623
 20
349.5537704514079
 30
0.0
 10
179.3714988381622
 20
350.4602771042229
 30
0.0
 10
179.1960771243979
 20
351.1232656068852
 30
0.0
  0
SPLINE
  5
35E
330
1F
100
AcDbEntity
  8
SLD-0_0
  6
SLD-Solid
 62
   179
370
    15
100
AcDbSpline
210
0.0
220
0.0
230
1.0
 70
     8
 71
     3
 72
     9
 73
     5
 74
     0
 42
0.00000001
 43
0.00000001
 40
0.0
 40
0.0
 40
0.0
 40
0.0
 40
0.268633605055573
 40
0.9999999999999999
 40
0.9999999999999999
 40
0.9999999999999999
 40
0.9999999999999999
 10
174.4426591117831
 20
348.3726064528
 30
0.0
 10
174.4492880643676
 20
348.6227183384094
 30
0.0
 10
174.4739646218039
 20
349.5537704514079
 30
0.0
 10
174.7138193854039
 20
350.4602771042228
 30
0.0
 10
174.8892410991683
 20
351.1232656068852
 30
0.0
  0
SPLINE
  5
35F
330
1F
100
AcDbEntity
  8
SLD-0_0
  6
SLD-Solid
 62
   179
370
    15
100
AcDbSpline
210
0.0
220
0.0
230
1.0
 70
     8
 71
     3
 72
     9
 73
     5
 74
     0
 42
0.00000001
 43
0.00000001
 40
0.0
 40
0.0
 40
0.0
 40
0.0
 40
0.2575513451038062
 40
1.0
 40
1.0
 40
1.0
 40
1.0
 10
179.1960771243979
 20
345.6219472987149
 30
0.0
 10
179.2634923471727
 20
345.852869913771
 30
0.0
 10
179.5252468441167
 20
346.7494779860877
 30
0.0
 10
179.5926303319092
 20
347.6809995331654
 30
0.0
 10
179.6426591117831
 20
348.3726064528
 30
0.0
  0
SPLINE
  5
360
330
1F
100
AcDbEntity
  8
SLD-0_0
  6
SLD-Solid
 62
   179
370
    15
100
AcDbSpline
210
0.0
220
0.0
230
1.0
 70
     8
 71
     3
 72
     9
 73
     5
 74
     0
 42
0.00000001
 43
0.00000001
 40
0.0
 40
0.0
 40
0.0
 40
0.0
 40
0.2575513451038097
 40
1.0
 40
1.0
 40
1.0
 40
1.0
 10
174.8892410991683
 20
345.6219472987149
 30
0.0
 10
174.8218258763934
 20
345.852869913771
 30
0.0
 10
174.5600713794496
 20
346.7494779860877
 30
0.0
 10
174.4926878916569
 20
347.6809995331654
 30
0.0
 10
174.4426591117831
 20
348.3726064528
 30
0.0
  0
SPLINE
  5
361
330
1F
100
AcDbEntity
  8
SLD-0_0
  6
SLD-Solid
 62
   179
370
    15
100
AcDbSpline
210
0.0
220
0.0
230
1.0
 70
     8
 71
     3
 72
     9
 73
     5
 74
     0
 42
0.00000001
 43
0.00000001
 40
0.0
 40
0.0
 40
0.0
 40
0.0
 40
0.0702005767034053
 40
1.0
 40
1.0
 40
1.0
 40
1.0
 10
179.6426591117831
 20
345.0051727055302
 30
0.0
 10
179.6422129955155
 20
344.9905514982548
 30
0.0
 10
179.6358581151346
 20
344.7822739033674
 30
0.0
 10
179.4079686332394
 20
344.5781719711836
 30
0.0
 10
179.1960771243979
 20
344.3883981123454
 30
0.0
  0
SPLINE
  5
362
330
1F
100
AcDbEntity
  8
SLD-0_0
  6
SLD-Solid
 62
   179
370
    15
100
AcDbSpline
210
0.0
220
0.0
230
1.0
 70
    24
 71
     3
 72
    13
 73
     9
 74
     0
 42
0.00000001
 43
0.00000001
 40
0.0
 40
0.0
 40
0.0
 40
0.0
 40
0.2564310740117893
 40
0.3944724151334359
 40
0.5354431915698978
 40
0.6764139680063566
 40
0.8144553091280073
 40
1.0
 40
1.0
 40
1.0
 40
1.0
 10
935.2506405729903
 20
917.6201090875336
 30
0.0
 10
935.2200999106634
 20
917.7141035811904
 30
0.0
 10
935.1731186745782
 20
917.8586969580466
 30
0.0
 10
934.8879287239713
 20
918.7364213739971
 30
0.0
 10
934.5929328169216
 20
919.6443254206574
 30
0.0
 10
934.2260858095691
 20
920.7733644158487
 30
0.0
 10
933.7662109480767
 20
922.1887137062239
 30
0.0
 10
933.4041847683868
 20
923.3029157194824
 30
0.0
 10
933.1965984421653
 20
923.9418007382368
 30
0.0
  0
SPLINE
  5
363
330
1F
100
AcDbEntity
  8
SLD-0_0
  6
SLD-Solid
 62
   179
370
    15
100
AcDbSpline
210
0.0
220
0.0
230
1.0
 70
     8
 71
     3
 72
     9
 73
     5
 74
     0
 42
0.00000001
 43
0.00000001
 40
0.0
 40
0.0
 40
0.0
 40
0.0
 40
0.7433199394798399
 40
1.0
 40
1.0
 40
1.0
 40
1.0
 10
279.6723573067617
 20
1012.425082300365
 30
0.0
 10
279.6845092656159
 20
1012.490098019068
 30
0.0
 10
279.7008574868985
 20
1012.577564687522
 30
0.0
 10
279.7486993736374
 20
1012.587234398847
 30
0.0
 10
279.7609794320208
 20
1012.589716420935
 30
0.0
  0
SPLINE
  5
364
330
1F
100
AcDbEntity
  8
SLD-0_0
  6
SLD-Solid
 62
   179
370
    15
100
AcDbSpline
210
0.0
220
0.0
230
1.0
 70
     8
 71
     3
 72
     9
 73
     5
 74
     0
 42
0.00000001
 43
0.00000001
 40
0.0
 40
0.0
 40
0.0
 40
0.0
 40
0.7522132075888408
 40
1.0
 40
1.0
 40
1.0
 40
1.0
 10
815.5243387921538
 20
1012.589716420935
 30
0.0
 10
815.5565854728303
 20
1012.569262256661
 30
0.0
 10
815.5994545428641
 20
1012.542070279615
 30
0.0
 10
815.6102788075791
 20
1012.448313894341
 30
0.0
 10
815.6129609174129
 20
1012.425082300366
 30
0.0
  0
SPLINE
  5
365
330
1F
100
AcDbEntity
  8
SLD-0_0
  6
SLD-Solid
 62
   179
370
    15
100
AcDbSpline
210
0.0
220
0.0
230
1.0
 70
    24
 71
     3
 72
    10
 73
     6
 74
     0
 42
0.00000001
 43
0.00000001
 40
0.0
 40
0.0
 40
0.0
 40
0.0
 40
0.3994138303566923
 40
0.9948553453313136
 40
1.0
 40
1.0
 40
1.0
 40
1.0
 10
279.6723573067616
 20
1012.425082300365
 30
0.0
 10
279.6653305232339
 20
1012.344765797127
 30
0.0
 10
279.6478282921604
 20
1012.144714380545
 30
0.0
 10
279.622248999591
 20
1011.852341728585
 30
0.0
 10
279.6070277876183
 20
1011.678362479645
 30
0.0
 10
279.6068974018665
 20
1011.676872163682
 30
0.0
  0
SPLINE
  5
366
330
1F
100
AcDbEntity
  8
SLD-0_0
  6
SLD-Solid
 62
   179
370
    15
100
AcDbSpline
210
0.0
220
0.0
230
1.0
 70
    24
 71
     3
 72
    10
 73
     6
 74
     0
 42
0.00000001
 43
0.00000001
 40
0.0
 40
0.0
 40
0.0
 40
0.0
 40
0.0051446546679014
 40
0.6005861696431299
 40
1.0
 40
1.0
 40
1.0
 40
1.0
 10
815.6784208223079
 20
1011.676872163682
 30
0.0
 10
815.6782904365563
 20
1011.678362479643
 30
0.0
 10
815.6630692246049
 20
1011.852341728381
 30
0.0
 10
815.6374899320084
 20
1012.144714380601
 30
0.0
 10
815.619987700939
 20
1012.344765797143
 30
0.0
 10
815.6129609174129
 20
1012.425082300365
 30
0.0
  0
SPLINE
  5
367
330
1F
100
AcDbEntity
  8
SLD-0_0
  6
SLD-Solid
 62
   179
370
    15
100
AcDbSpline
210
0.0
220
0.0
230
1.0
 70
     8
 71
     3
 72
    10
 73
     6
 74
     0
 42
0.00000001
 43
0.00000001
 40
0.0
 40
0.0
 40
0.0
 40
0.0
 40
0.2538629332738811
 40
0.6873541159757137
 40
1.0
 40
1.0
 40
1.0
 40
1.0
 10
338.0258875280254
 20
1035.028823150994
 30
0.0
 10
338.0326863520366
 20
1035.018521421334
 30
0.0
 10
338.0510947096794
 20
1034.990628667587
 30
0.0
 10
337.6957895679985
 20
1034.915908068271
 30
0.0
 10
337.2655724299437
 20
1034.841923884105
 30
0.0
 10
337.0853031155673
 20
1034.810923077827
 30
0.0
  0
SPLINE
  5
368
330
1F
100
AcDbEntity
  8
SLD-0_0
  6
SLD-Solid
 62
   179
370
    15
100
AcDbSpline
210
0.0
220
0.0
230
1.0
 70
     8
 71
     3
 72
    10
 73
     6
 74
     0
 42
0.00000001
 43
0.00000001
 40
0.0
 40
0.0
 40
0.0
 40
0.0
 40
0.253862933273878
 40
0.6873541159757052
 40
0.9999999999999999
 40
0.9999999999999999
 40
0.9999999999999999
 40
0.9999999999999999
 10
757.2594306961493
 20
1035.028823150994
 30
0.0
 10
757.2526318721378
 20
1035.018521421334
 30
0.0
 10
757.234223514495
 20
1034.990628667587
 30
0.0
 10
757.5895286561761
 20
1034.915908068271
 30
0.0
 10
758.019745794231
 20
1034.841923884105
 30
0.0
 10
758.2000151086072
 20
1034.810923077827
 30
0.0
  0
SPLINE
  5
369
330
1F
100
AcDbEntity
  8
SLD-0_0
  6
SLD-Solid
 62
   179
370
    15
100
AcDbSpline
210
0.0
220
0.0
230
1.0
 70
     8
 71
     3
 72
    10
 73
     6
 74
     0
 42
0.00000001
 43
0.00000001
 40
0.0
 40
0.0
 40
0.0
 40
0.0
 40
0.3720608602732793
 40
0.8045487224112509
 40
1.0
 40
1.0
 40
1.0
 40
1.0
 10
477.5899255928041
 20
1034.872896274603
 30
0.0
 10
477.3785054467242
 20
1034.903409699723
 30
0.0
 10
476.9213280690884
 20
1034.969392284343
 30
0.0
 10
476.5959183447599
 20
1035.025173703869
 30
0.0
 10
476.6326225346863
 20
1035.042289674608
 30
0.0
 10
476.6440470189398
 20
1035.047617162793
 30
0.0
  0
SPLINE
  5
36A
330
1F
100
AcDbEntity
  8
SLD-0_0
  6
SLD-Solid
 62
   179
370
    15
100
AcDbSpline
210
0.0
220
0.0
230
1.0
 70
     8
 71
     3
 72
    10
 73
     6
 74
     0
 42
0.00000001
 43
0.00000001
 40
0.0
 40
0.0
 40
0.0
 40
0.0
 40
0.3720608602732788
 40
0.8045487224112513
 40
1.0
 40
1.0
 40
1.0
 40
1.0
 10
617.6953926313704
 20
1034.872896274603
 30
0.0
 10
617.9068127774506
 20
1034.903409699723
 30
0.0
 10
618.3639901550863
 20
1034.969392284343
 30
0.0
 10
618.6893998794146
 20
1035.025173703869
 30
0.0
 10
618.6526956894885
 20
1035.042289674607
 30
0.0
 10
618.6412712052347
 20
1035.047617162793
 30
0.0
  0
SPLINE
  5
36B
330
1F
100
AcDbEntity
  8
SLD-0_0
  6
SLD-Solid
 62
   179
370
    15
100
AcDbSpline
210
0.0
220
0.0
230
1.0
 70
    24
 71
     3
 72
     9
 73
     5
 74
     0
 42
0.00000001
 43
0.00000001
 40
0.0
 40
0.0
 40
0.0
 40
0.0
 40
0.5599684211443222
 40
1.0
 40
1.0
 40
1.0
 40
1.0
 10
527.0779799918844
 20
1044.110244441392
 30
0.0
 10
528.6164420001497
 20
1040.648704922795
 30
0.0
 10
531.3638505149394
 20
1034.467035764517
 30
0.0
 10
534.1131765419667
 20
1028.281052203706
 30
0.0
 10
535.3229668144284
 20
1025.559024090668
 30
0.0
  0
SPLINE
  5
36C
330
1F
100
AcDbEntity
  8
SLD-0_0
  6
SLD-Solid
 62
   179
370
    15
100
AcDbSpline
210
0.0
220
0.0
230
1.0
 70
    24
 71
     3
 72
     9
 73
     5
 74
     0
 42
0.00000001
 43
0.00000001
 40
0.0
 40
0.0
 40
0.0
 40
0.0
 40
0.5599684211443222
 40
1.0
 40
1.0
 40
1.0
 40
1.0
 10
568.2073382322903
 20
1044.110244441392
 30
0.0
 10
566.6688762240251
 20
1040.648704922795
 30
0.0
 10
563.9214677092351
 20
1034.467035764517
 30
0.0
 10
561.172141682208
 20
1028.281052203706
 30
0.0
 10
559.9623514097462
 20
1025.559024090668
 30
0.0
  0
SPLINE
  5
36D
330
1F
100
AcDbEntity
  8
SLD-0_0
  6
SLD-Solid
 62
   179
370
    15
100
AcDbSpline
210
0.0
220
0.0
230
1.0
 70
     8
 71
     3
 72
    14
 73
    10
 74
     0
 42
0.00000001
 43
0.00000001
 40
0.0
 40
0.0
 40
0.0
 40
0.0
 40
0.1883847816317253
 40
0.3596802553594151
 40
0.6003421773647403
 40
0.7898499004771946
 40
0.9055956218147801
 40
0.9965044171559022
 40
1.0
 40
1.0
 40
1.0
 40
1.0
 10
523.6579272406997
 20
1043.670841562964
 30
0.0
 10
523.6861972802265
 20
1043.815207488128
 30
0.0
 10
523.7401728452797
 20
1044.090843197015
 30
0.0
 10
523.977876795643
 20
1044.499561447339
 30
0.0
 10
524.3226824017573
 20
1044.827141931069
 30
0.0
 10
524.7109517070555
 20
1045.010403100015
 30
0.0
 10
525.0120692387187
 20
1045.077912880423
 30
0.0
 10
525.1752421049857
 20
1045.0895897679
 30
0.0
 10
525.2484791610289
 20
1045.089711898705
 30
0.0
 10
525.2511909653073
 20
1045.089716420935
 30
0.0
  0
SPLINE
  5
36E
330
1F
100
AcDbEntity
  8
SLD-0_0
  6
SLD-Solid
 62
   179
370
    15
100
AcDbSpline
210
0.0
220
0.0
230
1.0
 70
     8
 71
     3
 72
    14
 73
    10
 74
     0
 42
0.00000001
 43
0.00000001
 40
0.0
 40
0.0
 40
0.0
 40
0.0
 40
0.1883847816317246
 40
0.3596802553594144
 40
0.6003421773647397
 40
0.7898499004771915
 40
0.9055956218147801
 40
0.9965044171559022
 40
1.0
 40
1.0
 40
1.0
 40
1.0
 10
571.6273909834748
 20
1043.670841562964
 30
0.0
 10
571.599120943948
 20
1043.815207488128
 30
0.0
 10
571.5451453788947
 20
1044.090843197015
 30
0.0
 10
571.3074414285317
 20
1044.499561447339
 30
0.0
 10
570.9626358224172
 20
1044.827141931069
 30
0.0
 10
570.574366517119
 20
1045.010403100015
 30
0.0
 10
570.2732489854559
 20
1045.077912880423
 30
0.0
 10
570.1100761191891
 20
1045.0895897679
 30
0.0
 10
570.0368390631456
 20
1045.089711898704
 30
0.0
 10
570.0341272588673
 20
1045.089716420935
 30
0.0
  0
SPLINE
  5
36F
330
1F
100
AcDbEntity
  8
SLD-0_0
  6
SLD-Solid
 62
   179
370
    15
100
AcDbSpline
210
0.0
220
0.0
230
1.0
 70
    24
 71
     3
 72
    11
 73
     7
 74
     0
 42
0.00000001
 43
0.00000001
 40
0.0
 40
0.0
 40
0.0
 40
0.0
 40
0.2779885514217568
 40
0.5616472137281914
 40
0.7829861327419737
 40
1.0
 40
1.0
 40
1.0
 40
1.0
 10
447.6426591120713
 20
1035.089716420935
 30
0.0
 10
447.7093196345282
 20
1035.851649679146
 30
0.0
 10
447.8440003489392
 20
1037.391057289037
 30
0.0
 10
448.0289747464747
 20
1039.50532432754
 30
0.0
 10
448.2008116500245
 20
1041.469429122659
 30
0.0
 10
448.3058284022376
 20
1042.669776093121
 30
0.0
 10
448.3578186991819
 20
1043.26402790643
 30
0.0
  0
SPLINE
  5
370
330
1F
100
AcDbEntity
  8
SLD-0_0
  6
SLD-Solid
 62
   179
370
    15
100
AcDbSpline
210
0.0
220
0.0
230
1.0
 70
     8
 71
     3
 72
    12
 73
     8
 74
     0
 42
0.00000001
 43
0.00000001
 40
0.0
 40
0.0
 40
0.0
 40
0.0
 40
0.1949242463861273
 40
0.4099385120109031
 40
0.6250663629368478
 40
0.8407019596851005
 40
1.0
 40
1.0
 40
1.0
 40
1.0
 10
451.1057127180856
 20
1034.923247070341
 30
0.0
 10
450.7517447983215
 20
1034.943984134643
 30
0.0
 10
450.0073269795129
 20
1034.987595544928
 30
0.0
 10
448.9825808457151
 20
1035.036862419758
 30
0.0
 10
448.1724139431839
 20
1035.070589938137
 30
0.0
 10
447.7139416164591
 20
1035.087224930272
 30
0.0
 10
447.6639142411446
 20
1035.088973504338
 30
0.0
 10
447.6426591120713
 20
1035.089716420935
 30
0.0
  0
SPLINE
  5
371
330
1F
100
AcDbEntity
  8
SLD-0_0
  6
SLD-Solid
 62
   179
370
    15
100
AcDbSpline
210
0.0
220
0.0
230
1.0
 70
    24
 71
     3
 72
    11
 73
     7
 74
     0
 42
0.00000001
 43
0.00000001
 40
0.0
 40
0.0
 40
0.0
 40
0.0
 40
0.2779885514217567
 40
0.5616472137281916
 40
0.7829861327419739
 40
1.0
 40
1.0
 40
1.0
 40
1.0
 10
647.6426591121033
 20
1035.089716420935
 30
0.0
 10
647.5759985896465
 20
1035.851649679146
 30
0.0
 10
647.4413178752354
 20
1037.391057289037
 30
0.0
 10
647.2563434776999
 20
1039.50532432754
 30
0.0
 10
647.0845065741499
 20
1041.469429122659
 30
0.0
 10
646.9794898219369
 20
1042.669776093121
 30
0.0
 10
646.9274995249926
 20
1043.26402790643
 30
0.0
  0
SPLINE
  5
372
330
1F
100
AcDbEntity
  8
SLD-0_0
  6
SLD-Solid
 62
   179
370
    15
100
AcDbSpline
210
0.0
220
0.0
230
1.0
 70
     8
 71
     3
 72
    12
 73
     8
 74
     0
 42
0.00000001
 43
0.00000001
 40
0.0
 40
0.0
 40
0.0
 40
0.0
 40
0.1949242463861296
 40
0.4099385120109029
 40
0.625066362936849
 40
0.8407019596851004
 40
1.0
 40
1.0
 40
1.0
 40
1.0
 10
644.179605506089
 20
1034.923247070341
 30
0.0
 10
644.5335734258532
 20
1034.943984134643
 30
0.0
 10
645.2779912446617
 20
1034.987595544928
 30
0.0
 10
646.3027373784594
 20
1035.036862419758
 30
0.0
 10
647.1129042809907
 20
1035.070589938138
 30
0.0
 10
647.5713766077155
 20
1035.087224930272
 30
0.0
 10
647.62140398303
 20
1035.088973504337
 30
0.0
 10
647.6426591121032
 20
1035.089716420935
 30
0.0
  0
SPLINE
  5
373
330
1F
100
AcDbEntity
  8
SLD-0_0
  6
SLD-Solid
 62
   179
370
    15
100
AcDbSpline
210
0.0
220
0.0
230
1.0
 70
    24
 71
     3
 72
    11
 73
     7
 74
     0
 42
0.00000001
 43
0.00000001
 40
0.0
 40
0.0
 40
0.0
 40
0.0
 40
0.2768032429862528
 40
0.55998320851384
 40
0.782098827856358
 40
1.0
 40
1.0
 40
1.0
 40
1.0
 10
366.9274995249623
 20
1043.26402790643
 30
0.0
 10
366.9938897992644
 20
1042.505183598764
 30
0.0
 10
367.128199782112
 20
1040.970013470031
 30
0.0
 10
367.3133764357303
 20
1038.853434633925
 30
0.0
 10
367.4849479739954
 20
1036.892362977889
 30
0.0
 10
367.5904254845586
 20
1035.686749515387
 30
0.0
 10
367.6426591120729
 20
1035.089716420935
 30
0.0
  0
SPLINE
  5
374
330
1F
100
AcDbEntity
  8
SLD-0_0
  6
SLD-Solid
 62
   179
370
    15
100
AcDbSpline
210
0.0
220
0.0
230
1.0
 70
     8
 71
     3
 72
    12
 73
     8
 74
     0
 42
0.00000001
 43
0.00000001
 40
0.0
 40
0.0
 40
0.0
 40
0.0
 40
0.1857061433232755
 40
0.4017214544205545
 40
0.6178907781413668
 40
0.8334746541485144
 40
1.0
 40
1.0
 40
1.0
 40
1.0
 10
367.6426591120728
 20
1035.089716420935
 30
0.0
 10
367.6139287186285
 20
1035.088717905707
 30
0.0
 10
367.5517788336866
 20
1035.086557907214
 30
0.0
 10
367.0268922413058
 20
1035.067273475877
 30
0.0
 10
366.1779571856024
 20
1035.031265220586
 30
0.0
 10
365.1747274150735
 20
1034.981892654526
 30
0.0
 10
364.4816517674795
 20
1034.941047582309
 30
0.0
 10
364.1796055060586
 20
1034.92324707034
 30
0.0
  0
SPLINE
  5
375
330
1F
100
AcDbEntity
  8
SLD-0_0
  6
SLD-Solid
 62
   179
370
    15
100
AcDbSpline
210
0.0
220
0.0
230
1.0
 70
    24
 71
     3
 72
    11
 73
     7
 74
     0
 42
0.00000001
 43
0.00000001
 40
0.0
 40
0.0
 40
0.0
 40
0.0
 40
0.2768032429862524
 40
0.5599832085138405
 40
0.7820988278563581
 40
1.0
 40
1.0
 40
1.0
 40
1.0
 10
728.3578186992122
 20
1043.26402790643
 30
0.0
 10
728.2914284249104
 20
1042.505183598765
 30
0.0
 10
728.1571184420627
 20
1040.970013470031
 30
0.0
 10
727.9719417884443
 20
1038.853434633925
 30
0.0
 10
727.8003702501793
 20
1036.89236297789
 30
0.0
 10
727.694892739616
 20
1035.686749515386
 30
0.0
 10
727.6426591121017
 20
1035.089716420935
 30
0.0
  0
SPLINE
  5
376
330
1F
100
AcDbEntity
  8
SLD-0_0
  6
SLD-Solid
 62
   179
370
    15
100
AcDbSpline
210
0.0
220
0.0
230
1.0
 70
     8
 71
     3
 72
    12
 73
     8
 74
     0
 42
0.00000001
 43
0.00000001
 40
0.0
 40
0.0
 40
0.0
 40
0.0
 40
0.1857061433232767
 40
0.4017214544205541
 40
0.6178907781413707
 40
0.8334746541485187
 40
0.9999999999999999
 40
0.9999999999999999
 40
0.9999999999999999
 40
0.9999999999999999
 10
727.6426591121017
 20
1035.089716420935
 30
0.0
 10
727.671389505546
 20
1035.088717905707
 30
0.0
 10
727.7335393904879
 20
1035.086557907213
 30
0.0
 10
728.2584259828687
 20
1035.067273475878
 30
0.0
 10
729.1073610385721
 20
1035.031265220586
 30
0.0
 10
730.110590809101
 20
1034.981892654526
 30
0.0
 10
730.803666456695
 20
1034.941047582309
 30
0.0
 10
731.105712718116
 20
1034.92324707034
 30
0.0
  0
SPLINE
  5
377
330
1F
100
AcDbEntity
  8
SLD-0_0
  6
SLD-Solid
 62
   179
370
    15
100
AcDbSpline
210
0.0
220
0.0
230
1.0
 70
     8
 71
     3
 72
     9
 73
     5
 74
     0
 42
0.00000001
 43
0.00000001
 40
0.0
 40
0.0
 40
0.0
 40
0.0
 40
0.8763775207806543
 40
1.0
 40
1.0
 40
1.0
 40
1.0
 10
823.0113179681866
 20
1001.47102593105
 30
0.0
 10
822.2902892562445
 20
1001.866831362638
 30
0.0
 10
821.467551686139
 20
1002.318469409258
 30
0.0
 10
820.5538437056626
 20
1002.395567127745
 30
0.0
 10
820.4408888598336
 20
1002.405098138846
 30
0.0
  0
SPLINE
  5
378
330
1F
100
AcDbEntity
  8
SLD-0_0
  6
SLD-Solid
 62
   179
370
    15
100
AcDbSpline
210
0.0
220
0.0
230
1.0
 70
     8
 71
     3
 72
     9
 73
     5
 74
     0
 42
0.00000001
 43
0.00000001
 40
0.0
 40
0.0
 40
0.0
 40
0.0
 40
0.3622759773636262
 40
1.0
 40
1.0
 40
1.0
 40
1.0
 10
816.505205030772
 20
1002.226685417835
 30
0.0
 10
816.1347793259398
 20
1002.165573779686
 30
0.0
 10
815.1122834168053
 20
1001.996885702179
 30
0.0
 10
814.2251679231454
 20
1001.442964975747
 30
0.0
 10
813.6594330619855
 20
1001.089716421865
 30
0.0
  0
SPLINE
  5
379
330
1F
100
AcDbEntity
  8
SLD-0_0
  6
SLD-Solid
 62
   179
370
    15
100
AcDbSpline
210
0.0
220
0.0
230
1.0
 70
     8
 71
     3
 72
     9
 73
     5
 74
     0
 42
0.00000001
 43
0.00000001
 40
0.0
 40
0.0
 40
0.0
 40
0.0
 40
0.2073727784970182
 40
0.9999999999999999
 40
0.9999999999999999
 40
0.9999999999999999
 40
0.9999999999999999
 10
813.4826506237387
 20
1001.089716421875
 30
0.0
 10
813.5691949189587
 20
1001.147560336163
 30
0.0
 10
813.9865317355232
 20
1001.426497208725
 30
0.0
 10
814.4672916376811
 20
1001.580439645466
 30
0.0
 10
814.8483550231388
 20
1001.702458611371
 30
0.0
  0
SPLINE
  5
37A
330
1F
100
AcDbEntity
  8
SLD-0_0
  6
SLD-Solid
 62
   179
370
    15
100
AcDbSpline
210
0.0
220
0.0
230
1.0
 70
     8
 71
     3
 72
     9
 73
     5
 74
     0
 42
0.00000001
 43
0.00000001
 40
0.0
 40
0.0
 40
0.0
 40
0.0
 40
0.432293617569713
 40
1.0
 40
1.0
 40
1.0
 40
1.0
 10
274.8774823884617
 20
1002.306313062685
 30
0.0
 10
274.3794135495611
 20
1002.228762541874
 30
0.0
 10
273.2272595073604
 20
1002.049369375612
 30
0.0
 10
272.2271829224766
 20
1001.437231181065
 30
0.0
 10
271.659433062319
 20
1001.089716421091
 30
0.0
  0
SPLINE
  5
37B
330
1F
100
AcDbEntity
  8
SLD-0_0
  6
SLD-Solid
 62
   179
370
    15
100
AcDbSpline
210
0.0
220
0.0
230
1.0
 70
     8
 71
     3
 72
     9
 73
     5
 74
     0
 42
0.00000001
 43
0.00000001
 40
0.0
 40
0.0
 40
0.0
 40
0.0
 40
0.2073727784969924
 40
0.9999999999999999
 40
0.9999999999999999
 40
0.9999999999999999
 40
0.9999999999999999
 10
271.4826506240721
 20
1001.0897164211
 30
0.0
 10
271.5691949192922
 20
1001.147560335389
 30
0.0
 10
271.9865317358566
 20
1001.426497207951
 30
0.0
 10
272.4672916380146
 20
1001.580439644691
 30
0.0
 10
272.8483550234722
 20
1001.702458610597
 30
0.0
  0
SPLINE
  5
37C
330
1F
100
AcDbEntity
  8
SLD-0_0
  6
SLD-Solid
 62
   179
370
    15
100
AcDbSpline
210
0.0
220
0.0
230
1.0
 70
     8
 71
     3
 72
    16
 73
    12
 74
     0
 42
0.00000001
 43
0.00000001
 40
0.0
 40
0.0
 40
0.0
 40
0.0
 40
0.0000597702847796
 40
0.1251210323923261
 40
0.2500906799919212
 40
0.3750581956784687
 40
0.5000239897295089
 40
0.6249879290177816
 40
0.749951689682879
 40
0.8749147384303064
 40
1.0
 40
1.0
 40
1.0
 40
1.0
 10
927.3505281448879
 20
959.9700715248327
 30
0.0
 10
927.3504980147039
 20
959.9700756819424
 30
0.0
 10
927.287424537054
 20
959.9787780305302
 30
0.0
 10
927.5091717069228
 20
959.9474839580112
 30
0.0
 10
928.0247426702476
 20
959.8795113007626
 30
0.0
 10
928.8625050279542
 20
959.7859992633182
 30
0.0
 10
929.8374759317068
 20
959.7049074454059
 30
0.0
 10
930.8197250379193
 20
959.6539701790889
 30
0.0
 10
931.6464828320042
 20
959.6356075080186
 30
0.0
 10
932.2255227331549
 20
959.6369650410794
 30
0.0
 10
932.3014052784301
 20
959.6380525284108
 30
0.0
 10
932.3393650951241
 20
959.6385965378347
 30
0.0
  0
SPLINE
  5
37D
330
1F
100
AcDbEntity
  8
SLD-0_0
  6
SLD-Solid
 62
   179
370
    15
100
AcDbSpline
210
0.0
220
0.0
230
1.0
 70
     8
 71
     3
 72
    12
 73
     8
 74
     0
 42
0.00000001
 43
0.00000001
 40
0.0
 40
0.0
 40
0.0
 40
0.0
 40
0.0304717459457762
 40
0.0888135668584348
 40
0.3925556175489948
 40
0.6962774394177071
 40
1.0
 40
1.0
 40
1.0
 40
1.0
 10
951.8635130143333
 20
910.8534705158847
 30
0.0
 10
951.8670221203841
 20
910.8434622523422
 30
0.0
 10
951.8772498318326
 20
910.8142919650576
 30
0.0
 10
951.9162241411211
 20
910.6818099128252
 30
0.0
 10
951.943866700272
 20
910.4384807788025
 30
0.0
 10
951.8933038853927
 20
910.0969138687127
 30
0.0
 10
951.7890743955332
 20
909.9038204454013
 30
0.0
 10
951.7369595872268
 20
909.8072736163351
 30
0.0
  0
SPLINE
  5
37E
330
1F
100
AcDbEntity
  8
SLD-0_0
  6
SLD-Solid
 62
   179
370
    15
100
AcDbSpline
210
0.0
220
0.0
230
1.0
 70
     8
 71
     3
 72
    10
 73
     6
 74
     0
 42
0.00000001
 43
0.00000001
 40
0.0
 40
0.0
 40
0.0
 40
0.0
 40
0.2117958997232506
 40
0.4880069094756083
 40
1.0
 40
1.0
 40
1.0
 40
1.0
 10
951.7369595872267
 20
909.807273616335
 30
0.0
 10
951.7355189457645
 20
909.8046897075538
 30
0.0
 10
951.7321995095118
 20
909.798736026012
 30
0.0
 10
951.7304376802471
 20
909.7877019343832
 30
0.0
 10
951.7320625741125
 20
909.7811168909506
 30
0.0
 10
951.7331180550872
 20
909.7768394496923
 30
0.0
  0
SPLINE
  5
37F
330
1F
100
AcDbEntity
  8
SLD-0_0
  6
SLD-Solid
 62
   179
370
    15
100
AcDbSpline
210
0.0
220
0.0
230
1.0
 70
     8
 71
     3
 72
    12
 73
     8
 74
     0
 42
0.00000001
 43
0.00000001
 40
0.0
 40
0.0
 40
0.0
 40
0.0
 40
0.0304717459514164
 40
0.0888135668587542
 40
0.3925556175488278
 40
0.6962774394177897
 40
1.0
 40
1.0
 40
1.0
 40
1.0
 10
937.824169131706
 20
954.0621280561866
 30
0.0
 10
937.8211253484234
 20
954.0722875122635
 30
0.0
 10
937.8122538761262
 20
954.1018984683595
 30
0.0
 10
937.7659137581969
 20
954.2319872242927
 30
0.0
 10
937.645251781879
 20
954.445092517537
 30
0.0
 10
937.4035776129396
 20
954.6917058756187
 30
0.0
 10
937.2057567177905
 20
954.7866571795857
 30
0.0
 10
937.1068461499309
 20
954.8341328893048
 30
0.0
  0
SPLINE
  5
380
330
1F
100
AcDbEntity
  8
SLD-0_0
  6
SLD-Solid
 62
   179
370
    15
100
AcDbSpline
210
0.0
220
0.0
230
1.0
 70
     8
 71
     3
 72
    11
 73
     7
 74
     0
 42
0.00000001
 43
0.00000001
 40
0.0
 40
0.0
 40
0.0
 40
0.0
 40
0.370432093787505
 40
0.7442498469264791
 40
0.9442480537683716
 40
1.0
 40
1.0
 40
1.0
 40
1.0
 10
937.0858495308285
 20
954.8564966513902
 30
0.0
 10
937.0869883363822
 20
954.8535488297323
 30
0.0
 10
937.0892763558958
 20
954.8476262440427
 30
0.0
 10
937.0956726126343
 20
954.8400886608862
 30
0.0
 10
937.1027234406354
 20
954.8357823878457
 30
0.0
 10
937.1061082766792
 20
954.8344281128495
 30
0.0
 10
937.106846149931
 20
954.8341328893049
 30
0.0
  0
SPLINE
  5
381
330
1F
100
AcDbEntity
  8
SLD-0_0
  6
SLD-Solid
 62
   179
370
    15
100
AcDbSpline
210
0.0
220
0.0
230
1.0
 70
     8
 71
     3
 72
    12
 73
     8
 74
     0
 42
0.00000001
 43
0.00000001
 40
0.0
 40
0.0
 40
0.0
 40
0.0
 40
0.2238925571852808
 40
0.4477848984198791
 40
0.6716824862032756
 40
0.8955821585470874
 40
1.0
 40
1.0
 40
1.0
 40
1.0
 10
936.3319121997984
 20
959.3410384553612
 30
0.0
 10
936.3042112743295
 20
959.3441016880787
 30
0.0
 10
936.2488094501101
 20
959.3502281505594
 30
0.0
 10
936.1773108364672
 20
959.3583991325303
 30
0.0
 10
936.1252688370129
 20
959.3644579273667
 30
0.0
 10
936.1020959521982
 20
959.3672083040327
 30
0.0
 10
936.1001630413573
 20
959.3674557634312
 30
0.0
 10
936.0995482999281
 20
959.3675344652218
 30
0.0
  0
SPLINE
  5
382
330
1F
100
AcDbEntity
  8
SLD-0_0
  6
SLD-Solid
 62
   179
370
    15
100
AcDbSpline
210
0.0
220
0.0
230
1.0
 70
     8
 71
     3
 72
    11
 73
     7
 74
     0
 42
0.00000001
 43
0.00000001
 40
0.0
 40
0.0
 40
0.0
 40
0.0
 40
0.2933118760926163
 40
0.5865991201422477
 40
0.8805021461504587
 40
1.0
 40
1.0
 40
1.0
 40
1.0
 10
956.7796268860798
 20
957.0585418642352
 30
0.0
 10
956.8903091713123
 20
957.0352087408822
 30
0.0
 10
957.1116644467882
 20
956.9885444536686
 30
0.0
 10
957.3895583074847
 20
956.7839483098763
 30
0.0
 10
957.5521546553911
 20
956.5618770370294
 30
0.0
 10
957.6071579761211
 20
956.4136706700617
 30
0.0
 10
957.6230572620252
 20
956.3708300675318
 30
0.0
  0
SPLINE
  5
383
330
1F
100
AcDbEntity
  8
SLD-0_0
  6
SLD-Solid
 62
   179
370
    15
100
AcDbSpline
210
0.0
220
0.0
230
1.0
 70
    24
 71
     3
 72
    15
 73
    11
 74
     0
 42
0.00000001
 43
0.00000001
 40
0.0
 40
0.0
 40
0.0
 40
0.0
 40
0.0013073418565379
 40
0.0031095021647816
 40
0.005897756037979
 40
0.0102696093357181
 40
0.0184674105770331
 40
0.0491723679587026
 40
0.1105064211145331
 40
1.0
 40
1.0
 40
1.0
 40
1.0
 10
932.6105343544475
 20
929.7972847634113
 30
0.0
 10
932.6106120548397
 20
929.7973100097987
 30
0.0
 10
932.6107968646022
 20
929.7973700581299
 30
0.0
 10
932.6126288279115
 20
929.7979652990936
 30
0.0
 10
932.6166346544287
 20
929.799266871027
 30
0.0
 10
932.624903277247
 20
929.801953509442
 30
0.0
 10
932.6503166522407
 20
929.8102108155256
 30
0.0
 10
932.7128884156606
 20
929.8305416138885
 30
0.0
 10
933.3329455224568
 20
930.0320103806741
 30
0.0
 10
933.9424549521664
 20
930.230051999427
 30
0.0
 10
934.5126473884472
 20
930.4153187526183
 30
0.0
  0
SPLINE
  5
384
330
1F
100
AcDbEntity
  8
SLD-0_0
  6
SLD-Solid
 62
   179
370
    15
100
AcDbSpline
210
0.0
220
0.0
230
1.0
 70
     8
 71
     3
 72
    16
 73
    12
 74
     0
 42
0.00000001
 43
0.00000001
 40
0.0
 40
0.0
 40
0.0
 40
0.0
 40
0.0001752464039547
 40
0.1252144210065647
 40
0.2502435855708469
 40
0.3752580360337646
 40
0.5002621062641129
 40
0.6252646105096233
 40
0.7502654112533406
 40
0.8753601771999049
 40
1.0
 40
1.0
 40
1.0
 40
1.0
 10
927.3513648293463
 20
959.9800255136416
 30
0.0
 10
927.3512766384601
 20
959.980037684191
 30
0.0
 10
927.2882638149342
 20
959.9887336018236
 30
0.0
 10
927.5100760365737
 20
959.95742453809
 30
0.0
 10
928.0260683822565
 20
959.8893915801804
 30
0.0
 10
928.8644650216726
 20
959.7958206004606
 30
0.0
 10
929.8400715306865
 20
959.7147189059642
 30
0.0
 10
930.8226364780261
 20
959.6638366719368
 30
0.0
 10
931.6493700097406
 20
959.6455485442601
 30
0.0
 10
932.2268593480793
 20
959.6469525906858
 30
0.0
 10
932.3023510103047
 20
959.6480345447035
 30
0.0
 10
932.3400280795881
 20
959.6485745362111
 30
0.0
  0
SPLINE
  5
385
330
1F
100
AcDbEntity
  8
SLD-0_0
  6
SLD-Solid
 62
   179
370
    15
100
AcDbSpline
210
0.0
220
0.0
230
1.0
 70
    24
 71
     3
 72
    11
 73
     7
 74
     0
 42
0.00000001
 43
0.00000001
 40
0.0
 40
0.0
 40
0.0
 40
0.0
 40
0.2833534124411294
 40
0.5581116990962743
 40
0.7754835424211851
 40
1.0
 40
1.0
 40
1.0
 40
1.0
 10
953.0426591120853
 20
392.295338540872
 30
0.0
 10
953.0426591120853
 20
392.5923871156785
 30
0.0
 10
953.0426591120853
 20
393.1774737160875
 30
0.0
 10
953.0426591120851
 20
393.8255834864947
 30
0.0
 10
953.0426591120853
 20
394.219488888607
 30
0.0
 10
953.0426591120852
 20
394.2660562703572
 30
0.0
 10
953.0426591120853
 20
394.2897164205985
 30
0.0
  0
SPLINE
  5
386
330
1F
100
AcDbEntity
  8
SLD-0_0
  6
SLD-Solid
 62
   179
370
    15
100
AcDbSpline
210
0.0
220
0.0
230
1.0
 70
    24
 71
     3
 72
    11
 73
     7
 74
     0
 42
0.00000001
 43
0.00000001
 40
0.0
 40
0.0
 40
0.0
 40
0.0
 40
0.2832771686238255
 40
0.5580022489005086
 40
0.7754022428539191
 40
0.9999999999999999
 40
0.9999999999999999
 40
0.9999999999999999
 40
0.9999999999999999
 10
953.0426591120853
 20
334.2897164205986
 30
0.0
 10
953.0426591120853
 20
334.3280002527754
 30
0.0
 10
953.0426591120853
 20
334.4034121349084
 30
0.0
 10
953.0426591120853
 20
334.9363508010291
 30
0.0
 10
953.0426591120853
 20
335.5867752309264
 30
0.0
 10
953.0426591120853
 20
336.0488831607424
 30
0.0
 10
953.0426591120853
 20
336.2836997505055
 30
0.0
  0
SPLINE
  5
387
330
1F
100
AcDbEntity
  8
SLD-0_0
  6
SLD-Solid
 62
   179
370
    15
100
AcDbSpline
210
0.0
220
0.0
230
1.0
 70
     8
 71
     3
 72
    11
 73
     7
 74
     0
 42
0.00000001
 43
0.00000001
 40
0.0
 40
0.0
 40
0.0
 40
0.0
 40
0.2514201137491377
 40
0.5021380165204802
 40
0.7627995894819184
 40
1.0
 40
1.0
 40
1.0
 40
1.0
 10
954.4426591120853
 20
336.8274319286885
 30
0.0
 10
954.4243477404331
 20
336.5752876514613
 30
0.0
 10
954.387776140396
 20
336.0717033305577
 30
0.0
 10
954.0905100711971
 20
335.3559926607977
 30
0.0
 10
953.6468974390123
 20
334.7326207339746
 30
0.0
 10
953.2376433479382
 20
334.432639097382
 30
0.0
 10
953.0426591120853
 20
334.2897164205985
 30
0.0
  0
SPLINE
  5
388
330
1F
100
AcDbEntity
  8
SLD-0_0
  6
SLD-Solid
 62
   179
370
    15
100
AcDbSpline
210
0.0
220
0.0
230
1.0
 70
    24
 71
     3
 72
    13
 73
     9
 74
     0
 42
0.00000001
 43
0.00000001
 40
0.0
 40
0.0
 40
0.0
 40
0.0
 40
0.1275872441294529
 40
0.2546759233236647
 40
0.5000487292309118
 40
0.7453982611490161
 40
0.872539756542471
 40
1.0
 40
1.0
 40
1.0
 40
1.0
 10
953.0426591120853
 20
336.2836997505055
 30
0.0
 10
953.0426591120853
 20
336.1505282490536
 30
0.0
 10
953.0426591120853
 20
335.8847056323489
 30
0.0
 10
953.0426591120853
 20
335.3849617992096
 30
0.0
 10
953.0426591120852
 20
334.8375584239883
 30
0.0
 10
953.0426591120854
 20
334.4718056478098
 30
0.0
 10
953.0426591120852
 20
334.3115453096287
 30
0.0
 10
953.0426591120853
 20
334.296998787437
 30
0.0
 10
953.0426591120853
 20
334.2897164205986
 30
0.0
  0
SPLINE
  5
389
330
1F
100
AcDbEntity
  8
SLD-0_0
  6
SLD-Solid
 62
   179
370
    15
100
AcDbSpline
210
0.0
220
0.0
230
1.0
 70
     8
 71
     3
 72
    11
 73
     7
 74
     0
 42
0.00000001
 43
0.00000001
 40
0.0
 40
0.0
 40
0.0
 40
0.0
 40
0.2371941589275924
 40
0.497861974947111
 40
0.7485798819786958
 40
1.0
 40
1.0
 40
1.0
 40
1.0
 10
953.0426591120853
 20
394.2897164205985
 30
0.0
 10
953.2376383531396
 20
394.1467979168614
 30
0.0
 10
953.6468927397734
 20
393.8468171380399
 30
0.0
 10
954.0905077528168
 20
393.2234459927147
 30
0.0
 10
954.3877761125544
 20
392.5077295208031
 30
0.0
 10
954.4243477311438
 20
392.0041451931269
 30
0.0
 10
954.4426591120853
 20
391.7520009125086
 30
0.0
  0
SPLINE
  5
38A
330
1F
100
AcDbEntity
  8
SLD-0_0
  6
SLD-Solid
 62
   179
370
    15
100
AcDbSpline
210
0.0
220
0.0
230
1.0
 70
    24
 71
     3
 72
    13
 73
     9
 74
     0
 42
0.00000001
 43
0.00000001
 40
0.0
 40
0.0
 40
0.0
 40
0.0
 40
0.1275360740474436
 40
0.2545887198592333
 40
0.4999418984797858
 40
0.7453299828649755
 40
0.8725055605771154
 40
1.0
 40
1.0
 40
1.0
 40
1.0
 10
953.0426591120853
 20
394.2897164205986
 30
0.0
 10
953.0426591120853
 20
394.2824491767274
 30
0.0
 10
953.0426591120852
 20
394.2679422356294
 30
0.0
 10
953.0426591120852
 20
394.1074511106528
 30
0.0
 10
953.0426591120853
 20
393.7416717052824
 30
0.0
 10
953.0426591120853
 20
393.1940967150428
 30
0.0
 10
953.0426591120852
 20
392.6942497311065
 30
0.0
 10
953.0426591120853
 20
392.4284198824404
 30
0.0
 10
953.0426591120853
 20
392.2953385408721
 30
0.0
  0
SPLINE
  5
38B
330
1F
100
AcDbEntity
  8
SLD-0_0
  6
SLD-Solid
 62
   179
370
    15
100
AcDbSpline
210
0.0
220
0.0
230
1.0
 70
     8
 71
     3
 72
    11
 73
     7
 74
     0
 42
0.00000001
 43
0.00000001
 40
0.0
 40
0.0
 40
0.0
 40
0.0
 40
0.2499948173009973
 40
0.4999416367335001
 40
0.7498481479518362
 40
1.0
 40
1.0
 40
1.0
 40
1.0
 10
985.9229986729351
 20
763.5911793173403
 30
0.0
 10
986.7444754441399
 20
763.6264260364835
 30
0.0
 10
988.387271266744
 20
763.6969127075604
 30
0.0
 10
990.5856831995129
 20
764.9100606202192
 30
0.0
 10
992.3014448848458
 20
766.7660017200764
 30
0.0
 10
992.7856961604931
 20
768.3693962450036
 30
0.0
 10
993.0279405910601
 20
769.171486839698
 30
0.0
  0
SPLINE
  5
38C
330
1F
100
AcDbEntity
  8
SLD-0_0
  6
SLD-Solid
 62
   179
370
    15
100
AcDbSpline
210
0.0
220
0.0
230
1.0
 70
     8
 71
     3
 72
    16
 73
    12
 74
     0
 42
0.00000001
 43
0.00000001
 40
0.0
 40
0.0
 40
0.0
 40
0.0
 40
0.0252287448533309
 40
0.1261343556387058
 40
0.3279445742849084
 40
0.5297547923572284
 40
0.7648210893121142
 40
0.8823918684009471
 40
0.9411827286181057
 40
0.9705798156749009
 40
1.0
 40
1.0
 40
1.0
 40
1.0
 10
993.0279405910601
 20
769.171486839698
 30
0.0
 10
993.2178138828965
 20
769.2303768174319
 30
0.0
 10
994.1671098331328
 20
769.5248048374644
 30
0.0
 10
996.3220746085406
 20
769.2037543819952
 30
0.0
 10
999.4412564761918
 20
769.3959455326556
 30
0.0
 10
1002.757630956052
 20
769.3317151658366
 30
0.0
 10
1005.114757118915
 20
769.3452274246267
 30
0.0
 10
1006.542088282199
 20
769.3503868360053
 30
0.0
 10
1007.172045857782
 20
769.3399352136194
 30
0.0
 10
1007.51514433898
 20
769.3571773315751
 30
0.0
 10
1007.643546788641
 20
769.1995068219884
 30
0.0
 10
1007.707773224994
 20
769.1206406089578
 30
0.0
  0
SPLINE
  5
38D
330
1F
100
AcDbEntity
  8
SLD-0_0
  6
SLD-Solid
 62
   179
370
    15
100
AcDbSpline
210
0.0
220
0.0
230
1.0
 70
     8
 71
     3
 72
    11
 73
     7
 74
     0
 42
0.00000001
 43
0.00000001
 40
0.0
 40
0.0
 40
0.0
 40
0.0
 40
0.2500023459646135
 40
0.4999652669163252
 40
0.7498956881625177
 40
1.0
 40
1.0
 40
1.0
 40
1.0
 10
1000.494813947323
 20
763.547152969276
 30
0.0
 10
1001.326206750694
 20
763.5907290928326
 30
0.0
 10
1002.988861247979
 20
763.6778744680527
 30
0.0
 10
1005.213713351882
 20
764.892777725088
 30
0.0
 10
1006.956213496492
 20
766.7366459017792
 30
0.0
 10
1007.457195242186
 20
768.3257914943836
 30
0.0
 10
1007.707773224993
 20
769.1206406089577
 30
0.0
  0
SPLINE
  5
38E
330
1F
100
AcDbEntity
  8
SLD-0_0
  6
SLD-Solid
 62
   179
370
    15
100
AcDbSpline
210
0.0
220
0.0
230
1.0
 70
     8
 71
     3
 72
    11
 73
     7
 74
     0
 42
0.00000001
 43
0.00000001
 40
0.0
 40
0.0
 40
0.0
 40
0.0
 40
0.2501043118374895
 40
0.5000347330836873
 40
0.7499976540353874
 40
1.0
 40
1.0
 40
1.0
 40
1.0
 10
1007.707773224993
 20
787.4587922322396
 30
0.0
 10
1007.457195242186
 20
788.2536413468137
 30
0.0
 10
1006.956213496492
 20
789.842786939418
 30
0.0
 10
1005.213713351882
 20
791.6866551161094
 30
0.0
 10
1002.988861247979
 20
792.9015583731439
 30
0.0
 10
1001.326206750694
 20
792.9887037483643
 30
0.0
 10
1000.494813947323
 20
793.0322798719208
 30
0.0
  0
SPLINE
  5
38F
330
1F
100
AcDbEntity
  8
SLD-0_0
  6
SLD-Solid
 62
   179
370
    15
100
AcDbSpline
210
0.0
220
0.0
230
1.0
 70
     8
 71
     3
 72
     9
 73
     5
 74
     0
 42
0.00000001
 43
0.00000001
 40
0.0
 40
0.0
 40
0.0
 40
0.0
 40
0.0001088334678355
 40
1.0
 40
1.0
 40
1.0
 40
1.0
 10
986.2472208939938
 20
763.7408282210766
 30
0.0
 10
986.2472233239165
 20
763.7408282202881
 30
0.0
 10
986.2695503014382
 20
763.7408209754068
 30
0.0
 10
986.2916212882358
 20
763.7408139471512
 30
0.0
 10
986.3136898729709
 20
763.7408069196607
 30
0.0
  0
SPLINE
  5
390
330
1F
100
AcDbEntity
  8
SLD-0_0
  6
SLD-Solid
 62
   179
370
    15
100
AcDbSpline
210
0.0
220
0.0
230
1.0
 70
     8
 71
     3
 72
    10
 73
     6
 74
     0
 42
0.00000001
 43
0.00000001
 40
0.0
 40
0.0
 40
0.0
 40
0.0
 40
0.8369622133531127
 40
0.999988258565594
 40
1.0
 40
1.0
 40
1.0
 40
1.0
 10
985.9229986725755
 20
763.5911793158764
 30
0.0
 10
986.0248737397168
 20
763.6484144436242
 30
0.0
 10
986.1465923422492
 20
763.7167980036128
 30
0.0
 10
986.2341081208654
 20
763.7386414960747
 30
0.0
 10
986.2472199497242
 20
763.7408280636074
 30
0.0
 10
986.2472208939938
 20
763.7408282210766
 30
0.0
  0
SPLINE
  5
391
330
1F
100
AcDbEntity
  8
SLD-0_0
  6
SLD-Solid
 62
   179
370
    15
100
AcDbSpline
210
0.0
220
0.0
230
1.0
 70
     8
 71
     3
 72
    11
 73
     7
 74
     0
 42
0.00000001
 43
0.00000001
 40
0.0
 40
0.0
 40
0.0
 40
0.0
 40
0.2716412431748531
 40
0.5432824863496968
 40
0.8149237295245497
 40
1.0
 40
1.0
 40
1.0
 40
1.0
 10
899.6426591120869
 20
824.6397164205987
 30
0.0
 10
899.6733760433852
 20
824.7379905307555
 30
0.0
 10
899.7348099059823
 20
824.9345387510692
 30
0.0
 10
900.2103376866171
 20
825.2293610815391
 30
0.0
 10
900.8109930995711
 20
825.4928660186589
 30
0.0
 10
901.2605034217784
 20
825.6580968456219
 30
0.0
 10
901.4426591120853
 20
825.7250535624279
 30
0.0
  0
SPLINE
  5
392
330
1F
100
AcDbEntity
  8
SLD-0_0
  6
SLD-Solid
 62
   179
370
    15
100
AcDbSpline
210
0.0
220
0.0
230
1.0
 70
     8
 71
     3
 72
    12
 73
     8
 74
     0
 42
0.00000001
 43
0.00000001
 40
0.0
 40
0.0
 40
0.0
 40
0.0
 40
0.1622307853863664
 40
0.4106775957261561
 40
0.6591247578680502
 40
0.9075717193365601
 40
1.0
 40
1.0
 40
1.0
 40
1.0
 10
901.4426591120866
 20
306.8539830822676
 30
0.0
 10
901.2829889846364
 20
306.9127167301077
 30
0.0
 10
900.878793542357
 20
307.0613974704846
 30
0.0
 10
900.3139517017117
 20
307.3000687253736
 30
0.0
 10
899.8485671958025
 20
307.5697661928378
 30
0.0
 10
899.6600705119284
 20
307.7835744421401
 30
0.0
 10
899.6463731500917
 20
307.9064096648281
 30
0.0
 10
899.6426591120869
 20
307.9397164205988
 30
0.0
  0
SPLINE
  5
393
330
1F
100
AcDbEntity
  8
SLD-0_0
  6
SLD-Solid
 62
   179
370
    15
100
AcDbSpline
210
0.0
220
0.0
230
1.0
 70
     8
 71
     3
 72
    10
 73
     6
 74
     0
 42
0.00000001
 43
0.00000001
 40
0.0
 40
0.0
 40
0.0
 40
0.0
 40
0.2943277262987443
 40
0.9095266888883835
 40
1.0
 40
1.0
 40
1.0
 40
1.0
 10
901.4426591120853
 20
825.8398505020123
 30
0.0
 10
901.3657000466253
 20
825.8281554351954
 30
0.0
 10
901.1278824109311
 20
825.7920155324682
 30
0.0
 10
900.8800405780777
 20
825.6398620776281
 30
0.0
 10
900.7797544820546
 20
825.4818246027845
 30
0.0
 10
900.7668969340061
 20
825.4615628266578
 30
0.0
  0
SPLINE
  5
394
330
1F
100
AcDbEntity
  8
SLD-0_0
  6
SLD-Solid
 62
   179
370
    15
100
AcDbSpline
210
0.0
220
0.0
230
1.0
 70
     8
 71
     3
 72
    12
 73
     8
 74
     0
 42
0.00000001
 43
0.00000001
 40
0.0
 40
0.0
 40
0.0
 40
0.0
 40
0.162230785385666
 40
0.4106775957256206
 40
0.659124757867687
 40
0.9075717193363608
 40
1.0
 40
1.0
 40
1.0
 40
1.0
 10
901.4426591120853
 20
826.6443120173873
 30
0.0
 10
901.2829889846356
 20
826.625189342932
 30
0.0
 10
900.878793542357
 20
826.5767814285497
 30
0.0
 10
900.3139517017122
 20
826.2095925619551
 30
0.0
 10
899.8485671958032
 20
825.6324255807618
 30
0.0
 10
899.6600705119291
 20
825.0659456508876
 30
0.0
 10
899.6463731500924
 20
824.7306356789279
 30
0.0
 10
899.6426591120874
 20
824.6397164205985
 30
0.0
  0
SPLINE
  5
395
330
1F
100
AcDbEntity
  8
SLD-0_0
  6
SLD-Solid
 62
   179
370
    15
100
AcDbSpline
210
0.0
220
0.0
230
1.0
 70
     8
 71
     3
 72
    10
 73
     6
 74
     0
 42
0.00000001
 43
0.00000001
 40
0.0
 40
0.0
 40
0.0
 40
0.0
 40
0.0939234129706333
 40
0.7072251820365523
 40
1.0
 40
1.0
 40
1.0
 40
1.0
 10
900.7672788601369
 20
307.1179372574111
 30
0.0
 10
900.7806744531645
 20
307.0969376260564
 30
0.0
 10
900.8815406846784
 20
306.938814452741
 30
0.0
 10
901.1291851470289
 20
306.7869501807808
 30
0.0
 10
901.3661047679253
 20
306.7510460031219
 30
0.0
 10
901.4426591120866
 20
306.7394445124436
 30
0.0
  0
SPLINE
  5
396
330
1F
100
AcDbEntity
  8
SLD-0_0
  6
SLD-Solid
 62
   179
370
    15
100
AcDbSpline
210
0.0
220
0.0
230
1.0
 70
     8
 71
     3
 72
    11
 73
     7
 74
     0
 42
0.00000001
 43
0.00000001
 40
0.0
 40
0.0
 40
0.0
 40
0.0
 40
0.2716412431747478
 40
0.5432824863494897
 40
0.8149237295242431
 40
1.0
 40
1.0
 40
1.0
 40
1.0
 10
899.642659112087
 20
307.9397164205988
 30
0.0
 10
899.6733760433852
 20
307.6707995155073
 30
0.0
 10
899.734809905982
 20
307.1329657053241
 30
0.0
 10
900.2103376866171
 20
306.4597130636062
 30
0.0
 10
900.8109930995715
 20
306.0211858359579
 30
0.0
 10
901.260503421779
 20
305.9630165377171
 30
0.0
 10
901.4426591120866
 20
305.9394445124436
 30
0.0
  0
SPLINE
  5
397
330
1F
100
AcDbEntity
  8
SLD-0_0
  6
SLD-Solid
 62
   179
370
    15
100
AcDbSpline
210
0.0
220
0.0
230
1.0
 70
     8
 71
     3
 72
    12
 73
     8
 74
     0
 42
0.00000001
 43
0.00000001
 40
0.0
 40
0.0
 40
0.0
 40
0.0
 40
0.1454404235742875
 40
0.2766795478360508
 40
0.4978136031492298
 40
0.7087136043555711
 40
1.0
 40
1.0
 40
1.0
 40
1.0
 10
949.3926591120853
 20
305.1604270987172
 30
0.0
 10
949.5599125986223
 20
305.1773139665458
 30
0.0
 10
949.8780883704729
 20
305.2094388107973
 30
0.0
 10
950.4134216614983
 20
305.3054055549671
 30
0.0
 10
950.9218657110699
 20
305.4812438369295
 30
0.0
 10
951.3478633931396
 20
305.8650224600726
 30
0.0
 10
951.4078593009823
 20
306.1654547520151
 30
0.0
 10
951.4426591120853
 20
306.3397164205984
 30
0.0
  0
SPLINE
  5
398
330
1F
100
AcDbEntity
  8
SLD-0_0
  6
SLD-Solid
 62
   179
370
    15
100
AcDbSpline
210
0.0
220
0.0
230
1.0
 70
     8
 71
     3
 72
    12
 73
     8
 74
     0
 42
0.00000001
 43
0.00000001
 40
0.0
 40
0.0
 40
0.0
 40
0.0
 40
0.3031690971284434
 40
0.4982530300587709
 40
0.7085588702607389
 40
0.8440650708940118
 40
1.0
 40
1.0
 40
1.0
 40
1.0
 10
951.4426591120853
 20
826.2397164205984
 30
0.0
 10
951.4046698102438
 20
826.418884953256
 30
0.0
 10
951.342235066955
 20
826.7133452565436
 30
0.0
 10
950.9240241849694
 20
827.0963006248921
 30
0.0
 10
950.439859278795
 20
827.2528230403404
 30
0.0
 10
949.9055291153577
 20
827.3543390026751
 30
0.0
 10
949.5714222488684
 20
827.3964658606791
 30
0.0
 10
949.3926591120853
 20
827.41900574248
 30
0.0
  0
SPLINE
  5
399
330
1F
100
AcDbEntity
  8
SLD-0_0
  6
SLD-Solid
 62
   179
370
    15
100
AcDbSpline
210
0.0
220
0.0
230
1.0
 70
     8
 71
     3
 72
    12
 73
     8
 74
     0
 42
0.00000001
 43
0.00000001
 40
0.0
 40
0.0
 40
0.0
 40
0.0
 40
0.2286702771456041
 40
0.4574139526360301
 40
0.6861579520287829
 40
0.9149017666626156
 40
1.0
 40
1.0
 40
1.0
 40
1.0
 10
951.4426591120853
 20
306.3397164205984
 30
0.0
 10
951.4169228473712
 20
306.0942440010277
 30
0.0
 10
951.3654420571438
 20
305.6032203704077
 30
0.0
 10
950.9658290071519
 20
304.9600546690688
 30
0.0
 10
950.3844622937356
 20
304.4958870049918
 30
0.0
 10
949.8189597483299
 20
304.3071071310848
 30
0.0
 10
949.4835936020697
 20
304.2934260453424
 30
0.0
 10
949.3926591120853
 20
304.2897164205985
 30
0.0
  0
SPLINE
  5
39A
330
1F
100
AcDbEntity
  8
SLD-0_0
  6
SLD-Solid
 62
   179
370
    15
100
AcDbSpline
210
0.0
220
0.0
230
1.0
 70
     8
 71
     3
 72
     9
 73
     5
 74
     0
 42
0.00000001
 43
0.00000001
 40
0.0
 40
0.0
 40
0.0
 40
0.0
 40
0.1335047189091749
 40
1.0
 40
1.0
 40
1.0
 40
1.0
 10
949.9288226205638
 20
305.2243057194786
 30
0.0
 10
949.9083914379228
 20
305.2099838157534
 30
0.0
 10
949.7553542808241
 20
305.1027074300032
 30
0.0
 10
949.5610354564407
 20
305.0957473216459
 30
0.0
 10
949.3926591120853
 20
305.0897164205984
 30
0.0
  0
SPLINE
  5
39B
330
1F
100
AcDbEntity
  8
SLD-0_0
  6
SLD-Solid
 62
   179
370
    15
100
AcDbSpline
210
0.0
220
0.0
230
1.0
 70
     8
 71
     3
 72
     9
 73
     5
 74
     0
 42
0.00000001
 43
0.00000001
 40
0.0
 40
0.0
 40
0.0
 40
0.0
 40
0.8366150873031779
 40
1.0
 40
1.0
 40
1.0
 40
1.0
 10
949.3926591120853
 20
827.4897164205986
 30
0.0
 10
949.5627602240411
 20
827.4824714314201
 30
0.0
 10
949.7660808604213
 20
827.4738115479345
 30
0.0
 10
949.9255126886666
 20
827.3595318299106
 30
0.0
 10
949.9515614440055
 20
827.3408602481578
 30
0.0
  0
SPLINE
  5
39C
330
1F
100
AcDbEntity
  8
SLD-0_0
  6
SLD-Solid
 62
   179
370
    15
100
AcDbSpline
210
0.0
220
0.0
230
1.0
 70
     8
 71
     3
 72
    12
 73
     8
 74
     0
 42
0.00000001
 43
0.00000001
 40
0.0
 40
0.0
 40
0.0
 40
0.0
 40
0.2286697549032004
 40
0.4574134284524303
 40
0.6861574263647183
 40
0.914901239510992
 40
1.0
 40
1.0
 40
1.0
 40
1.0
 10
949.3926591120852
 20
828.2897164205984
 30
0.0
 10
949.6381309662917
 20
828.2639802723565
 30
0.0
 10
950.1291540247139
 20
828.212499656534
 30
0.0
 10
950.7723195637224
 20
827.8128874599018
 30
0.0
 10
951.2364877005609
 20
827.2315211259034
 30
0.0
 10
951.4252682529734
 20
826.6660181874164
 30
0.0
 10
951.438949442448
 20
826.3306514750725
 30
0.0
 10
951.4426591120853
 20
826.2397164205986
 30
0.0
  0
SPLINE
  5
39D
330
1F
100
AcDbEntity
  8
SLD-0_0
  6
SLD-Solid
 62
   179
370
    15
100
AcDbSpline
210
0.0
220
0.0
230
1.0
 70
     8
 71
     3
 72
    11
 73
     7
 74
     0
 42
0.00000001
 43
0.00000001
 40
0.0
 40
0.0
 40
0.0
 40
0.0
 40
0.249999999999986
 40
0.5000000000000014
 40
0.750000000000017
 40
1.0
 40
1.0
 40
1.0
 40
1.0
 10
184.8426591131802
 20
299.3604270985832
 30
0.0
 10
184.8734738373942
 20
299.4587012087399
 30
0.0
 10
184.9351032858222
 20
299.6552494290534
 30
0.0
 10
185.4091641727231
 20
299.9500717595238
 30
0.0
 10
186.086781293772
 20
300.2448940899942
 30
0.0
 10
186.6240331733779
 20
300.4414423103077
 30
0.0
 10
186.8926591131807
 20
300.5397164204644
 30
0.0
  0
SPLINE
  5
39E
330
1F
100
AcDbEntity
  8
SLD-0_0
  6
SLD-Solid
 62
   179
370
    15
100
AcDbSpline
210
0.0
220
0.0
230
1.0
 70
     8
 71
     3
 72
    11
 73
     7
 74
     0
 42
0.00000001
 43
0.00000001
 40
0.0
 40
0.0
 40
0.0
 40
0.0
 40
0.2500000000000133
 40
0.5000000000000184
 40
0.7499999999999928
 40
1.0
 40
1.0
 40
1.0
 40
1.0
 10
186.892659113179
 20
979.5397164204644
 30
0.0
 10
186.6240331733761
 20
979.6379905306213
 30
0.0
 10
186.08678129377
 20
979.8345387509349
 30
0.0
 10
185.4091641727211
 20
980.129361081405
 30
0.0
 10
184.9351032858198
 20
980.4241834118754
 30
0.0
 10
184.8734738373918
 20
980.620731632189
 30
0.0
 10
184.8426591131779
 20
980.719005742346
 30
0.0
  0
SPLINE
  5
39F
330
1F
100
AcDbEntity
  8
SLD-0_0
  6
SLD-Solid
 62
   179
370
    15
100
AcDbSpline
210
0.0
220
0.0
230
1.0
 70
     8
 71
     3
 72
    12
 73
     8
 74
     0
 42
0.00000001
 43
0.00000001
 40
0.0
 40
0.0
 40
0.0
 40
0.0
 40
0.228669754903275
 40
0.4574134284524927
 40
0.6861574263648649
 40
0.9149012395111481
 40
1.0
 40
1.0
 40
1.0
 40
1.0
 10
185.7133697912974
 20
981.5897164204649
 30
0.0
 10
185.8032872853659
 20
981.5639802722229
 30
0.0
 10
185.9831513397839
 20
981.5124996564
 30
0.0
 10
186.2530103050509
 20
981.112887459768
 30
0.0
 10
186.5227084004495
 20
980.531521125769
 30
0.0
 10
186.7365167099795
 20
979.9660181872821
 30
0.0
 10
186.8593521483812
 20
979.6306514749383
 30
0.0
 10
186.8926591131788
 20
979.5397164204646
 30
0.0
  0
SPLINE
  5
3A0
330
1F
100
AcDbEntity
  8
SLD-0_0
  6
SLD-Solid
 62
   179
370
    15
100
AcDbSpline
210
0.0
220
0.0
230
1.0
 70
     8
 71
     3
 72
    11
 73
     7
 74
     0
 42
0.00000001
 43
0.00000001
 40
0.0
 40
0.0
 40
0.0
 40
0.0
 40
0.2506719719564799
 40
0.5014887651677832
 40
0.7523060046715069
 40
1.0
 40
1.0
 40
1.0
 40
1.0
 10
185.7133697912974
 20
980.7897164204646
 30
0.0
 10
185.8119106016293
 20
980.7708226681954
 30
0.0
 10
186.0090491524863
 20
980.733024248129
 30
0.0
 10
186.3047844647613
 20
980.4422854066993
 30
0.0
 10
186.5993635128677
 20
980.0285667370329
 30
0.0
 10
186.7953031096063
 20
979.7019844978438
 30
0.0
 10
186.8926591131788
 20
979.5397164204647
 30
0.0
  0
SPLINE
  5
3A1
330
1F
100
AcDbEntity
  8
SLD-0_0
  6
SLD-Solid
 62
   179
370
    15
100
AcDbSpline
210
0.0
220
0.0
230
1.0
 70
     8
 71
     3
 72
    10
 73
     6
 74
     0
 42
0.00000001
 43
0.00000001
 40
0.0
 40
0.0
 40
0.0
 40
0.0
 40
0.3468498009996566
 40
0.6936996019993281
 40
1.0
 40
1.0
 40
1.0
 40
1.0
 10
890.3926591131785
 20
979.5397164204671
 30
0.0
 10
890.4909332233354
 20
979.8066469806357
 30
0.0
 10
890.6874814436487
 20
980.3405081009728
 30
0.0
 10
890.9708147766174
 20
981.0161586885704
 30
0.0
 10
891.1558739994294
 20
981.2650144832912
 30
0.0
 10
891.2426591120845
 20
981.3817175465135
 30
0.0
  0
SPLINE
  5
3A2
330
1F
100
AcDbEntity
  8
SLD-0_0
  6
SLD-Solid
 62
   179
370
    15
100
AcDbSpline
210
0.0
220
0.0
230
1.0
 70
     8
 71
     3
 72
    11
 73
     7
 74
     0
 42
0.00000001
 43
0.00000001
 40
0.0
 40
0.0
 40
0.0
 40
0.0
 40
0.2500000000000182
 40
0.5000000000000343
 40
0.7499999999999941
 40
1.0
 40
1.0
 40
1.0
 40
1.0
 10
186.8926591131786
 20
979.5397164204644
 30
0.0
 10
186.7288628084207
 20
979.6379905306213
 30
0.0
 10
186.4012701989048
 20
979.8345387509349
 30
0.0
 10
185.9880890275335
 20
980.1293610814054
 30
0.0
 10
185.6990275111303
 20
980.4241834118754
 30
0.0
 10
185.6614485791622
 20
980.6207316321887
 30
0.0
 10
185.642659113178
 20
980.719005742346
 30
0.0
  0
SPLINE
  5
3A3
330
1F
100
AcDbEntity
  8
SLD-0_0
  6
SLD-Solid
 62
   179
370
    15
100
AcDbSpline
210
0.0
220
0.0
230
1.0
 70
     8
 71
     3
 72
    11
 73
     7
 74
     0
 42
0.00000001
 43
0.00000001
 40
0.0
 40
0.0
 40
0.0
 40
0.0
 40
0.2499999999999961
 40
0.5000000000000039
 40
0.7500000000000002
 40
1.0
 40
1.0
 40
1.0
 40
1.0
 10
891.5719484350619
 20
298.4897164204673
 30
0.0
 10
891.473674324905
 20
298.5205311446813
 30
0.0
 10
891.2771261045915
 20
298.5821605931093
 30
0.0
 10
890.9823037741211
 20
299.0562214800102
 30
0.0
 10
890.6874814436509
 20
299.7338386010588
 30
0.0
 10
890.490933223337
 20
300.2710904806644
 30
0.0
 10
890.3926591131803
 20
300.5397164204672
 30
0.0
  0
SPLINE
  5
3A4
330
1F
100
AcDbEntity
  8
SLD-0_0
  6
SLD-Solid
 62
   179
370
    15
100
AcDbSpline
210
0.0
220
0.0
230
1.0
 70
     8
 71
     3
 72
    12
 73
     8
 74
     0
 42
0.00000001
 43
0.00000001
 40
0.0
 40
0.0
 40
0.0
 40
0.0
 40
0.228670277145606
 40
0.4574139526360618
 40
0.6861579520287971
 40
0.9149017666626152
 40
1.0
 40
1.0
 40
1.0
 40
1.0
 10
186.8926591131811
 20
300.5397164204647
 30
0.0
 10
186.8027414118536
 20
300.294244000894
 30
0.0
 10
186.6228771475096
 20
299.8032203702739
 30
0.0
 10
186.3530179791119
 20
299.160054668935
 30
0.0
 10
186.0833198835697
 20
298.6958870048582
 30
0.0
 10
185.8695117804374
 20
298.5071071309511
 30
0.0
 10
185.7466765493482
 20
298.4934260452087
 30
0.0
 10
185.7133697912997
 20
298.4897164204648
 30
0.0
  0
SPLINE
  5
3A5
330
1F
100
AcDbEntity
  8
SLD-0_0
  6
SLD-Solid
 62
   179
370
    15
100
AcDbSpline
210
0.0
220
0.0
230
1.0
 70
     8
 71
     3
 72
    11
 73
     7
 74
     0
 42
0.00000001
 43
0.00000001
 40
0.0
 40
0.0
 40
0.0
 40
0.0
 40
0.2506688637244552
 40
0.501485649056489
 40
0.7523028878587423
 40
1.0
 40
1.0
 40
1.0
 40
1.0
 10
186.8926591131811
 20
300.5397164204647
 30
0.0
 10
186.7941195396494
 20
300.3754788792258
 30
0.0
 10
186.5969822436324
 20
300.0469068789226
 30
0.0
 10
186.3012481413601
 20
299.6328574890646
 30
0.0
 10
186.0066678860464
 20
299.3452972545244
 30
0.0
 10
185.8107270347344
 20
299.3081658986195
 30
0.0
 10
185.7133697912997
 20
299.2897164204648
 30
0.0
  0
SPLINE
  5
3A6
330
1F
100
AcDbEntity
  8
SLD-0_0
  6
SLD-Solid
 62
   179
370
    15
100
AcDbSpline
210
0.0
220
0.0
230
1.0
 70
     8
 71
     3
 72
    11
 73
     7
 74
     0
 42
0.00000001
 43
0.00000001
 40
0.0
 40
0.0
 40
0.0
 40
0.0
 40
0.2499999999999782
 40
0.5000000000000058
 40
0.7500000000000219
 40
1.0
 40
1.0
 40
1.0
 40
1.0
 10
185.6426591131802
 20
299.3604270985832
 30
0.0
 10
185.6614485791643
 20
299.45870120874
 30
0.0
 10
185.6990275111326
 20
299.6552494290534
 30
0.0
 10
185.9880890275356
 20
299.9500717595238
 30
0.0
 10
186.401270198907
 20
300.2448940899942
 30
0.0
 10
186.7288628084227
 20
300.4414423103077
 30
0.0
 10
186.8926591131805
 20
300.5397164204644
 30
0.0
  0
SPLINE
  5
3A7
330
1F
100
AcDbEntity
  8
SLD-0_0
  6
SLD-Solid
 62
   179
370
    15
100
AcDbSpline
210
0.0
220
0.0
230
1.0
 70
     8
 71
     3
 72
     9
 73
     5
 74
     0
 42
0.00000001
 43
0.00000001
 40
0.0
 40
0.0
 40
0.0
 40
0.0
 40
0.6901473262286202
 40
1.0
 40
1.0
 40
1.0
 40
1.0
 10
891.2426591120845
 20
979.8633038667627
 30
0.0
 10
891.0533332789382
 20
979.788664094939
 30
0.0
 10
890.7790065867218
 20
979.6805136044755
 30
0.0
 10
890.4840516797465
 20
979.5730227493375
 30
0.0
 10
890.3926591131781
 20
979.5397164204671
 30
0.0
  0
SPLINE
  5
3A8
330
1F
100
AcDbEntity
  8
SLD-0_0
  6
SLD-Solid
 62
   179
370
    15
100
AcDbSpline
210
0.0
220
0.0
230
1.0
 70
     8
 71
     3
 72
    12
 73
     8
 74
     0
 42
0.00000001
 43
0.00000001
 40
0.0
 40
0.0
 40
0.0
 40
0.0
 40
0.2286702771455878
 40
0.4574139526359755
 40
0.6861579520287022
 40
0.914901766662515
 40
0.9999999999999999
 40
0.9999999999999999
 40
0.9999999999999999
 40
0.9999999999999999
 10
890.3926591131801
 20
300.5397164204674
 30
0.0
 10
890.6381315327509
 20
300.4497987191399
 30
0.0
 10
891.1291551633709
 20
300.269934454796
 30
0.0
 10
891.7723208647099
 20
300.0000752863982
 30
0.0
 10
892.2364885287868
 20
299.7303771908564
 30
0.0
 10
892.4252684026939
 20
299.5165690877236
 30
0.0
 10
892.4389494884364
 20
299.3937338566346
 30
0.0
 10
892.4426591131802
 20
299.360427098586
 30
0.0
  0
SPLINE
  5
3A9
330
1F
100
AcDbEntity
  8
SLD-0_0
  6
SLD-Solid
 62
   179
370
    15
100
AcDbSpline
210
0.0
220
0.0
230
1.0
 70
     8
 71
     3
 72
    10
 73
     6
 74
     0
 42
0.00000001
 43
0.00000001
 40
0.0
 40
0.0
 40
0.0
 40
0.0
 40
0.3468498010009387
 40
0.6936996020018972
 40
1.0
 40
1.0
 40
1.0
 40
1.0
 10
890.3926591131785
 20
979.5397164204672
 30
0.0
 10
890.4909332233354
 20
979.7024789571553
 30
0.0
 10
890.6874814436487
 20
980.0280040305319
 30
0.0
 10
890.9708147766164
 20
980.4399860961387
 30
0.0
 10
891.1558739994272
 20
980.5917274343819
 30
0.0
 10
891.2426591120814
 20
980.6628878387851
 30
0.0
  0
SPLINE
  5
3AA
330
1F
100
AcDbEntity
  8
SLD-0_0
  6
SLD-Solid
 62
   179
370
    15
100
AcDbSpline
210
0.0
220
0.0
230
1.0
 70
     8
 71
     3
 72
     9
 73
     5
 74
     0
 42
0.00000001
 43
0.00000001
 40
0.0
 40
0.0
 40
0.0
 40
0.0
 40
0.4828391242703304
 40
1.0
 40
1.0
 40
1.0
 40
1.0
 10
891.2426591120814
 20
980.1045192996496
 30
0.0
 10
891.1227434879792
 20
980.0136081400162
 30
0.0
 10
890.8743882531311
 20
979.8253235643398
 30
0.0
 10
890.5568681089859
 20
979.6370725037951
 30
0.0
 10
890.3926591131781
 20
979.5397164204671
 30
0.0
  0
SPLINE
  5
3AB
330
1F
100
AcDbEntity
  8
SLD-0_0
  6
SLD-Solid
 62
   179
370
    15
100
AcDbSpline
210
0.0
220
0.0
230
1.0
 70
     8
 71
     3
 72
    11
 73
     7
 74
     0
 42
0.00000001
 43
0.00000001
 40
0.0
 40
0.0
 40
0.0
 40
0.0
 40
0.2500000000000116
 40
0.5000000000000089
 40
0.7500000000000048
 40
1.0
 40
1.0
 40
1.0
 40
1.0
 10
891.5719484350619
 20
299.2897164204672
 30
0.0
 10
891.4736743249051
 20
299.3085058864514
 30
0.0
 10
891.2771261045915
 20
299.3460848184197
 30
0.0
 10
890.982303774121
 20
299.6351463348228
 30
0.0
 10
890.6874814436509
 20
300.0483275061938
 30
0.0
 10
890.490933223337
 20
300.3759201157094
 30
0.0
 10
890.3926591131803
 20
300.5397164204672
 30
0.0
  0
SPLINE
  5
3AC
330
1F
100
AcDbEntity
  8
SLD-0_0
  6
SLD-Solid
 62
   179
370
    15
100
AcDbSpline
210
0.0
220
0.0
230
1.0
 70
     8
 71
     3
 72
    11
 73
     7
 74
     0
 42
0.00000001
 43
0.00000001
 40
0.0
 40
0.0
 40
0.0
 40
0.0
 40
0.2506688637243296
 40
0.5014856490563583
 40
0.752302887858648
 40
1.0
 40
1.0
 40
1.0
 40
1.0
 10
890.3926591131802
 20
300.5397164204674
 30
0.0
 10
890.5568966544191
 20
300.4411768469357
 30
0.0
 10
890.8854686547224
 20
300.2440395509188
 30
0.0
 10
891.2995180445803
 20
299.9483054486464
 30
0.0
 10
891.587078279121
 20
299.6537251933327
 30
0.0
 10
891.6242096350257
 20
299.4577843420208
 30
0.0
 10
891.6426591131805
 20
299.360427098586
 30
0.0
  0
ELLIPSE
  5
3AD
330
1F
100
AcDbEntity
  8
SLD-0_0
  6
SLD-Solid
 62
   179
370
    15
100
AcDbEllipse
 10
301.4145386188
 20
1010.0897164209
 30
0.0
 11
5.229180776432599
 21
34.80854219515572
 31
0.0
210
0.0
220
0.0
230
1.0
 40
0.6991287568
 41
0.1046443262359096
 42
1.222624058285298
  0
ELLIPSE
  5
3AE
330
1F
100
AcDbEntity
  8
SLD-0_0
  6
SLD-Solid
 62
   179
370
    15
100
AcDbEllipse
 10
345.1506601889
 20
985.1423144999
 30
0.0
 11
-7.907130209246362
 21
49.69431533888189
 31
0.0
210
0.0
220
0.0
230
1.0
 40
0.6981570542
 41
0.0045629715855923
 42
0.6136893060893001
  0
ELLIPSE
  5
3AF
330
1F
100
AcDbEntity
  8
SLD-0_0
  6
SLD-Solid
 62
   179
370
    15
100
AcDbEllipse
 10
750.1346580353
 20
985.1423144999
 30
0.0
 11
7.907130209246362
 21
49.69431533888189
 31
0.0
210
0.0
220
0.0
230
1.0
 40
0.6981570542
 41
5.66949600109032
 42
6.278622335594035
  0
ELLIPSE
  5
3B0
330
1F
100
AcDbEntity
  8
SLD-0_0
  6
SLD-Solid
 62
   179
370
    15
100
AcDbEllipse
 10
582.4751987905
 20
1010.0897164209
 30
0.0
 11
5.229180776432485
 21
34.80854219515595
 31
0.0
210
0.0
220
0.0
230
1.0
 40
0.6991287568
 41
0.104644326232516
 42
1.22289157858812
  0
ELLIPSE
  5
3B1
330
1F
100
AcDbEntity
  8
SLD-0_0
  6
SLD-Solid
 62
   179
370
    15
100
AcDbEllipse
 10
470.1473764137
 20
985.1092133899
 30
0.0
 11
7.907130209246303
 21
49.69431533888189
 31
0.0
210
0.0
220
0.0
230
0.9999999999999998
 40
0.6981570542
 41
5.670495650654015
 42
6.296555982904388
  0
ELLIPSE
  5
3B2
330
1F
100
AcDbEntity
  8
SLD-0_0
  6
SLD-Solid
 62
   179
370
    15
100
AcDbEllipse
 10
625.1379418105
 20
985.1092133899
 30
0.0
 11
-7.907130209246475
 21
49.69431533888189
 31
0.0
210
0.0
220
0.0
230
1.0
 40
0.6981570542
 41
6.269814631454866
 42
6.895874963705222
  0
ENDSEC
  0
SECTION
  2
OBJECTS
  0
DICTIONARY
  5
C
330
0
100
AcDbDictionary
281
     1
  3
ACAD_GROUP
350
D
  3
ACAD_LAYOUT
350
1A
  3
ACAD_MLINESTYLE
350
17
  3
ACAD_PLOTSETTINGS
350
19
  3
ACAD_PLOTSTYLENAME
350
E
  0
DICTIONARY
  5
D
102
{ACAD_REACTORS
330
C
102
}
330
C
100
AcDbDictionary
281
     1
  0
DICTIONARY
  5
1A
102
{ACAD_REACTORS
330
C
102
}
330
C
100
AcDbDictionary
281
     1
  3
Layout1
350
1E
  3
Layout2
350
26
  3
Model
350
22
  0
DICTIONARY
  5
17
102
{ACAD_REACTORS
330
C
102
}
330
C
100
AcDbDictionary
281
     1
  3
Standard
350
18
  0
DICTIONARY
  5
19
102
{ACAD_REACTORS
330
C
102
}
330
C
100
AcDbDictionary
281
     1
  0
ACDBDICTIONARYWDFLT
  5
E
102
{ACAD_REACTORS
330
C
102
}
330
C
100
AcDbDictionary
281
     1
  3
Normal
350
F
100
AcDbDictionaryWithDefault
340
F
  0
LAYOUT
  5
1E
102
{ACAD_REACTORS
330
1A
102
}
330
1A
100
AcDbPlotSettings
  1

  2
none_device
  4

  6

 40
0.0
 41
0.0
 42
0.0
 43
0.0
 44
0.0
 45
0.0
 46
0.0
 47
0.0
 48
0.0
 49
0.0
140
0.0
141
0.0
142
1.0
143
1.0
 70
   688
 72
     0
 73
     0
 74
     5
  7

 75
    16
147
1.0
148
0.0
149
0.0
100
AcDbLayout
  1
Layout1
 70
     1
 71
     1
 10
0.0
 20
0.0
 11
420.0
 21
297.0
 12
0.0
 22
0.0
 32
0.0
 14
1.0000000000E+20
 24
1.0000000000E+20
 34
1.0000000000E+20
 15
-1.0000000000E+20
 25
-1.0000000000E+20
 35
-1.0000000000E+20
146
0.0
 13
0.0
 23
0.0
 33
0.0
 16
1.0
 26
0.0
 36
0.0
 17
0.0
 27
1.0
 37
0.0
 76
     0
330
1B
  0
LAYOUT
  5
26
102
{ACAD_REACTORS
330
1A
102
}
330
1A
100
AcDbPlotSettings
  1

  2
none_device
  4

  6

 40
0.0
 41
0.0
 42
0.0
 43
0.0
 44
0.0
 45
0.0
 46
0.0
 47
0.0
 48
0.0
 49
0.0
140
0.0
141
0.0
142
1.0
143
1.0
 70
   688
 72
     0
 73
     0
 74
     5
  7

 75
    16
147
1.0
148
0.0
149
0.0
100
AcDbLayout
  1
Layout2
 70
     1
 71
     2
 10
0.0
 20
0.0
 11
0.0
 21
0.0
 12
0.0
 22
0.0
 32
0.0
 14
0.0
 24
0.0
 34
0.0
 15
0.0
 25
0.0
 35
0.0
146
0.0
 13
0.0
 23
0.0
 33
0.0
 16
1.0
 26
0.0
 36
0.0
 17
0.0
 27
1.0
 37
0.0
 76
     0
330
23
  0
LAYOUT
  5
22
102
{ACAD_REACTORS
330
1A
102
}
330
1A
100
AcDbPlotSettings
  1

  2
none_device
  4

  6

 40
0.0
 41
0.0
 42
0.0
 43
0.0
 44
0.0
 45
0.0
 46
0.0
 47
0.0
 48
0.0
 49
0.0
140
0.0
141
0.0
142
1.0
143
1.0
 70
  1712
 72
     0
 73
     0
 74
     0
  7

 75
     0
147
1.0
148
0.0
149
0.0
100
AcDbLayout
  1
Model
 70
     1
 71
     0
 10
0.0
 20
0.0
 11
1189.0
 21
841.0
 12
0.0
 22
0.0
 32
0.0
 14
0.0
 24
0.0
 34
0.0
 15
1189.0
 25
841.0
 35
0.0
146
0.0
 13
0.0
 23
0.0
 33
0.0
 16
1.0
 26
0.0
 36
0.0
 17
0.0
 27
1.0
 37
0.0
 76
     0
330
1F
331
29
  0
MLINESTYLE
  5
18
102
{ACAD_REACTORS
330
17
102
}
330
17
100
AcDbMlineStyle
  2
Standard
 70
     0
  3

 62
   256
 51
90.0
 52
90.0
 71
     2
 49
0.5
 62
   256
  6
BYLAYER
 49
-0.5
 62
   256
  6
BYLAYER
  0
ACDBPLACEHOLDER
  5
F
102
{ACAD_REACTORS
330
E
102
}
330
E
  0
ENDSEC
  0
EOF
