  0
SECTION
  2
HEADER
  9
$ACADVER
  1
AC1015
  9
$ACADMAINTVER
 70
     6
  9
$DWGCODEPAGE
  3
ANSI_1252
  9
$INSBASE
 10
0.0
 20
0.0
 30
0.0
  9
$EXTMIN
 10
0.0
 20
0.0
 30
0.0
  9
$EXTMAX
 10
1500.0
 20
1500.0
 30
0.0
  9
$LIMMIN
 10
0.0
 20
0.0
  9
$LIMMAX
 10
1500.0
 20
1500.0
  9
$ORTHOMODE
 70
     0
  9
$REGENMODE
 70
     1
  9
$FILLMODE
 70
     1
  9
$QTEXTMODE
 70
     0
  9
$MIRRTEXT
 70
     1
  9
$LTSCALE
 40
1.0
  9
$ATTMODE
 70
     1
  9
$TEXTSIZE
 40
3.5
  9
$TRACEWID
 40
1.0
  9
$TEXTSTYLE
  7
STANDARD
  9
$CLAYER
  8
0
  9
$CELTYPE
  6
ByLayer
  9
$CECOLOR
 62
   256
  9
$CELTSCALE
 40
1.0
  9
$DISPSILH
 70
     0
  9
$DIMSCALE
 40
1.0
  9
$DIMASZ
 40
3.302
  9
$DIMEXO
 40
1.0
  9
$DIMDLI
 40
3.75
  9
$DIMRND
 40
0.0
  9
$DIMDLE
 40
0.0
  9
$DIMEXE
 40
1.0
  9
$DIMTP
 40
0.0
  9
$DIMTM
 40
0.0
  9
$DIMTXT
 40
3.5
  9
$DIMCEN
 40
2.5
  9
$DIMTSZ
 40
0.0
  9
$DIMTOL
 70
     0
  9
$DIMLIM
 70
     0
  9
$DIMTIH
 70
     1
  9
$DIMTOH
 70
     1
  9
$DIMSE1
 70
     0
  9
$DIMSE2
 70
     0
  9
$DIMTAD
 70
     1
  9
$DIMZIN
 70
     0
  9
$DIMBLK
  1

  9
$DIMASO
 70
     1
  9
$DIMSHO
 70
     1
  9
$DIMPOST
  1

  9
$DIMAPOST
  1

  9
$DIMALT
 70
     0
  9
$DIMALTD
 70
     3
  9
$DIMALTF
 40
0.0393700787
  9
$DIMLFAC
 40
1.0
  9
$DIMTOFL
 70
     1
  9
$DIMTVP
 40
0.0
  9
$DIMTIX
 70
     0
  9
$DIMSOXD
 70
     0
  9
$DIMSAH
 70
     0
  9
$DIMBLK1
  1

  9
$DIMBLK2
  1

  9
$DIMSTYLE
  2
ISO-25
  9
$DIMCLRD
 70
     0
  9
$DIMCLRE
 70
     0
  9
$DIMCLRT
 70
     0
  9
$DIMTFAC
 40
1.0
  9
$DIMGAP
 40
1.524
  9
$DIMJUST
 70
     0
  9
$DIMSD1
 70
     0
  9
$DIMSD2
 70
     0
  9
$DIMTOLJ
 70
     0
  9
$DIMTZIN
 70
     0
  9
$DIMALTZ
 70
     0
  9
$DIMALTTZ
 70
     0
  9
$DIMUPT
 70
     0
  9
$DIMDEC
 70
     1
  9
$DIMTDEC
 70
     1
  9
$DIMALTU
 70
     2
  9
$DIMALTTD
 70
     3
  9
$DIMTXSTY
  7
STANDARD
  9
$DIMAUNIT
 70
     0
  9
$DIMADEC
 70
     1
  9
$DIMALTRND
 40
0.0
  9
$DIMAZIN
 70
     0
  9
$DIMDSEP
 70
    44
  9
$DIMATFIT
 70
     3
  9
$DIMFRAC
 70
     0
  9
$DIMLDRBLK
  1

  9
$DIMLUNIT
 70
     2
  9
$DIMLWD
 70
    -2
  9
$DIMLWE
 70
    -2
  9
$DIMTMOVE
 70
     0
  9
$LUNITS
 70
     2
  9
$LUPREC
 70
     1
  9
$SKETCHINC
 40
1.0
  9
$FILLETRAD
 40
10.0
  9
$AUNITS
 70
     0
  9
$AUPREC
 70
     1
  9
$MENU
  1
.
  9
$ELEVATION
 40
0.0
  9
$PELEVATION
 40
0.0
  9
$THICKNESS
 40
0.0
  9
$LIMCHECK
 70
     0
  9
$CHAMFERA
 40
10.0
  9
$CHAMFERB
 40
10.0
  9
$CHAMFERC
 40
20.0
  9
$CHAMFERD
 40
0.0
  9
$SKPOLY
 70
     0
  9
$TDCREATE
 40
2455637.322518843
  9
$TDUCREATE
 40
2455637.322518843
  9
$TDUPDATE
 40
2455637.322518854
  9
$TDUUPDATE
 40
2455637.322518854
  9
$TDINDWG
 40
0.0000000116
  9
$TDUSRTIMER
 40
0.0000000116
  9
$USRTIMER
 70
     1
  9
$ANGBASE
 50
0.0
  9
$ANGDIR
 70
     0
  9
$PDMODE
 70
     0
  9
$PDSIZE
 40
-1.0
  9
$PLINEWID
 40
0.0
  9
$SPLFRAME
 70
     0
  9
$SPLINETYPE
 70
     6
  9
$SPLINESEGS
 70
     8
  9
$HANDSEED
  5
2AC
  9
$SURFTAB1
 70
     6
  9
$SURFTAB2
 70
     6
  9
$SURFTYPE
 70
     6
  9
$SURFU
 70
     6
  9
$SURFV
 70
     6
  9
$UCSBASE
  2

  9
$UCSNAME
  2

  9
$UCSORG
 10
0.0
 20
0.0
 30
0.0
  9
$UCSXDIR
 10
1.0
 20
0.0
 30
0.0
  9
$UCSYDIR
 10
0.0
 20
1.0
 30
0.0
  9
$UCSORTHOREF
  2

  9
$UCSORTHOVIEW
 70
     0
  9
$UCSORGTOP
 10
0.0
 20
0.0
 30
0.0
  9
$UCSORGBOTTOM
 10
0.0
 20
0.0
 30
0.0
  9
$UCSORGLEFT
 10
0.0
 20
0.0
 30
0.0
  9
$UCSORGRIGHT
 10
0.0
 20
0.0
 30
0.0
  9
$UCSORGFRONT
 10
0.0
 20
0.0
 30
0.0
  9
$UCSORGBACK
 10
0.0
 20
0.0
 30
0.0
  9
$PUCSBASE
  2

  9
$PUCSNAME
  2

  9
$PUCSORG
 10
0.0
 20
0.0
 30
0.0
  9
$PUCSXDIR
 10
1.0
 20
0.0
 30
0.0
  9
$PUCSYDIR
 10
0.0
 20
1.0
 30
0.0
  9
$PUCSORTHOREF
  2

  9
$PUCSORTHOVIEW
 70
     0
  9
$PUCSORGTOP
 10
0.0
 20
0.0
 30
0.0
  9
$PUCSORGBOTTOM
 10
0.0
 20
0.0
 30
0.0
  9
$PUCSORGLEFT
 10
0.0
 20
0.0
 30
0.0
  9
$PUCSORGRIGHT
 10
0.0
 20
0.0
 30
0.0
  9
$PUCSORGFRONT
 10
0.0
 20
0.0
 30
0.0
  9
$PUCSORGBACK
 10
0.0
 20
0.0
 30
0.0
  9
$USERI1
 70
     0
  9
$USERI2
 70
     0
  9
$USERI3
 70
     0
  9
$USERI4
 70
     0
  9
$USERI5
 70
     0
  9
$USERR1
 40
0.0
  9
$USERR2
 40
0.0
  9
$USERR3
 40
0.0
  9
$USERR4
 40
0.0
  9
$USERR5
 40
0.0
  9
$WORLDVIEW
 70
     1
  9
$SHADEDGE
 70
     3
  9
$SHADEDIF
 70
    70
  9
$TILEMODE
 70
     1
  9
$MAXACTVP
 70
    64
  9
$PINSBASE
 10
0.0
 20
0.0
 30
0.0
  9
$PLIMCHECK
 70
     0
  9
$PEXTMIN
 10
1.0000000000E+20
 20
1.0000000000E+20
 30
1.0000000000E+20
  9
$PEXTMAX
 10
-1.0000000000E+20
 20
-1.0000000000E+20
 30
-1.0000000000E+20
  9
$PLIMMIN
 10
0.0
 20
0.0
  9
$PLIMMAX
 10
420.0
 20
297.0
  9
$UNITMODE
 70
     0
  9
$VISRETAIN
 70
     1
  9
$PLINEGEN
 70
     0
  9
$PSLTSCALE
 70
     1
  9
$TREEDEPTH
 70
  3020
  9
$CMLSTYLE
  2
Standard
  9
$CMLJUST
 70
     0
  9
$CMLSCALE
 40
20.0
  9
$PROXYGRAPHICS
 70
     1
  9
$MEASUREMENT
 70
     1
  9
$CELWEIGHT
370
    -1
  9
$ENDCAPS
280
     0
  9
$JOINSTYLE
280
     0
  9
$LWDISPLAY
290
     1
  9
$INSUNITS
 70
     4
  9
$HYPERLINKBASE
  1

  9
$STYLESHEET
  1

  9
$XEDIT
290
     1
  9
$CEPSNTYPE
380
     0
  9
$PSTYLEMODE
290
     1
  9
$FINGERPRINTGUID
  2
{EACE9525-7962-4ECF-845E-42B0676C8EE6}
  9
$VERSIONGUID
  2
{FAEB1C32-E019-11D5-929B-00C0DF256EC4}
  9
$EXTNAMES
290
     1
  9
$PSVPSCALE
 40
0.0
  9
$OLESTARTUP
290
     0
  0
ENDSEC
  0
SECTION
  2
CLASSES
  0
CLASS
  1
ACDBDICTIONARYWDFLT
  2
AcDbDictionaryWithDefault
  3
ObjectDBX Classes
 90
        0
280
     0
281
     0
  0
CLASS
  1
VISUALSTYLE
  2
AcDbVisualStyle
  3
ObjectDBX Classes
 90
     4095
280
     0
281
     0
  0
CLASS
  1
MATERIAL
  2
AcDbMaterial
  3
ObjectDBX Classes
 90
     1153
280
     0
281
     0
  0
CLASS
  1
ACDBPLACEHOLDER
  2
AcDbPlaceHolder
  3
ObjectDBX Classes
 90
        0
280
     0
281
     0
  0
CLASS
  1
LAYOUT
  2
AcDbLayout
  3
ObjectDBX Classes
 90
        0
280
     0
281
     0
  0
ENDSEC
  0
SECTION
  2
TABLES
  0
TABLE
  2
VPORT
  5
8
330
0
100
AcDbSymbolTable
 70
     1
  0
VPORT
  5
29
330
8
100
AcDbSymbolTableRecord
100
AcDbViewportTableRecord
  2
*Active
 70
     0
 10
0.0
 20
0.0
 11
1.0
 21
1.0
 12
750.0
 22
750.0
 13
0.0
 23
0.0
 14
10.0
 24
10.0
 15
10.0
 25
10.0
 16
0.0
 26
0.0
 36
1.0
 17
0.0
 27
0.0
 37
0.0
 40
1500.0
 41
1.0
 42
50.0
 43
0.0
 44
0.0
 50
0.0
 51
0.0
 71
     0
 72
  2000
 73
     1
 74
     3
 75
     0
 76
     0
 77
     0
 78
     0
281
     0
 65
     1
110
0.0
120
0.0
130
0.0
111
1.0
121
0.0
131
0.0
112
0.0
122
1.0
132
0.0
 79
     0
146
0.0
  0
ENDTAB
  0
TABLE
  2
LTYPE
  5
5
330
0
100
AcDbSymbolTable
 70
     8
  0
LTYPE
  5
14
330
5
100
AcDbSymbolTableRecord
100
AcDbLinetypeTableRecord
  2
ByBlock
 70
     0
  3

 72
    65
 73
     0
 40
0.0
  0
LTYPE
  5
15
330
5
100
AcDbSymbolTableRecord
100
AcDbLinetypeTableRecord
  2
ByLayer
 70
     0
  3

 72
    65
 73
     0
 40
0.0
  0
LTYPE
  5
16
330
5
100
AcDbSymbolTableRecord
100
AcDbLinetypeTableRecord
  2
Continuous
 70
     0
  3
Solid line
 72
    65
 73
     0
 40
0.0
  0
LTYPE
  5
3F
330
5
100
AcDbSymbolTableRecord
100
AcDbLinetypeTableRecord
  2
SLD-Solid
 70
     0
  3
SolidWorks Line Style
 72
    65
 73
     0
 40
0.0
  0
LTYPE
  5
40
330
5
100
AcDbSymbolTableRecord
100
AcDbLinetypeTableRecord
  2
SLD-Dashed
 70
     0
  3
SolidWorks Line Style
 72
    65
 73
     2
 40
1.905
 49
1.27
 74
     0
 49
-0.635
 74
     0
  0
LTYPE
  5
41
330
5
100
AcDbSymbolTableRecord
100
AcDbLinetypeTableRecord
  2
SLD-Phantom
 70
     0
  3
SolidWorks Line Style
 72
    65
 73
     6
 40
12.7
 49
6.35
 74
     0
 49
-1.27
 74
     0
 49
1.27
 74
     0
 49
-1.27
 74
     0
 49
1.27
 74
     0
 49
-1.27
 74
     0
  0
LTYPE
  5
42
330
5
100
AcDbSymbolTableRecord
100
AcDbLinetypeTableRecord
  2
SLD-Chain
 70
     0
  3
SolidWorks Line Style
 72
    65
 73
     4
 40
10.16
 49
6.35
 74
     0
 49
-1.27
 74
     0
 49
1.27
 74
     0
 49
-1.27
 74
     0
  0
LTYPE
  5
43
330
5
100
AcDbSymbolTableRecord
100
AcDbLinetypeTableRecord
  2
SLD-Center
 70
     0
  3
SolidWorks Line Style
 72
    65
 73
     4
 40
19.05
 49
15.24
 74
     0
 49
-1.27
 74
     0
 49
1.27
 74
     0
 49
-1.27
 74
     0
  0
LTYPE
  5
44
330
5
100
AcDbSymbolTableRecord
100
AcDbLinetypeTableRecord
  2
SLD-Stitch
 70
     0
  3
SolidWorks Line Style
 72
    65
 73
     2
 40
0.635
 49
0.0
 74
     0
 49
-0.635
 74
     0
  0
LTYPE
  5
45
330
5
100
AcDbSymbolTableRecord
100
AcDbLinetypeTableRecord
  2
SLD-Thin-Thick-Chain
 70
     0
  3
SolidWorks Line Style
 72
    65
 73
     4
 40
10.16
 49
6.35
 74
     0
 49
-1.27
 74
     0
 49
1.27
 74
     0
 49
-1.27
 74
     0
  0
ENDTAB
  0
TABLE
  2
LAYER
  5
2
330
0
100
AcDbSymbolTable
 70
     4
  0
LAYER
  5
10
330
2
100
AcDbSymbolTableRecord
100
AcDbLayerTableRecord
  2
0
 70
     0
 62
     7
  6
Continuous
370
    -3
390
F
  0
LAYER
  5
46
330
2
100
AcDbSymbolTableRecord
100
AcDbLayerTableRecord
  2
FORMAT
 70
     0
 62
     7
  6
SLD-Solid
370
    -3
390
F
  0
LAYER
  5
47
330
2
100
AcDbSymbolTableRecord
100
AcDbLayerTableRecord
  2
SLD-0
 70
     0
 62
     1
  6
SLD-Solid
370
    -3
390
F
  0
LAYER
  5
48
330
2
100
AcDbSymbolTableRecord
100
AcDbLayerTableRecord
  2
WATERMARK
 70
     0
 62
    20
  6
SLD-Solid
370
    -3
390
F
  0
ENDTAB
  0
TABLE
  2
STYLE
  5
3
330
0
100
AcDbSymbolTable
 70
     1
  0
STYLE
  5
11
330
3
100
AcDbSymbolTableRecord
100
AcDbTextStyleTableRecord
  2
STANDARD
 70
     0
 40
0.0
 41
1.0
 50
0.0
 71
     0
 42
2.5
  3
GOTHIC.TTF
  4

1001
ACAD
1000
CENTURY GOTHIC
1071
       34
  0
ENDTAB
  0
TABLE
  2
VIEW
  5
6
330
0
100
AcDbSymbolTable
 70
     0
  0
ENDTAB
  0
TABLE
  2
UCS
  5
7
330
0
100
AcDbSymbolTable
 70
     0
  0
ENDTAB
  0
TABLE
  2
APPID
  5
9
330
0
100
AcDbSymbolTable
 70
     1
  0
APPID
  5
12
330
9
100
AcDbSymbolTableRecord
100
AcDbRegAppTableRecord
  2
ACAD
 70
     0
  0
ENDTAB
  0
TABLE
  2
DIMSTYLE
  5
A
330
0
100
AcDbSymbolTable
 70
     1
100
AcDbDimStyleTable
  0
DIMSTYLE
105
27
330
A
100
AcDbSymbolTableRecord
100
AcDbDimStyleTableRecord
  2
ISO-25
 70
     0
 41
2.5
 42
0.625
 43
3.75
 44
1.25
 73
     0
 74
     0
 77
     1
 78
     8
140
2.5
141
2.5
143
0.0393700787
147
0.625
171
     3
172
     1
271
     2
272
     2
274
     3
278
    44
283
     0
284
     8
340
11
  0
ENDTAB
  0
TABLE
  2
BLOCK_RECORD
  5
1
330
0
100
AcDbSymbolTable
 70
     1
  0
BLOCK_RECORD
  5
1F
330
1
100
AcDbSymbolTableRecord
100
AcDbBlockTableRecord
  2
*Model_Space
340
22
  0
BLOCK_RECORD
  5
1B
330
1
100
AcDbSymbolTableRecord
100
AcDbBlockTableRecord
  2
*Paper_Space
340
1E
  0
BLOCK_RECORD
  5
23
330
1
100
AcDbSymbolTableRecord
100
AcDbBlockTableRecord
  2
*Paper_Space0
340
26
  0
ENDTAB
  0
ENDSEC
  0
SECTION
  2
BLOCKS
  0
BLOCK
  5
20
330
1F
100
AcDbEntity
  8
0
100
AcDbBlockBegin
  2
*Model_Space
 70
     0
 10
0.0
 20
0.0
 30
0.0
  3
*Model_Space
  1

  0
ENDBLK
  5
21
330
1F
100
AcDbEntity
  8
0
100
AcDbBlockEnd
  0
BLOCK
  5
1C
330
1B
100
AcDbEntity
 67
     1
  8
0
100
AcDbBlockBegin
  2
*Paper_Space
 70
     0
 10
0.0
 20
0.0
 30
0.0
  3
*Paper_Space
  1

  0
ENDBLK
  5
1D
330
1B
100
AcDbEntity
 67
     1
  8
0
100
AcDbBlockEnd
  0
BLOCK
  5
24
330
23
100
AcDbEntity
  8
0
100
AcDbBlockBegin
  2
*Paper_Space0
 70
     0
 10
0.0
 20
0.0
 30
0.0
  3
*Paper_Space0
  1

  0
ENDBLK
  5
25
330
23
100
AcDbEntity
  8
0
100
AcDbBlockEnd
  0
ENDSEC
  0
SECTION
  2
ENTITIES
  0
SPLINE
  5
49
330
1F
100
AcDbEntity
  8
0
  6
SLD-Solid
 62
     7
370
    15
100
AcDbSpline
210
0.0
220
0.0
230
1.0
 70
     8
 71
     3
 72
    13
 73
     9
 74
     0
 42
0.00000001
 43
0.00000001
 40
0.0
 40
0.0
 40
0.0
 40
0.0
 40
0.1537005146056235
 40
0.4677837651304037
 40
0.652264762024725
 40
0.814255835657474
 40
0.9817880838866347
 40
1.0
 40
1.0
 40
1.0
 40
1.0
 10
409.6295968565869
 20
505.3287767408862
 30
0.0
 10
409.6299607967221
 20
505.3216980232596
 30
0.0
 10
409.6310684396411
 20
505.3001541189199
 30
0.0
 10
409.6088013109538
 20
505.2595664907295
 30
0.0
 10
409.5466638673169
 20
505.2114630714366
 30
0.0
 10
409.4751937338672
 20
505.1838515398968
 30
0.0
 10
409.4164824210827
 20
505.1726809793412
 30
0.0
 10
409.3853379721778
 20
505.1745598285701
 30
0.0
 10
409.3822843091308
 20
505.1747440467105
 30
0.0
  0
LINE
  5
4A
330
1F
100
AcDbEntity
  8
0
  6
SLD-Solid
 62
     7
370
    15
100
AcDbLine
 10
409.3819827939
 20
505.1741055872
 30
0.0
 11
404.2819827939
 21
505.1741055872
 31
0.0
  0
ARC
  5
4B
330
1F
100
AcDbEntity
  8
0
  6
SLD-Solid
 62
     7
370
    15
100
AcDbCircle
 10
404.2819827939
 20
504.9241055872
 30
0.0
 40
0.2500000000000568
100
AcDbArc
 50
90.0
 51
180.0
  0
ARC
  5
4C
330
1F
100
AcDbEntity
  8
0
  6
SLD-Solid
 62
     7
370
    15
100
AcDbCircle
 10
404.2819827939
 20
500.4862843725
 30
0.0
 40
0.2500000000000568
100
AcDbArc
 50
180.0
 51
270.0
  0
LINE
  5
4D
330
1F
100
AcDbEntity
  8
0
  6
SLD-Solid
 62
     7
370
    15
100
AcDbLine
 10
404.2819827939
 20
500.2362843725
 30
0.0
 11
409.3819827939
 21
500.2362843725
 31
0.0
  0
ARC
  5
4E
330
1F
100
AcDbEntity
  8
0
  6
SLD-Solid
 62
     7
370
    15
100
AcDbCircle
 10
410.5819827939
 20
501.2167234826
 30
0.0
 40
0.2500000000000856
100
AcDbArc
 50
301.0756875733
 51
0.0
  0
LINE
  5
4F
330
1F
100
AcDbEntity
  8
0
  6
SLD-Solid
 62
     7
370
    15
100
AcDbLine
 10
409.3819827939
 20
519.0971625926
 30
0.0
 11
404.2819827939
 21
519.0971625926
 31
0.0
  0
ARC
  5
50
330
1F
100
AcDbEntity
  8
0
  6
SLD-Solid
 62
     7
370
    15
100
AcDbCircle
 10
404.2819827939
 20
518.8471625926
 30
0.0
 40
0.2500000000001137
100
AcDbArc
 50
90.0
 51
180.0
  0
SPLINE
  5
51
330
1F
100
AcDbEntity
  8
0
  6
SLD-Solid
 62
     7
370
    15
100
AcDbSpline
210
0.0
220
0.0
230
1.0
 70
     8
 71
     3
 72
    13
 73
     9
 74
     0
 42
0.00000001
 43
0.00000001
 40
0.0
 40
0.0
 40
0.0
 40
0.0
 40
0.1560186113411849
 40
0.4086735129026423
 40
0.5953335874232828
 40
0.7561090603058562
 40
0.9249103809596831
 40
1.0
 40
1.0
 40
1.0
 40
1.0
 10
409.633028847975
 20
513.2227701390823
 30
0.0
 10
409.6327724071563
 20
513.2249884080829
 30
0.0
 10
409.6321006887677
 20
513.2307989186194
 30
0.0
 10
409.6424595313745
 20
513.2538494302763
 30
0.0
 10
409.6881800084952
 20
513.2936059338414
 30
0.0
 10
409.7559544868623
 20
513.3241435343257
 30
0.0
 10
409.8248098475123
 20
513.3407406833184
 30
0.0
 10
409.8685237691382
 20
513.3395943777165
 30
0.0
 10
409.881982496739
 20
513.3392414509082
 30
0.0
  0
LINE
  5
52
330
1F
100
AcDbEntity
  8
0
  6
SLD-Solid
 62
     7
370
    15
100
AcDbLine
 10
409.8819827939
 20
513.3411328185
 30
0.0
 11
414.9819827939
 21
513.3411328185
 31
0.0
  0
ARC
  5
53
330
1F
100
AcDbEntity
  8
0
  6
SLD-Solid
 62
     7
370
    15
100
AcDbCircle
 10
414.9819827939
 20
513.5911328185
 30
0.0
 40
0.2499999999999432
100
AcDbArc
 50
270.0
 51
0.0
  0
ARC
  5
54
330
1F
100
AcDbEntity
  8
0
  6
SLD-Solid
 62
     7
370
    15
100
AcDbCircle
 10
414.9819827939
 20
518.4172997907
 30
0.0
 40
0.25
100
AcDbArc
 50
0.0
 51
90.0
  0
LINE
  5
55
330
1F
100
AcDbEntity
  8
0
  6
SLD-Solid
 62
     7
370
    15
100
AcDbLine
 10
414.9819827939
 20
518.6672997907
 30
0.0
 11
409.8819827939
 21
518.6672997907
 31
0.0
  0
ARC
  5
56
330
1F
100
AcDbEntity
  8
0
  6
SLD-Solid
 62
     7
370
    15
100
AcDbCircle
 10
408.6819827939
 20
518.1167234826
 30
0.0
 40
0.2500000000001137
100
AcDbArc
 50
90.0
 51
180.0
  0
LINE
  5
57
330
1F
100
AcDbEntity
  8
0
  6
SLD-Solid
 62
     7
370
    15
100
AcDbLine
 10
408.9452032066
 20
518.3667234826
 30
0.0
 11
408.6819827939
 21
518.3667234826
 31
0.0
  0
LINE
  5
58
330
1F
100
AcDbEntity
  8
0
  6
SLD-Solid
 62
     7
370
    15
100
AcDbLine
 10
410.4535038107
 20
500.6661471745
 30
0.0
 11
414.9819827939
 21
500.6661471745
 31
0.0
  0
ARC
  5
59
330
1F
100
AcDbEntity
  8
0
  6
SLD-Solid
 62
     7
370
    15
100
AcDbCircle
 10
414.9819827939
 20
500.9161471745
 30
0.0
 40
0.2500000000001137
100
AcDbArc
 50
270.0
 51
0.0
  0
LINE
  5
5A
330
1F
100
AcDbEntity
  8
0
  6
SLD-Solid
 62
     7
370
    15
100
AcDbLine
 10
416.2819827939
 20
504.6667234826
 30
0.0
 11
416.4783397278
 21
504.3266232966
 31
0.0
  0
LINE
  5
5B
330
1F
100
AcDbEntity
  8
0
  6
SLD-Solid
 62
     7
370
    15
100
AcDbLine
 10
416.4783397278
 20
515.0068236685
 30
0.0
 11
416.2819827939
 21
514.6667234826
 31
0.0
  0
LINE
  5
5C
330
1F
100
AcDbEntity
  8
0
  6
SLD-Solid
 62
     7
370
    15
100
AcDbLine
 10
416.0319827939
 20
514.6667234826
 30
0.0
 11
415.9437766769
 21
514.8195009587
 31
0.0
  0
LINE
  5
5D
330
1F
100
AcDbEntity
  8
0
  6
SLD-Solid
 62
     7
370
    15
100
AcDbLine
 10
415.9437766769
 20
504.5139460065
 30
0.0
 11
416.0319827939
 21
504.6667234826
 31
0.0
  0
LINE
  5
5E
330
1F
100
AcDbEntity
  8
0
  6
SLD-Solid
 62
     7
370
    15
100
AcDbLine
 10
410.8319827939
 20
504.6667234826
 30
0.0
 11
410.9201889108
 21
504.5139460065
 31
0.0
  0
LINE
  5
5F
330
1F
100
AcDbEntity
  8
0
  6
SLD-Solid
 62
     7
370
    15
100
AcDbLine
 10
416.2819827939
 20
512.6667234826
 30
0.0
 11
416.0319827939
 21
512.6667234826
 31
0.0
  0
LINE
  5
60
330
1F
100
AcDbEntity
  8
0
  6
SLD-Solid
 62
     7
370
    15
100
AcDbLine
 10
416.0319827939
 20
506.6667234826
 30
0.0
 11
416.2819827939
 21
506.6667234826
 31
0.0
  0
LINE
  5
61
330
1F
100
AcDbEntity
  8
0
  6
SLD-Solid
 62
     7
370
    15
100
AcDbLine
 10
1184.1942687296
 20
1058.3069758613
 30
0.0
 11
1192.4687659151
 21
1065.2013718702
 31
0.0
  0
LINE
  5
62
330
1F
100
AcDbEntity
  8
0
  6
SLD-Solid
 62
     7
370
    15
100
AcDbLine
 10
1166.6028263551
 20
1119.959892496
 30
0.0
 11
1164.1081640953
 21
1120.1256494205
 31
0.0
  0
LINE
  5
63
330
1F
100
AcDbEntity
  8
0
  6
SLD-Solid
 62
     7
370
    15
100
AcDbLine
 10
1174.8547972357
 20
1119.411593299
 30
0.0
 11
1171.5916628776
 21
1119.6284110719
 31
0.0
  0
LINE
  5
64
330
1F
100
AcDbEntity
  8
0
  6
SLD-Solid
 62
     7
370
    15
100
AcDbLine
 10
1175.3518465102
 20
1119.3573529201
 30
0.0
 11
1174.8547972357
 21
1119.411593299
 31
0.0
  0
LINE
  5
65
330
1F
100
AcDbEntity
  8
0
  6
SLD-Solid
 62
     7
370
    15
100
AcDbLine
 10
1192.4687659151
 20
1065.2013718702
 30
0.0
 11
1208.2299600766
 21
1079.506663637
 31
0.0
  0
ARC
  5
66
330
1F
100
AcDbEntity
  8
0
  6
SLD-Solid
 62
     7
370
    15
100
AcDbCircle
 10
1207.5578808335
 20
1080.2471428677
 30
0.0
 40
1.000000000000256
100
AcDbArc
 50
312.227745318
 51
18.0
  0
LINE
  5
67
330
1F
100
AcDbEntity
  8
0
  6
SLD-Solid
 62
     7
370
    15
100
AcDbLine
 10
1174.4467734617
 20
1081.8345456211
 30
0.0
 11
1176.3596743177
 21
1082.4193781033
 31
0.0
  0
LINE
  5
68
330
1F
100
AcDbEntity
  8
0
  6
SLD-Solid
 62
     7
370
    15
100
AcDbLine
 10
1171.5951540737
 20
1119.6382011508
 30
0.0
 11
1166.6007065017
 21
1119.970055399
 31
0.0
  0
LINE
  5
69
330
1F
100
AcDbEntity
  8
0
  6
SLD-Solid
 62
     7
370
    15
100
AcDbLine
 10
1162.4312325335
 20
1081.2024101421
 30
0.0
 11
1173.4851713574
 21
1084.7940525869
 31
0.0
  0
LINE
  5
6A
330
1F
100
AcDbEntity
  8
0
  6
SLD-Solid
 62
     7
370
    15
100
AcDbLine
 10
1171.0130354024
 20
1092.4025047173
 30
0.0
 11
1159.9590965785
 21
1088.8108622725
 31
0.0
  0
LINE
  5
6B
330
1F
100
AcDbEntity
  8
0
  6
SLD-Solid
 62
     7
370
    15
100
AcDbLine
 10
1161.9910396542
 20
1092.2653884524
 30
0.0
 11
1159.1378701053
 21
1091.3383374693
 31
0.0
  0
LINE
  5
6C
330
1F
100
AcDbEntity
  8
0
  6
SLD-Solid
 62
     7
370
    15
100
AcDbLine
 10
1165.3027591431
 20
1072.3647599692
 30
0.0
 11
1168.155928692
 21
1073.2918109524
 31
0.0
  0
ARC
  5
6D
330
1F
100
AcDbEntity
  8
0
  6
SLD-Solid
 62
     7
370
    15
100
AcDbCircle
 10
1171.1644359966
 20
1076.9768494593
 30
0.0
 40
0.5000000000001985
100
AcDbArc
 50
288.0
 51
18.0
  0
LINE
  5
6E
330
1F
100
AcDbEntity
  8
0
  6
SLD-Solid
 62
     7
370
    15
100
AcDbLine
 10
1167.5147184286
 20
1075.2652532237
 30
0.0
 11
1171.3189444938
 21
1076.5013212012
 31
0.0
  0
LINE
  5
6F
330
1F
100
AcDbEntity
  8
0
  6
SLD-Solid
 62
     7
370
    15
100
AcDbLine
 10
1171.1687133384
 20
1078.5817191439
 30
0.0
 11
1174.3397143752
 21
1079.6120398375
 31
0.0
  0
LINE
  5
70
330
1F
100
AcDbEntity
  8
0
  6
SLD-Solid
 62
     7
370
    15
100
AcDbLine
 10
1167.9955528048
 20
1092.6652255049
 30
0.0
 11
1159.5937409284
 21
1089.9353113421
 31
0.0
  0
LINE
  5
71
330
1F
100
AcDbEntity
  8
0
  6
SLD-Solid
 62
     7
370
    15
100
AcDbLine
 10
1181.3312946293
 20
1058.0941683907
 30
0.0
 11
1183.6387302638
 21
1060.0167474517
 31
0.0
  0
LINE
  5
72
330
1F
100
AcDbEntity
  8
0
  6
SLD-Solid
 62
     7
370
    15
100
AcDbLine
 10
1163.7398522547
 20
1119.7470850254
 30
0.0
 11
1161.2451899949
 21
1119.9128419499
 31
0.0
  0
LINE
  5
73
330
1F
100
AcDbEntity
  8
0
  6
SLD-Solid
 62
     7
370
    15
100
AcDbLine
 10
1171.5837993614
 20
1081.6217381505
 30
0.0
 11
1173.4967002174
 21
1082.2065706327
 31
0.0
  0
LINE
  5
74
330
1F
100
AcDbEntity
  8
0
  6
SLD-Solid
 62
     7
370
    15
100
AcDbLine
 10
1164.2386800403
 20
1119.7239626452
 30
0.0
 11
1163.7377324014
 21
1119.7572479284
 31
0.0
  0
LINE
  5
75
330
1F
100
AcDbEntity
  8
0
  6
SLD-Solid
 62
     7
370
    15
100
AcDbLine
 10
421.2319827939
 20
1115.7667234826
 30
0.0
 11
420.3319827939
 21
1115.7667234826
 31
0.0
  0
LINE
  5
76
330
1F
100
AcDbEntity
  8
0
  6
SLD-Solid
 62
     7
370
    15
100
AcDbLine
 10
420.3319827939
 20
1083.7667234826
 30
0.0
 11
421.2319827939
 21
1083.7667234826
 31
0.0
  0
ARC
  5
77
330
1F
100
AcDbEntity
  8
0
  6
SLD-Solid
 62
     7
370
    15
100
AcDbCircle
 10
1109.0319827939
 20
291.0667234826
 30
0.0
 40
2.0
100
AcDbArc
 50
270.0
 51
0.0
  0
ARC
  5
78
330
1F
100
AcDbEntity
  8
0
  6
SLD-Solid
 62
     7
370
    15
100
AcDbCircle
 10
1056.0319827939
 20
291.0667234826
 30
0.0
 40
2.0
100
AcDbArc
 50
180.0
 51
270.0
  0
LINE
  5
79
330
1F
100
AcDbEntity
  8
0
  6
SLD-Solid
 62
     7
370
    15
100
AcDbLine
 10
1111.0319827939
 20
291.0667234826
 30
0.0
 11
1111.0319827939
 21
295.0667234826
 31
0.0
  0
LINE
  5
7A
330
1F
100
AcDbEntity
  8
0
  6
SLD-Solid
 62
     7
370
    15
100
AcDbLine
 10
1054.0319827939
 20
295.0667234826
 30
0.0
 11
1054.0319827939
 21
291.0667234826
 31
0.0
  0
LINE
  5
7B
330
1F
100
AcDbEntity
  8
0
  6
SLD-Solid
 62
     7
370
    15
100
AcDbLine
 10
522.0319827939
 20
291.0667234828
 30
0.0
 11
522.0319827939
 21
295.0667234828
 31
0.0
  0
LINE
  5
7C
330
1F
100
AcDbEntity
  8
0
  6
SLD-Solid
 62
     7
370
    15
100
AcDbLine
 10
465.0319827939
 20
295.0667234828
 30
0.0
 11
465.0319827939
 21
291.0667234828
 31
0.0
  0
ARC
  5
7D
330
1F
100
AcDbEntity
  8
0
  6
SLD-Solid
 62
     7
370
    15
100
AcDbCircle
 10
520.0319827939
 20
291.0667234828
 30
0.0
 40
2.0
100
AcDbArc
 50
270.0
 51
0.0
  0
ARC
  5
7E
330
1F
100
AcDbEntity
  8
0
  6
SLD-Solid
 62
     7
370
    15
100
AcDbCircle
 10
467.0319827939
 20
291.0667234828
 30
0.0
 40
2.0
100
AcDbArc
 50
180.0
 51
270.0
  0
LINE
  5
7F
330
1F
100
AcDbEntity
  8
0
  6
SLD-Solid
 62
     7
370
    15
100
AcDbLine
 10
521.8319827939
 20
295.0667234828
 30
0.0
 11
521.8319827939
 21
363.0667234828
 31
0.0
  0
LINE
  5
80
330
1F
100
AcDbEntity
  8
0
  6
SLD-Solid
 62
     7
370
    15
100
AcDbLine
 10
465.2319827939
 20
363.0667234828
 30
0.0
 11
465.2319827939
 21
295.0667234828
 31
0.0
  0
LINE
  5
81
330
1F
100
AcDbEntity
  8
0
  6
SLD-Solid
 62
     7
370
    15
100
AcDbLine
 10
1110.8319827939
 20
295.0667234826
 30
0.0
 11
1110.8319827939
 21
363.0667234826
 31
0.0
  0
LINE
  5
82
330
1F
100
AcDbEntity
  8
0
  6
SLD-Solid
 62
     7
370
    15
100
AcDbLine
 10
1054.2319827939
 20
363.0667234826
 30
0.0
 11
1054.2319827939
 21
295.0667234826
 31
0.0
  0
ARC
  5
83
330
1F
100
AcDbEntity
  8
0
  6
SLD-Solid
 62
     7
370
    15
100
AcDbCircle
 10
1115.9319827939
 20
455.5667234826
 30
0.0
 40
1.499999999999943
100
AcDbArc
 50
90.0
 51
180.0
  0
ARC
  5
84
330
1F
100
AcDbEntity
  8
0
  6
SLD-Solid
 62
     7
370
    15
100
AcDbCircle
 10
1049.1319827939
 20
455.5667234826
 30
0.0
 40
1.5
100
AcDbArc
 50
0.0
 51
90.0
  0
LINE
  5
85
330
1F
100
AcDbEntity
  8
0
  6
SLD-Solid
 62
     7
370
    15
100
AcDbLine
 10
1114.4319827939
 20
369.0992894282
 30
0.0
 11
1114.4319827939
 21
455.5667234826
 31
0.0
  0
LINE
  5
86
330
1F
100
AcDbEntity
  8
0
  6
SLD-Solid
 62
     7
370
    15
100
AcDbLine
 10
1050.6319827939
 20
455.5667234826
 30
0.0
 11
1050.6319827939
 21
369.0992894282
 31
0.0
  0
ARC
  5
87
330
1F
100
AcDbEntity
  8
0
  6
SLD-Solid
 62
     7
370
    15
100
AcDbCircle
 10
1109.7319827939
 20
369.0992894282
 30
0.0
 40
4.700000000000045
100
AcDbArc
 50
350.5402980318
 51
0.0
  0
ARC
  5
88
330
1F
100
AcDbEntity
  8
0
  6
SLD-Solid
 62
     7
370
    15
100
AcDbCircle
 10
1055.3319827939
 20
369.0992894282
 30
0.0
 40
4.700000000000045
100
AcDbArc
 50
180.0
 51
189.4597019682
  0
LINE
  5
89
330
1F
100
AcDbEntity
  8
0
  6
SLD-Solid
 62
     7
370
    15
100
AcDbLine
 10
1050.6958960209
 20
368.3268262037
 30
0.0
 11
1051.5723325735
 21
363.0667234826
 31
0.0
  0
LINE
  5
8A
330
1F
100
AcDbEntity
  8
0
  6
SLD-Solid
 62
     7
370
    15
100
AcDbLine
 10
1113.4916330142
 20
363.0667234826
 30
0.0
 11
1114.3680695669
 21
368.3268262037
 31
0.0
  0
ARC
  5
8B
330
1F
100
AcDbEntity
  8
0
  6
SLD-Solid
 62
     7
370
    15
100
AcDbCircle
 10
526.9319827939
 20
455.5667234828
 30
0.0
 40
1.5
100
AcDbArc
 50
90.0
 51
180.0
  0
ARC
  5
8C
330
1F
100
AcDbEntity
  8
0
  6
SLD-Solid
 62
     7
370
    15
100
AcDbCircle
 10
460.1319827939
 20
455.5667234828
 30
0.0
 40
1.500000000000057
100
AcDbArc
 50
0.0
 51
90.0
  0
ARC
  5
8D
330
1F
100
AcDbEntity
  8
0
  6
SLD-Solid
 62
     7
370
    15
100
AcDbCircle
 10
520.7319827939
 20
369.0992894285
 30
0.0
 40
4.700000000000113
100
AcDbArc
 50
350.5402980318
 51
0.0
  0
ARC
  5
8E
330
1F
100
AcDbEntity
  8
0
  6
SLD-Solid
 62
     7
370
    15
100
AcDbCircle
 10
466.3319827939
 20
369.0992894285
 30
0.0
 40
4.699999999999944
100
AcDbArc
 50
180.0
 51
189.4597019682
  0
LINE
  5
8F
330
1F
100
AcDbEntity
  8
0
  6
SLD-Solid
 62
     7
370
    15
100
AcDbLine
 10
525.4319827939
 20
369.0992894285
 30
0.0
 11
525.4319827939
 21
455.5667234828
 31
0.0
  0
LINE
  5
90
330
1F
100
AcDbEntity
  8
0
  6
SLD-Solid
 62
     7
370
    15
100
AcDbLine
 10
461.6319827939
 20
455.5667234828
 30
0.0
 11
461.6319827939
 21
369.0992894285
 31
0.0
  0
LINE
  5
91
330
1F
100
AcDbEntity
  8
0
  6
SLD-Solid
 62
     7
370
    15
100
AcDbLine
 10
461.6958960209
 20
368.326826204
 30
0.0
 11
462.5723325735
 21
363.0667234828
 31
0.0
  0
LINE
  5
92
330
1F
100
AcDbEntity
  8
0
  6
SLD-Solid
 62
     7
370
    15
100
AcDbLine
 10
524.4916330142
 20
363.0667234828
 30
0.0
 11
525.3680695669
 21
368.326826204
 31
0.0
  0
SPLINE
  5
93
330
1F
100
AcDbEntity
  8
0
  6
SLD-Solid
 62
     7
370
    15
100
AcDbSpline
210
0.0
220
0.0
230
1.0
 70
     8
 71
     3
 72
    15
 73
    11
 74
     0
 42
0.00000001
 43
0.00000001
 40
0.0
 40
0.0
 40
0.0
 40
0.0
 40
0.0000363457206741
 40
0.0001127218398789
 40
0.0003822810730718
 40
0.0029970666382481
 40
0.0080156424963693
 40
0.0506679122624287
 40
0.3555633161991641
 40
0.9999999999999999
 40
0.9999999999999999
 40
0.9999999999999999
 40
0.9999999999999999
 10
1190.256216298709
 20
553.2957794591473
 30
0.0
 10
1190.256212879333
 20
553.2957841415076
 30
0.0
 10
1190.256202274557
 20
553.2957986632794
 30
0.0
 10
1190.256166299325
 20
553.2958479252885
 30
0.0
 10
1190.255887676039
 20
553.2962294313335
 30
0.0
 10
1190.255143672844
 20
553.2972476632364
 30
0.0
 10
1190.250405806555
 20
553.303723795615
 30
0.0
 10
1190.217000465852
 20
553.348996590779
 30
0.0
 10
1190.119958073605
 20
553.4743519326163
 30
0.0
 10
1190.015038446943
 20
553.5844093841822
 30
0.0
 10
1189.943815681858
 20
553.6591198675113
 30
0.0
  0
SPLINE
  5
94
330
1F
100
AcDbEntity
  8
0
  6
SLD-Solid
 62
     7
370
    15
100
AcDbSpline
210
0.0
220
0.0
230
1.0
 70
     8
 71
     3
 72
    13
 73
     9
 74
     0
 42
0.00000001
 43
0.00000001
 40
0.0
 40
0.0
 40
0.0
 40
0.0
 40
0.051122753313144
 40
0.131279788695902
 40
0.2222369863720159
 40
0.3126670503874152
 40
0.4186730842704073
 40
1.0
 40
1.0
 40
1.0
 40
1.0
 10
1223.898312861568
 20
923.5079776975931
 30
0.0
 10
1223.802759037295
 20
923.4993220444793
 30
0.0
 10
1223.557383249671
 20
923.47709491002
 30
0.0
 10
1223.451746982176
 20
923.4862962035783
 30
0.0
 10
1223.594712197944
 20
923.4801509430846
 30
0.0
 10
1224.003227436336
 20
923.4785174832466
 30
0.0
 10
1224.447234030142
 20
923.4794026843336
 30
0.0
 10
1224.956800669839
 20
923.4789449294826
 30
0.0
 10
1225.387777830442
 20
923.4785577732783
 30
0.0
  0
SPLINE
  5
95
330
1F
100
AcDbEntity
  8
0
  6
SLD-Solid
 62
     7
370
    15
100
AcDbSpline
210
0.0
220
0.0
230
1.0
 70
     8
 71
     3
 72
    11
 73
     7
 74
     0
 42
0.00000001
 43
0.00000001
 40
0.0
 40
0.0
 40
0.0
 40
0.0
 40
0.1214806355466824
 40
0.5678253578228282
 40
0.8436721293950497
 40
1.0
 40
1.0
 40
1.0
 40
1.0
 10
1187.833165151769
 20
923.4929868701419
 30
0.0
 10
1189.234363997051
 20
923.4917484210187
 30
0.0
 10
1195.783854227512
 20
923.4859596563056
 30
0.0
 10
1205.523376642924
 20
923.6149341990055
 30
0.0
 10
1215.646741542639
 20
923.6017370307827
 30
0.0
 10
1220.617848638676
 20
923.4000290022531
 30
0.0
 10
1222.416016580594
 20
923.3270663998543
 30
0.0
  0
SPLINE
  5
96
330
1F
100
AcDbEntity
  8
0
  6
SLD-Solid
 62
     7
370
    15
100
AcDbSpline
210
0.0
220
0.0
230
1.0
 70
     8
 71
     3
 72
    11
 73
     7
 74
     0
 42
0.00000001
 43
0.00000001
 40
0.0
 40
0.0
 40
0.0
 40
0.0
 40
0.1810035937130424
 40
0.4503585812667384
 40
0.7687436523326829
 40
1.0
 40
1.0
 40
1.0
 40
1.0
 10
1222.41191418325
 20
952.7896725470981
 30
0.0
 10
1220.331124591141
 20
952.7157266541583
 30
0.0
 10
1215.153871314598
 20
952.5317404318309
 30
0.0
 10
1206.291685667729
 20
952.521512006631
 30
0.0
 10
1196.840926820263
 20
952.6319120729958
 30
0.0
 10
1190.499911578481
 20
952.6298615716693
 30
0.0
 10
1187.831990320478
 20
952.6289988429311
 30
0.0
  0
SPLINE
  5
97
330
1F
100
AcDbEntity
  8
0
  6
SLD-Solid
 62
     7
370
    15
100
AcDbSpline
210
0.0
220
0.0
230
1.0
 70
     8
 71
     3
 72
    21
 73
    17
 74
     0
 42
0.00000001
 43
0.00000001
 40
0.0
 40
0.0
 40
0.0
 40
0.0
 40
0.0057442516121371
 40
0.0320566833984255
 40
0.0601260732409687
 40
0.0776640199379016
 40
0.0913173372717824
 40
0.1045129996719359
 40
0.2773930278620985
 40
0.4502820068993235
 40
0.6231687978807371
 40
0.7960895418797044
 40
0.9690416798516159
 40
0.9912864226424375
 40
0.9980801062700883
 40
1.0
 40
1.0
 40
1.0
 40
1.0
 10
1223.955426543922
 20
923.5132550516673
 30
0.0
 10
1223.948523794156
 20
923.5128500757515
 30
0.0
 10
1223.910001932863
 20
923.5105900450995
 30
0.0
 10
1224.111922238508
 20
923.5119281489681
 30
0.0
 10
1224.49387832363
 20
923.489965700368
 30
0.0
 10
1225.154285605808
 20
923.4770347195143
 30
0.0
 10
1225.410470589465
 20
923.4788775625818
 30
0.0
 10
1226.562643864188
 20
923.476853630176
 30
0.0
 10
1228.518586132535
 20
923.4785576840665
 30
0.0
 10
1230.996001534775
 20
923.4770070195968
 30
0.0
 10
1233.291117339023
 20
923.4779941406198
 30
0.0
 10
1234.777448793598
 20
923.473487755682
 30
0.0
 10
1236.917921133406
 20
923.4846113746158
 30
0.0
 10
1236.510472355608
 20
923.4744060571297
 30
0.0
 10
1236.979927736802
 20
923.4786121329006
 30
0.0
 10
1236.942722900113
 20
923.4783026531455
 30
0.0
 10
1236.934525425098
 20
923.478234464362
 30
0.0
  0
SPLINE
  5
98
330
1F
100
AcDbEntity
  8
0
  6
SLD-Solid
 62
     7
370
    15
100
AcDbSpline
210
0.0
220
0.0
230
1.0
 70
     8
 71
     3
 72
    24
 73
    20
 74
     0
 42
0.00000001
 43
0.00000001
 40
0.0
 40
0.0
 40
0.0
 40
0.0
 40
0.003570755978486
 40
0.0189304630833794
 40
0.0352303996347149
 40
0.0401656422642319
 40
0.0449889742766154
 40
0.0497118431438643
 40
0.2195155979568129
 40
0.389284466120795
 40
0.559005107582323
 40
0.7286390501887857
 40
0.8982925076169653
 40
0.9452762759167728
 40
0.9553258846218997
 40
0.9659853616733087
 40
0.9773661474620589
 40
0.9880787842264734
 40
1.0
 40
1.0
 40
1.0
 40
1.0
 10
1237.129491638719
 20
952.6051338548282
 30
0.0
 10
1237.137329431844
 20
952.6045191712518
 30
0.0
 10
1237.178881712174
 20
952.6012604090125
 30
0.0
 10
1236.939782086084
 20
952.622754787909
 30
0.0
 10
1236.623779303203
 20
952.6512945284658
 30
0.0
 10
1236.14703830727
 20
952.6573188517181
 30
0.0
 10
1236.131224203142
 20
952.6564999210105
 30
0.0
 10
1235.532291710678
 20
952.6585302308052
 30
0.0
 10
1234.493956928352
 20
952.6556908978496
 30
0.0
 10
1232.459084926203
 20
952.6565644995113
 30
0.0
 10
1230.208784530866
 20
952.6555985389625
 30
0.0
 10
1227.432588282273
 20
952.6562521068831
 30
0.0
 10
1225.655126886189
 20
952.65269729062
 30
0.0
 10
1223.732001219483
 20
952.6559738236542
 30
0.0
 10
1223.446417888031
 20
952.6483737237656
 30
0.0
 10
1223.649509305915
 20
952.6554221618321
 30
0.0
 10
1224.283021894016
 20
952.5896856533053
 30
0.0
 10
1224.646232538394
 20
952.5012277977445
 30
0.0
 10
1224.68894217568
 20
952.4882270786848
 30
0.0
 10
1224.711437276806
 20
952.4813796196909
 30
0.0
  0
LINE
  5
99
330
1F
100
AcDbEntity
  8
0
  6
SLD-Solid
 62
     7
370
    15
100
AcDbLine
 10
1227.8282594817
 20
924.7499968043
 30
0.0
 11
1227.8044332243
 21
924.7555144973
 31
0.0
  0
SPLINE
  5
9A
330
1F
100
AcDbEntity
  8
0
  6
SLD-Solid
 62
     7
370
    15
100
AcDbSpline
210
0.0
220
0.0
230
1.0
 70
     8
 71
     3
 72
    10
 73
     6
 74
     0
 42
0.00000001
 43
0.00000001
 40
0.0
 40
0.0
 40
0.0
 40
0.0
 40
0.0089322506377414
 40
0.5782463654997976
 40
0.9999999999999999
 40
0.9999999999999999
 40
0.9999999999999999
 40
0.9999999999999999
 10
1236.967597829458
 20
952.8182311970743
 30
0.0
 10
1236.924930576459
 20
952.8167524493824
 30
0.0
 10
1234.162784173187
 20
952.7210228832371
 30
0.0
 10
1229.397267575236
 20
952.6505075662399
 30
0.0
 10
1224.654737481213
 20
952.6599270437777
 30
0.0
 10
1222.636531051665
 20
952.6639355476252
 30
0.0
  0
LWPOLYLINE
  5
9B
330
1F
100
AcDbEntity
  8
0
  6
SLD-Solid
 62
     7
370
    15
100
AcDbPolyline
 90
        3
 70
   128
 43
0.0
 10
1218.3169101906
 20
952.6630554612
 10
1204.5378033894
 20
952.6632390942
 10
1187.8332353655
 20
952.6634485687
  0
SPLINE
  5
9C
330
1F
100
AcDbEntity
  8
0
  6
SLD-Solid
 62
     7
370
    15
100
AcDbSpline
210
0.0
220
0.0
230
1.0
 70
     8
 71
     3
 72
     9
 73
     5
 74
     0
 42
0.00000001
 43
0.00000001
 40
0.0
 40
0.0
 40
0.0
 40
0.0
 40
0.7741808595413642
 40
1.0
 40
1.0
 40
1.0
 40
1.0
 10
1187.831887788618
 20
923.4699976758296
 30
0.0
 10
1195.737382000714
 20
923.4708586237606
 30
0.0
 10
1205.948812720893
 20
923.4719706997312
 30
0.0
 10
1216.158707694698
 20
923.469277793439
 30
0.0
 10
1218.464297401856
 20
923.4686696836549
 30
0.0
  0
SPLINE
  5
9D
330
1F
100
AcDbEntity
  8
0
  6
SLD-Solid
 62
     7
370
    15
100
AcDbSpline
210
0.0
220
0.0
230
1.0
 70
     8
 71
     3
 72
    10
 73
     6
 74
     0
 42
0.00000001
 43
0.00000001
 40
0.0
 40
0.0
 40
0.0
 40
0.0
 40
0.4083964916893994
 40
0.9938954208389514
 40
0.9999999999999999
 40
0.9999999999999999
 40
0.9999999999999999
 40
0.9999999999999999
 10
1223.140658270313
 20
923.4675674680584
 30
0.0
 10
1225.055762526136
 20
923.4725885787195
 30
0.0
 10
1229.716462088998
 20
923.4848082206488
 30
0.0
 10
1234.382995409637
 20
923.3992756694257
 30
0.0
 10
1237.15285685668
 20
923.3083108810007
 30
0.0
 10
1237.18143822618
 20
923.3073722426321
 30
0.0
  0
SPLINE
  5
9E
330
1F
100
AcDbEntity
  8
0
  6
SLD-Solid
 62
     7
370
    15
100
AcDbSpline
210
0.0
220
0.0
230
1.0
 70
     8
 71
     3
 72
    11
 73
     7
 74
     0
 42
0.00000001
 43
0.00000001
 40
0.0
 40
0.0
 40
0.0
 40
0.0
 40
0.2517224808232489
 40
0.503080549414318
 40
0.7535912935115586
 40
1.0
 40
1.0
 40
1.0
 40
1.0
 10
1244.004639716439
 20
947.4049922226808
 30
0.0
 10
1243.741947159394
 20
948.2040685515757
 30
0.0
 10
1243.216942338637
 20
949.8010644068912
 30
0.0
 10
1241.416518099505
 20
951.5840932580884
 30
0.0
 10
1239.229074486328
 20
952.7092330216188
 30
0.0
 10
1237.661469756633
 20
952.776119678227
 30
0.0
 10
1236.884137629114
 20
952.8092869340405
 30
0.0
  0
SPLINE
  5
9F
330
1F
100
AcDbEntity
  8
0
  6
SLD-Solid
 62
     7
370
    15
100
AcDbSpline
210
0.0
220
0.0
230
1.0
 70
     8
 71
     3
 72
    11
 73
     7
 74
     0
 42
0.00000001
 43
0.00000001
 40
0.0
 40
0.0
 40
0.0
 40
0.0
 40
0.2464092407976452
 40
0.4969199021702315
 40
0.7482773968705498
 40
1.0
 40
1.0
 40
1.0
 40
1.0
 10
1236.884137629114
 20
923.3241600313955
 30
0.0
 10
1237.661469860585
 20
923.3573260934145
 30
0.0
 10
1239.229072825335
 20
923.4242102583124
 30
0.0
 10
1241.41651117661
 20
924.549344918093
 30
0.0
 10
1243.216927091675
 20
926.3323819702802
 30
0.0
 10
1243.741929023566
 20
927.9293778111396
 30
0.0
 10
1244.004620498568
 20
928.7284552383371
 30
0.0
  0
ARC
  5
A0
330
1F
100
AcDbEntity
  8
0
  6
SLD-Solid
 62
     7
370
    15
100
AcDbCircle
 10
1198.7718174149
 20
938.0667234827
 30
0.0
 40
46.24999970944314
100
AcDbArc
 50
348.5111848764
 51
11.4945663561
  0
LINE
  5
A1
330
1F
100
AcDbEntity
  8
0
  6
SLD-Solid
 62
     7
370
    15
100
AcDbLine
 10
1169.3319827939
 20
462.0667234827
 30
0.0
 11
1169.8319827939
 21
461.5667234827
 31
0.0
  0
LINE
  5
A2
330
1F
100
AcDbEntity
  8
0
  6
SLD-Solid
 62
     7
370
    15
100
AcDbLine
 10
1185.8319827939
 20
461.5667234827
 30
0.0
 11
1186.3319827939
 21
462.0667234827
 31
0.0
  0
LINE
  5
A3
330
1F
100
AcDbEntity
  8
0
  6
SLD-Solid
 62
     7
370
    15
100
AcDbLine
 10
1186.3319827939
 20
463.5667234827
 30
0.0
 11
1185.8319827939
 21
464.0667234827
 31
0.0
  0
LINE
  5
A4
330
1F
100
AcDbEntity
  8
0
  6
SLD-Solid
 62
     7
370
    15
100
AcDbLine
 10
1169.8319827939
 20
464.0667234827
 30
0.0
 11
1169.3319827939
 21
463.5667234827
 31
0.0
  0
LINE
  5
A5
330
1F
100
AcDbEntity
  8
0
  6
SLD-Solid
 62
     7
370
    15
100
AcDbLine
 10
1169.3319827939
 20
463.5667234827
 30
0.0
 11
1169.3319827939
 21
462.0667234827
 31
0.0
  0
LINE
  5
A6
330
1F
100
AcDbEntity
  8
0
  6
SLD-Solid
 62
     7
370
    15
100
AcDbLine
 10
1186.3319827939
 20
462.0667234827
 30
0.0
 11
1186.3319827939
 21
463.5667234827
 31
0.0
  0
LINE
  5
A7
330
1F
100
AcDbEntity
  8
0
  6
SLD-Solid
 62
     7
370
    15
100
AcDbLine
 10
1171.3319827939
 20
464.9374341608
 30
0.0
 11
1171.3319827939
 21
464.8667234827
 31
0.0
  0
LINE
  5
A8
330
1F
100
AcDbEntity
  8
0
  6
SLD-Solid
 62
     7
370
    15
100
AcDbLine
 10
1184.3319827939
 20
464.8667234827
 30
0.0
 11
1184.3319827939
 21
464.9374341608
 31
0.0
  0
LINE
  5
A9
330
1F
100
AcDbEntity
  8
0
  6
SLD-Solid
 62
     7
370
    15
100
AcDbLine
 10
1186.3319827939
 20
990.0667234827
 30
0.0
 11
1185.8319827939
 21
990.5667234827
 31
0.0
  0
LINE
  5
AA
330
1F
100
AcDbEntity
  8
0
  6
SLD-Solid
 62
     7
370
    15
100
AcDbLine
 10
1169.8319827939
 20
990.5667234827
 30
0.0
 11
1169.3319827939
 21
990.0667234827
 31
0.0
  0
LINE
  5
AB
330
1F
100
AcDbEntity
  8
0
  6
SLD-Solid
 62
     7
370
    15
100
AcDbLine
 10
1186.3319827939
 20
988.5667234827
 30
0.0
 11
1186.3319827939
 21
990.0667234827
 31
0.0
  0
LINE
  5
AC
330
1F
100
AcDbEntity
  8
0
  6
SLD-Solid
 62
     7
370
    15
100
AcDbLine
 10
1169.3319827939
 20
990.0667234827
 30
0.0
 11
1169.3319827939
 21
988.5667234827
 31
0.0
  0
LINE
  5
AD
330
1F
100
AcDbEntity
  8
0
  6
SLD-Solid
 62
     7
370
    15
100
AcDbLine
 10
1169.3319827939
 20
988.5667234827
 30
0.0
 11
1169.8319827939
 21
988.0667234827
 31
0.0
  0
LINE
  5
AE
330
1F
100
AcDbEntity
  8
0
  6
SLD-Solid
 62
     7
370
    15
100
AcDbLine
 10
1185.8319827939
 20
988.0667234827
 30
0.0
 11
1186.3319827939
 21
988.5667234827
 31
0.0
  0
LINE
  5
AF
330
1F
100
AcDbEntity
  8
0
  6
SLD-Solid
 62
     7
370
    15
100
AcDbLine
 10
1184.3319827939
 20
987.1960128046
 30
0.0
 11
1184.3319827939
 21
987.2667234827
 31
0.0
  0
LINE
  5
B0
330
1F
100
AcDbEntity
  8
0
  6
SLD-Solid
 62
     7
370
    15
100
AcDbLine
 10
1171.3319827939
 20
987.2667234827
 30
0.0
 11
1171.3319827939
 21
987.1960128046
 31
0.0
  0
LINE
  5
B1
330
1F
100
AcDbEntity
  8
0
  6
SLD-Solid
 62
     7
370
    15
100
AcDbLine
 10
1185.8319827939
 20
459.0667234827
 30
0.0
 11
1185.8319827939
 21
461.5667234827
 31
0.0
  0
LINE
  5
B2
330
1F
100
AcDbEntity
  8
0
  6
SLD-Solid
 62
     7
370
    15
100
AcDbLine
 10
1185.8319827939
 20
991.3667234823
 30
0.0
 11
1185.8319827939
 21
993.8667234823
 31
0.0
  0
LINE
  5
B3
330
1F
100
AcDbEntity
  8
0
  6
SLD-Solid
 62
     7
370
    15
100
AcDbLine
 10
1172.8319827939
 20
991.3667234823
 30
0.0
 11
1172.8319827939
 21
990.5667234812
 31
0.0
  0
LINE
  5
B4
330
1F
100
AcDbEntity
  8
0
  6
SLD-Solid
 62
     7
370
    15
100
AcDbLine
 10
1182.8319827939
 20
990.5667234812
 30
0.0
 11
1182.8319827939
 21
991.3667234823
 31
0.0
  0
LINE
  5
B5
330
1F
100
AcDbEntity
  8
0
  6
SLD-Solid
 62
     7
370
    15
100
AcDbLine
 10
1173.9319827939
 20
994.3667234823
 30
0.0
 11
1173.9319827939
 21
993.8667234823
 31
0.0
  0
LINE
  5
B6
330
1F
100
AcDbEntity
  8
0
  6
SLD-Solid
 62
     7
370
    15
100
AcDbLine
 10
1181.7319827939
 20
993.8667234828
 30
0.0
 11
1181.7319827939
 21
994.3667234823
 31
0.0
  0
LINE
  5
B7
330
1F
100
AcDbEntity
  8
0
  6
SLD-Solid
 62
     7
370
    15
100
AcDbLine
 10
1181.7319827939
 20
458.5667234827
 30
0.0
 11
1181.7319827939
 21
459.0667234812
 31
0.0
  0
LINE
  5
B8
330
1F
100
AcDbEntity
  8
0
  6
SLD-Solid
 62
     7
370
    15
100
AcDbLine
 10
1173.9319827939
 20
459.0667234812
 30
0.0
 11
1173.9319827939
 21
458.5667234827
 31
0.0
  0
SPLINE
  5
B9
330
1F
100
AcDbEntity
  8
0
  6
SLD-Solid
 62
     7
370
    15
100
AcDbSpline
210
0.0
220
0.0
230
1.0
 70
     8
 71
     3
 72
    13
 73
     9
 74
     0
 42
0.00000001
 43
0.00000001
 40
0.0
 40
0.0
 40
0.0
 40
0.0
 40
0.0075462231143958
 40
0.2722763788511176
 40
0.4815195415728156
 40
0.6613541616922619
 40
0.8304588949397409
 40
1.0
 40
1.0
 40
1.0
 40
1.0
 10
410.8319827938693
 20
505.5734026531749
 30
0.0
 10
410.8319796098269
 20
505.5735096024441
 30
0.0
 10
410.831864725924
 20
505.5773684546567
 30
0.0
 10
410.8202790663113
 20
505.584383607715
 30
0.0
 10
410.777560287039
 20
505.5932528745461
 30
0.0
 10
410.721888683935
 20
505.5995370844103
 30
0.0
 10
410.6557528905543
 20
505.6037567326803
 30
0.0
 10
410.6065939411561
 20
505.6043162124251
 30
0.0
 10
410.5819827938694
 20
505.6045963127642
 30
0.0
  0
LINE
  5
BA
330
1F
100
AcDbEntity
  8
0
  6
SLD-Solid
 62
     7
370
    15
100
AcDbLine
 10
410.8319827939
 20
513.3411328185
 30
0.0
 11
410.8319827939
 21
505.5734026532
 31
0.0
  0
SPLINE
  5
BB
330
1F
100
AcDbEntity
  8
0
  6
SLD-Solid
 62
     7
370
    15
100
AcDbSpline
210
0.0
220
0.0
230
1.0
 70
     8
 71
     3
 72
    13
 73
     9
 74
     0
 42
0.00000001
 43
0.00000001
 40
0.0
 40
0.0
 40
0.0
 40
0.0
 40
0.1695411050602487
 40
0.3386458383078066
 40
0.5184804584269349
 40
0.7277236211486942
 40
0.9924537768851923
 40
1.0
 40
1.0
 40
1.0
 40
1.0
 10
409.8819827938693
 20
505.6045963127644
 30
0.0
 10
409.8573716465827
 20
505.6043162124252
 30
0.0
 10
409.8082126971843
 20
505.6037567326802
 30
0.0
 10
409.7420769038038
 20
505.5995370844103
 30
0.0
 10
409.6864053006997
 20
505.5932528745461
 30
0.0
 10
409.6436865214267
 20
505.5843836077145
 30
0.0
 10
409.6321008618166
 20
505.5773684546581
 30
0.0
 10
409.6319859779118
 20
505.5735096024441
 30
0.0
 10
409.6319827938694
 20
505.5734026531749
 30
0.0
  0
LINE
  5
BC
330
1F
100
AcDbEntity
  8
0
  6
SLD-Solid
 62
     7
370
    15
100
AcDbLine
 10
409.6319827939
 20
505.5734026532
 30
0.0
 11
409.6319827939
 21
513.0634615012
 31
0.0
  0
LINE
  5
BD
330
1F
100
AcDbEntity
  8
0
  6
SLD-Solid
 62
     7
370
    15
100
AcDbLine
 10
409.8819827939
 20
505.6045963128
 30
0.0
 11
410.5819827939
 21
505.6045963128
 31
0.0
  0
SPLINE
  5
BE
330
1F
100
AcDbEntity
  8
0
  6
SLD-Solid
 62
     7
370
    15
100
AcDbSpline
210
0.0
220
0.0
230
1.0
 70
     8
 71
     3
 72
    12
 73
     8
 74
     0
 42
0.00000001
 43
0.00000001
 40
0.0
 40
0.0
 40
0.0
 40
0.0
 40
0.2028202020467096
 40
0.4049472449426166
 40
0.6098312030740329
 40
0.8226939241827005
 40
1.0
 40
1.0
 40
1.0
 40
1.0
 10
409.3819827938694
 20
500.255620073274
 30
0.0
 10
409.5391236344048
 20
500.2678430924623
 30
0.0
 10
409.8528682702973
 20
500.2922473573984
 30
0.0
 10
410.2732645207668
 20
500.4818985637294
 30
0.0
 10
410.6003430562064
 20
500.7640287194992
 30
0.0
 10
410.7985523224726
 20
501.1036741820264
 30
0.0
 10
410.8215375283945
 20
501.3444218297023
 30
0.0
 10
410.8319827938693
 20
501.4538258133319
 30
0.0
  0
SPLINE
  5
BF
330
1F
100
AcDbEntity
  8
0
  6
SLD-Solid
 62
     7
370
    15
100
AcDbSpline
210
0.0
220
0.0
230
1.0
 70
     8
 71
     3
 72
    12
 73
     8
 74
     0
 42
0.00000001
 43
0.00000001
 40
0.0
 40
0.0
 40
0.0
 40
0.0
 40
0.2289440738516423
 40
0.4594214300241717
 40
0.6825355698158432
 40
0.8947175231628769
 40
1.0
 40
1.0
 40
1.0
 40
1.0
 10
410.8319827938693
 20
505.3290094263963
 30
0.0
 10
410.8146483092918
 20
505.2001298500683
 30
0.0
 10
410.7798632477726
 20
504.9415075662004
 30
0.0
 10
410.5059934019604
 20
504.5988967127063
 30
0.0
 10
410.1089568674777
 20
504.351836405762
 30
0.0
 10
409.7080808781245
 20
504.2407520500101
 30
0.0
 10
409.4631954850377
 20
504.2313035626581
 30
0.0
 10
409.3819827938694
 20
504.2281701087773
 30
0.0
  0
LINE
  5
C0
330
1F
100
AcDbEntity
  8
0
  6
SLD-Solid
 62
     7
370
    15
100
AcDbLine
 10
410.8319827939
 20
505.3290094264
 30
0.0
 11
410.8319827939
 21
501.4538258133
 31
0.0
  0
LINE
  5
C1
330
1F
100
AcDbEntity
  8
0
  6
SLD-Solid
 62
     7
370
    15
100
AcDbLine
 10
404.0319827939
 20
500.4862843725
 30
0.0
 11
404.0319827939
 21
504.3614679856
 31
0.0
  0
LINE
  5
C2
330
1F
100
AcDbEntity
  8
0
  6
SLD-Solid
 62
     7
370
    15
100
AcDbLine
 10
404.0319827939
 20
504.3614679856
 30
0.0
 11
404.0319827939
 21
504.9241055872
 31
0.0
  0
LINE
  5
C3
330
1F
100
AcDbEntity
  8
0
  6
SLD-Solid
 62
     7
370
    15
100
AcDbLine
 10
410.8319827939
 20
505.5734026532
 30
0.0
 11
410.8319827939
 21
505.3290094264
 31
0.0
  0
LINE
  5
C4
330
1F
100
AcDbEntity
  8
0
  6
SLD-Solid
 62
     7
370
    15
100
AcDbLine
 10
409.6319827939
 20
505.3290094264
 30
0.0
 11
409.6319827939
 21
505.5734026532
 31
0.0
  0
LINE
  5
C5
330
1F
100
AcDbEntity
  8
0
  6
SLD-Solid
 62
     7
370
    15
100
AcDbLine
 10
409.3819827939
 20
500.2362843725
 30
0.0
 11
409.3819827939
 21
500.2556200733
 31
0.0
  0
LINE
  5
C6
330
1F
100
AcDbEntity
  8
0
  6
SLD-Solid
 62
     7
370
    15
100
AcDbLine
 10
410.8319827939
 20
501.4538258133
 30
0.0
 11
410.8319827939
 21
501.2167234826
 31
0.0
  0
SPLINE
  5
C7
330
1F
100
AcDbEntity
  8
0
  6
SLD-Solid
 62
     7
370
    15
100
AcDbSpline
210
0.0
220
0.0
230
1.0
 70
     8
 71
     3
 72
    10
 73
     6
 74
     0
 42
0.00000001
 43
0.00000001
 40
0.0
 40
0.0
 40
0.0
 40
0.0
 40
0.3816828359345745
 40
0.7620612310503251
 40
1.0
 40
1.0
 40
1.0
 40
1.0
 10
409.3819827938693
 20
519.0778268918632
 30
0.0
 10
409.5382337665148
 20
519.064970511544
 30
0.0
 10
409.8502017078436
 20
519.0393016889236
 30
0.0
 10
410.2281525574811
 20
518.8823266543752
 30
0.0
 10
410.3908825806634
 20
518.7270520507883
 30
0.0
 10
410.4535038107333
 20
518.6672997906638
 30
0.0
  0
LINE
  5
C8
330
1F
100
AcDbEntity
  8
0
  6
SLD-Solid
 62
     7
370
    15
100
AcDbLine
 10
404.0319827939
 20
518.284524991
 30
0.0
 11
404.0319827939
 21
518.8471625926
 31
0.0
  0
LINE
  5
C9
330
1F
100
AcDbEntity
  8
0
  6
SLD-Solid
 62
     7
370
    15
100
AcDbLine
 10
404.0319827939
 20
514.9834294348
 30
0.0
 11
404.0319827939
 21
518.284524991
 31
0.0
  0
SPLINE
  5
CA
330
1F
100
AcDbEntity
  8
0
  6
SLD-Solid
 62
     7
370
    15
100
AcDbSpline
210
0.0
220
0.0
230
1.0
 70
     8
 71
     3
 72
    13
 73
     9
 74
     0
 42
0.00000001
 43
0.00000001
 40
0.0
 40
0.0
 40
0.0
 40
0.0
 40
0.0075462231143751
 40
0.2722763788511927
 40
0.48151954157286
 40
0.6613541616922962
 40
0.8304588949397513
 40
1.0
 40
1.0
 40
1.0
 40
1.0
 10
408.4319827938693
 20
513.0000391393754
 30
0.0
 10
408.4319859779118
 20
512.9998242043803
 30
0.0
 10
408.4321008618129
 20
512.9920691034137
 30
0.0
 10
408.4436865214279
 20
512.978119447942
 30
0.0
 10
408.4864053006995
 20
512.9607657207072
 30
0.0
 10
408.5420769038036
 20
512.9486003438199
 30
0.0
 10
408.6082126971843
 20
512.9404924280512
 30
0.0
 10
408.6573716465827
 20
512.939421435887
 30
0.0
 10
408.6819827938693
 20
512.938885249776
 30
0.0
  0
LINE
  5
CB
330
1F
100
AcDbEntity
  8
0
  6
SLD-Solid
 62
     7
370
    15
100
AcDbLine
 10
408.4319827939
 20
505.1741055872
 30
0.0
 11
408.4319827939
 21
513.0000391394
 31
0.0
  0
SPLINE
  5
CC
330
1F
100
AcDbEntity
  8
0
  6
SLD-Solid
 62
     7
370
    15
100
AcDbSpline
210
0.0
220
0.0
230
1.0
 70
     8
 71
     3
 72
    13
 73
     9
 74
     0
 42
0.00000001
 43
0.00000001
 40
0.0
 40
0.0
 40
0.0
 40
0.0
 40
0.1695411050602381
 40
0.3386458383078456
 40
0.5184804584269653
 40
0.727723621148605
 40
0.9924537768851865
 40
1.0
 40
1.0
 40
1.0
 40
1.0
 10
409.3819827938693
 20
512.9388852497758
 30
0.0
 10
409.406593941156
 20
512.9394214358869
 30
0.0
 10
409.4557528905544
 20
512.9404924280512
 30
0.0
 10
409.5218886839348
 20
512.9486003438199
 30
0.0
 10
409.5775602870392
 20
512.960765720707
 30
0.0
 10
409.6202790663114
 20
512.9781194479426
 30
0.0
 10
409.6318647259238
 20
512.9920691034121
 30
0.0
 10
409.6319796098268
 20
512.9998242043803
 30
0.0
 10
409.6319827938693
 20
513.0000391393754
 30
0.0
  0
LINE
  5
CD
330
1F
100
AcDbEntity
  8
0
  6
SLD-Solid
 62
     7
370
    15
100
AcDbLine
 10
409.6319827939
 20
513.0000391394
 30
0.0
 11
409.6319827939
 21
505.5734026532
 31
0.0
  0
LINE
  5
CE
330
1F
100
AcDbEntity
  8
0
  6
SLD-Solid
 62
     7
370
    15
100
AcDbLine
 10
409.3819827939
 20
512.9388852498
 30
0.0
 11
408.6819827939
 21
512.9388852498
 31
0.0
  0
SPLINE
  5
CF
330
1F
100
AcDbEntity
  8
0
  6
SLD-Solid
 62
     7
370
    15
100
AcDbSpline
210
0.0
220
0.0
230
1.0
 70
     8
 71
     3
 72
    12
 73
     8
 74
     0
 42
0.00000001
 43
0.00000001
 40
0.0
 40
0.0
 40
0.0
 40
0.0
 40
0.2028202020467126
 40
0.4049472449426185
 40
0.6098312030740329
 40
0.8226939241827083
 40
1.0
 40
1.0
 40
1.0
 40
1.0
 10
409.8819827938692
 20
518.637163516998
 30
0.0
 10
409.7248419533338
 20
518.6259472744654
 30
0.0
 10
409.4110973174414
 20
518.6035531220765
 30
0.0
 10
408.990701066972
 20
518.4294924543036
 30
0.0
 10
408.6636225315322
 20
518.1704479910182
 30
0.0
 10
408.4654132652662
 20
517.8584372094631
 30
0.0
 10
408.4424280593441
 20
517.637081142231
 30
0.0
 10
408.4319827938693
 20
517.536489357474
 30
0.0
  0
SPLINE
  5
D0
330
1F
100
AcDbEntity
  8
0
  6
SLD-Solid
 62
     7
370
    15
100
AcDbSpline
210
0.0
220
0.0
230
1.0
 70
     8
 71
     3
 72
    12
 73
     8
 74
     0
 42
0.00000001
 43
0.00000001
 40
0.0
 40
0.0
 40
0.0
 40
0.0
 40
0.2289440738516421
 40
0.4594214300241642
 40
0.6825355698158387
 40
0.8947175231628779
 40
1.0
 40
1.0
 40
1.0
 40
1.0
 10
408.4319827938693
 20
513.2225248075522
 30
0.0
 10
408.4493172784469
 20
513.3385729662264
 30
0.0
 10
408.484102339966
 20
513.5714464803245
 30
0.0
 10
408.7579721857784
 20
513.8803346677067
 30
0.0
 10
409.1550087202612
 20
514.1032037894585
 30
0.0
 10
409.5558847096141
 20
514.203453064523
 30
0.0
 10
409.8007701027011
 20
514.2119800476287
 30
0.0
 10
409.8819827938693
 20
514.2148078979828
 30
0.0
  0
LINE
  5
D1
330
1F
100
AcDbEntity
  8
0
  6
SLD-Solid
 62
     7
370
    15
100
AcDbLine
 10
408.4319827939
 20
513.2225248076
 30
0.0
 11
408.4319827939
 21
517.5364893575
 31
0.0
  0
LINE
  5
D2
330
1F
100
AcDbEntity
  8
0
  6
SLD-Solid
 62
     7
370
    15
100
AcDbLine
 10
415.2319827939
 20
518.4172997907
 30
0.0
 11
415.2319827939
 21
514.1033352407
 31
0.0
  0
LINE
  5
D3
330
1F
100
AcDbEntity
  8
0
  6
SLD-Solid
 62
     7
370
    15
100
AcDbLine
 10
415.2319827939
 20
514.1033352407
 30
0.0
 11
415.2319827939
 21
513.5911328185
 31
0.0
  0
LINE
  5
D4
330
1F
100
AcDbEntity
  8
0
  6
SLD-Solid
 62
     7
370
    15
100
AcDbLine
 10
408.4319827939
 20
513.0000391394
 30
0.0
 11
408.4319827939
 21
513.2225248076
 31
0.0
  0
LINE
  5
D5
330
1F
100
AcDbEntity
  8
0
  6
SLD-Solid
 62
     7
370
    15
100
AcDbLine
 10
409.6319827939
 20
513.2225248076
 30
0.0
 11
409.6319827939
 21
513.0000391394
 31
0.0
  0
LINE
  5
D6
330
1F
100
AcDbEntity
  8
0
  6
SLD-Solid
 62
     7
370
    15
100
AcDbLine
 10
409.8819827939
 20
518.6672997907
 30
0.0
 11
409.8819827939
 21
518.637163517
 31
0.0
  0
LINE
  5
D7
330
1F
100
AcDbEntity
  8
0
  6
SLD-Solid
 62
     7
370
    15
100
AcDbLine
 10
408.4319827939
 20
517.5364893575
 30
0.0
 11
408.4319827939
 21
518.1167234826
 31
0.0
  0
LINE
  5
D8
330
1F
100
AcDbEntity
  8
0
  6
SLD-Solid
 62
     7
370
    15
100
AcDbLine
 10
415.2319827939
 20
501.4283495967
 30
0.0
 11
415.2319827939
 21
500.9161471745
 31
0.0
  0
LINE
  5
D9
330
1F
100
AcDbEntity
  8
0
  6
SLD-Solid
 62
     7
370
    15
100
AcDbLine
 10
415.2319827939
 20
504.1654051744
 30
0.0
 11
415.2319827939
 21
501.4283495967
 31
0.0
  0
LINE
  5
DA
330
1F
100
AcDbEntity
  8
0
  6
SLD-Solid
 62
     7
370
    15
100
AcDbLine
 10
421.0354008065
 20
507.7628907937
 30
0.0
 11
421.2319827939
 21
506.93347613
 31
0.0
  0
LINE
  5
DB
330
1F
100
AcDbEntity
  8
0
  6
SLD-Solid
 62
     7
370
    15
100
AcDbLine
 10
421.2319827939
 20
504.7691434332
 30
0.0
 11
421.0354008065
 21
503.9944717878
 31
0.0
  0
LINE
  5
DC
330
1F
100
AcDbEntity
  8
0
  6
SLD-Solid
 62
     7
370
    15
100
AcDbLine
 10
421.0354008065
 20
503.9944717878
 30
0.0
 11
416.7285647813
 21
503.9944717878
 31
0.0
  0
SPLINE
  5
DD
330
1F
100
AcDbEntity
  8
0
  6
SLD-Solid
 62
     7
370
    15
100
AcDbSpline
210
0.0
220
0.0
230
1.0
 70
     8
 71
     3
 72
     9
 73
     5
 74
     0
 42
0.00000001
 43
0.00000001
 40
0.0
 40
0.0
 40
0.0
 40
0.0
 40
0.0702005767034596
 40
1.0
 40
1.0
 40
1.0
 40
1.0
 10
416.2819827938694
 20
505.8786812907505
 30
0.0
 10
416.2824289101369
 20
505.8340143767799
 30
0.0
 10
416.2887837905179
 20
505.1977387780864
 30
0.0
 10
416.516673272413
 20
504.5742195792729
 30
0.0
 10
416.7285647812546
 20
503.9944717878018
 30
0.0
  0
LINE
  5
DE
330
1F
100
AcDbEntity
  8
0
  6
SLD-Solid
 62
     7
370
    15
100
AcDbLine
 10
416.7285647813
 20
507.7628907937
 30
0.0
 11
416.2819827939
 21
505.8786812908
 31
0.0
  0
LINE
  5
DF
330
1F
100
AcDbEntity
  8
0
  6
SLD-Solid
 62
     7
370
    15
100
AcDbLine
 10
421.0354008065
 20
507.7628907937
 30
0.0
 11
416.7285647813
 21
507.7628907937
 31
0.0
  0
SPLINE
  5
E0
330
1F
100
AcDbEntity
  8
0
  6
SLD-Solid
 62
     7
370
    15
100
AcDbSpline
210
0.0
220
0.0
230
1.0
 70
     8
 71
     3
 72
     9
 73
     5
 74
     0
 42
0.00000001
 43
0.00000001
 40
0.0
 40
0.0
 40
0.0
 40
0.0
 40
0.2575513451038641
 40
1.0
 40
1.0
 40
1.0
 40
1.0
 10
416.7285647812546
 20
507.7628907936992
 30
0.0
 10
416.6611495584797
 20
508.0009884861498
 30
0.0
 10
416.3993950615358
 20
508.9254553816914
 30
0.0
 10
416.3320115737432
 20
509.8859205607878
 30
0.0
 10
416.2819827938694
 20
510.5990166410825
 30
0.0
  0
LINE
  5
E1
330
1F
100
AcDbEntity
  8
0
  6
SLD-Solid
 62
     7
370
    15
100
AcDbLine
 10
416.2819827939
 20
505.8786812908
 30
0.0
 11
416.2819827939
 21
510.5990166411
 31
0.0
  0
SPLINE
  5
E2
330
1F
100
AcDbEntity
  8
0
  6
SLD-Solid
 62
     7
370
    15
100
AcDbSpline
210
0.0
220
0.0
230
1.0
 70
     8
 71
     3
 72
     9
 73
     5
 74
     0
 42
0.00000001
 43
0.00000001
 40
0.0
 40
0.0
 40
0.0
 40
0.0
 40
0.9250528686205627
 40
1.0
 40
1.0
 40
1.0
 40
1.0
 10
421.0354008064842
 20
507.7628907936992
 30
0.0
 10
421.1139545192374
 20
507.9989255935283
 30
0.0
 10
421.1988725984283
 20
508.2540837664673
 30
0.0
 10
421.2296742951345
 20
508.519264508565
 30
0.0
 10
421.2319827939443
 20
508.5391390444822
 30
0.0
  0
SPLINE
  5
E3
330
1F
100
AcDbEntity
  8
0
  6
SLD-Solid
 62
     7
370
    15
100
AcDbSpline
210
0.0
220
0.0
230
1.0
 70
     8
 71
     3
 72
     9
 73
     5
 74
     0
 42
0.00000001
 43
0.00000001
 40
0.0
 40
0.0
 40
0.0
 40
0.0
 40
0.2686336050555918
 40
1.0
 40
1.0
 40
1.0
 40
1.0
 10
416.2819827938694
 20
510.5990166410825
 30
0.0
 10
416.2886117464537
 20
510.8568998406281
 30
0.0
 10
416.3132883038901
 20
511.8168809996947
 30
0.0
 10
416.5531430674901
 20
512.7515540379935
 30
0.0
 10
416.7285647812546
 20
513.435142488466
 30
0.0
  0
LINE
  5
E4
330
1F
100
AcDbEntity
  8
0
  6
SLD-Solid
 62
     7
370
    15
100
AcDbLine
 10
421.0354008065
 20
513.4351424885
 30
0.0
 11
416.7285647813
 21
513.4351424885
 31
0.0
  0
LINE
  5
E5
330
1F
100
AcDbEntity
  8
0
  6
SLD-Solid
 62
     7
370
    15
100
AcDbLine
 10
421.2319827939
 20
512.4481841522
 30
0.0
 11
421.0354008065
 21
513.4351424885
 31
0.0
  0
SPLINE
  5
E6
330
1F
100
AcDbEntity
  8
0
  6
SLD-Solid
 62
     7
370
    15
100
AcDbSpline
210
0.0
220
0.0
230
1.0
 70
     8
 71
     3
 72
     9
 73
     5
 74
     0
 42
0.00000001
 43
0.00000001
 40
0.0
 40
0.0
 40
0.0
 40
0.0
 40
0.0702005767034146
 40
1.0
 40
1.0
 40
1.0
 40
1.0
 10
416.2819827938694
 20
514.3870588329006
 30
0.0
 10
416.282428910137
 20
514.3644927831076
 30
0.0
 10
416.2887837905175
 20
514.0430417231205
 30
0.0
 10
416.5166732724129
 20
513.7280352891273
 30
0.0
 10
416.7285647812546
 20
513.435142488466
 30
0.0
  0
LINE
  5
E7
330
1F
100
AcDbEntity
  8
0
  6
SLD-Solid
 62
     7
370
    15
100
AcDbLine
 10
416.2819827939
 20
510.5990166411
 30
0.0
 11
416.2819827939
 21
514.3870588329
 31
0.0
  0
LINE
  5
E8
330
1F
100
AcDbEntity
  8
0
  6
SLD-Solid
 62
     7
370
    15
100
AcDbLine
 10
421.2319827939
 20
513.8265122378
 30
0.0
 11
421.0354008065
 21
513.4351424885
 31
0.0
  0
LINE
  5
E9
330
1F
100
AcDbEntity
  8
0
  6
SLD-Solid
 62
     7
370
    15
100
AcDbLine
 10
421.0354008065
 20
515.3389751773
 30
0.0
 11
421.2113457239
 21
514.963938012
 31
0.0
  0
LINE
  5
EA
330
1F
100
AcDbEntity
  8
0
  6
SLD-Solid
 62
     7
370
    15
100
AcDbLine
 10
416.7285647813
 20
515.3389751773
 30
0.0
 11
416.2819827939
 21
514.3870588329
 31
0.0
  0
LINE
  5
EB
330
1F
100
AcDbEntity
  8
0
  6
SLD-Solid
 62
     7
370
    15
100
AcDbLine
 10
421.0354008065
 20
515.3389751773
 30
0.0
 11
416.7285647813
 21
515.3389751773
 31
0.0
  0
LINE
  5
EC
330
1F
100
AcDbEntity
  8
0
  6
SLD-Solid
 62
     7
370
    15
100
AcDbLine
 10
416.7285647813
 20
503.9944717878
 30
0.0
 11
416.5526198638
 21
504.3695089531
 31
0.0
  0
LINE
  5
ED
330
1F
100
AcDbEntity
  8
0
  6
SLD-Solid
 62
     7
370
    15
100
AcDbLine
 10
416.2819827939
 20
504.6667234826
 30
0.0
 11
416.2819827939
 21
505.8786812908
 31
0.0
  0
LINE
  5
EE
330
1F
100
AcDbEntity
  8
0
  6
SLD-Solid
 62
     7
370
    15
100
AcDbLine
 10
421.0354008065
 20
503.9944717878
 30
0.0
 11
421.2113457239
 21
504.3695089531
 31
0.0
  0
LINE
  5
EF
330
1F
100
AcDbEntity
  8
0
  6
SLD-Solid
 62
     7
370
    15
100
AcDbLine
 10
416.2819827939
 20
514.3870588329
 30
0.0
 11
416.2819827939
 21
514.6667234826
 31
0.0
  0
LINE
  5
F0
330
1F
100
AcDbEntity
  8
0
  6
SLD-Solid
 62
     7
370
    15
100
AcDbLine
 10
407.9854008065
 20
514.274301526
 30
0.0
 11
408.4319827939
 21
511.6159485498
 31
0.0
  0
SPLINE
  5
F1
330
1F
100
AcDbEntity
  8
0
  6
SLD-Solid
 62
     7
370
    15
100
AcDbSpline
210
0.0
220
0.0
230
1.0
 70
     8
 71
     3
 72
     9
 73
     5
 74
     0
 42
0.00000001
 43
0.00000001
 40
0.0
 40
0.0
 40
0.0
 40
0.0
 40
0.0702005767034232
 40
1.0
 40
1.0
 40
1.0
 40
1.0
 10
408.4319827938693
 20
511.6159485498206
 30
0.0
 10
408.4315366776017
 20
511.5529298549766
 30
0.0
 10
408.4251817972212
 20
510.6552350239168
 30
0.0
 10
408.1972923153259
 20
509.7755376679437
 30
0.0
 10
407.9854008064842
 20
508.9575955736845
 30
0.0
  0
LINE
  5
F2
330
1F
100
AcDbEntity
  8
0
  6
SLD-Solid
 62
     7
370
    15
100
AcDbLine
 10
407.9854008065
 20
508.9575955737
 30
0.0
 11
403.6785647813
 21
508.9575955737
 31
0.0
  0
SPLINE
  5
F3
330
1F
100
AcDbEntity
  8
0
  6
SLD-Solid
 62
     7
370
    15
100
AcDbSpline
210
0.0
220
0.0
230
1.0
 70
     8
 71
     3
 72
     9
 73
     5
 74
     0
 42
0.00000001
 43
0.00000001
 40
0.0
 40
0.0
 40
0.0
 40
0.0
 40
0.070200576703423
 40
1.0
 40
1.0
 40
1.0
 40
1.0
 10
403.2319827938693
 20
511.6159485498206
 30
0.0
 10
403.2324289101368
 20
511.5529298549766
 30
0.0
 10
403.2387837905171
 20
510.6552350239169
 30
0.0
 10
403.4666732724128
 20
509.7755376679437
 30
0.0
 10
403.6785647812546
 20
508.9575955736845
 30
0.0
  0
LINE
  5
F4
330
1F
100
AcDbEntity
  8
0
  6
SLD-Solid
 62
     7
370
    15
100
AcDbLine
 10
403.6785647813
 20
514.274301526
 30
0.0
 11
403.2319827939
 21
511.6159485498
 31
0.0
  0
LINE
  5
F5
330
1F
100
AcDbEntity
  8
0
  6
SLD-Solid
 62
     7
370
    15
100
AcDbLine
 10
407.9854008065
 20
514.274301526
 30
0.0
 11
403.6785647813
 21
514.274301526
 31
0.0
  0
SPLINE
  5
F6
330
1F
100
AcDbEntity
  8
0
  6
SLD-Solid
 62
     7
370
    15
100
AcDbSpline
210
0.0
220
0.0
230
1.0
 70
     8
 71
     3
 72
     9
 73
     5
 74
     0
 42
0.00000001
 43
0.00000001
 40
0.0
 40
0.0
 40
0.0
 40
0.0
 40
0.2686336050555887
 40
1.0
 40
1.0
 40
1.0
 40
1.0
 10
403.2319827938693
 20
506.6538065519903
 30
0.0
 10
403.2386117464538
 20
506.8632854383171
 30
0.0
 10
403.2632883038902
 20
507.6430794863603
 30
0.0
 10
403.5031430674903
 20
508.4023157122466
 30
0.0
 10
403.6785647812546
 20
508.9575955736845
 30
0.0
  0
LINE
  5
F7
330
1F
100
AcDbEntity
  8
0
  6
SLD-Solid
 62
     7
370
    15
100
AcDbLine
 10
403.2319827939
 20
506.653806552
 30
0.0
 11
403.2319827939
 21
511.6159485498
 31
0.0
  0
SPLINE
  5
F8
330
1F
100
AcDbEntity
  8
0
  6
SLD-Solid
 62
     7
370
    15
100
AcDbSpline
210
0.0
220
0.0
230
1.0
 70
     8
 71
     3
 72
     9
 73
     5
 74
     0
 42
0.00000001
 43
0.00000001
 40
0.0
 40
0.0
 40
0.0
 40
0.0
 40
0.2686336050555897
 40
1.0
 40
1.0
 40
1.0
 40
1.0
 10
408.4319827938693
 20
506.6538065519903
 30
0.0
 10
408.4253538412848
 20
506.8632854383171
 30
0.0
 10
408.4006772838485
 20
507.6430794863604
 30
0.0
 10
408.1608225202484
 20
508.4023157122467
 30
0.0
 10
407.9854008064842
 20
508.9575955736845
 30
0.0
  0
LINE
  5
F9
330
1F
100
AcDbEntity
  8
0
  6
SLD-Solid
 62
     7
370
    15
100
AcDbLine
 10
408.2108997961
 20
505.1741055872
 30
0.0
 11
408.4319827939
 21
506.653806552
 31
0.0
  0
LINE
  5
FA
330
1F
100
AcDbEntity
  8
0
  6
SLD-Solid
 62
     7
370
    15
100
AcDbLine
 10
404.0319827939
 20
504.3500175303
 30
0.0
 11
403.6785647813
 21
504.3500175303
 31
0.0
  0
SPLINE
  5
FB
330
1F
100
AcDbEntity
  8
0
  6
SLD-Solid
 62
     7
370
    15
100
AcDbSpline
210
0.0
220
0.0
230
1.0
 70
     8
 71
     3
 72
     9
 73
     5
 74
     0
 42
0.00000001
 43
0.00000001
 40
0.0
 40
0.0
 40
0.0
 40
0.0
 40
0.2575513451038582
 40
1.0
 40
1.0
 40
1.0
 40
1.0
 10
403.6785647812546
 20
504.3500175302962
 30
0.0
 10
403.6111495584797
 20
504.5434246213336
 30
0.0
 10
403.3493950615359
 20
505.2943703830788
 30
0.0
 10
403.2820115737431
 20
506.0745576012741
 30
0.0
 10
403.2319827938693
 20
506.6538065519903
 30
0.0
  0
SPLINE
  5
FC
330
1F
100
AcDbEntity
  8
0
  6
SLD-Solid
 62
     7
370
    15
100
AcDbSpline
210
0.0
220
0.0
230
1.0
 70
     8
 71
     3
 72
     9
 73
     5
 74
     0
 42
0.00000001
 43
0.00000001
 40
0.0
 40
0.0
 40
0.0
 40
0.0
 40
0.0702005767034109
 40
1.0
 40
1.0
 40
1.0
 40
1.0
 10
403.2319827938693
 20
514.6288654803989
 30
0.0
 10
403.2324289101369
 20
514.6204602167456
 30
0.0
 10
403.2387837905179
 20
514.5007280998901
 30
0.0
 10
403.4666732724131
 20
514.3833964377495
 30
0.0
 10
403.6785647812546
 20
514.2743015259567
 30
0.0
  0
LINE
  5
FD
330
1F
100
AcDbEntity
  8
0
  6
SLD-Solid
 62
     7
370
    15
100
AcDbLine
 10
403.2319827939
 20
511.6159485498
 30
0.0
 11
403.2319827939
 21
514.6288654804
 31
0.0
  0
SPLINE
  5
FE
330
1F
100
AcDbEntity
  8
0
  6
SLD-Solid
 62
     7
370
    15
100
AcDbSpline
210
0.0
220
0.0
230
1.0
 70
     8
 71
     3
 72
     9
 73
     5
 74
     0
 42
0.00000001
 43
0.00000001
 40
0.0
 40
0.0
 40
0.0
 40
0.0
 40
0.0702005767034111
 40
1.0
 40
1.0
 40
1.0
 40
1.0
 10
408.4319827938693
 20
514.6288654803989
 30
0.0
 10
408.4315366776019
 20
514.6204602167456
 30
0.0
 10
408.425181797221
 20
514.5007280998904
 30
0.0
 10
408.1972923153256
 20
514.3833964377496
 30
0.0
 10
407.9854008064842
 20
514.2743015259567
 30
0.0
  0
LINE
  5
FF
330
1F
100
AcDbEntity
  8
0
  6
SLD-Solid
 62
     7
370
    15
100
AcDbLine
 10
403.6785647813
 20
504.3500175303
 30
0.0
 11
403.2319827939
 21
504.7045814847
 31
0.0
  0
LINE
  5
100
330
1F
100
AcDbEntity
  8
0
  6
SLD-Solid
 62
     7
370
    15
100
AcDbLine
 10
403.2319827939
 20
506.653806552
 30
0.0
 11
403.2319827939
 21
504.6668741889
 31
0.0
  0
LINE
  5
101
330
1F
100
AcDbEntity
  8
0
  6
SLD-Solid
 62
     7
370
    15
100
AcDbLine
 10
407.9854008065
 20
514.9834294348
 30
0.0
 11
408.4319827939
 21
514.6288654804
 31
0.0
  0
LINE
  5
102
330
1F
100
AcDbEntity
  8
0
  6
SLD-Solid
 62
     7
370
    15
100
AcDbLine
 10
403.6785647813
 20
514.9834294348
 30
0.0
 11
403.2319827939
 21
514.6288654804
 31
0.0
  0
LINE
  5
103
330
1F
100
AcDbEntity
  8
0
  6
SLD-Solid
 62
     7
370
    15
100
AcDbLine
 10
407.9854008065
 20
514.9834294348
 30
0.0
 11
403.6785647813
 21
514.9834294348
 31
0.0
  0
LINE
  5
104
330
1F
100
AcDbEntity
  8
0
  6
SLD-Solid
 62
     7
370
    15
100
AcDbLine
 10
415.5854008065
 20
515.1680417907
 30
0.0
 11
416.0319827939
 21
513.0341572298
 31
0.0
  0
SPLINE
  5
105
330
1F
100
AcDbEntity
  8
0
  6
SLD-Solid
 62
     7
370
    15
100
AcDbSpline
210
0.0
220
0.0
230
1.0
 70
     8
 71
     3
 72
     9
 73
     5
 74
     0
 42
0.00000001
 43
0.00000001
 40
0.0
 40
0.0
 40
0.0
 40
0.0
 40
0.0702005767034362
 40
1.0
 40
1.0
 40
1.0
 40
1.0
 10
416.0319827938693
 20
513.0341572298385
 30
0.0
 10
416.0315366776017
 20
512.9835715396827
 30
0.0
 10
416.0251817972207
 20
512.2629835825553
 30
0.0
 10
415.7972923153256
 20
511.5568423654078
 30
0.0
 10
415.5854008064841
 20
510.9002726689381
 30
0.0
  0
LINE
  5
106
330
1F
100
AcDbEntity
  8
0
  6
SLD-Solid
 62
     7
370
    15
100
AcDbLine
 10
415.5854008065
 20
510.9002726689
 30
0.0
 11
411.2785647813
 21
510.9002726689
 31
0.0
  0
SPLINE
  5
107
330
1F
100
AcDbEntity
  8
0
  6
SLD-Solid
 62
     7
370
    15
100
AcDbSpline
210
0.0
220
0.0
230
1.0
 70
     8
 71
     3
 72
     9
 73
     5
 74
     0
 42
0.00000001
 43
0.00000001
 40
0.0
 40
0.0
 40
0.0
 40
0.0
 40
0.070200576703436
 40
1.0
 40
1.0
 40
1.0
 40
1.0
 10
410.8319827938693
 20
513.0341572298385
 30
0.0
 10
410.8324289101369
 20
512.9835715396827
 30
0.0
 10
410.8387837905171
 20
512.2629835825552
 30
0.0
 10
411.0666732724127
 20
511.5568423654078
 30
0.0
 10
411.2785647812546
 20
510.900272668938
 30
0.0
  0
LINE
  5
108
330
1F
100
AcDbEntity
  8
0
  6
SLD-Solid
 62
     7
370
    15
100
AcDbLine
 10
410.8962270229
 20
513.3411328185
 30
0.0
 11
410.8319827939
 21
513.0341572298
 31
0.0
  0
LINE
  5
109
330
1F
100
AcDbEntity
  8
0
  6
SLD-Solid
 62
     7
370
    15
100
AcDbLine
 10
415.5854008065
 20
515.1680417907
 30
0.0
 11
415.2319827939
 21
515.1680417907
 31
0.0
  0
SPLINE
  5
10A
330
1F
100
AcDbEntity
  8
0
  6
SLD-Solid
 62
     7
370
    15
100
AcDbSpline
210
0.0
220
0.0
230
1.0
 70
     8
 71
     3
 72
     9
 73
     5
 74
     0
 42
0.00000001
 43
0.00000001
 40
0.0
 40
0.0
 40
0.0
 40
0.0
 40
0.2686336050555958
 40
1.0
 40
1.0
 40
1.0
 40
1.0
 10
410.8319827938693
 20
508.1496135148529
 30
0.0
 10
410.8386117464538
 20
508.3997254004623
 30
0.0
 10
410.86328830389
 20
509.3307775134608
 30
0.0
 10
411.1031430674901
 20
510.2372841662757
 30
0.0
 10
411.2785647812546
 20
510.900272668938
 30
0.0
  0
SPLINE
  5
10B
330
1F
100
AcDbEntity
  8
0
  6
SLD-Solid
 62
     7
370
    15
100
AcDbSpline
210
0.0
220
0.0
230
1.0
 70
     8
 71
     3
 72
     9
 73
     5
 74
     0
 42
0.00000001
 43
0.00000001
 40
0.0
 40
0.0
 40
0.0
 40
0.0
 40
0.2686336050555967
 40
1.0
 40
1.0
 40
1.0
 40
1.0
 10
416.0319827938693
 20
508.1496135148529
 30
0.0
 10
416.0253538412849
 20
508.3997254004623
 30
0.0
 10
416.0006772838486
 20
509.3307775134608
 30
0.0
 10
415.7608225202486
 20
510.2372841662757
 30
0.0
 10
415.5854008064841
 20
510.900272668938
 30
0.0
  0
LINE
  5
10C
330
1F
100
AcDbEntity
  8
0
  6
SLD-Solid
 62
     7
370
    15
100
AcDbLine
 10
416.0319827939
 20
508.1496135149
 30
0.0
 11
416.0319827939
 21
513.0341572298
 31
0.0
  0
SPLINE
  5
10D
330
1F
100
AcDbEntity
  8
0
  6
SLD-Solid
 62
     7
370
    15
100
AcDbSpline
210
0.0
220
0.0
230
1.0
 70
     8
 71
     3
 72
     9
 73
     5
 74
     0
 42
0.00000001
 43
0.00000001
 40
0.0
 40
0.0
 40
0.0
 40
0.0
 40
0.2575513451038488
 40
1.0
 40
1.0
 40
1.0
 40
1.0
 10
415.5854008064841
 20
505.3989543607678
 30
0.0
 10
415.652816029259
 20
505.6298769758238
 30
0.0
 10
415.914570526203
 20
506.5264850481406
 30
0.0
 10
415.9819540139956
 20
507.4580065952183
 30
0.0
 10
416.0319827938692
 20
508.1496135148529
 30
0.0
  0
LINE
  5
10E
330
1F
100
AcDbEntity
  8
0
  6
SLD-Solid
 62
     7
370
    15
100
AcDbLine
 10
415.5854008065
 20
505.3989543608
 30
0.0
 11
411.2785647813
 21
505.3989543608
 31
0.0
  0
SPLINE
  5
10F
330
1F
100
AcDbEntity
  8
0
  6
SLD-Solid
 62
     7
370
    15
100
AcDbSpline
210
0.0
220
0.0
230
1.0
 70
     8
 71
     3
 72
     9
 73
     5
 74
     0
 42
0.00000001
 43
0.00000001
 40
0.0
 40
0.0
 40
0.0
 40
0.0
 40
0.2575513451038523
 40
1.0
 40
1.0
 40
1.0
 40
1.0
 10
411.2785647812546
 20
505.3989543607678
 30
0.0
 10
411.2111495584797
 20
505.6298769758238
 30
0.0
 10
410.9493950615359
 20
506.5264850481406
 30
0.0
 10
410.8820115737432
 20
507.4580065952183
 30
0.0
 10
410.8319827938693
 20
508.1496135148529
 30
0.0
  0
LINE
  5
110
330
1F
100
AcDbEntity
  8
0
  6
SLD-Solid
 62
     7
370
    15
100
AcDbLine
 10
415.5854008065
 20
505.3989543608
 30
0.0
 11
416.0319827939
 21
504.7821797676
 31
0.0
  0
LINE
  5
111
330
1F
100
AcDbEntity
  8
0
  6
SLD-Solid
 62
     7
370
    15
100
AcDbLine
 10
416.0319827939
 20
508.1496135149
 30
0.0
 11
416.0319827939
 21
504.7821797676
 31
0.0
  0
LINE
  5
112
330
1F
100
AcDbEntity
  8
0
  6
SLD-Solid
 62
     7
370
    15
100
AcDbLine
 10
411.2785647813
 20
505.3989543608
 30
0.0
 11
410.8319827939
 21
504.7821797676
 31
0.0
  0
LINE
  5
113
330
1F
100
AcDbEntity
  8
0
  6
SLD-Solid
 62
     7
370
    15
100
AcDbLine
 10
415.8828627126
 20
514.784332265
 30
0.0
 11
415.5854008065
 21
515.1680417907
 31
0.0
  0
LINE
  5
114
330
1F
100
AcDbEntity
  8
0
  6
SLD-Solid
 62
     7
370
    15
100
AcDbLine
 10
416.0319827939
 20
514.6667234826
 30
0.0
 11
416.0319827939
 21
513.0341572298
 31
0.0
  0
SPLINE
  5
115
330
1F
100
AcDbEntity
  8
0
  6
SLD-Solid
 62
     7
370
    15
100
AcDbSpline
210
0.0
220
0.0
230
1.0
 70
     8
 71
     3
 72
     9
 73
     5
 74
     0
 42
0.00000001
 43
0.00000001
 40
0.0
 40
0.0
 40
0.0
 40
0.0
 40
0.0702005767034657
 40
1.0
 40
1.0
 40
1.0
 40
1.0
 10
416.0319827938693
 20
504.7821797675829
 30
0.0
 10
416.0315366776017
 20
504.7675585603075
 30
0.0
 10
416.0251817972217
 20
504.559280965421
 30
0.0
 10
415.797292315326
 20
504.3551790332368
 30
0.0
 10
415.5854008064841
 20
504.1654051743982
 30
0.0
  0
LINE
  5
116
330
1F
100
AcDbEntity
  8
0
  6
SLD-Solid
 62
     7
370
    15
100
AcDbLine
 10
415.5854008065
 20
504.1654051744
 30
0.0
 11
411.2785647813
 21
504.1654051744
 31
0.0
  0
LINE
  5
117
330
1F
100
AcDbEntity
  8
0
  6
SLD-Solid
 62
     7
370
    15
100
AcDbLine
 10
410.9811028751
 20
504.5491147001
 30
0.0
 11
411.2785647813
 21
504.1654051744
 31
0.0
  0
LINE
  5
118
330
1F
100
AcDbEntity
  8
0
  6
SLD-Solid
 62
     7
370
    15
100
AcDbLine
 10
416.0319827939
 20
504.7821797676
 30
0.0
 11
416.0319827939
 21
504.6667234826
 31
0.0
  0
ARC
  5
119
330
1F
100
AcDbEntity
  8
0
  6
SLD-Solid
 62
     7
370
    15
100
AcDbCircle
 10
531.5319827939
 20
1162.0667234826
 30
0.0
 40
5.000000000000114
100
AcDbArc
 50
90.0
 51
180.0
  0
LINE
  5
11A
330
1F
100
AcDbEntity
  8
0
  6
SLD-Solid
 62
     7
370
    15
100
AcDbLine
 10
1036.5319827939
 20
1167.0667234826
 30
0.0
 11
531.5319827939
 21
1167.0667234826
 31
0.0
  0
ARC
  5
11B
330
1F
100
AcDbEntity
  8
0
  6
SLD-Solid
 62
     7
370
    15
100
AcDbCircle
 10
1036.5319827939
 20
1162.0667234826
 30
0.0
 40
5.0
100
AcDbArc
 50
0.0
 51
90.0
  0
LINE
  5
11C
330
1F
100
AcDbEntity
  8
0
  6
SLD-Solid
 62
     7
370
    15
100
AcDbLine
 10
1041.5319827939
 20
1143.3167234826
 30
0.0
 11
1041.5319827939
 21
1162.0667234826
 31
0.0
  0
LINE
  5
11D
330
1F
100
AcDbEntity
  8
0
  6
SLD-Solid
 62
     7
370
    15
100
AcDbLine
 10
526.5319827939
 20
1162.0667234826
 30
0.0
 11
526.5319827939
 21
1143.3167234826
 31
0.0
  0
LINE
  5
11E
330
1F
100
AcDbEntity
  8
0
  6
SLD-Solid
 62
     7
370
    15
100
AcDbLine
 10
526.5319827939
 20
1141.3167234826
 30
0.0
 11
526.5319827939
 21
1143.3167234826
 31
0.0
  0
LINE
  5
11F
330
1F
100
AcDbEntity
  8
0
  6
SLD-Solid
 62
     7
370
    15
100
AcDbLine
 10
1041.5319827939
 20
1143.3167234826
 30
0.0
 11
1041.5319827939
 21
1141.3167234826
 31
0.0
  0
LINE
  5
120
330
1F
100
AcDbEntity
  8
0
  6
SLD-Solid
 62
     7
370
    15
100
AcDbLine
 10
1064.0319827939
 20
1179.0667234826
 30
0.0
 11
1063.5945394762
 21
1174.0667234826
 31
0.0
  0
LINE
  5
121
330
1F
100
AcDbEntity
  8
0
  6
SLD-Solid
 62
     7
370
    15
100
AcDbLine
 10
1063.5945394762
 20
1174.0667234826
 30
0.0
 11
504.4694261115
 21
1174.0667234826
 31
0.0
  0
LINE
  5
122
330
1F
100
AcDbEntity
  8
0
  6
SLD-Solid
 62
     7
370
    15
100
AcDbLine
 10
504.0319827939
 20
1179.0667234826
 30
0.0
 11
1064.0319827939
 21
1179.0667234826
 31
0.0
  0
LINE
  5
123
330
1F
100
AcDbEntity
  8
0
  6
SLD-Solid
 62
     7
370
    15
100
AcDbLine
 10
504.0319827939
 20
1179.0667234826
 30
0.0
 11
504.4694261115
 21
1174.0667234826
 31
0.0
  0
ARC
  5
124
330
1F
100
AcDbEntity
  8
0
  6
SLD-Solid
 62
     7
370
    15
100
AcDbCircle
 10
505.1993204458
 20
1172.0667234826
 30
0.0
 40
2.00000000000002
100
AcDbArc
 50
5.0
 51
90.0
  0
ARC
  5
125
330
1F
100
AcDbEntity
  8
0
  6
SLD-Solid
 62
     7
370
    15
100
AcDbCircle
 10
1062.8646451419
 20
1172.0667234826
 30
0.0
 40
2.0
100
AcDbArc
 50
90.0
 51
175.0
  0
LINE
  5
126
330
1F
100
AcDbEntity
  8
0
  6
SLD-Solid
 62
     7
370
    15
100
AcDbLine
 10
507.191709842
 20
1172.2410349681
 30
0.0
 11
508.3443127468
 21
1159.0667234826
 31
0.0
  0
LINE
  5
127
330
1F
100
AcDbEntity
  8
0
  6
SLD-Solid
 62
     7
370
    15
100
AcDbLine
 10
1045.9819827939
 20
1159.0667234826
 30
0.0
 11
1043.0319827939
 21
1159.0667234826
 31
0.0
  0
LINE
  5
128
330
1F
100
AcDbEntity
  8
0
  6
SLD-Solid
 62
     7
370
    15
100
AcDbLine
 10
525.0357826605
 20
1159.0667234826
 30
0.0
 11
522.4819827939
 21
1159.0667234826
 31
0.0
  0
LINE
  5
129
330
1F
100
AcDbEntity
  8
0
  6
SLD-Solid
 62
     7
370
    15
100
AcDbLine
 10
1060.8722557457
 20
1172.2410349681
 30
0.0
 11
1059.719652841
 21
1159.0667234826
 31
0.0
  0
SPLINE
  5
12A
330
1F
100
AcDbEntity
  8
0
  6
SLD-Solid
 62
     7
370
    15
100
AcDbSpline
210
0.0
220
0.0
230
1.0
 70
    24
 71
     3
 72
    10
 73
     6
 74
     0
 42
0.00000001
 43
0.00000001
 40
0.0
 40
0.0
 40
0.0
 40
0.0
 40
0.35178249516371
 40
0.7458209402967553
 40
1.0
 40
1.0
 40
1.0
 40
1.0
 10
526.5319827938719
 20
1159.066723482573
 30
0.0
 10
526.3909240777215
 20
1159.066723482573
 30
0.0
 10
526.0918627379373
 20
1159.066723482573
 30
0.0
 10
525.5457550011762
 20
1159.066723482573
 30
0.0
 10
525.1794271457701
 20
1159.066723482573
 30
0.0
 10
525.0357826604921
 20
1159.066723482573
 30
0.0
  0
LINE
  5
12B
330
1F
100
AcDbEntity
  8
0
  6
SLD-Solid
 62
     7
370
    15
100
AcDbLine
 10
1043.0319827939
 20
1159.0667234826
 30
0.0
 11
1041.5319827939
 21
1159.0667234826
 31
0.0
  0
LINE
  5
12C
330
1F
100
AcDbEntity
  8
0
  6
SLD-Solid
 62
     7
370
    15
100
AcDbLine
 10
526.3133301358
 20
1157.5295993769
 30
0.0
 11
526.3133301358
 21
1141.3667234826
 31
0.0
  0
LINE
  5
12D
330
1F
100
AcDbEntity
  8
0
  6
SLD-Solid
 62
     7
370
    15
100
AcDbLine
 10
526.5319827939
 20
1157.5295993769
 30
0.0
 11
526.3133301358
 21
1157.5295993769
 31
0.0
  0
LINE
  5
12E
330
1F
100
AcDbEntity
  8
0
  6
SLD-Solid
 62
     7
370
    15
100
AcDbLine
 10
1041.5319827939
 20
1158.5489597872
 30
0.0
 11
1042.0497464892
 21
1159.0667234826
 31
0.0
  0
LINE
  5
12F
330
1F
100
AcDbEntity
  8
0
  6
SLD-Solid
 62
     7
370
    15
100
AcDbLine
 10
1041.5319827939
 20
1156.8519035124
 30
0.0
 11
1043.3806862406
 21
1158.7006069591
 31
0.0
  0
LINE
  5
130
330
1F
100
AcDbEntity
  8
0
  6
SLD-Solid
 62
     7
370
    15
100
AcDbLine
 10
1059.8246392372
 20
1160.2667234826
 30
0.0
 11
1061.5319827939
 21
1160.2667234826
 31
0.0
  0
ARC
  5
131
330
1F
100
AcDbEntity
  8
0
  6
SLD-Solid
 62
     7
370
    15
100
AcDbCircle
 10
1044.264569717
 20
1157.8167234826
 30
0.0
 40
1.249999999999889
100
AcDbArc
 50
90.0
 51
135.0
  0
LINE
  5
132
330
1F
100
AcDbEntity
  8
0
  6
SLD-Solid
 62
     7
370
    15
100
AcDbLine
 10
1063.5319827939
 20
1159.0667234826
 30
0.0
 11
1063.5319827939
 21
1160.2667234826
 31
0.0
  0
LINE
  5
133
330
1F
100
AcDbEntity
  8
0
  6
SLD-Solid
 62
     7
370
    15
100
AcDbLine
 10
1061.5319827939
 20
1160.2667234826
 30
0.0
 11
1063.5319827939
 21
1160.2667234826
 31
0.0
  0
LINE
  5
134
330
1F
100
AcDbEntity
  8
0
  6
SLD-Solid
 62
     7
370
    15
100
AcDbLine
 10
524.8140378881
 20
1159.0295993769
 30
0.0
 11
524.8140378881
 21
1159.0667234826
 31
0.0
  0
LINE
  5
135
330
1F
100
AcDbEntity
  8
0
  6
SLD-Solid
 62
     7
370
    15
100
AcDbLine
 10
522.8703519921
 20
1159.0295993769
 30
0.0
 11
524.8140378881
 21
1159.0295993769
 31
0.0
  0
LINE
  5
136
330
1F
100
AcDbEntity
  8
0
  6
SLD-Solid
 62
     7
370
    15
100
AcDbLine
 10
506.3140378881
 20
1159.0667234826
 30
0.0
 11
506.3140378881
 21
1160.2295993769
 31
0.0
  0
LINE
  5
137
330
1F
100
AcDbEntity
  8
0
  6
SLD-Solid
 62
     7
370
    15
100
AcDbLine
 10
506.3140378881
 20
1160.2295993769
 30
0.0
 11
508.2425742889
 21
1160.2295993769
 31
0.0
  0
LINE
  5
138
330
1F
100
AcDbEntity
  8
0
  6
SLD-Solid
 62
     7
370
    15
100
AcDbLine
 10
526.3133301358
 20
1157.7795993769
 30
0.0
 11
526.3133301358
 21
1157.5295993769
 31
0.0
  0
ARC
  5
139
330
1F
100
AcDbEntity
  8
0
  6
SLD-Solid
 62
     7
370
    15
100
AcDbCircle
 10
525.0633301358
 20
1157.7795993769
 30
0.0
 40
1.249999999999886
100
AcDbArc
 50
0.0
 51
90.0
  0
LINE
  5
13A
330
1F
100
AcDbEntity
  8
0
  6
SLD-Solid
 62
     7
370
    15
100
AcDbLine
 10
524.8140378881
 20
1159.0295993769
 30
0.0
 11
525.0633301358
 21
1159.0295993769
 31
0.0
  0
LINE
  5
13B
330
1F
100
AcDbEntity
  8
0
  6
SLD-Solid
 62
     7
370
    15
100
AcDbLine
 10
1176.3381473133
 20
1114.8463111855
 30
0.0
 11
1174.8547972357
 21
1119.411593299
 31
0.0
  0
LINE
  5
13C
330
1F
100
AcDbEntity
  8
0
  6
SLD-Solid
 62
     7
370
    15
100
AcDbLine
 10
1192.4687659151
 20
1065.2013718702
 30
0.0
 11
1190.9854158375
 21
1069.7666539838
 31
0.0
  0
SPLINE
  5
13D
330
1F
100
AcDbEntity
  8
0
  6
SLD-Solid
 62
     7
370
    15
100
AcDbSpline
210
0.0
220
0.0
230
1.0
 70
     8
 71
     3
 72
    16
 73
    12
 74
     0
 42
0.00000001
 43
0.00000001
 40
0.0
 40
0.0
 40
0.0
 40
0.0
 40
0.0000597702847775
 40
0.1251210323923237
 40
0.2500906799919199
 40
0.3750581956784675
 40
0.500023989729507
 40
0.6249879290177804
 40
0.749951689682877
 40
0.8749147384303029
 40
1.0
 40
1.0
 40
1.0
 40
1.0
 10
1166.602825927339
 20
1119.959886058907
 30
0.0
 10
1166.602795797155
 20
1119.959890216017
 30
0.0
 10
1166.539722319385
 20
1119.96859256436
 30
0.0
 10
1166.76146948943
 20
1119.937298492199
 30
0.0
 10
1167.277040452684
 20
1119.869325834807
 30
0.0
 10
1168.114802810409
 20
1119.775813797401
 30
0.0
 10
1169.089773714157
 20
1119.694721979478
 30
0.0
 10
1170.072022820371
 20
1119.643784713164
 30
0.0
 10
1170.898780614455
 20
1119.625422042093
 30
0.0
 10
1171.477820515606
 20
1119.626779575154
 30
0.0
 10
1171.553703060881
 20
1119.627867062485
 30
0.0
 10
1171.591662877575
 20
1119.628411071909
 30
0.0
  0
LINE
  5
13E
330
1F
100
AcDbEntity
  8
0
  6
SLD-Solid
 62
     7
370
    15
100
AcDbLine
 10
1184.1942687296
 20
1058.3069758613
 30
0.0
 11
1164.1081640953
 21
1120.1256494205
 31
0.0
  0
LINE
  5
13F
330
1F
100
AcDbEntity
  8
0
  6
SLD-Solid
 62
     7
370
    15
100
AcDbLine
 10
1176.9050016178
 20
1113.1017130246
 30
0.0
 11
1190.4185615331
 21
1071.5112521447
 31
0.0
  0
SPLINE
  5
140
330
1F
100
AcDbEntity
  8
0
  6
SLD-Solid
 62
     7
370
    15
100
AcDbSpline
210
0.0
220
0.0
230
1.0
 70
     8
 71
     3
 72
    12
 73
     8
 74
     0
 42
0.00000001
 43
0.00000001
 40
0.0
 40
0.0
 40
0.0
 40
0.0
 40
0.0304717459515483
 40
0.0888135668588677
 40
0.3925556175489379
 40
0.6962774394175113
 40
1.0
 40
1.0
 40
1.0
 40
1.0
 10
1177.076466914157
 20
1114.051942590261
 30
0.0
 10
1177.073423130875
 20
1114.062102046338
 30
0.0
 10
1177.064551658578
 20
1114.091713002435
 30
0.0
 10
1177.018211540647
 20
1114.221801758365
 30
0.0
 10
1176.897549564331
 20
1114.434907051612
 30
0.0
 10
1176.655875395391
 20
1114.681520409693
 30
0.0
 10
1176.458054500242
 20
1114.77647171366
 30
0.0
 10
1176.359143932382
 20
1114.823947423379
 30
0.0
  0
SPLINE
  5
141
330
1F
100
AcDbEntity
  8
0
  6
SLD-Solid
 62
     7
370
    15
100
AcDbSpline
210
0.0
220
0.0
230
1.0
 70
     8
 71
     3
 72
    11
 73
     7
 74
     0
 42
0.00000001
 43
0.00000001
 40
0.0
 40
0.0
 40
0.0
 40
0.0
 40
0.3704320937843664
 40
0.744249846928671
 40
0.9442480537653943
 40
1.0
 40
1.0
 40
1.0
 40
1.0
 10
1176.338147313279
 20
1114.846311185465
 30
0.0
 10
1176.339286118833
 20
1114.843363363807
 30
0.0
 10
1176.341574138347
 20
1114.837440778118
 30
0.0
 10
1176.347970395085
 20
1114.82990319496
 30
0.0
 10
1176.355021223087
 20
1114.825596921921
 30
0.0
 10
1176.35840605913
 20
1114.824242646924
 30
0.0
 10
1176.359143932382
 20
1114.823947423379
 30
0.0
  0
SPLINE
  5
142
330
1F
100
AcDbEntity
  8
0
  6
SLD-Solid
 62
     7
370
    15
100
AcDbSpline
210
0.0
220
0.0
230
1.0
 70
     8
 71
     3
 72
    12
 73
     8
 74
     0
 42
0.00000001
 43
0.00000001
 40
0.0
 40
0.0
 40
0.0
 40
0.0
 40
0.0304717459462413
 40
0.0888135668589258
 40
0.3925556175487455
 40
0.6962774394173307
 40
1.0
 40
1.0
 40
1.0
 40
1.0
 10
1191.115810796784
 20
1070.843285049959
 30
0.0
 10
1191.119319902835
 20
1070.833276786416
 30
0.0
 10
1191.129547614284
 20
1070.804106499132
 30
0.0
 10
1191.168521923571
 20
1070.671624446899
 30
0.0
 10
1191.196164482723
 20
1070.428295312877
 30
0.0
 10
1191.145601667843
 20
1070.086728402787
 30
0.0
 10
1191.041372177984
 20
1069.893634979476
 30
0.0
 10
1190.989257369677
 20
1069.797088150409
 30
0.0
  0
SPLINE
  5
143
330
1F
100
AcDbEntity
  8
0
  6
SLD-Solid
 62
     7
370
    15
100
AcDbSpline
210
0.0
220
0.0
230
1.0
 70
     8
 71
     3
 72
    10
 73
     6
 74
     0
 42
0.00000001
 43
0.00000001
 40
0.0
 40
0.0
 40
0.0
 40
0.0
 40
0.2117958997102556
 40
0.488006909467781
 40
1.0
 40
1.0
 40
1.0
 40
1.0
 10
1190.989257369677
 20
1069.797088150409
 30
0.0
 10
1190.987816728215
 20
1069.794504241628
 30
0.0
 10
1190.984497291962
 20
1069.788550560087
 30
0.0
 10
1190.982735462698
 20
1069.777516468457
 30
0.0
 10
1190.984360356563
 20
1069.770931425025
 30
0.0
 10
1190.985415837538
 20
1069.766653983766
 30
0.0
  0
SPLINE
  5
144
330
1F
100
AcDbEntity
  8
0
  6
SLD-Solid
 62
     7
370
    15
100
AcDbSpline
210
0.0
220
0.0
230
1.0
 70
     8
 71
     3
 72
    12
 73
     8
 74
     0
 42
0.00000001
 43
0.00000001
 40
0.0
 40
0.0
 40
0.0
 40
0.0
 40
0.2238925571853281
 40
0.4477848984199893
 40
0.6716824862032127
 40
0.8955821585469466
 40
1.0
 40
1.0
 40
1.0
 40
1.0
 10
1175.58420998225
 20
1119.330852989436
 30
0.0
 10
1175.556509056781
 20
1119.333916222153
 30
0.0
 10
1175.501107232561
 20
1119.340042684634
 30
0.0
 10
1175.429608618918
 20
1119.348213666605
 30
0.0
 10
1175.377566619464
 20
1119.354272461441
 30
0.0
 10
1175.35439373465
 20
1119.357022838107
 30
0.0
 10
1175.352460823809
 20
1119.357270297506
 30
0.0
 10
1175.351846082379
 20
1119.357348999296
 30
0.0
  0
LINE
  5
145
330
1F
100
AcDbEntity
  8
0
  6
SLD-Solid
 62
     7
370
    15
100
AcDbLine
 10
1175.5842099822
 20
1119.3308529894
 30
0.0
 11
1194.562070029
 21
1117.2103150195
 31
0.0
  0
LINE
  5
146
330
1F
100
AcDbEntity
  8
0
  6
SLD-Solid
 62
     7
370
    15
100
AcDbLine
 10
1194.562070029
 20
1117.2103150195
 30
0.0
 11
1196.0319246685
 21
1117.0483563983
 31
0.0
  0
LINE
  5
147
330
1F
100
AcDbEntity
  8
0
  6
SLD-Solid
 62
     7
370
    15
100
AcDbLine
 10
1197.8722388514
 20
1113.2925517206
 30
0.0
 11
1207.4935849513
 21
1083.6810932236
 31
0.0
  0
LINE
  5
148
330
1F
100
AcDbEntity
  8
0
  6
SLD-Solid
 62
     7
370
    15
100
AcDbLine
 10
1196.8753550445
 20
1116.3606446016
 30
0.0
 11
1197.8722388514
 21
1113.2925517206
 31
0.0
  0
SPLINE
  5
149
330
1F
100
AcDbEntity
  8
0
  6
SLD-Solid
 62
     7
370
    15
100
AcDbSpline
210
0.0
220
0.0
230
1.0
 70
     8
 71
     3
 72
    11
 73
     7
 74
     0
 42
0.00000001
 43
0.00000001
 40
0.0
 40
0.0
 40
0.0
 40
0.0
 40
0.2933118760926608
 40
0.5865991201421292
 40
0.8805021461505481
 40
1.0
 40
1.0
 40
1.0
 40
1.0
 10
1196.031924668531
 20
1117.04835639831
 30
0.0
 10
1196.142606953764
 20
1117.025023274956
 30
0.0
 10
1196.363962229239
 20
1116.978358987743
 30
0.0
 10
1196.641856089936
 20
1116.773762843951
 30
0.0
 10
1196.804452437842
 20
1116.551691571104
 30
0.0
 10
1196.859455758572
 20
1116.403485204136
 30
0.0
 10
1196.875355044477
 20
1116.360644601607
 30
0.0
  0
LINE
  5
14A
330
1F
100
AcDbEntity
  8
0
  6
SLD-Solid
 62
     7
370
    15
100
AcDbLine
 10
1207.4935849513
 20
1083.6810932236
 30
0.0
 11
1208.5089373498
 21
1080.5561598621
 31
0.0
  0
LINE
  5
14B
330
1F
100
AcDbEntity
  8
0
  6
SLD-Solid
 62
     7
370
    15
100
AcDbLine
 10
1171.8628321369
 20
1089.7870992975
 30
0.0
 11
1171.9845826488
 21
1089.4123897513
 31
0.0
  0
SPLINE
  5
14C
330
1F
100
AcDbEntity
  8
0
  6
SLD-Solid
 62
     7
370
    15
100
AcDbSpline
210
0.0
220
0.0
230
1.0
 70
    24
 71
     3
 72
    15
 73
    11
 74
     0
 42
0.00000001
 43
0.00000001
 40
0.0
 40
0.0
 40
0.0
 40
0.0
 40
0.0013073418575237
 40
0.0031095021670746
 40
0.0058977560422931
 40
0.010269609343242
 40
0.0184674105906507
 40
0.0491723679949132
 40
0.1105064211958324
 40
1.0
 40
1.0
 40
1.0
 40
1.0
 10
1171.862832136899
 20
1089.787099297486
 30
0.0
 10
1171.862909837291
 20
1089.787124543873
 30
0.0
 10
1171.863094647053
 20
1089.787184592205
 30
0.0
 10
1171.864926610363
 20
1089.787779833168
 30
0.0
 10
1171.868932436879
 20
1089.789081405102
 30
0.0
 10
1171.877201059698
 20
1089.791768043517
 30
0.0
 10
1171.902614434691
 20
1089.800025349599
 30
0.0
 10
1171.965186198112
 20
1089.820356147963
 30
0.0
 10
1172.585243304441
 20
1090.021824914597
 30
0.0
 10
1173.194752733679
 20
1090.219866533197
 30
0.0
 10
1173.764945169489
 20
1090.405133286235
 30
0.0
  0
LINE
  5
14D
330
1F
100
AcDbEntity
  8
0
  6
SLD-Solid
 62
     7
370
    15
100
AcDbLine
 10
1171.9845826488
 20
1089.4123897513
 30
0.0
 11
1172.4808661256
 21
1087.8849862649
 31
0.0
  0
LINE
  5
14E
330
1F
100
AcDbEntity
  8
0
  6
SLD-Solid
 62
     7
370
    15
100
AcDbLine
 10
1172.4808661256
 20
1087.8849862649
 30
0.0
 11
1172.6353746228
 21
1087.4094580067
 31
0.0
  0
LINE
  5
14F
330
1F
100
AcDbEntity
  8
0
  6
SLD-Solid
 62
     7
370
    15
100
AcDbLine
 10
1174.5482754788
 20
1087.994290489
 30
0.0
 11
1172.6353746228
 21
1087.4094580067
 31
0.0
  0
LINE
  5
150
330
1F
100
AcDbEntity
  8
0
  6
SLD-Solid
 62
     7
370
    15
100
AcDbLine
 10
1175.4679510813
 20
1085.1638200278
 30
0.0
 11
1173.5646962195
 21
1084.549300228
 31
0.0
  0
LINE
  5
151
330
1F
100
AcDbEntity
  8
0
  6
SLD-Solid
 62
     7
370
    15
100
AcDbLine
 10
1172.6353746228
 20
1087.4094580067
 30
0.0
 11
1173.5646962195
 21
1084.549300228
 31
0.0
  0
LINE
  5
152
330
1F
100
AcDbEntity
  8
0
  6
SLD-Solid
 62
     7
370
    15
100
AcDbLine
 10
1173.9107558428
 20
1083.4842382224
 30
0.0
 11
1174.0945220325
 21
1082.9186640458
 31
0.0
  0
LINE
  5
153
330
1F
100
AcDbEntity
  8
0
  6
SLD-Solid
 62
     7
370
    15
100
AcDbLine
 10
1173.5646962195
 20
1084.549300228
 30
0.0
 11
1173.9107558428
 21
1083.4842382224
 31
0.0
  0
LINE
  5
154
330
1F
100
AcDbEntity
  8
0
  6
SLD-Solid
 62
     7
370
    15
100
AcDbLine
 10
1174.0945220325
 20
1082.9186640458
 30
0.0
 11
1174.4202790167
 21
1081.9160871382
 31
0.0
  0
LINE
  5
155
330
1F
100
AcDbEntity
  8
0
  6
SLD-Solid
 62
     7
370
    15
100
AcDbLine
 10
1174.4202790167
 20
1081.9160871382
 30
0.0
 11
1174.4467734617
 21
1081.8345456211
 31
0.0
  0
SPLINE
  5
156
330
1F
100
AcDbEntity
  8
0
  6
SLD-Solid
 62
     7
370
    15
100
AcDbSpline
210
0.0
220
0.0
230
1.0
 70
     8
 71
     3
 72
    16
 73
    12
 74
     0
 42
0.00000001
 43
0.00000001
 40
0.0
 40
0.0
 40
0.0
 40
0.0
 40
0.0001752464039603
 40
0.1252144210065714
 40
0.2502435855708502
 40
0.3752580360337696
 40
0.5002621062641184
 40
0.6252646105096296
 40
0.7502654112533466
 40
0.8753601771999051
 40
0.9999999999999999
 40
0.9999999999999999
 40
0.9999999999999999
 40
0.9999999999999999
 10
1166.603662611798
 20
1119.969840047716
 30
0.0
 10
1166.603574420912
 20
1119.969852218265
 30
0.0
 10
1166.54056159739
 20
1119.97854813595
 30
0.0
 10
1166.762373819023
 20
1119.94723907214
 30
0.0
 10
1167.278366164709
 20
1119.879206114262
 30
0.0
 10
1168.116762804124
 20
1119.785635134534
 30
0.0
 10
1169.092369313138
 20
1119.704533440039
 30
0.0
 10
1170.074934260477
 20
1119.653651206011
 30
0.0
 10
1170.901667792192
 20
1119.635363078335
 30
0.0
 10
1171.47915713053
 20
1119.63676712476
 30
0.0
 10
1171.554648792756
 20
1119.637849078778
 30
0.0
 10
1171.59232586204
 20
1119.638389070285
 30
0.0
  0
LINE
  5
157
330
1F
100
AcDbEntity
  8
0
  6
SLD-Solid
 62
     7
370
    15
100
AcDbLine
 10
1171.8628321369
 20
1089.7870992975
 30
0.0
 11
1171.0130354024
 21
1092.4025047173
 31
0.0
  0
LINE
  5
158
330
1F
100
AcDbEntity
  8
0
  6
SLD-Solid
 62
     7
370
    15
100
AcDbLine
 10
1173.625887522
 20
1090.8331087186
 30
0.0
 11
1171.7237744894
 21
1090.2150747298
 31
0.0
  0
LINE
  5
159
330
1F
100
AcDbEntity
  8
0
  6
SLD-Solid
 62
     7
370
    15
100
AcDbLine
 10
1162.4469104772
 20
1090.8623623253
 30
0.0
 11
1161.9910396542
 21
1092.2653884524
 31
0.0
  0
LINE
  5
15A
330
1F
100
AcDbEntity
  8
0
  6
SLD-Solid
 62
     7
370
    15
100
AcDbLine
 10
1168.155928692
 20
1073.2918109524
 30
0.0
 11
1165.2844020824
 21
1082.1294611252
 31
0.0
  0
SPLINE
  5
15B
330
1F
100
AcDbEntity
  8
0
  6
SLD-Solid
 62
     7
370
    15
100
AcDbSpline
210
0.0
220
0.0
230
1.0
 70
    24
 71
     3
 72
    13
 73
     9
 74
     0
 42
0.00000001
 43
0.00000001
 40
0.0
 40
0.0
 40
0.0
 40
0.0
 40
0.2547419155038217
 40
0.3918739529979561
 40
0.5319161290792856
 40
0.6719583051606204
 40
0.8090903426547531
 40
1.0
 40
1.0
 40
1.0
 40
1.0
 10
1171.639964254788
 20
1077.131357956501
 30
0.0
 10
1171.609422983546
 20
1077.225354324205
 30
0.0
 10
1171.562440810757
 20
1077.36995058394
 30
0.0
 10
1171.277255456381
 20
1078.247660854146
 30
0.0
 10
1170.982244549501
 20
1079.155611065539
 30
0.0
 10
1170.615453741009
 20
1080.28447709842
 30
0.0
 10
1170.148782571885
 20
1081.720743272908
 30
0.0
 10
1169.779226239506
 20
1082.858120713131
 30
0.0
 10
1169.564156405718
 20
1083.52003759992
 30
0.0
  0
ARC
  5
15C
330
1F
100
AcDbEntity
  8
0
  6
SLD-Solid
 62
     7
370
    15
100
AcDbCircle
 10
1129.8319827939
 20
1122.0919635984
 30
0.0
 40
1.0
100
AcDbArc
 50
90.0
 51
180.0
  0
ARC
  5
15D
330
1F
100
AcDbEntity
  8
0
  6
SLD-Solid
 62
     7
370
    15
100
AcDbCircle
 10
1129.8319827939
 20
1003.4042890713
 30
0.0
 40
1.0
100
AcDbArc
 50
180.0
 51
270.0
  0
LINE
  5
15E
330
1F
100
AcDbEntity
  8
0
  6
SLD-Solid
 62
     7
370
    15
100
AcDbLine
 10
1128.8319827939
 20
1003.4042890713
 30
0.0
 11
1128.8319827939
 21
1122.0919635984
 31
0.0
  0
LINE
  5
15F
330
1F
100
AcDbEntity
  8
0
  6
SLD-Solid
 62
     7
370
    15
100
AcDbLine
 10
1128.8319827939
 20
1002.4042890713
 30
0.0
 11
1128.8319827939
 21
1001.6042890713
 31
0.0
  0
LINE
  5
160
330
1F
100
AcDbEntity
  8
0
  6
SLD-Solid
 62
     7
370
    15
100
AcDbLine
 10
1128.8319827939
 20
1001.6042890713
 30
0.0
 11
1189.4760520947
 21
1001.6042890713
 31
0.0
  0
LINE
  5
161
330
1F
100
AcDbEntity
  8
0
  6
SLD-Solid
 62
     7
370
    15
100
AcDbLine
 10
1128.8319827939
 20
1002.4042890713
 30
0.0
 11
1189.4760520947
 21
1002.4042890713
 31
0.0
  0
LINE
  5
162
330
1F
100
AcDbEntity
  8
0
  6
SLD-Solid
 62
     7
370
    15
100
AcDbLine
 10
1173.3449264217
 20
1047.6135141326
 30
0.0
 11
1149.0208094682
 21
1122.4754484369
 31
0.0
  0
LINE
  5
163
330
1F
100
AcDbEntity
  8
0
  6
SLD-Solid
 62
     7
370
    15
100
AcDbLine
 10
1172.5840812087
 20
1047.3663005371
 30
0.0
 11
1148.2599642551
 21
1122.2282348414
 31
0.0
  0
LINE
  5
164
330
1F
100
AcDbEntity
  8
0
  6
SLD-Solid
 62
     7
370
    15
100
AcDbLine
 10
1128.8319827939
 20
1123.8919635984
 30
0.0
 11
1128.8319827939
 21
1123.0919635984
 31
0.0
  0
LINE
  5
165
330
1F
100
AcDbEntity
  8
0
  6
SLD-Solid
 62
     7
370
    15
100
AcDbLine
 10
1128.8319827939
 20
1123.8919635984
 30
0.0
 11
1147.0711436097
 21
1123.8919635984
 31
0.0
  0
LINE
  5
166
330
1F
100
AcDbEntity
  8
0
  6
SLD-Solid
 62
     7
370
    15
100
AcDbLine
 10
1128.8319827939
 20
1123.0919635984
 30
0.0
 11
1147.0711436097
 21
1123.0919635984
 31
0.0
  0
ARC
  5
167
330
1F
100
AcDbEntity
  8
0
  6
SLD-Solid
 62
     7
370
    15
100
AcDbCircle
 10
1147.0711436097
 20
1121.8419635984
 30
0.0
 40
1.249999999999773
100
AcDbArc
 50
18.0
 51
90.0
  0
ARC
  5
168
330
1F
100
AcDbEntity
  8
0
  6
SLD-Solid
 62
     7
370
    15
100
AcDbCircle
 10
1147.0711436097
 20
1121.8419635984
 30
0.0
 40
2.049999999999984
100
AcDbArc
 50
18.0
 51
90.0
  0
LINE
  5
169
330
1F
100
AcDbEntity
  8
0
  6
SLD-Solid
 62
     7
370
    15
100
AcDbLine
 10
1198.8856829118
 20
1034.227393859
 30
0.0
 11
1179.4352901514
 21
1041.3067578685
 31
0.0
  0
LINE
  5
16A
330
1F
100
AcDbEntity
  8
0
  6
SLD-Solid
 62
     7
370
    15
100
AcDbLine
 10
1198.6120667971
 20
1033.4756397623
 30
0.0
 11
1179.1616740367
 21
1040.5550037719
 31
0.0
  0
ARC
  5
16B
330
1F
100
AcDbEntity
  8
0
  6
SLD-Solid
 62
     7
370
    15
100
AcDbCircle
 10
1182.8554915846
 20
1050.7036840764
 30
0.0
 40
10.79999999999981
100
AcDbArc
 50
198.0
 51
250.0
  0
ARC
  5
16C
330
1F
100
AcDbEntity
  8
0
  6
SLD-Solid
 62
     7
370
    15
100
AcDbCircle
 10
1182.8554915846
 20
1050.7036840764
 30
0.0
 40
10.00000000000002
100
AcDbArc
 50
198.0
 51
250.0
  0
ARC
  5
16D
330
1F
100
AcDbEntity
  8
0
  6
SLD-Solid
 62
     7
370
    15
100
AcDbCircle
 10
1189.4760520947
 20
1003.6542890713
 30
0.0
 40
1.250000000000015
100
AcDbArc
 50
270.0
 51
320.0
  0
ARC
  5
16E
330
1F
100
AcDbEntity
  8
0
  6
SLD-Solid
 62
     7
370
    15
100
AcDbCircle
 10
1189.4760520947
 20
1003.6542890713
 30
0.0
 40
2.04999999999998
100
AcDbArc
 50
270.0
 51
320.0
  0
LINE
  5
16F
330
1F
100
AcDbEntity
  8
0
  6
SLD-Solid
 62
     7
370
    15
100
AcDbLine
 10
1191.0464432031
 20
1002.3365744714
 30
0.0
 11
1203.4651453495
 21
1017.1366073699
 31
0.0
  0
LINE
  5
170
330
1F
100
AcDbEntity
  8
0
  6
SLD-Solid
 62
     7
370
    15
100
AcDbLine
 10
1190.4336076486
 20
1002.8508045592
 30
0.0
 11
1202.852309795
 21
1017.6508374576
 31
0.0
  0
ARC
  5
171
330
1F
100
AcDbEntity
  8
0
  6
SLD-Solid
 62
     7
370
    15
100
AcDbCircle
 10
1195.1918653639
 20
1024.0787135545
 30
0.0
 40
10.00000000000018
100
AcDbArc
 50
320.0
 51
70.0
  0
ARC
  5
172
330
1F
100
AcDbEntity
  8
0
  6
SLD-Solid
 62
     7
370
    15
100
AcDbCircle
 10
1195.1918653639
 20
1024.0787135545
 30
0.0
 40
10.80000000000014
100
AcDbArc
 50
320.0
 51
70.0
  0
LINE
  5
173
330
1F
100
AcDbEntity
  8
0
  6
SLD-Solid
 62
     7
370
    15
100
AcDbLine
 10
1148.6244416806
 20
1123.6953430513
 30
0.0
 11
1149.0208094682
 21
1122.4754484369
 31
0.0
  0
ARC
  5
174
330
1F
100
AcDbEntity
  8
0
  6
SLD-Solid
 62
     7
370
    15
100
AcDbCircle
 10
1149.813262326
 20
1124.0816142943
 30
0.0
 40
2.050000000000133
100
AcDbArc
 50
137.0554616103
 51
165.7730380165
  0
LWPOLYLINE
  5
175
330
1F
100
AcDbEntity
  8
0
  6
SLD-Solid
 62
     7
370
    15
100
AcDbPolyline
 90
        3
 70
   128
 43
0.0
 10
1147.7633164087
 20
1124.0667234826
 10
1147.7808003601
 20
1123.8140356003
 10
1147.7882611527
 20
1123.7624431046
  0
ARC
  5
176
330
1F
100
AcDbEntity
  8
0
  6
SLD-Solid
 62
     7
370
    15
100
AcDbCircle
 10
1149.813262326
 20
1124.0816142943
 30
0.0
 40
1.25000000000021
100
AcDbArc
 50
148.8833262925
 51
198.0
  0
LINE
  5
177
330
1F
100
AcDbEntity
  8
0
  6
SLD-Solid
 62
     7
370
    15
100
AcDbLine
 10
1161.7731313137
 20
1131.3310495421
 30
0.0
 11
1161.8138065268
 21
1131.2396915177
 31
0.0
  0
LINE
  5
178
330
1F
100
AcDbEntity
  8
0
  6
SLD-Solid
 62
     7
370
    15
100
AcDbLine
 10
1127.3819827939
 20
1143.9167234826
 30
0.0
 11
1127.3819827939
 21
1141.4667234826
 31
0.0
  0
LINE
  5
179
330
1F
100
AcDbEntity
  8
0
  6
SLD-Solid
 62
     7
370
    15
100
AcDbLine
 10
1127.3819827939
 20
1141.4667234826
 30
0.0
 11
1044.7419827939
 21
1141.4667234826
 31
0.0
  0
LINE
  5
17A
330
1F
100
AcDbEntity
  8
0
  6
SLD-Solid
 62
     7
370
    15
100
AcDbLine
 10
1044.7419827939
 20
1141.4667234826
 30
0.0
 11
1044.7419827939
 21
1143.9167234826
 31
0.0
  0
LINE
  5
17B
330
1F
100
AcDbEntity
  8
0
  6
SLD-Solid
 62
     7
370
    15
100
AcDbLine
 10
1044.7419827939
 20
1156.6167234826
 30
0.0
 11
1044.7419827939
 21
1143.9167234826
 31
0.0
  0
ARC
  5
17C
330
1F
100
AcDbEntity
  8
0
  6
SLD-Solid
 62
     7
370
    15
100
AcDbCircle
 10
1045.9819827939
 20
1156.6167234826
 30
0.0
 40
1.240000000000009
100
AcDbArc
 50
90.0
 51
180.0
  0
LINE
  5
17D
330
1F
100
AcDbEntity
  8
0
  6
SLD-Solid
 62
     7
370
    15
100
AcDbLine
 10
1067.7819827939
 20
1157.8567234826
 30
0.0
 11
1045.9819827939
 21
1157.8567234826
 31
0.0
  0
ARC
  5
17E
330
1F
100
AcDbEntity
  8
0
  6
SLD-Solid
 62
     7
370
    15
100
AcDbCircle
 10
1067.7819827939
 20
1160.3167234826
 30
0.0
 40
2.460000000000036
100
AcDbArc
 50
270.0
 51
0.0
  0
LINE
  5
17F
330
1F
100
AcDbEntity
  8
0
  6
SLD-Solid
 62
     7
370
    15
100
AcDbLine
 10
1070.2419827939
 20
1176.5667234826
 30
0.0
 11
1070.2419827939
 21
1160.3167234826
 31
0.0
  0
LINE
  5
180
330
1F
100
AcDbEntity
  8
0
  6
SLD-Solid
 62
     7
370
    15
100
AcDbLine
 10
1071.4819827939
 20
1176.5667234826
 30
0.0
 11
1070.2419827939
 21
1176.5667234826
 31
0.0
  0
LINE
  5
181
330
1F
100
AcDbEntity
  8
0
  6
SLD-Solid
 62
     7
370
    15
100
AcDbLine
 10
1071.4819827939
 20
1176.6167234826
 30
0.0
 11
1071.4819827939
 21
1176.5667234826
 31
0.0
  0
LINE
  5
182
330
1F
100
AcDbEntity
  8
0
  6
SLD-Solid
 62
     7
370
    15
100
AcDbLine
 10
1162.7987912923
 20
1176.5667234826
 30
0.0
 11
1162.7987912923
 21
1176.6167234826
 31
0.0
  0
LINE
  5
183
330
1F
100
AcDbEntity
  8
0
  6
SLD-Solid
 62
     7
370
    15
100
AcDbLine
 10
1163.2987912923
 20
1176.5667234826
 30
0.0
 11
1162.7987912923
 21
1176.5667234826
 31
0.0
  0
LINE
  5
184
330
1F
100
AcDbEntity
  8
0
  6
SLD-Solid
 62
     7
370
    15
100
AcDbLine
 10
1163.2987912923
 20
1177.7610409305
 30
0.0
 11
1163.2987912923
 21
1176.5667234826
 31
0.0
  0
ARC
  5
185
330
1F
100
AcDbEntity
  8
0
  6
SLD-Solid
 62
     7
370
    15
100
AcDbCircle
 10
1162.7987912923
 20
1155.7667234826
 30
0.0
 40
22.0000000000001
100
AcDbArc
 50
293.5
 51
88.6977110648
  0
LINE
  5
186
330
1F
100
AcDbEntity
  8
0
  6
SLD-Solid
 62
     7
370
    15
100
AcDbLine
 10
1148.0761362217
 20
1125.3754265763
 30
0.0
 11
1171.5712708087
 21
1135.5914018461
 31
0.0
  0
LINE
  5
187
330
1F
100
AcDbEntity
  8
0
  6
SLD-Solid
 62
     7
370
    15
100
AcDbLine
 10
1148.0761362217
 20
1125.3754265763
 30
0.0
 11
1148.0761362217
 21
1126.5167234826
 31
0.0
  0
ARC
  5
188
330
1F
100
AcDbEntity
  8
0
  6
SLD-Solid
 62
     7
370
    15
100
AcDbCircle
 10
1147.9511362217
 20
1126.5167234826
 30
0.0
 40
0.1250000000002274
100
AcDbArc
 50
0.0
 51
180.0
  0
LINE
  5
189
330
1F
100
AcDbEntity
  8
0
  6
SLD-Solid
 62
     7
370
    15
100
AcDbLine
 10
1127.6319827939
 20
1143.9667234826
 30
0.0
 11
1127.6319827939
 21
1126.5167234826
 31
0.0
  0
LINE
  5
18A
330
1F
100
AcDbEntity
  8
0
  6
SLD-Solid
 62
     7
370
    15
100
AcDbLine
 10
1127.6215471862
 20
1143.9667234826
 30
0.0
 11
1127.6319827939
 21
1143.9667234826
 31
0.0
  0
ARC
  5
18B
330
1F
100
AcDbEntity
  8
0
  6
SLD-Solid
 62
     7
370
    15
100
AcDbCircle
 10
1127.5069827939
 20
1143.9167234826
 30
0.0
 40
0.1249999999999402
100
AcDbArc
 50
23.5781784781
 51
156.4218215219
  0
LINE
  5
18C
330
1F
100
AcDbEntity
  8
0
  6
SLD-Solid
 62
     7
370
    15
100
AcDbLine
 10
1127.3819827939
 20
1143.9667234826
 30
0.0
 11
1127.3924184015
 21
1143.9667234826
 31
0.0
  0
LINE
  5
18D
330
1F
100
AcDbEntity
  8
0
  6
SLD-Solid
 62
     7
370
    15
100
AcDbLine
 10
1127.3819827939
 20
1143.9167234826
 30
0.0
 11
1127.3819827939
 21
1143.9667234826
 31
0.0
  0
ARC
  5
18E
330
1F
100
AcDbEntity
  8
0
  6
SLD-Solid
 62
     7
370
    15
100
AcDbCircle
 10
1150.7908544301
 20
1140.4595231213
 30
0.0
 40
0.2500000000001912
100
AcDbArc
 50
99.9421486627
 51
279.9421486627
  0
ARC
  5
18F
330
1F
100
AcDbEntity
  8
0
  6
SLD-Solid
 62
     7
370
    15
100
AcDbCircle
 10
1150.2987912923
 20
1143.2667234826
 30
0.0
 40
3.100000000000313
100
AcDbArc
 50
279.9421486627
 51
80.0578513373
  0
ARC
  5
190
330
1F
100
AcDbEntity
  8
0
  6
SLD-Solid
 62
     7
370
    15
100
AcDbCircle
 10
1150.7908544301
 20
1146.0739238439
 30
0.0
 40
0.2500000000001912
100
AcDbArc
 50
80.0578513373
 51
260.0578513374
  0
ARC
  5
191
330
1F
100
AcDbEntity
  8
0
  6
SLD-Solid
 62
     7
370
    15
100
AcDbCircle
 10
1150.2987912923
 20
1143.2667234826
 30
0.0
 40
2.600000000000194
100
AcDbArc
 50
279.9421486627
 51
80.0578513373
  0
ARC
  5
192
330
1F
100
AcDbEntity
  8
0
  6
SLD-Solid
 62
     7
370
    15
100
AcDbCircle
 10
1149.8067281545
 20
1146.0739238439
 30
0.0
 40
0.2499999999999673
100
AcDbArc
 50
279.9421486627
 51
99.9421486626
  0
ARC
  5
193
330
1F
100
AcDbEntity
  8
0
  6
SLD-Solid
 62
     7
370
    15
100
AcDbCircle
 10
1150.2987912923
 20
1143.2667234826
 30
0.0
 40
3.100000000000049
100
AcDbArc
 50
99.9421486627
 51
260.0578513373
  0
ARC
  5
194
330
1F
100
AcDbEntity
  8
0
  6
SLD-Solid
 62
     7
370
    15
100
AcDbCircle
 10
1149.8067281545
 20
1140.4595231213
 30
0.0
 40
0.2500000000001912
100
AcDbArc
 50
260.0578513374
 51
80.0578513373
  0
ARC
  5
195
330
1F
100
AcDbEntity
  8
0
  6
SLD-Solid
 62
     7
370
    15
100
AcDbCircle
 10
1150.2987912923
 20
1143.2667234826
 30
0.0
 40
2.600000000000154
100
AcDbArc
 50
99.9421486627
 51
260.0578513373
  0
LINE
  5
196
330
1F
100
AcDbEntity
  8
0
  6
SLD-Solid
 62
     7
370
    15
100
AcDbLine
 10
1162.7987912923
 20
1179.0667234826
 30
0.0
 11
1162.7987912923
 21
1176.6167234826
 31
0.0
  0
LINE
  5
197
330
1F
100
AcDbEntity
  8
0
  6
SLD-Solid
 62
     7
370
    15
100
AcDbLine
 10
1071.4819827939
 20
1179.0667234826
 30
0.0
 11
1162.7987912923
 21
1179.0667234826
 31
0.0
  0
LINE
  5
198
330
1F
100
AcDbEntity
  8
0
  6
SLD-Solid
 62
     7
370
    15
100
AcDbLine
 10
1071.4819827939
 20
1176.6167234826
 30
0.0
 11
1071.4819827939
 21
1179.0667234826
 31
0.0
  0
LINE
  5
199
330
1F
100
AcDbEntity
  8
0
  6
SLD-Solid
 62
     7
370
    15
100
AcDbLine
 10
1147.8261362217
 20
1126.5167234826
 30
0.0
 11
1147.8261362217
 21
1124.0667234826
 31
0.0
  0
LINE
  5
19A
330
1F
100
AcDbEntity
  8
0
  6
SLD-Solid
 62
     7
370
    15
100
AcDbLine
 10
1128.8319827939
 20
1124.0667234826
 30
0.0
 11
1147.8261362217
 21
1124.0667234826
 31
0.0
  0
LINE
  5
19B
330
1F
100
AcDbEntity
  8
0
  6
SLD-Solid
 62
     7
370
    15
100
AcDbLine
 10
1127.6319827939
 20
1125.5839216004
 30
0.0
 11
1127.6319827939
 21
1126.5167234826
 31
0.0
  0
LINE
  5
19C
330
1F
100
AcDbEntity
  8
0
  6
SLD-Solid
 62
     7
370
    15
100
AcDbLine
 10
1044.7319827939
 20
1156.6167234826
 30
0.0
 11
1044.7319827939
 21
1150.0667234826
 31
0.0
  0
LINE
  5
19D
330
1F
100
AcDbEntity
  8
0
  6
SLD-Solid
 62
     7
370
    15
100
AcDbLine
 10
1043.5319827939
 20
1156.6167234826
 30
0.0
 11
1043.5319827939
 21
1150.0667234826
 31
0.0
  0
ARC
  5
19E
330
1F
100
AcDbEntity
  8
0
  6
SLD-Solid
 62
     7
370
    15
100
AcDbCircle
 10
1045.9819827939
 20
1156.6167234826
 30
0.0
 40
1.25
100
AcDbArc
 50
90.0
 51
180.0
  0
ARC
  5
19F
330
1F
100
AcDbEntity
  8
0
  6
SLD-Solid
 62
     7
370
    15
100
AcDbCircle
 10
1045.9819827939
 20
1156.6167234826
 30
0.0
 40
2.450000000000045
100
AcDbArc
 50
90.0
 51
180.0
  0
LINE
  5
1A0
330
1F
100
AcDbEntity
  8
0
  6
SLD-Solid
 62
     7
370
    15
100
AcDbLine
 10
1070.2319827939
 20
1176.6167234826
 30
0.0
 11
1069.0319827939
 21
1176.6167234826
 31
0.0
  0
LINE
  5
1A1
330
1F
100
AcDbEntity
  8
0
  6
SLD-Solid
 62
     7
370
    15
100
AcDbLine
 10
1070.2319827939
 20
1176.6167234826
 30
0.0
 11
1070.2319827939
 21
1160.3167234826
 31
0.0
  0
LINE
  5
1A2
330
1F
100
AcDbEntity
  8
0
  6
SLD-Solid
 62
     7
370
    15
100
AcDbLine
 10
1069.0319827939
 20
1176.6167234826
 30
0.0
 11
1069.0319827939
 21
1160.3167234826
 31
0.0
  0
LINE
  5
1A3
330
1F
100
AcDbEntity
  8
0
  6
SLD-Solid
 62
     7
370
    15
100
AcDbLine
 10
1067.7819827939
 20
1157.8667234826
 30
0.0
 11
1045.9819827939
 21
1157.8667234826
 31
0.0
  0
LINE
  5
1A4
330
1F
100
AcDbEntity
  8
0
  6
SLD-Solid
 62
     7
370
    15
100
AcDbLine
 10
1067.7819827939
 20
1159.0667234826
 30
0.0
 11
1045.9819827939
 21
1159.0667234826
 31
0.0
  0
LINE
  5
1A5
330
1F
100
AcDbEntity
  8
0
  6
SLD-Solid
 62
     7
370
    15
100
AcDbLine
 10
1044.7319827939
 20
1149.0667234826
 30
0.0
 11
1043.5319827939
 21
1149.0667234826
 31
0.0
  0
LINE
  5
1A6
330
1F
100
AcDbEntity
  8
0
  6
SLD-Solid
 62
     7
370
    15
100
AcDbLine
 10
1044.7319827939
 20
1150.0667234826
 30
0.0
 11
1044.7319827939
 21
1149.0667234826
 31
0.0
  0
LINE
  5
1A7
330
1F
100
AcDbEntity
  8
0
  6
SLD-Solid
 62
     7
370
    15
100
AcDbLine
 10
1043.5319827939
 20
1149.0667234826
 30
0.0
 11
1043.5319827939
 21
1150.0667234826
 31
0.0
  0
ARC
  5
1A8
330
1F
100
AcDbEntity
  8
0
  6
SLD-Solid
 62
     7
370
    15
100
AcDbCircle
 10
1067.7819827939
 20
1160.3167234826
 30
0.0
 40
2.450000000000045
100
AcDbArc
 50
270.0
 51
0.0
  0
ARC
  5
1A9
330
1F
100
AcDbEntity
  8
0
  6
SLD-Solid
 62
     7
370
    15
100
AcDbCircle
 10
1067.7819827939
 20
1160.3167234826
 30
0.0
 40
1.250000000000227
100
AcDbArc
 50
270.0
 51
0.0
  0
LINE
  5
1AA
330
1F
100
AcDbEntity
  8
0
  6
SLD-Solid
 62
     7
370
    15
100
AcDbLine
 10
1149.357103037
 20
1125.8233626891
 30
0.0
 11
1171.6111457156
 21
1135.4996958387
 31
0.0
  0
LINE
  5
1AB
330
1F
100
AcDbEntity
  8
0
  6
SLD-Solid
 62
     7
370
    15
100
AcDbLine
 10
1149.8356019197
 20
1124.7228905998
 30
0.0
 11
1172.0896445983
 21
1134.3992237494
 31
0.0
  0
LINE
  5
1AC
330
1F
100
AcDbEntity
  8
0
  6
SLD-Solid
 62
     7
370
    15
100
AcDbLine
 10
1148.9185418453
 20
1124.3241415309
 30
0.0
 11
1148.4400429626
 21
1125.4246136202
 31
0.0
  0
LINE
  5
1AD
330
1F
100
AcDbEntity
  8
0
  6
SLD-Solid
 62
     7
370
    15
100
AcDbLine
 10
1148.4400429626
 20
1125.4246136202
 30
0.0
 11
1149.357103037
 21
1125.8233626891
 31
0.0
  0
LINE
  5
1AE
330
1F
100
AcDbEntity
  8
0
  6
SLD-Solid
 62
     7
370
    15
100
AcDbLine
 10
1149.8356019197
 20
1124.7228905998
 30
0.0
 11
1148.9185418453
 21
1124.3241415309
 31
0.0
  0
ARC
  5
1AF
330
1F
100
AcDbEntity
  8
0
  6
SLD-Solid
 62
     7
370
    15
100
AcDbCircle
 10
1162.7987912923
 20
1155.7667234826
 30
0.0
 40
22.1
100
AcDbArc
 50
293.5
 51
88.703604783
  0
LINE
  5
1B0
330
1F
100
AcDbEntity
  8
0
  6
SLD-Solid
 62
     7
370
    15
100
AcDbLine
 10
1163.2987912923
 20
1177.86106665
 30
0.0
 11
1163.2987912923
 21
1179.0613580579
 31
0.0
  0
ARC
  5
1B1
330
1F
100
AcDbEntity
  8
0
  6
SLD-Solid
 62
     7
370
    15
100
AcDbCircle
 10
1162.7987912923
 20
1155.7667234826
 30
0.0
 40
23.30000000000026
100
AcDbArc
 50
293.5
 51
88.7703824493
  0
ARC
  5
1B2
330
1F
100
AcDbEntity
  8
0
  6
SLD-Solid
 62
     7
370
    15
100
AcDbCircle
 10
1071.4819827939
 20
1176.6167234826
 30
0.0
 40
1.250000000000227
100
AcDbArc
 50
90.0
 51
180.0
  0
ARC
  5
1B3
330
1F
100
AcDbEntity
  8
0
  6
SLD-Solid
 62
     7
370
    15
100
AcDbCircle
 10
1071.4819827939
 20
1176.6167234826
 30
0.0
 40
2.450000000000273
100
AcDbArc
 50
90.0
 51
180.0
  0
ARC
  5
1B4
330
1F
100
AcDbEntity
  8
0
  6
SLD-Solid
 62
     7
370
    15
100
AcDbCircle
 10
1162.7987912923
 20
1155.7667234826
 30
0.0
 40
22.1
100
AcDbArc
 50
88.703604783
 51
90.0
  0
ARC
  5
1B5
330
1F
100
AcDbEntity
  8
0
  6
SLD-Solid
 62
     7
370
    15
100
AcDbCircle
 10
1162.7987912923
 20
1155.7667234826
 30
0.0
 40
23.2999999999999
100
AcDbArc
 50
88.7703824493
 51
90.0
  0
LINE
  5
1B6
330
1F
100
AcDbEntity
  8
0
  6
SLD-Solid
 62
     7
370
    15
100
AcDbLine
 10
1167.9955528048
 20
1092.6652255049
 30
0.0
 11
1168.360908455
 21
1091.5407764352
 31
0.0
  0
SPLINE
  5
1B7
330
1F
100
AcDbEntity
  8
0
  6
SLD-Solid
 62
     7
370
    15
100
AcDbSpline
210
0.0
220
0.0
230
1.0
 70
     8
 71
     3
 72
    10
 73
     6
 74
     0
 42
0.00000001
 43
0.00000001
 40
0.0
 40
0.0
 40
0.0
 40
0.0
 40
0.000298435276289
 40
0.6247340130880772
 40
1.0
 40
1.0
 40
1.0
 40
1.0
 10
1163.739851827007
 20
1119.747078588322
 30
0.0
 10
1163.739821697923
 20
1119.747082745332
 30
0.0
 10
1163.676750522124
 20
1119.755784885798
 30
0.0
 10
1163.831195474436
 20
1119.732815427855
 30
0.0
 10
1164.137935903155
 20
1119.694157102019
 30
0.0
 10
1164.253079515779
 20
1119.679645616482
 30
0.0
  0
SPLINE
  5
1B8
330
1F
100
AcDbEntity
  8
0
  6
SLD-Solid
 62
     7
370
    15
100
AcDbSpline
210
0.0
220
0.0
230
1.0
 70
     8
 71
     3
 72
    14
 73
    10
 74
     0
 42
0.00000001
 43
0.00000001
 40
0.0
 40
0.0
 40
0.0
 40
0.0
 40
0.0202121803889336
 40
0.1974771703459986
 40
0.3747562174384648
 40
0.5519925266795647
 40
0.7293194034159328
 40
0.906523869269774
 40
1.0
 40
1.0
 40
1.0
 40
1.0
 10
1177.737511943949
 20
1078.178829924153
 30
0.0
 10
1177.71806700034
 20
1078.172583917308
 30
0.0
 10
1177.52808589155
 20
1078.111559142441
 30
0.0
 10
1177.223376536861
 20
1077.803169677471
 30
0.0
 10
1176.919422940098
 20
1077.301004213309
 30
0.0
 10
1176.803169946585
 20
1076.715224702544
 30
0.0
 10
1176.894246161252
 20
1076.172913122245
 30
0.0
 10
1177.111695882229
 20
1075.779598146277
 30
0.0
 10
1177.330894609564
 20
1075.664777875801
 30
0.0
 10
1177.406592125939
 20
1075.625126143283
 30
0.0
  0
SPLINE
  5
1B9
330
1F
100
AcDbEntity
  8
0
  6
SLD-Solid
 62
     7
370
    15
100
AcDbSpline
210
0.0
220
0.0
230
1.0
 70
     8
 71
     3
 72
    12
 73
     8
 74
     0
 42
0.00000001
 43
0.00000001
 40
0.0
 40
0.0
 40
0.0
 40
0.0
 40
0.1127619854912569
 40
0.3347569637089799
 40
0.5567037982779383
 40
0.7787221373321455
 40
0.9999999999999999
 40
0.9999999999999999
 40
0.9999999999999999
 40
0.9999999999999999
 10
1182.290438009143
 20
1064.166364327327
 30
0.0
 10
1182.211480293725
 20
1064.109594307623
 30
0.0
 10
1181.977078203699
 20
1063.941060919859
 30
0.0
 10
1181.651645785384
 20
1063.557817942065
 30
0.0
 10
1181.388423195644
 20
1063.112297528005
 30
0.0
 10
1181.284172843003
 20
1062.710269393408
 30
0.0
 10
1181.364362185485
 20
1062.554908808542
 30
0.0
 10
1181.404389883092
 20
1062.47735827229
 30
0.0
  0
SPLINE
  5
1BA
330
1F
100
AcDbEntity
  8
0
  6
SLD-Solid
 62
     7
370
    15
100
AcDbSpline
210
0.0
220
0.0
230
1.0
 70
     8
 71
     3
 72
    12
 73
     8
 74
     0
 42
0.00000001
 43
0.00000001
 40
0.0
 40
0.0
 40
0.0
 40
0.0
 40
0.1823190355645905
 40
0.3867395976066615
 40
0.5911599384385385
 40
0.7955799895649435
 40
1.0
 40
1.0
 40
1.0
 40
1.0
 10
1179.74573132155
 20
1071.998166206673
 30
0.0
 10
1179.676087244185
 20
1071.948934898279
 30
0.0
 10
1179.528356523846
 20
1071.844504242756
 30
0.0
 10
1179.367141624162
 20
1071.599682672708
 30
0.0
 10
1179.283789567852
 20
1071.330463113233
 30
0.0
 10
1179.292912515972
 20
1071.070058485418
 30
0.0
 10
1179.376198081899
 20
1070.949769604509
 30
0.0
 10
1179.417840860718
 20
1070.889625170041
 30
0.0
  0
SPLINE
  5
1BB
330
1F
100
AcDbEntity
  8
0
  6
SLD-Solid
 62
     7
370
    15
100
AcDbSpline
210
0.0
220
0.0
230
1.0
 70
     8
 71
     3
 72
    12
 73
     8
 74
     0
 42
0.00000001
 43
0.00000001
 40
0.0
 40
0.0
 40
0.0
 40
0.0
 40
0.1476879747588361
 40
0.3607663095910701
 40
0.5738444528505958
 40
0.7869222826240484
 40
1.0
 40
1.0
 40
1.0
 40
1.0
 10
1181.22071130718
 20
1067.458644587236
 30
0.0
 10
1181.166509359694
 20
1067.420314724949
 30
0.0
 10
1181.034106998572
 20
1067.326684062146
 30
0.0
 10
1180.87061652954
 20
1067.109719608752
 30
0.0
 10
1180.762441688262
 20
1066.862774003817
 30
0.0
 10
1180.74109136454
 20
1066.629605981343
 30
0.0
 10
1180.80391766728
 20
1066.527858969342
 30
0.0
 10
1180.835330810365
 20
1066.476985476759
 30
0.0
  0
SPLINE
  5
1BC
330
1F
100
AcDbEntity
  8
0
  6
SLD-Solid
 62
     7
370
    15
100
AcDbSpline
210
0.0
220
0.0
230
1.0
 70
     8
 71
     3
 72
    12
 73
     8
 74
     0
 42
0.00000001
 43
0.00000001
 40
0.0
 40
0.0
 40
0.0
 40
0.0
 40
0.0643079375672852
 40
0.2982312680640133
 40
0.5321544790204055
 40
0.7660773691871969
 40
1.0
 40
1.0
 40
1.0
 40
1.0
 10
1183.256935463393
 20
1061.191791023661
 30
0.0
 10
1183.23598445188
 20
1061.17586895244
 30
0.0
 10
1183.13882309098
 20
1061.102029552978
 30
0.0
 10
1182.978124805699
 20
1060.941797820844
 30
0.0
 10
1182.818597580731
 20
1060.750972691676
 30
0.0
 10
1182.729098885153
 20
1060.591874480892
 30
0.0
 10
1182.743598615549
 20
1060.543070264548
 30
0.0
 10
1182.750848476727
 20
1060.518668169904
 30
0.0
  0
SPLINE
  5
1BD
330
1F
100
AcDbEntity
  8
0
  6
SLD-Solid
 62
     7
370
    15
100
AcDbSpline
210
0.0
220
0.0
230
1.0
 70
     8
 71
     3
 72
    12
 73
     8
 74
     0
 42
0.00000001
 43
0.00000001
 40
0.0
 40
0.0
 40
0.0
 40
0.0
 40
0.0210609493374147
 40
0.2657960105179091
 40
0.5105309828135901
 40
0.7552656490917993
 40
1.0
 40
1.0
 40
1.0
 40
1.0
 10
1183.602984263417
 20
1060.126762328768
 30
0.0
 10
1183.596574326122
 20
1060.121579305585
 30
0.0
 10
1183.515678838779
 20
1060.056167872212
 30
0.0
 10
1183.359632324942
 20
1059.91871367382
 30
0.0
 10
1183.179614557987
 20
1059.752481989852
 30
0.0
 10
1183.059883432498
 20
1059.629160369215
 30
0.0
 10
1183.051787976128
 20
1059.607207625114
 30
0.0
 10
1183.04774025055
 20
1059.596231260136
 30
0.0
  0
LINE
  5
1BE
330
1F
100
AcDbEntity
  8
0
  6
SLD-Solid
 62
     7
370
    15
100
AcDbLine
 10
1181.3312946293
 20
1058.0941683907
 30
0.0
 11
1172.7351574426
 21
1084.5503582936
 31
0.0
  0
LINE
  5
1BF
330
1F
100
AcDbEntity
  8
0
  6
SLD-Solid
 62
     7
370
    15
100
AcDbLine
 10
1170.2630214876
 20
1092.1588104239
 30
0.0
 11
1161.2451899949
 21
1119.9128419499
 31
0.0
  0
SPLINE
  5
1C0
330
1F
100
AcDbEntity
  8
0
  6
SLD-Solid
 62
     7
370
    15
100
AcDbSpline
210
0.0
220
0.0
230
1.0
 70
     8
 71
     3
 72
    16
 73
    12
 74
     0
 42
0.00000001
 43
0.00000001
 40
0.0
 40
0.0
 40
0.0
 40
0.0
 40
0.0136265321204331
 40
0.1381825281561593
 40
0.2627870492414816
 40
0.387291513046457
 40
0.5119662139845639
 40
0.6364435606660707
 40
0.7610745951196862
 40
0.8856102973165825
 40
1.0
 40
1.0
 40
1.0
 40
1.0
 10
1177.738713026274
 20
1078.175133372854
 30
0.0
 10
1177.720050315575
 20
1078.169108142345
 30
0.0
 10
1177.530797428357
 20
1078.108008107708
 30
0.0
 10
1177.226949818277
 20
1077.799455985755
 30
0.0
 10
1176.923023614802
 20
1077.296132410496
 30
0.0
 10
1176.808807079063
 20
1076.711786038714
 30
0.0
 10
1176.896190367306
 20
1076.161831785075
 30
0.0
 10
1177.172698985277
 20
1075.7236186609
 30
0.0
 10
1177.593069260324
 20
1075.467853148437
 30
0.0
 10
1178.091071767253
 20
1075.415428241793
 30
0.0
 10
1178.413370209975
 20
1075.556369129005
 30
0.0
 10
1178.567676207936
 20
1075.623847035728
 30
0.0
  0
SPLINE
  5
1C1
330
1F
100
AcDbEntity
  8
0
  6
SLD-Solid
 62
     7
370
    15
100
AcDbSpline
210
0.0
220
0.0
230
1.0
 70
     8
 71
     3
 72
    16
 73
    12
 74
     0
 42
0.00000001
 43
0.00000001
 40
0.0
 40
0.0
 40
0.0
 40
0.0
 40
0.109876688765363
 40
0.2350249196640628
 40
0.3601869385281807
 40
0.4853593895745495
 40
0.6105330554716083
 40
0.7356980457262996
 40
0.8608493198671626
 40
0.98598972483321
 40
1.0
 40
1.0
 40
1.0
 40
1.0
 10
1179.747883358707
 20
1071.991542917345
 30
0.0
 10
1179.679326535909
 20
1071.94302355339
 30
0.0
 10
1179.532684314058
 20
1071.839241215717
 30
0.0
 10
1179.372677613287
 20
1071.595724222308
 30
0.0
 10
1179.288108580191
 20
1071.325221971212
 30
0.0
 10
1179.301775432098
 20
1071.069512717327
 30
0.0
 10
1179.409876708889
 20
1070.871259639713
 30
0.0
 10
1179.597663132136
 20
1070.757066763023
 30
0.0
 10
1179.832718004705
 20
1070.753908441899
 30
0.0
 10
1180.018575949831
 20
1070.803541947206
 30
0.0
 10
1180.101368764505
 20
1070.871162983424
 30
0.0
 10
1180.10970469297
 20
1070.877971353484
 30
0.0
  0
SPLINE
  5
1C2
330
1F
100
AcDbEntity
  8
0
  6
SLD-Solid
 62
     7
370
    15
100
AcDbSpline
210
0.0
220
0.0
230
1.0
 70
     8
 71
     3
 72
    16
 73
    12
 74
     0
 42
0.00000001
 43
0.00000001
 40
0.0
 40
0.0
 40
0.0
 40
0.0
 40
0.0850762918354229
 40
0.21030647021208
 40
0.3355501572012076
 40
0.4608055284717991
 40
0.5860641613457103
 40
0.7113158240798444
 40
0.8365541679485997
 40
0.9617804522762937
 40
1.0
 40
1.0
 40
1.0
 40
1.0
 10
1181.223277688149
 20
1067.450746078778
 30
0.0
 10
1181.17015374766
 20
1067.413135976593
 30
0.0
 10
1181.038832692558
 20
1067.320164742606
 30
0.0
 10
1180.876594604067
 20
1067.104428072524
 30
0.0
 10
1180.767148783556
 20
1066.856243250475
 30
0.0
 10
1180.750516167969
 20
1066.62765895575
 30
0.0
 10
1180.827271864954
 20
1066.457688084075
 30
0.0
 10
1180.986810159754
 20
1066.369606791146
 30
0.0
 10
1181.203165383248
 20
1066.382379699898
 30
0.0
 10
1181.394995136716
 20
1066.450331343011
 30
0.0
 10
1181.493387945515
 20
1066.529993558481
 30
0.0
 10
1181.516395743293
 20
1066.548621466012
 30
0.0
  0
SPLINE
  5
1C3
330
1F
100
AcDbEntity
  8
0
  6
SLD-Solid
 62
     7
370
    15
100
AcDbSpline
210
0.0
220
0.0
230
1.0
 70
     8
 71
     3
 72
    16
 73
    12
 74
     0
 42
0.00000001
 43
0.00000001
 40
0.0
 40
0.0
 40
0.0
 40
0.0
 40
0.0628036286073643
 40
0.1875405392730761
 40
0.3121784671185024
 40
0.4369886832824283
 40
0.5616086945330157
 40
0.686388427022657
 40
0.81107253631464
 40
0.9358408504019855
 40
1.0
 40
1.0
 40
1.0
 40
1.0
 10
1182.29331681861
 20
1064.157504262826
 30
0.0
 10
1182.214984726091
 20
1064.101104521678
 30
0.0
 10
1181.981073991964
 20
1063.932686898296
 30
0.0
 10
1181.656988733258
 20
1063.550198680985
 30
0.0
 10
1181.391635650049
 20
1063.101957935193
 30
0.0
 10
1181.297521235363
 20
1062.708835209433
 30
0.0
 10
1181.384013259955
 20
1062.442088518494
 30
0.0
 10
1181.636304165952
 20
1062.336222771596
 30
0.0
 10
1182.019975125829
 20
1062.41473452799
 30
0.0
 10
1182.409623632273
 20
1062.600533928253
 30
0.0
 10
1182.640073256637
 20
1062.786339416865
 30
0.0
 10
1182.718333196383
 20
1062.849438353924
 30
0.0
  0
SPLINE
  5
1C4
330
1F
100
AcDbEntity
  8
0
  6
SLD-Solid
 62
     7
370
    15
100
AcDbSpline
210
0.0
220
0.0
230
1.0
 70
     8
 71
     3
 72
    16
 73
    12
 74
     0
 42
0.00000001
 43
0.00000001
 40
0.0
 40
0.0
 40
0.0
 40
0.0
 40
0.032759629832613
 40
0.1581840252052282
 40
0.2836202919489327
 40
0.4090700021917097
 40
0.5345270391749773
 40
0.6599812019631037
 40
0.7854238833890419
 40
0.9108529533653675
 40
1.0
 40
1.0
 40
1.0
 40
1.0
 10
1183.260104976535
 20
1061.182036265244
 30
0.0
 10
1183.240200350795
 20
1061.166897307313
 30
0.0
 10
1183.144088342333
 20
1061.093796929956
 30
0.0
 10
1182.984710350289
 20
1060.934673511486
 30
0.0
 10
1182.823833354679
 20
1060.742683946812
 30
0.0
 10
1182.739303108208
 20
1060.587965084594
 30
0.0
 10
1182.742595389498
 20
1060.498321418037
 30
0.0
 10
1182.833250030985
 20
1060.486382928992
 30
0.0
 10
1182.997775207169
 20
1060.554852348233
 30
0.0
 10
1183.192059643998
 20
1060.674623195966
 30
0.0
 10
1183.322427177639
 20
1060.779827015661
 30
0.0
 10
1183.376589219458
 20
1060.823534628459
 30
0.0
  0
LINE
  5
1C5
330
1F
100
AcDbEntity
  8
0
  6
SLD-Solid
 62
     7
370
    15
100
AcDbLine
 10
1171.0477817425
 20
1083.2714307518
 30
0.0
 11
1171.2315479321
 21
1082.7058565752
 31
0.0
  0
LINE
  5
1C6
330
1F
100
AcDbEntity
  8
0
  6
SLD-Solid
 62
     7
370
    15
100
AcDbLine
 10
1170.83304441
 20
1083.9323243048
 30
0.0
 11
1171.0477817425
 21
1083.2714307518
 31
0.0
  0
LINE
  5
1C7
330
1F
100
AcDbEntity
  8
0
  6
SLD-Solid
 62
     7
370
    15
100
AcDbLine
 10
1171.2315479321
 20
1082.7058565752
 30
0.0
 11
1171.5573049164
 21
1081.7032796676
 31
0.0
  0
LINE
  5
1C8
330
1F
100
AcDbEntity
  8
0
  6
SLD-Solid
 62
     7
370
    15
100
AcDbLine
 10
1171.5573049164
 20
1081.7032796676
 30
0.0
 11
1171.5837993614
 21
1081.6217381505
 31
0.0
  0
LWPOLYLINE
  5
1C9
330
1F
100
AcDbEntity
  8
0
  6
SLD-Solid
 62
     7
370
    15
100
AcDbPolyline
 90
       12
 70
   128
 43
0.0
 10
1183.6062839559
 20
1060.1166069195
 10
1183.5901429572
 20
1060.1035246016
 10
1183.3734228231
 20
1059.9163026168
 10
1183.1960547347
 20
1059.7519779834
 10
1183.0842088858
 20
1059.6365649608
 10
1183.054136145
 20
1059.5885651758
 10
1183.1101399984
 20
1059.6156162225
 10
1183.2440784316
 20
1059.7131398529
 10
1183.4363843239
 20
1059.8653011872
 10
1183.6585703674
 20
1060.0479879644
 10
1183.877104362
 20
1060.2330355004
 10
1183.877104362
 20
1060.2330355004
  0
SPLINE
  5
1CA
330
1F
100
AcDbEntity
  8
0
  6
SLD-Solid
 62
     7
370
    15
100
AcDbSpline
210
0.0
220
0.0
230
1.0
 70
     8
 71
     3
 72
    10
 73
     6
 74
     0
 42
0.00000001
 43
0.00000001
 40
0.0
 40
0.0
 40
0.0
 40
0.0
 40
0.0008791134548735
 40
0.6281309046219222
 40
0.9999999999999999
 40
0.9999999999999999
 40
0.9999999999999999
 40
0.9999999999999999
 10
1163.740688511466
 20
1119.757032577131
 30
0.0
 10
1163.740600330153
 20
1119.757044746813
 30
0.0
 10
1163.677594346351
 20
1119.765740045188
 30
0.0
 10
1163.830960527656
 20
1119.742911634633
 30
0.0
 10
1164.13609945238
 20
1119.704450825892
 30
0.0
 10
1164.249671030584
 20
1119.690135855255
 30
0.0
  0
LINE
  5
1CB
330
1F
100
AcDbEntity
  8
0
  6
SLD-Solid
 62
     7
370
    15
100
AcDbLine
 10
420.3319827939
 20
1115.7667234826
 30
0.0
 11
420.3319827939
 21
1083.7667234826
 31
0.0
  0
LINE
  5
1CC
330
1F
100
AcDbEntity
  8
0
  6
SLD-Solid
 62
     7
370
    15
100
AcDbLine
 10
420.3319827939
 20
1142.8667234826
 30
0.0
 11
420.3319827939
 21
1178.2667234826
 31
0.0
  0
LINE
  5
1CD
330
1F
100
AcDbEntity
  8
0
  6
SLD-Solid
 62
     7
370
    15
100
AcDbLine
 10
522.7319827939
 20
1141.8667234826
 30
0.0
 11
421.3319827939
 21
1141.8667234826
 31
0.0
  0
ARC
  5
1CE
330
1F
100
AcDbEntity
  8
0
  6
SLD-Solid
 62
     7
370
    15
100
AcDbCircle
 10
421.3319827939
 20
1142.8667234826
 30
0.0
 40
1.0
100
AcDbArc
 50
180.0
 51
270.0
  0
LINE
  5
1CF
330
1F
100
AcDbEntity
  8
0
  6
SLD-Solid
 62
     7
370
    15
100
AcDbLine
 10
523.7319827939
 20
1148.2667234826
 30
0.0
 11
523.7319827939
 21
1142.8667234826
 31
0.0
  0
ARC
  5
1D0
330
1F
100
AcDbEntity
  8
0
  6
SLD-Solid
 62
     7
370
    15
100
AcDbCircle
 10
522.7319827939
 20
1142.8667234826
 30
0.0
 40
1.000000000000114
100
AcDbArc
 50
270.0
 51
0.0
  0
LINE
  5
1D1
330
1F
100
AcDbEntity
  8
0
  6
SLD-Solid
 62
     7
370
    15
100
AcDbLine
 10
420.3319827939
 20
1178.2667234826
 30
0.0
 11
420.3319827939
 21
1227.0461786424
 31
0.0
  0
LINE
  5
1D2
330
1F
100
AcDbEntity
  8
0
  6
SLD-Solid
 62
     7
370
    15
100
AcDbLine
 10
419.5319827939
 20
1178.2667234826
 30
0.0
 11
419.5319827939
 21
1227.0461786424
 31
0.0
  0
LINE
  5
1D3
330
1F
100
AcDbEntity
  8
0
  6
SLD-Solid
 62
     7
370
    15
100
AcDbLine
 10
419.5319827939
 20
1178.2667234826
 30
0.0
 11
420.3319827939
 21
1178.2667234826
 31
0.0
  0
ARC
  5
1D4
330
1F
100
AcDbEntity
  8
0
  6
SLD-Solid
 62
     7
370
    15
100
AcDbCircle
 10
421.5819827939
 20
1227.0461786424
 30
0.0
 40
1.25
100
AcDbArc
 50
75.0
 51
180.0
  0
ARC
  5
1D5
330
1F
100
AcDbEntity
  8
0
  6
SLD-Solid
 62
     7
370
    15
100
AcDbCircle
 10
421.5819827939
 20
1227.0461786424
 30
0.0
 40
2.050000000000011
100
AcDbArc
 50
75.0
 51
180.0
  0
LINE
  5
1D6
330
1F
100
AcDbEntity
  8
0
  6
SLD-Solid
 62
     7
370
    15
100
AcDbLine
 10
421.9055066003
 20
1228.2535859252
 30
0.0
 11
455.2024589214
 21
1219.3316944403
 31
0.0
  0
LINE
  5
1D7
330
1F
100
AcDbEntity
  8
0
  6
SLD-Solid
 62
     7
370
    15
100
AcDbLine
 10
422.1125618363
 20
1229.0263265863
 30
0.0
 11
455.4095141575
 21
1220.1044351014
 31
0.0
  0
ARC
  5
1D8
330
1F
100
AcDbEntity
  8
0
  6
SLD-Solid
 62
     7
370
    15
100
AcDbCircle
 10
448.7319827939
 20
1195.1835487831
 30
0.0
 40
25.80000000000001
100
AcDbArc
 50
0.0
 51
75.0
  0
ARC
  5
1D9
330
1F
100
AcDbEntity
  8
0
  6
SLD-Solid
 62
     7
370
    15
100
AcDbCircle
 10
448.7319827939
 20
1195.1835487831
 30
0.0
 40
25.0
100
AcDbArc
 50
0.0
 51
75.0
  0
LINE
  5
1DA
330
1F
100
AcDbEntity
  8
0
  6
SLD-Solid
 62
     7
370
    15
100
AcDbLine
 10
475.7819827939
 20
1178.2667234826
 30
0.0
 11
496.9819827939
 21
1178.2667234826
 31
0.0
  0
LINE
  5
1DB
330
1F
100
AcDbEntity
  8
0
  6
SLD-Solid
 62
     7
370
    15
100
AcDbLine
 10
475.7819827939
 20
1179.0667234826
 30
0.0
 11
496.9819827939
 21
1179.0667234826
 31
0.0
  0
ARC
  5
1DC
330
1F
100
AcDbEntity
  8
0
  6
SLD-Solid
 62
     7
370
    15
100
AcDbCircle
 10
475.7819827939
 20
1180.3167234826
 30
0.0
 40
1.25
100
AcDbArc
 50
180.0
 51
270.0
  0
ARC
  5
1DD
330
1F
100
AcDbEntity
  8
0
  6
SLD-Solid
 62
     7
370
    15
100
AcDbCircle
 10
475.7819827939
 20
1180.3167234826
 30
0.0
 40
2.050000000000182
100
AcDbArc
 50
180.0
 51
270.0
  0
LINE
  5
1DE
330
1F
100
AcDbEntity
  8
0
  6
SLD-Solid
 62
     7
370
    15
100
AcDbLine
 10
473.7319827939
 20
1195.1835487831
 30
0.0
 11
473.7319827939
 21
1180.3167234826
 31
0.0
  0
LINE
  5
1DF
330
1F
100
AcDbEntity
  8
0
  6
SLD-Solid
 62
     7
370
    15
100
AcDbLine
 10
474.5319827939
 20
1195.1835487831
 30
0.0
 11
474.5319827939
 21
1180.3167234826
 31
0.0
  0
ARC
  5
1E0
330
1F
100
AcDbEntity
  8
0
  6
SLD-Solid
 62
     7
370
    15
100
AcDbCircle
 10
496.9819827939
 20
1177.0167234826
 30
0.0
 40
2.050000000000011
100
AcDbArc
 50
0.0
 51
90.0
  0
ARC
  5
1E1
330
1F
100
AcDbEntity
  8
0
  6
SLD-Solid
 62
     7
370
    15
100
AcDbCircle
 10
496.9819827939
 20
1177.0167234826
 30
0.0
 40
1.25
100
AcDbArc
 50
0.0
 51
90.0
  0
LINE
  5
1E2
330
1F
100
AcDbEntity
  8
0
  6
SLD-Solid
 62
     7
370
    15
100
AcDbLine
 10
499.0319827939
 20
1177.0167234826
 30
0.0
 11
499.0319827939
 21
1160.3167234826
 31
0.0
  0
LINE
  5
1E3
330
1F
100
AcDbEntity
  8
0
  6
SLD-Solid
 62
     7
370
    15
100
AcDbLine
 10
498.2319827939
 20
1177.0167234826
 30
0.0
 11
498.2319827939
 21
1160.3167234826
 31
0.0
  0
ARC
  5
1E4
330
1F
100
AcDbEntity
  8
0
  6
SLD-Solid
 62
     7
370
    15
100
AcDbCircle
 10
500.2819827939
 20
1160.3167234826
 30
0.0
 40
1.25
100
AcDbArc
 50
180.0
 51
270.0
  0
ARC
  5
1E5
330
1F
100
AcDbEntity
  8
0
  6
SLD-Solid
 62
     7
370
    15
100
AcDbCircle
 10
500.2819827939
 20
1160.3167234826
 30
0.0
 40
2.050000000000182
100
AcDbArc
 50
180.0
 51
270.0
  0
LINE
  5
1E6
330
1F
100
AcDbEntity
  8
0
  6
SLD-Solid
 62
     7
370
    15
100
AcDbLine
 10
500.2819827939
 20
1158.2667234826
 30
0.0
 11
522.4819827939
 21
1158.2667234826
 31
0.0
  0
LINE
  5
1E7
330
1F
100
AcDbEntity
  8
0
  6
SLD-Solid
 62
     7
370
    15
100
AcDbLine
 10
500.2819827939
 20
1159.0667234826
 30
0.0
 11
522.4819827939
 21
1159.0667234826
 31
0.0
  0
ARC
  5
1E8
330
1F
100
AcDbEntity
  8
0
  6
SLD-Solid
 62
     7
370
    15
100
AcDbCircle
 10
522.4819827939
 20
1157.0167234826
 30
0.0
 40
2.050000000000068
100
AcDbArc
 50
0.0
 51
90.0
  0
ARC
  5
1E9
330
1F
100
AcDbEntity
  8
0
  6
SLD-Solid
 62
     7
370
    15
100
AcDbCircle
 10
522.4819827939
 20
1157.0167234826
 30
0.0
 40
1.25
100
AcDbArc
 50
0.0
 51
90.0
  0
LINE
  5
1EA
330
1F
100
AcDbEntity
  8
0
  6
SLD-Solid
 62
     7
370
    15
100
AcDbLine
 10
523.7319827939
 20
1148.2667234826
 30
0.0
 11
524.5319827939
 21
1148.2667234826
 31
0.0
  0
LINE
  5
1EB
330
1F
100
AcDbEntity
  8
0
  6
SLD-Solid
 62
     7
370
    15
100
AcDbLine
 10
523.7319827939
 20
1157.0167234826
 30
0.0
 11
523.7319827939
 21
1148.2667234826
 31
0.0
  0
LINE
  5
1EC
330
1F
100
AcDbEntity
  8
0
  6
SLD-Solid
 62
     7
370
    15
100
AcDbLine
 10
524.5319827939
 20
1157.0167234826
 30
0.0
 11
524.5319827939
 21
1148.2667234826
 31
0.0
  0
LINE
  5
1ED
330
1F
100
AcDbEntity
  8
0
  6
SLD-Solid
 62
     7
370
    15
100
AcDbLine
 10
422.8319827939
 20
1141.8667234826
 30
0.0
 11
422.8319827939
 21
1141.3667234826
 31
0.0
  0
LINE
  5
1EE
330
1F
100
AcDbEntity
  8
0
  6
SLD-Solid
 62
     7
370
    15
100
AcDbLine
 10
422.8319827939
 20
1140.0085017216
 30
0.0
 11
422.8319827939
 21
1139.5940703181
 31
0.0
  0
LINE
  5
1EF
330
1F
100
AcDbEntity
  8
0
  6
SLD-Solid
 62
     7
370
    15
100
AcDbLine
 10
422.0319827939
 20
1141.8667234826
 30
0.0
 11
422.0319827939
 21
1141.5268125206
 31
0.0
  0
LINE
  5
1F0
330
1F
100
AcDbEntity
  8
0
  6
SLD-Solid
 62
     7
370
    15
100
AcDbLine
 10
422.8319827939
 20
459.6667234826
 30
0.0
 11
422.0319827939
 21
459.6667234826
 31
0.0
  0
LINE
  5
1F1
330
1F
100
AcDbEntity
  8
0
  6
SLD-Solid
 62
     7
370
    15
100
AcDbLine
 10
422.8319827939
 20
460.0299280417
 30
0.0
 11
422.8319827939
 21
459.6667234826
 31
0.0
  0
LINE
  5
1F2
330
1F
100
AcDbEntity
  8
0
  6
SLD-Solid
 62
     7
370
    15
100
AcDbLine
 10
1109.0319827231
 20
289.0667234826
 30
0.0
 11
1056.0319827939
 21
289.0667234826
 31
0.0
  0
LINE
  5
1F3
330
1F
100
AcDbEntity
  8
0
  6
SLD-Solid
 62
     7
370
    15
100
AcDbLine
 10
1111.0319827939
 20
295.0667234826
 30
0.0
 11
1054.0319827939
 21
295.0667234826
 31
0.0
  0
LINE
  5
1F4
330
1F
100
AcDbEntity
  8
0
  6
SLD-Solid
 62
     7
370
    15
100
AcDbLine
 10
522.0319827939
 20
295.0667234828
 30
0.0
 11
465.0319827939
 21
295.0667234828
 31
0.0
  0
LINE
  5
1F5
330
1F
100
AcDbEntity
  8
0
  6
SLD-Solid
 62
     7
370
    15
100
AcDbLine
 10
520.0319827231
 20
289.0667234828
 30
0.0
 11
467.0319827939
 21
289.0667234828
 31
0.0
  0
LINE
  5
1F6
330
1F
100
AcDbEntity
  8
0
  6
SLD-Solid
 62
     7
370
    15
100
AcDbLine
 10
1117.5319827939
 20
457.0667234826
 30
0.0
 11
1117.5319827939
 21
458.2667234826
 31
0.0
  0
LINE
  5
1F7
330
1F
100
AcDbEntity
  8
0
  6
SLD-Solid
 62
     7
370
    15
100
AcDbLine
 10
1047.5319827939
 20
457.0667234826
 30
0.0
 11
1117.5319827939
 21
457.0667234826
 31
0.0
  0
LINE
  5
1F8
330
1F
100
AcDbEntity
  8
0
  6
SLD-Solid
 62
     7
370
    15
100
AcDbLine
 10
1047.5319827939
 20
457.0667234826
 30
0.0
 11
1047.5319827939
 21
458.2667234826
 31
0.0
  0
LINE
  5
1F9
330
1F
100
AcDbEntity
  8
0
  6
SLD-Solid
 62
     7
370
    15
100
AcDbLine
 10
1113.4916330142
 20
363.0667234826
 30
0.0
 11
1051.5723325735
 21
363.0667234826
 31
0.0
  0
LINE
  5
1FA
330
1F
100
AcDbEntity
  8
0
  6
SLD-Solid
 62
     7
370
    15
100
AcDbLine
 10
528.5319827939
 20
457.0667234828
 30
0.0
 11
528.5319827939
 21
458.2667234826
 31
0.0
  0
LINE
  5
1FB
330
1F
100
AcDbEntity
  8
0
  6
SLD-Solid
 62
     7
370
    15
100
AcDbLine
 10
458.5319827939
 20
457.0667234828
 30
0.0
 11
528.5319827939
 21
457.0667234828
 31
0.0
  0
LINE
  5
1FC
330
1F
100
AcDbEntity
  8
0
  6
SLD-Solid
 62
     7
370
    15
100
AcDbLine
 10
458.5319827939
 20
457.0667234828
 30
0.0
 11
458.5319827939
 21
458.2667234826
 31
0.0
  0
LINE
  5
1FD
330
1F
100
AcDbEntity
  8
0
  6
SLD-Solid
 62
     7
370
    15
100
AcDbLine
 10
524.4916330142
 20
363.0667234828
 30
0.0
 11
462.5723325735
 21
363.0667234828
 31
0.0
  0
LWPOLYLINE
  5
1FE
330
1F
100
AcDbEntity
  8
0
  6
SLD-Solid
 62
     7
370
    15
100
AcDbPolyline
 90
        3
 70
   128
 43
0.0
 10
1165.8366684012
 20
994.2917234834
 10
1166.0830516575
 20
993.8767206507
 10
1166.0899870211
 20
993.8667234823
  0
ARC
  5
1FF
330
1F
100
AcDbEntity
  8
0
  6
SLD-Solid
 62
     7
370
    15
100
AcDbCircle
 10
1160.0319827939
 20
991.3667234834
 30
0.0
 40
6.500000000000285
100
AcDbArc
 50
26.7436839504
 51
153.2563160496
  0
LWPOLYLINE
  5
200
330
1F
100
AcDbEntity
  8
0
  6
SLD-Solid
 62
     7
370
    15
100
AcDbPolyline
 90
        3
 70
   128
 43
0.0
 10
1153.9739785666
 20
993.8667234823
 10
1153.9809139303
 20
993.8767206507
 10
1154.2272971865
 20
994.2917234834
  0
ARC
  5
201
330
1F
100
AcDbEntity
  8
0
  6
SLD-Solid
 62
     7
370
    15
100
AcDbCircle
 10
1131.5319827939
 20
990.8667234834
 30
0.0
 40
1.5
100
AcDbArc
 50
102.0966648261
 51
180.0
  0
LINE
  5
202
330
1F
100
AcDbEntity
  8
0
  6
SLD-Solid
 62
     7
370
    15
100
AcDbLine
 10
1130.0319827939
 20
981.3667234834
 30
0.0
 11
1130.0319827939
 21
990.8667234834
 31
0.0
  0
LINE
  5
203
330
1F
100
AcDbEntity
  8
0
  6
SLD-Solid
 62
     7
370
    15
100
AcDbLine
 10
1128.8319827939
 20
981.3667234834
 30
0.0
 11
1130.0319827939
 21
981.3667234834
 31
0.0
  0
LINE
  5
204
330
1F
100
AcDbEntity
  8
0
  6
SLD-Solid
 62
     7
370
    15
100
AcDbLine
 10
1151.1016972441
 20
994.3667234834
 30
0.0
 11
1132.673670397
 21
994.3667234834
 31
0.0
  0
ARC
  5
205
330
1F
100
AcDbEntity
  8
0
  6
SLD-Solid
 62
     7
370
    15
100
AcDbCircle
 10
1151.1016972441
 20
995.8667234834
 30
0.0
 40
1.500000000000114
100
AcDbArc
 50
270.0
 51
333.2563160496
  0
ARC
  5
206
330
1F
100
AcDbEntity
  8
0
  6
SLD-Solid
 62
     7
370
    15
100
AcDbCircle
 10
1160.0319827939
 20
991.3667234834
 30
0.0
 40
8.500000000000181
100
AcDbArc
 50
26.7436839504
 51
153.2563160496
  0
ARC
  5
207
330
1F
100
AcDbEntity
  8
0
  6
SLD-Solid
 62
     7
370
    15
100
AcDbCircle
 10
1168.9622683436
 20
995.8667234834
 30
0.0
 40
1.500000000000114
100
AcDbArc
 50
206.7436839504
 51
270.0
  0
LINE
  5
208
330
1F
100
AcDbEntity
  8
0
  6
SLD-Solid
 62
     7
370
    15
100
AcDbLine
 10
1183.2674923228
 20
994.3667234834
 30
0.0
 11
1181.7319827939
 21
994.3667234831
 31
0.0
  0
LINE
  5
209
330
1F
100
AcDbEntity
  8
0
  6
SLD-Solid
 62
     7
370
    15
100
AcDbLine
 10
1173.9319827939
 20
994.3667234831
 30
0.0
 11
1168.9622683436
 21
994.3667234834
 31
0.0
  0
ARC
  5
20A
330
1F
100
AcDbEntity
  8
0
  6
SLD-Solid
 62
     7
370
    15
100
AcDbCircle
 10
1183.2674923228
 20
995.8667234834
 30
0.0
 40
1.500000000000114
100
AcDbArc
 50
270.0
 51
290.0
  0
LINE
  5
20B
330
1F
100
AcDbEntity
  8
0
  6
SLD-Solid
 62
     7
370
    15
100
AcDbLine
 10
1185.4113680354
 20
995.0507637701
 30
0.0
 11
1183.7805225378
 21
994.4571845522
 31
0.0
  0
LINE
  5
20C
330
1F
100
AcDbEntity
  8
0
  6
SLD-Solid
 62
     7
370
    15
100
AcDbLine
 10
1185.8319827939
 20
993.0754994773
 30
0.0
 11
1186.0954083221
 21
993.1713785285
 31
0.0
  0
ARC
  5
20D
330
1F
100
AcDbEntity
  8
0
  6
SLD-Solid
 62
     7
370
    15
100
AcDbCircle
 10
1131.5319827939
 20
990.8667234834
 30
0.0
 40
3.49999999999999
100
AcDbArc
 50
121.0987555804
 51
140.482347201
  0
LINE
  5
20E
330
1F
100
AcDbEntity
  8
0
  6
SLD-Solid
 62
     7
370
    15
100
AcDbLine
 10
1190.1098311394
 20
996.7608644867
 30
0.0
 11
1190.793871426
 21
994.8814792451
 31
0.0
  0
LINE
  5
20F
330
1F
100
AcDbEntity
  8
0
  6
SLD-Solid
 62
     7
370
    15
100
AcDbLine
 10
1185.4113680354
 20
995.0507637701
 30
0.0
 11
1190.1098311394
 21
996.7608644867
 31
0.0
  0
LINE
  5
210
330
1F
100
AcDbEntity
  8
0
  6
SLD-Solid
 62
     7
370
    15
100
AcDbLine
 10
1190.793871426
 20
994.8814792451
 30
0.0
 11
1186.0954083221
 21
993.1713785285
 31
0.0
  0
ARC
  5
211
330
1F
100
AcDbEntity
  8
0
  6
SLD-Solid
 62
     7
370
    15
100
AcDbCircle
 10
1127.0319827939
 20
544.6667234824
 30
0.0
 40
9.000000000000131
100
AcDbArc
 50
281.5369590333
 51
0.0
  0
ARC
  5
212
330
1F
100
AcDbEntity
  8
0
  6
SLD-Solid
 62
     7
370
    15
100
AcDbCircle
 10
1132.0319827939
 20
971.4050159349
 30
0.0
 40
4.0
100
AcDbArc
 50
0.0
 51
143.1301023525
  0
LINE
  5
213
330
1F
100
AcDbEntity
  8
0
  6
SLD-Solid
 62
     7
370
    15
100
AcDbLine
 10
1189.4319827939
 20
496.0607068126
 30
0.0
 11
1189.4319827939
 21
552.072345603
 31
0.0
  0
LINE
  5
214
330
1F
100
AcDbEntity
  8
0
  6
SLD-Solid
 62
     7
370
    15
100
AcDbLine
 10
1187.8319827939
 20
494.0667234827
 30
0.0
 11
1189.4319827939
 21
494.0667234827
 31
0.0
  0
SPLINE
  5
215
330
1F
100
AcDbEntity
  8
0
  6
SLD-Solid
 62
     7
370
    15
100
AcDbSpline
210
0.0
220
0.0
230
1.0
 70
    24
 71
     3
 72
    11
 73
     7
 74
     0
 42
0.00000001
 43
0.00000001
 40
0.0
 40
0.0
 40
0.0
 40
0.0
 40
0.2832771686238255
 40
0.5580022489005086
 40
0.7754022428539191
 40
0.9999999999999999
 40
0.9999999999999999
 40
0.9999999999999999
 40
0.9999999999999999
 10
1189.431982793877
 20
494.0667234827183
 30
0.0
 10
1189.431982793877
 20
494.1050073148951
 30
0.0
 10
1189.431982793877
 20
494.1804191970281
 30
0.0
 10
1189.431982793877
 20
494.7133578631489
 30
0.0
 10
1189.431982793877
 20
495.3637822930462
 30
0.0
 10
1189.431982793876
 20
495.8258902228621
 30
0.0
 10
1189.431982793877
 20
496.0607068126252
 30
0.0
  0
LINE
  5
216
330
1F
100
AcDbEntity
  8
0
  6
SLD-Solid
 62
     7
370
    15
100
AcDbLine
 10
1187.8319827939
 20
554.0667234827
 30
0.0
 11
1189.4319827939
 21
554.0667234827
 31
0.0
  0
SPLINE
  5
217
330
1F
100
AcDbEntity
  8
0
  6
SLD-Solid
 62
     7
370
    15
100
AcDbSpline
210
0.0
220
0.0
230
1.0
 70
    24
 71
     3
 72
    11
 73
     7
 74
     0
 42
0.00000001
 43
0.00000001
 40
0.0
 40
0.0
 40
0.0
 40
0.0
 40
0.2833534124411294
 40
0.5581116990962743
 40
0.7754835424211851
 40
1.0
 40
1.0
 40
1.0
 40
1.0
 10
1189.431982793877
 20
552.0723456029917
 30
0.0
 10
1189.431982793877
 20
552.3693941777983
 30
0.0
 10
1189.431982793877
 20
552.9544807782072
 30
0.0
 10
1189.431982793876
 20
553.6025905486143
 30
0.0
 10
1189.431982793877
 20
553.9964959507269
 30
0.0
 10
1189.431982793876
 20
554.0430633324769
 30
0.0
 10
1189.431982793877
 20
554.0667234827182
 30
0.0
  0
LINE
  5
218
330
1F
100
AcDbEntity
  8
0
  6
SLD-Solid
 62
     7
370
    15
100
AcDbLine
 10
1190.8319827939
 20
551.5290079746
 30
0.0
 11
1190.8319827939
 21
496.6044389908
 31
0.0
  0
SPLINE
  5
219
330
1F
100
AcDbEntity
  8
0
  6
SLD-Solid
 62
     7
370
    15
100
AcDbSpline
210
0.0
220
0.0
230
1.0
 70
     8
 71
     3
 72
    11
 73
     7
 74
     0
 42
0.00000001
 43
0.00000001
 40
0.0
 40
0.0
 40
0.0
 40
0.0
 40
0.2371941589275924
 40
0.497861974947111
 40
0.7485798819786958
 40
1.0
 40
1.0
 40
1.0
 40
1.0
 10
1189.431982793877
 20
554.0667234827182
 30
0.0
 10
1189.626962034931
 20
553.9238049789811
 30
0.0
 10
1190.036216421565
 20
553.6238242001597
 30
0.0
 10
1190.479831434608
 20
553.0004530548345
 30
0.0
 10
1190.777099794346
 20
552.2847365829228
 30
0.0
 10
1190.813671412935
 20
551.7811522552466
 30
0.0
 10
1190.831982793877
 20
551.5290079746284
 30
0.0
  0
SPLINE
  5
21A
330
1F
100
AcDbEntity
  8
0
  6
SLD-Solid
 62
     7
370
    15
100
AcDbSpline
210
0.0
220
0.0
230
1.0
 70
    24
 71
     3
 72
    13
 73
     9
 74
     0
 42
0.00000001
 43
0.00000001
 40
0.0
 40
0.0
 40
0.0
 40
0.0
 40
0.1275360740474436
 40
0.2545887198592333
 40
0.4999418984797858
 40
0.7453299828649755
 40
0.8725055605771154
 40
1.0
 40
1.0
 40
1.0
 40
1.0
 10
1189.431982793877
 20
554.0667234827183
 30
0.0
 10
1189.431982793877
 20
554.0594562388471
 30
0.0
 10
1189.431982793876
 20
554.0449492977491
 30
0.0
 10
1189.431982793877
 20
553.8844581727725
 30
0.0
 10
1189.431982793877
 20
553.5186787674022
 30
0.0
 10
1189.431982793877
 20
552.9711037771625
 30
0.0
 10
1189.431982793877
 20
552.4712567932263
 30
0.0
 10
1189.431982793877
 20
552.2054269445601
 30
0.0
 10
1189.431982793877
 20
552.0723456029917
 30
0.0
  0
SPLINE
  5
21B
330
1F
100
AcDbEntity
  8
0
  6
SLD-Solid
 62
     7
370
    15
100
AcDbSpline
210
0.0
220
0.0
230
1.0
 70
     8
 71
     3
 72
    11
 73
     7
 74
     0
 42
0.00000001
 43
0.00000001
 40
0.0
 40
0.0
 40
0.0
 40
0.0
 40
0.2514201137491377
 40
0.5021380165204802
 40
0.7627995894819184
 40
1.0
 40
1.0
 40
1.0
 40
1.0
 10
1190.831982793877
 20
496.6044389908082
 30
0.0
 10
1190.813671422224
 20
496.352294713581
 30
0.0
 10
1190.777099822187
 20
495.8487103926774
 30
0.0
 10
1190.479833752988
 20
495.1329997229172
 30
0.0
 10
1190.036221120803
 20
494.5096277960943
 30
0.0
 10
1189.626967029729
 20
494.2096461595017
 30
0.0
 10
1189.431982793877
 20
494.0667234827183
 30
0.0
  0
SPLINE
  5
21C
330
1F
100
AcDbEntity
  8
0
  6
SLD-Solid
 62
     7
370
    15
100
AcDbSpline
210
0.0
220
0.0
230
1.0
 70
    24
 71
     3
 72
    13
 73
     9
 74
     0
 42
0.00000001
 43
0.00000001
 40
0.0
 40
0.0
 40
0.0
 40
0.0
 40
0.1275872441294529
 40
0.2546759233236647
 40
0.5000487292309118
 40
0.7453982611490161
 40
0.872539756542471
 40
1.0
 40
1.0
 40
1.0
 40
1.0
 10
1189.431982793877
 20
496.0607068126252
 30
0.0
 10
1189.431982793877
 20
495.9275353111734
 30
0.0
 10
1189.431982793877
 20
495.6617126944686
 30
0.0
 10
1189.431982793877
 20
495.1619688613293
 30
0.0
 10
1189.431982793877
 20
494.614565486108
 30
0.0
 10
1189.431982793877
 20
494.2488127099296
 30
0.0
 10
1189.431982793877
 20
494.0885523717485
 30
0.0
 10
1189.431982793877
 20
494.0740058495567
 30
0.0
 10
1189.431982793877
 20
494.0667234827183
 30
0.0
  0
LINE
  5
21D
330
1F
100
AcDbEntity
  8
0
  6
SLD-Solid
 62
     7
370
    15
100
AcDbLine
 10
1147.8319827939
 20
989.0667234827
 30
0.0
 11
1147.8319827939
 21
988.0667234827
 31
0.0
  0
ARC
  5
21E
330
1F
100
AcDbEntity
  8
0
  6
SLD-Solid
 62
     7
370
    15
100
AcDbCircle
 10
1149.8319827939
 20
989.0667234827
 30
0.0
 40
2.0
100
AcDbArc
 50
90.0
 51
180.0
  0
LINE
  5
21F
330
1F
100
AcDbEntity
  8
0
  6
SLD-Solid
 62
     7
370
    15
100
AcDbLine
 10
1149.8319827939
 20
991.0667234827
 30
0.0
 11
1150.8319827939
 21
991.0667234827
 31
0.0
  0
LINE
  5
220
330
1F
100
AcDbEntity
  8
0
  6
SLD-Solid
 62
     7
370
    15
100
AcDbLine
 10
1150.8319827939
 20
991.0667234827
 30
0.0
 11
1172.8319827939
 21
991.0667234827
 31
0.0
  0
LINE
  5
221
330
1F
100
AcDbEntity
  8
0
  6
SLD-Solid
 62
     7
370
    15
100
AcDbLine
 10
1155.7082584369
 20
991.0667234827
 30
0.0
 11
1155.839487487
 21
991.3667234823
 31
0.0
  0
ARC
  5
222
330
1F
100
AcDbEntity
  8
0
  6
SLD-Solid
 62
     7
370
    15
100
AcDbCircle
 10
1161.8319827939
 20
988.5667234827
 30
0.0
 40
6.614378277661578
100
AcDbArc
 50
53.2529562267
 51
126.7470437733
  0
LINE
  5
223
330
1F
100
AcDbEntity
  8
0
  6
SLD-Solid
 62
     7
370
    15
100
AcDbLine
 10
1167.8244781007
 20
991.3667234823
 30
0.0
 11
1167.9557071508
 21
991.0667234827
 31
0.0
  0
LINE
  5
224
330
1F
100
AcDbEntity
  8
0
  6
SLD-Solid
 62
     7
370
    15
100
AcDbLine
 10
1163.4190481657
 20
990.991277488
 30
0.0
 11
1163.3882254147
 21
991.3667234823
 31
0.0
  0
LINE
  5
225
330
1F
100
AcDbEntity
  8
0
  6
SLD-Solid
 62
     7
370
    15
100
AcDbLine
 10
1160.2640055088
 20
991.3667234823
 30
0.0
 11
1160.2559485559
 21
991.0667234827
 31
0.0
  0
LINE
  5
226
330
1F
100
AcDbEntity
  8
0
  6
SLD-Solid
 62
     7
370
    15
100
AcDbLine
 10
1162.8319827939
 20
991.0667234827
 30
0.0
 11
1162.7859219954
 21
991.3667234823
 31
0.0
  0
LINE
  5
227
330
1F
100
AcDbEntity
  8
0
  6
SLD-Solid
 62
     7
370
    15
100
AcDbLine
 10
1160.8780435923
 20
991.3667234823
 30
0.0
 11
1160.8319827939
 21
991.0667234827
 31
0.0
  0
LINE
  5
228
330
1F
100
AcDbEntity
  8
0
  6
SLD-Solid
 62
     7
370
    15
100
AcDbLine
 10
1168.3319827939
 20
991.0667234827
 30
0.0
 11
1168.3250560262
 21
991.3667234823
 31
0.0
  0
ARC
  5
229
330
1F
100
AcDbEntity
  8
0
  6
SLD-Solid
 62
     7
370
    15
100
AcDbCircle
 10
1161.8319827939
 20
991.0667234827
 30
0.0
 40
6.499999999999987
100
AcDbArc
 50
88.6070183872
 51
154.483612638
  0
LINE
  5
22A
330
1F
100
AcDbEntity
  8
0
  6
SLD-Solid
 62
     7
370
    15
100
AcDbLine
 10
1155.3389095616
 20
991.3667234823
 30
0.0
 11
1155.3319827939
 21
991.0667234827
 31
0.0
  0
ARC
  5
22B
330
1F
100
AcDbEntity
  8
0
  6
SLD-Solid
 62
     7
370
    15
100
AcDbCircle
 10
1161.8319827939
 20
991.0667234827
 30
0.0
 40
5.000000000000072
100
AcDbArc
 50
34.0557977366
 51
145.9442022634
  0
LINE
  5
22C
330
1F
100
AcDbEntity
  8
0
  6
SLD-Solid
 62
     7
370
    15
100
AcDbLine
 10
1222.4166126653
 20
923.4090384828
 30
0.0
 11
1222.3123223547
 21
923.3681863795
 31
0.0
  0
LINE
  5
22D
330
1F
100
AcDbEntity
  8
0
  6
SLD-Solid
 62
     7
370
    15
100
AcDbLine
 10
1223.5572286745
 20
952.6159007152
 30
0.0
 11
1223.9632072708
 21
952.6160250494
 31
0.0
  0
LWPOLYLINE
  5
22E
330
1F
100
AcDbEntity
  8
0
  6
SLD-Solid
 62
     7
370
    15
100
AcDbPolyline
 90
        5
 70
   128
 43
0.0
 10
1228.2792021693
 20
924.6335324342
 10
1228.1372430053
 20
924.6805832884
 10
1227.820074535
 20
924.7573490109
 10
1227.8200562895
 20
924.7573533591
 10
1227.8200562895
 20
924.7573533591
  0
LINE
  5
22F
330
1F
100
AcDbEntity
  8
0
  6
SLD-Solid
 62
     7
370
    15
100
AcDbLine
 10
1228.2886329093
 20
924.5865297774
 30
0.0
 11
1228.4234023225
 21
924.585738828
 31
0.0
  0
LINE
  5
230
330
1F
100
AcDbEntity
  8
0
  6
SLD-Solid
 62
     7
370
    15
100
AcDbLine
 10
1224.7324786243
 20
952.4748979926
 30
0.0
 11
1222.3123223547
 21
952.765260586
 31
0.0
  0
SPLINE
  5
231
330
1F
100
AcDbEntity
  8
0
  6
SLD-Solid
 62
     7
370
    15
100
AcDbSpline
210
0.0
220
0.0
230
1.0
 70
     8
 71
     3
 72
    11
 73
     7
 74
     0
 42
0.00000001
 43
0.00000001
 40
0.0
 40
0.0
 40
0.0
 40
0.0
 40
0.2499948173009973
 40
0.4999416367334886
 40
0.7498481479518504
 40
1.0
 40
1.0
 40
1.0
 40
1.0
 10
1222.312322354726
 20
923.36818637946
 30
0.0
 10
1223.133799125931
 20
923.4034330986034
 30
0.0
 10
1224.776594948535
 20
923.4739197696803
 30
0.0
 10
1226.975006881304
 20
924.6870676823387
 30
0.0
 10
1228.690768566637
 20
926.5430087821969
 30
0.0
 10
1229.175019842284
 20
928.1464033071236
 30
0.0
 10
1229.417264272851
 20
928.9484939018178
 30
0.0
  0
SPLINE
  5
232
330
1F
100
AcDbEntity
  8
0
  6
SLD-Solid
 62
     7
370
    15
100
AcDbSpline
210
0.0
220
0.0
230
1.0
 70
     8
 71
     3
 72
    16
 73
    12
 74
     0
 42
0.00000001
 43
0.00000001
 40
0.0
 40
0.0
 40
0.0
 40
0.0
 40
0.0252287448533308
 40
0.1261343556387056
 40
0.3279445742849083
 40
0.5297547923572281
 40
0.7648210893121139
 40
0.8823918684009465
 40
0.9411827286181051
 40
0.9705798156749004
 40
1.0
 40
1.0
 40
1.0
 40
1.0
 10
1229.417264272851
 20
928.9484939018178
 30
0.0
 10
1229.607137564688
 20
929.007383879552
 30
0.0
 10
1230.556433514924
 20
929.3018118995839
 30
0.0
 10
1232.711398290332
 20
928.9807614441154
 30
0.0
 10
1235.830580157983
 20
929.1729525947751
 30
0.0
 10
1239.146954637843
 20
929.1087222279566
 30
0.0
 10
1241.504080800706
 20
929.1222344867463
 30
0.0
 10
1242.931411963991
 20
929.1273938981253
 30
0.0
 10
1243.561369539573
 20
929.1169422757391
 30
0.0
 10
1243.904468020771
 20
929.1341843936954
 30
0.0
 10
1244.032870470432
 20
928.976513884108
 30
0.0
 10
1244.097096906785
 20
928.8976476710773
 30
0.0
  0
SPLINE
  5
233
330
1F
100
AcDbEntity
  8
0
  6
SLD-Solid
 62
     7
370
    15
100
AcDbSpline
210
0.0
220
0.0
230
1.0
 70
     8
 71
     3
 72
    11
 73
     7
 74
     0
 42
0.00000001
 43
0.00000001
 40
0.0
 40
0.0
 40
0.0
 40
0.0
 40
0.2500023459646054
 40
0.4999652669163197
 40
0.7498956881625097
 40
1.0
 40
1.0
 40
1.0
 40
1.0
 10
1236.884137629114
 20
923.3241600313955
 30
0.0
 10
1237.715530432485
 20
923.3677361549517
 30
0.0
 10
1239.37818492977
 20
923.454881530172
 30
0.0
 10
1241.603037033673
 20
924.6697847872077
 30
0.0
 10
1243.345537178283
 20
926.513652963899
 30
0.0
 10
1243.846518923977
 20
928.1027985565031
 30
0.0
 10
1244.097096906785
 20
928.8976476710773
 30
0.0
  0
SPLINE
  5
234
330
1F
100
AcDbEntity
  8
0
  6
SLD-Solid
 62
     7
370
    15
100
AcDbSpline
210
0.0
220
0.0
230
1.0
 70
     8
 71
     3
 72
    11
 73
     7
 74
     0
 42
0.00000001
 43
0.00000001
 40
0.0
 40
0.0
 40
0.0
 40
0.0
 40
0.2501043118374906
 40
0.5000347330836897
 40
0.7499976540353863
 40
1.0
 40
1.0
 40
1.0
 40
1.0
 10
1244.097096906785
 20
947.2357992943595
 30
0.0
 10
1243.846518923977
 20
948.0306484089335
 30
0.0
 10
1243.345537178283
 20
949.6197940015378
 30
0.0
 10
1241.603037033674
 20
951.4636621782294
 30
0.0
 10
1239.37818492977
 20
952.6785654352639
 30
0.0
 10
1237.715530432485
 20
952.7657108104842
 30
0.0
 10
1236.884137629114
 20
952.8092869340405
 30
0.0
  0
LWPOLYLINE
  5
235
330
1F
100
AcDbEntity
  8
0
  6
SLD-Solid
 62
     7
370
    15
100
AcDbPolyline
 90
        3
 70
   128
 43
0.0
 10
1227.1153532345
 20
924.9750551008
 10
1227.4042874217
 20
924.8646310925
 10
1228.4234023225
 20
924.585738828
  0
LINE
  5
236
330
1F
100
AcDbEntity
  8
0
  6
SLD-Solid
 62
     7
370
    15
100
AcDbLine
 10
1243.9181118121
 20
947.3854212664
 30
0.0
 11
1244.0970969068
 21
947.2357992944
 31
0.0
  0
LINE
  5
237
330
1F
100
AcDbEntity
  8
0
  6
SLD-Solid
 62
     7
370
    15
100
AcDbLine
 10
1244.0970969068
 20
928.8976476711
 30
0.0
 11
1243.9180949998
 21
928.7480257952
 31
0.0
  0
LINE
  5
238
330
1F
100
AcDbEntity
  8
0
  6
SLD-Solid
 62
     7
370
    15
100
AcDbLine
 10
1184.9479201807
 20
462.0667234827
 30
0.0
 11
1186.3319827939
 21
462.0667234827
 31
0.0
  0
LINE
  5
239
330
1F
100
AcDbEntity
  8
0
  6
SLD-Solid
 62
     7
370
    15
100
AcDbLine
 10
1169.3319827939
 20
462.0667234827
 30
0.0
 11
1184.9479201807
 21
462.0667234827
 31
0.0
  0
LINE
  5
23A
330
1F
100
AcDbEntity
  8
0
  6
SLD-Solid
 62
     7
370
    15
100
AcDbLine
 10
1184.5293356285
 20
461.5667234827
 30
0.0
 11
1185.8319827939
 21
461.5667234827
 31
0.0
  0
LINE
  5
23B
330
1F
100
AcDbEntity
  8
0
  6
SLD-Solid
 62
     7
370
    15
100
AcDbLine
 10
1177.8319827939
 20
461.5667234827
 30
0.0
 11
1184.5293356285
 21
461.5667234827
 31
0.0
  0
LINE
  5
23C
330
1F
100
AcDbEntity
  8
0
  6
SLD-Solid
 62
     7
370
    15
100
AcDbLine
 10
1184.9479201807
 20
463.5667234827
 30
0.0
 11
1186.3319827939
 21
463.5667234827
 31
0.0
  0
LINE
  5
23D
330
1F
100
AcDbEntity
  8
0
  6
SLD-Solid
 62
     7
370
    15
100
AcDbLine
 10
1169.3319827939
 20
463.5667234827
 30
0.0
 11
1184.9479201807
 21
463.5667234827
 31
0.0
  0
LINE
  5
23E
330
1F
100
AcDbEntity
  8
0
  6
SLD-Solid
 62
     7
370
    15
100
AcDbLine
 10
1185.7819827939
 20
464.0667234827
 30
0.0
 11
1185.8319827939
 21
464.0667234827
 31
0.0
  0
LWPOLYLINE
  5
23F
330
1F
100
AcDbEntity
  8
0
  6
SLD-Solid
 62
     7
370
    15
100
AcDbPolyline
 90
        3
 70
   128
 43
0.0
 10
1173.2903634382
 20
464.0667234827
 10
1173.1859217583
 20
463.8758268438
 10
1173.180941245
 20
463.8667234827
  0
LINE
  5
240
330
1F
100
AcDbEntity
  8
0
  6
SLD-Solid
 62
     7
370
    15
100
AcDbLine
 10
1173.5158088867
 20
463.8667234827
 30
0.0
 11
1173.180941245
 21
463.8667234827
 31
0.0
  0
LWPOLYLINE
  5
241
330
1F
100
AcDbEntity
  8
0
  6
SLD-Solid
 62
     7
370
    15
100
AcDbPolyline
 90
        3
 70
   128
 43
0.0
 10
1173.5158088867
 20
463.8667234827
 10
1173.5207894
 20
463.8758268438
 10
1173.62523108
 20
464.0667234827
  0
LINE
  5
242
330
1F
100
AcDbEntity
  8
0
  6
SLD-Solid
 62
     7
370
    15
100
AcDbLine
 10
1173.2903634382
 20
463.8667234827
 30
0.0
 11
1173.2903634382
 21
464.0667234827
 31
0.0
  0
LINE
  5
243
330
1F
100
AcDbEntity
  8
0
  6
SLD-Solid
 62
     7
370
    15
100
AcDbLine
 10
1179.1383647557
 20
990.0667234827
 30
0.0
 11
1169.3319827939
 21
990.0667234827
 31
0.0
  0
LINE
  5
244
330
1F
100
AcDbEntity
  8
0
  6
SLD-Solid
 62
     7
370
    15
100
AcDbLine
 10
1186.3319827939
 20
990.0667234827
 30
0.0
 11
1179.1383647557
 21
990.0667234827
 31
0.0
  0
LINE
  5
245
330
1F
100
AcDbEntity
  8
0
  6
SLD-Solid
 62
     7
370
    15
100
AcDbLine
 10
1179.0615187579
 20
990.5667234827
 30
0.0
 11
1169.8319827939
 21
990.5667234827
 31
0.0
  0
LINE
  5
246
330
1F
100
AcDbEntity
  8
0
  6
SLD-Solid
 62
     7
370
    15
100
AcDbLine
 10
1185.8319827939
 20
990.5667234827
 30
0.0
 11
1179.0615187579
 21
990.5667234827
 31
0.0
  0
LINE
  5
247
330
1F
100
AcDbEntity
  8
0
  6
SLD-Solid
 62
     7
370
    15
100
AcDbLine
 10
1179.1383647557
 20
988.5667234827
 30
0.0
 11
1169.3319827939
 21
988.5667234827
 31
0.0
  0
LINE
  5
248
330
1F
100
AcDbEntity
  8
0
  6
SLD-Solid
 62
     7
370
    15
100
AcDbLine
 10
1186.3319827939
 20
988.5667234827
 30
0.0
 11
1179.1383647557
 21
988.5667234827
 31
0.0
  0
LINE
  5
249
330
1F
100
AcDbEntity
  8
0
  6
SLD-Solid
 62
     7
370
    15
100
AcDbLine
 10
1185.8319827939
 20
988.0667234827
 30
0.0
 11
1185.7819827939
 21
988.0667234827
 31
0.0
  0
SPLINE
  5
24A
330
1F
100
AcDbEntity
  8
0
  6
SLD-Solid
 62
     7
370
    15
100
AcDbSpline
210
0.0
220
0.0
230
1.0
 70
     8
 71
     3
 72
    11
 73
     7
 74
     0
 42
0.00000001
 43
0.00000001
 40
0.0
 40
0.0
 40
0.0
 40
0.0
 40
0.2716412431748531
 40
0.5432824863496968
 40
0.8149237295245497
 40
1.0
 40
1.0
 40
1.0
 40
1.0
 10
1136.031982793878
 20
984.4167234827183
 30
0.0
 10
1136.062699725177
 20
984.514997592875
 30
0.0
 10
1136.124133587774
 20
984.711545813189
 30
0.0
 10
1136.599661368408
 20
985.0063681436588
 30
0.0
 10
1137.200316781363
 20
985.2698730807787
 30
0.0
 10
1137.64982710357
 20
985.4351039077416
 30
0.0
 10
1137.831982793876
 20
985.5020606245475
 30
0.0
  0
SPLINE
  5
24B
330
1F
100
AcDbEntity
  8
0
  6
SLD-Solid
 62
     7
370
    15
100
AcDbSpline
210
0.0
220
0.0
230
1.0
 70
     8
 71
     3
 72
    12
 73
     8
 74
     0
 42
0.00000001
 43
0.00000001
 40
0.0
 40
0.0
 40
0.0
 40
0.0
 40
0.1622307853863664
 40
0.4106775957261561
 40
0.6591247578680502
 40
0.9075717193365601
 40
1.0
 40
1.0
 40
1.0
 40
1.0
 10
1137.831982793878
 20
466.6309901443873
 30
0.0
 10
1137.672312666428
 20
466.6897237922274
 30
0.0
 10
1137.268117224148
 20
466.8384045326043
 30
0.0
 10
1136.703275383503
 20
467.0770757874933
 30
0.0
 10
1136.237890877594
 20
467.3467732549576
 30
0.0
 10
1136.04939419372
 20
467.5605815042599
 30
0.0
 10
1136.035696831883
 20
467.6834167269478
 30
0.0
 10
1136.031982793878
 20
467.7167234827185
 30
0.0
  0
LINE
  5
24C
330
1F
100
AcDbEntity
  8
0
  6
SLD-Solid
 62
     7
370
    15
100
AcDbLine
 10
1136.0319827939
 20
467.7167234827
 30
0.0
 11
1136.0319827939
 21
984.4167234827
 31
0.0
  0
SPLINE
  5
24D
330
1F
100
AcDbEntity
  8
0
  6
SLD-Solid
 62
     7
370
    15
100
AcDbSpline
210
0.0
220
0.0
230
1.0
 70
     8
 71
     3
 72
    10
 73
     6
 74
     0
 42
0.00000001
 43
0.00000001
 40
0.0
 40
0.0
 40
0.0
 40
0.0
 40
0.2943277262987443
 40
0.9095266888883835
 40
1.0
 40
1.0
 40
1.0
 40
1.0
 10
1137.831982793876
 20
985.616857564132
 30
0.0
 10
1137.755023728417
 20
985.6051624973151
 30
0.0
 10
1137.517206092723
 20
985.5690225945879
 30
0.0
 10
1137.269364259869
 20
985.4168691397476
 30
0.0
 10
1137.169078163846
 20
985.2588316649043
 30
0.0
 10
1137.156220615798
 20
985.2385698887773
 30
0.0
  0
SPLINE
  5
24E
330
1F
100
AcDbEntity
  8
0
  6
SLD-Solid
 62
     7
370
    15
100
AcDbSpline
210
0.0
220
0.0
230
1.0
 70
     8
 71
     3
 72
    12
 73
     8
 74
     0
 42
0.00000001
 43
0.00000001
 40
0.0
 40
0.0
 40
0.0
 40
0.0
 40
0.162230785385666
 40
0.4106775957256206
 40
0.659124757867687
 40
0.9075717193363608
 40
1.0
 40
1.0
 40
1.0
 40
1.0
 10
1137.831982793876
 20
986.421319079507
 30
0.0
 10
1137.672312666427
 20
986.4021964050518
 30
0.0
 10
1137.268117224148
 20
986.3537884906694
 30
0.0
 10
1136.703275383504
 20
985.9865996240749
 30
0.0
 10
1136.237890877595
 20
985.4094326428817
 30
0.0
 10
1136.049394193721
 20
984.8429527130072
 30
0.0
 10
1136.035696831884
 20
984.5076427410477
 30
0.0
 10
1136.031982793879
 20
984.416723482718
 30
0.0
  0
SPLINE
  5
24F
330
1F
100
AcDbEntity
  8
0
  6
SLD-Solid
 62
     7
370
    15
100
AcDbSpline
210
0.0
220
0.0
230
1.0
 70
     8
 71
     3
 72
    11
 73
     7
 74
     0
 42
0.00000001
 43
0.00000001
 40
0.0
 40
0.0
 40
0.0
 40
0.0
 40
0.2716412431747478
 40
0.5432824863494897
 40
0.8149237295242431
 40
1.0
 40
1.0
 40
1.0
 40
1.0
 10
1136.031982793878
 20
467.7167234827185
 30
0.0
 10
1136.062699725177
 20
467.447806577627
 30
0.0
 10
1136.124133587773
 20
466.9099727674438
 30
0.0
 10
1136.599661368408
 20
466.2367201257259
 30
0.0
 10
1137.200316781363
 20
465.7981928980776
 30
0.0
 10
1137.64982710357
 20
465.7400235998368
 30
0.0
 10
1137.831982793878
 20
465.7164515745634
 30
0.0
  0
SPLINE
  5
250
330
1F
100
AcDbEntity
  8
0
  6
SLD-Solid
 62
     7
370
    15
100
AcDbSpline
210
0.0
220
0.0
230
1.0
 70
     8
 71
     3
 72
    10
 73
     6
 74
     0
 42
0.00000001
 43
0.00000001
 40
0.0
 40
0.0
 40
0.0
 40
0.0
 40
0.0939234129706333
 40
0.7072251820365523
 40
1.0
 40
1.0
 40
1.0
 40
1.0
 10
1137.156602541928
 20
466.8949443195309
 30
0.0
 10
1137.169998134956
 20
466.8739446881761
 30
0.0
 10
1137.27086436647
 20
466.7158215148606
 30
0.0
 10
1137.51850882882
 20
466.5639572429005
 30
0.0
 10
1137.755428449717
 20
466.5280530652416
 30
0.0
 10
1137.831982793878
 20
466.5164515745633
 30
0.0
  0
LINE
  5
251
330
1F
100
AcDbEntity
  8
0
  6
SLD-Solid
 62
     7
370
    15
100
AcDbLine
 10
1137.8319827939
 20
987.1960128046
 30
0.0
 11
1137.8319827939
 21
464.9374341608
 31
0.0
  0
LINE
  5
252
330
1F
100
AcDbEntity
  8
0
  6
SLD-Solid
 62
     7
370
    15
100
AcDbLine
 10
1185.7819827939
 20
987.1960128046
 30
0.0
 11
1137.8319827939
 21
987.1960128046
 31
0.0
  0
CIRCLE
  5
253
330
1F
100
AcDbEntity
  8
0
  6
SLD-Solid
 62
     7
370
    15
100
AcDbCircle
 10
1157.8319827939
 20
726.0667234827
 30
0.0
 40
1.599999999999909
  0
CIRCLE
  5
254
330
1F
100
AcDbEntity
  8
0
  6
SLD-Solid
 62
     7
370
    15
100
AcDbCircle
 10
1157.8319827939
 20
494.0667234827
 30
0.0
 40
1.599999999999909
  0
CIRCLE
  5
255
330
1F
100
AcDbEntity
  8
0
  6
SLD-Solid
 62
     7
370
    15
100
AcDbCircle
 10
1157.8319827939
 20
958.0667234827
 30
0.0
 40
1.599999999999909
  0
LINE
  5
256
330
1F
100
AcDbEntity
  8
0
  6
SLD-Solid
 62
     7
370
    15
100
AcDbLine
 10
1185.7819827939
 20
464.9374341608
 30
0.0
 11
1137.8319827939
 21
464.9374341608
 31
0.0
  0
SPLINE
  5
257
330
1F
100
AcDbEntity
  8
0
  6
SLD-Solid
 62
     7
370
    15
100
AcDbSpline
210
0.0
220
0.0
230
1.0
 70
     8
 71
     3
 72
    12
 73
     8
 74
     0
 42
0.00000001
 43
0.00000001
 40
0.0
 40
0.0
 40
0.0
 40
0.0
 40
0.1454404235742875
 40
0.2766795478360508
 40
0.4978136031492298
 40
0.7087136043555711
 40
1.0
 40
1.0
 40
1.0
 40
1.0
 10
1185.781982793877
 20
464.9374341608369
 30
0.0
 10
1185.949236280414
 20
464.9543210286655
 30
0.0
 10
1186.267412052264
 20
464.986445872917
 30
0.0
 10
1186.80274534329
 20
465.0824126170869
 30
0.0
 10
1187.311189392861
 20
465.2582508990492
 30
0.0
 10
1187.737187074931
 20
465.6420295221923
 30
0.0
 10
1187.797182982774
 20
465.9424618141348
 30
0.0
 10
1187.831982793876
 20
466.1167234827182
 30
0.0
  0
SPLINE
  5
258
330
1F
100
AcDbEntity
  8
0
  6
SLD-Solid
 62
     7
370
    15
100
AcDbSpline
210
0.0
220
0.0
230
1.0
 70
     8
 71
     3
 72
    12
 73
     8
 74
     0
 42
0.00000001
 43
0.00000001
 40
0.0
 40
0.0
 40
0.0
 40
0.0
 40
0.3031690971284434
 40
0.4982530300587709
 40
0.7085588702607389
 40
0.8440650708940118
 40
1.0
 40
1.0
 40
1.0
 40
1.0
 10
1187.831982793876
 20
986.016723482718
 30
0.0
 10
1187.793993492035
 20
986.1958920153758
 30
0.0
 10
1187.731558748746
 20
986.4903523186634
 30
0.0
 10
1187.313347866761
 20
986.8733076870119
 30
0.0
 10
1186.829182960586
 20
987.0298301024602
 30
0.0
 10
1186.294852797149
 20
987.1313460647949
 30
0.0
 10
1185.96074593066
 20
987.1734729227987
 30
0.0
 10
1185.781982793877
 20
987.1960128045997
 30
0.0
  0
LINE
  5
259
330
1F
100
AcDbEntity
  8
0
  6
SLD-Solid
 62
     7
370
    15
100
AcDbLine
 10
1187.8319827939
 20
986.0167234827
 30
0.0
 11
1187.8319827939
 21
466.1167234827
 31
0.0
  0
LINE
  5
25A
330
1F
100
AcDbEntity
  8
0
  6
SLD-Solid
 62
     7
370
    15
100
AcDbLine
 10
1185.7819827939
 20
464.8667234827
 30
0.0
 11
1185.7819827939
 21
464.0667234827
 31
0.0
  0
SPLINE
  5
25B
330
1F
100
AcDbEntity
  8
0
  6
SLD-Solid
 62
     7
370
    15
100
AcDbSpline
210
0.0
220
0.0
230
1.0
 70
     8
 71
     3
 72
     9
 73
     5
 74
     0
 42
0.00000001
 43
0.00000001
 40
0.0
 40
0.0
 40
0.0
 40
0.0
 40
0.1335047189091749
 40
1.0
 40
1.0
 40
1.0
 40
1.0
 10
1186.318146302355
 20
465.0013127815984
 30
0.0
 10
1186.297715119714
 20
464.9869908778732
 30
0.0
 10
1186.144677962616
 20
464.879714492123
 30
0.0
 10
1185.950359138232
 20
464.8727543837657
 30
0.0
 10
1185.781982793877
 20
464.8667234827182
 30
0.0
  0
SPLINE
  5
25C
330
1F
100
AcDbEntity
  8
0
  6
SLD-Solid
 62
     7
370
    15
100
AcDbSpline
210
0.0
220
0.0
230
1.0
 70
     8
 71
     3
 72
    12
 73
     8
 74
     0
 42
0.00000001
 43
0.00000001
 40
0.0
 40
0.0
 40
0.0
 40
0.0
 40
0.2286702771456041
 40
0.4574139526360301
 40
0.6861579520287829
 40
0.9149017666626156
 40
1.0
 40
1.0
 40
1.0
 40
1.0
 10
1187.831982793876
 20
466.1167234827182
 30
0.0
 10
1187.806246529163
 20
465.8712510631475
 30
0.0
 10
1187.754765738935
 20
465.3802274325274
 30
0.0
 10
1187.355152688943
 20
464.7370617311885
 30
0.0
 10
1186.773785975527
 20
464.2728940671115
 30
0.0
 10
1186.208283430121
 20
464.0841141932045
 30
0.0
 10
1185.872917283861
 20
464.0704331074621
 30
0.0
 10
1185.781982793877
 20
464.0667234827182
 30
0.0
  0
SPLINE
  5
25D
330
1F
100
AcDbEntity
  8
0
  6
SLD-Solid
 62
     7
370
    15
100
AcDbSpline
210
0.0
220
0.0
230
1.0
 70
     8
 71
     3
 72
     9
 73
     5
 74
     0
 42
0.00000001
 43
0.00000001
 40
0.0
 40
0.0
 40
0.0
 40
0.0
 40
0.8366150873031779
 40
1.0
 40
1.0
 40
1.0
 40
1.0
 10
1185.781982793877
 20
987.2667234827181
 30
0.0
 10
1185.952083905832
 20
987.2594784935401
 30
0.0
 10
1186.155404542213
 20
987.2508186100546
 30
0.0
 10
1186.314836370458
 20
987.13653889203
 30
0.0
 10
1186.340885125797
 20
987.1178673102775
 30
0.0
  0
LINE
  5
25E
330
1F
100
AcDbEntity
  8
0
  6
SLD-Solid
 62
     7
370
    15
100
AcDbLine
 10
1185.7819827939
 20
987.2667234827
 30
0.0
 11
1185.7819827939
 21
988.0667234827
 31
0.0
  0
SPLINE
  5
25F
330
1F
100
AcDbEntity
  8
0
  6
SLD-Solid
 62
     7
370
    15
100
AcDbSpline
210
0.0
220
0.0
230
1.0
 70
     8
 71
     3
 72
    12
 73
     8
 74
     0
 42
0.00000001
 43
0.00000001
 40
0.0
 40
0.0
 40
0.0
 40
0.0
 40
0.2286697549032004
 40
0.4574134284524303
 40
0.6861574263647183
 40
0.914901239510992
 40
1.0
 40
1.0
 40
1.0
 40
1.0
 10
1185.781982793877
 20
988.0667234827182
 30
0.0
 10
1186.027454648083
 20
988.0409873344764
 30
0.0
 10
1186.518477706505
 20
987.9895067186538
 30
0.0
 10
1187.161643245514
 20
987.5898945220216
 30
0.0
 10
1187.625811382352
 20
987.0085281880232
 30
0.0
 10
1187.814591934765
 20
986.443025249536
 30
0.0
 10
1187.828273124239
 20
986.107658537192
 30
0.0
 10
1187.831982793876
 20
986.0167234827182
 30
0.0
  0
LINE
  5
260
330
1F
100
AcDbEntity
  8
0
  6
SLD-Solid
 62
     7
370
    15
100
AcDbLine
 10
1137.8319827939
 20
988.0667234827
 30
0.0
 11
1137.8319827939
 21
987.2667234827
 31
0.0
  0
LINE
  5
261
330
1F
100
AcDbEntity
  8
0
  6
SLD-Solid
 62
     7
370
    15
100
AcDbLine
 10
1185.7819827939
 20
988.0667234827
 30
0.0
 11
1137.8319827939
 21
988.0667234827
 31
0.0
  0
LINE
  5
262
330
1F
100
AcDbEntity
  8
0
  6
SLD-Solid
 62
     7
370
    15
100
AcDbLine
 10
1185.7819827939
 20
987.2667234827
 30
0.0
 11
1137.8319827939
 21
987.2667234827
 31
0.0
  0
LINE
  5
263
330
1F
100
AcDbEntity
  8
0
  6
SLD-Solid
 62
     7
370
    15
100
AcDbLine
 10
1185.7819827939
 20
464.0667234827
 30
0.0
 11
1137.8319827939
 21
464.0667234827
 31
0.0
  0
LINE
  5
264
330
1F
100
AcDbEntity
  8
0
  6
SLD-Solid
 62
     7
370
    15
100
AcDbLine
 10
1137.8319827939
 20
464.0667234827
 30
0.0
 11
1137.8319827939
 21
464.8667234827
 31
0.0
  0
LINE
  5
265
330
1F
100
AcDbEntity
  8
0
  6
SLD-Solid
 62
     7
370
    15
100
AcDbLine
 10
1185.7819827939
 20
464.8667234827
 30
0.0
 11
1137.8319827939
 21
464.8667234827
 31
0.0
  0
LINE
  5
266
330
1F
100
AcDbEntity
  8
0
  6
SLD-Solid
 62
     7
370
    15
100
AcDbLine
 10
1136.7819827939
 20
987.1960128046
 30
0.0
 11
1136.7819827939
 21
986.0167234827
 31
0.0
  0
LINE
  5
267
330
1F
100
AcDbEntity
  8
0
  6
SLD-Solid
 62
     7
370
    15
100
AcDbLine
 10
1137.8319827939
 20
987.1960128046
 30
0.0
 11
1136.7819827939
 21
987.1960128046
 31
0.0
  0
LINE
  5
268
330
1F
100
AcDbEntity
  8
0
  6
SLD-Solid
 62
     7
370
    15
100
AcDbLine
 10
1136.0319827939
 20
539.5667234827
 30
0.0
 11
1134.7319827939
 21
539.5667234827
 31
0.0
  0
LINE
  5
269
330
1F
100
AcDbEntity
  8
0
  6
SLD-Solid
 62
     7
370
    15
100
AcDbLine
 10
1134.7319827939
 20
986.0167234827
 30
0.0
 11
1134.7319827939
 21
974.3562868476
 31
0.0
  0
LINE
  5
26A
330
1F
100
AcDbEntity
  8
0
  6
SLD-Solid
 62
     7
370
    15
100
AcDbLine
 10
1134.7319827939
 20
540.0073243795
 30
0.0
 11
1134.7319827939
 21
539.5667234827
 31
0.0
  0
LINE
  5
26B
330
1F
100
AcDbEntity
  8
0
  6
SLD-Solid
 62
     7
370
    15
100
AcDbLine
 10
1134.7319827939
 20
986.0167234827
 30
0.0
 11
1136.7819827939
 21
986.0167234827
 31
0.0
  0
ARC
  5
26C
330
1F
100
AcDbEntity
  8
0
  6
SLD-Solid
 62
     7
370
    15
100
AcDbCircle
 10
1134.3319827939
 20
464.5667234827
 30
0.0
 40
5.5
100
AcDbArc
 50
180.0
 51
270.0
  0
ARC
  5
26D
330
1F
100
AcDbEntity
  8
0
  6
SLD-Solid
 62
     7
370
    15
100
AcDbCircle
 10
1134.3319827939
 20
464.5667234827
 30
0.0
 40
3.0
100
AcDbArc
 50
180.0
 51
270.0
  0
LINE
  5
26E
330
1F
100
AcDbEntity
  8
0
  6
SLD-Solid
 62
     7
370
    15
100
AcDbLine
 10
1134.3319827939
 20
459.0667234827
 30
0.0
 11
1177.8319827939
 21
459.0667234827
 31
0.0
  0
LINE
  5
26F
330
1F
100
AcDbEntity
  8
0
  6
SLD-Solid
 62
     7
370
    15
100
AcDbLine
 10
1134.3319827939
 20
461.5667234827
 30
0.0
 11
1177.8319827939
 21
461.5667234827
 31
0.0
  0
LINE
  5
270
330
1F
100
AcDbEntity
  8
0
  6
SLD-Solid
 62
     7
370
    15
100
AcDbLine
 10
1131.3319827939
 20
464.5667234827
 30
0.0
 11
1131.3319827939
 21
474.5667234827
 31
0.0
  0
LINE
  5
271
330
1F
100
AcDbEntity
  8
0
  6
SLD-Solid
 62
     7
370
    15
100
AcDbLine
 10
1128.8319827939
 20
479.5667234827
 30
0.0
 11
1131.3319827939
 21
479.5667234827
 31
0.0
  0
LINE
  5
272
330
1F
100
AcDbEntity
  8
0
  6
SLD-Solid
 62
     7
370
    15
100
AcDbLine
 10
1131.3319827939
 20
474.5667234827
 30
0.0
 11
1131.3319827939
 21
479.5667234827
 31
0.0
  0
LINE
  5
273
330
1F
100
AcDbEntity
  8
0
  6
SLD-Solid
 62
     7
370
    15
100
AcDbLine
 10
1177.8319827939
 20
459.0667234827
 30
0.0
 11
1185.8319827939
 21
459.0667234827
 31
0.0
  0
LINE
  5
274
330
1F
100
AcDbEntity
  8
0
  6
SLD-Solid
 62
     7
370
    15
100
AcDbLine
 10
1177.8319827939
 20
461.5667234827
 30
0.0
 11
1185.8319827939
 21
461.5667234827
 31
0.0
  0
LINE
  5
275
330
1F
100
AcDbEntity
  8
0
  6
SLD-Solid
 62
     7
370
    15
100
AcDbLine
 10
1131.3319827939
 20
996.8667234823
 30
0.0
 11
1131.3319827939
 21
1001.6042890713
 31
0.0
  0
ARC
  5
276
330
1F
100
AcDbEntity
  8
0
  6
SLD-Solid
 62
     7
370
    15
100
AcDbCircle
 10
1134.3319827939
 20
996.8667234823
 30
0.0
 40
5.5
100
AcDbArc
 50
180.0
 51
270.0
  0
ARC
  5
277
330
1F
100
AcDbEntity
  8
0
  6
SLD-Solid
 62
     7
370
    15
100
AcDbCircle
 10
1134.3319827939
 20
996.8667234823
 30
0.0
 40
3.0
100
AcDbArc
 50
180.0
 51
270.0
  0
LINE
  5
278
330
1F
100
AcDbEntity
  8
0
  6
SLD-Solid
 62
     7
370
    15
100
AcDbLine
 10
1134.3319827939
 20
991.3667234823
 30
0.0
 11
1177.8319827939
 21
991.3667234823
 31
0.0
  0
LINE
  5
279
330
1F
100
AcDbEntity
  8
0
  6
SLD-Solid
 62
     7
370
    15
100
AcDbLine
 10
1134.3319827939
 20
993.8667234823
 30
0.0
 11
1177.8319827939
 21
993.8667234823
 31
0.0
  0
LINE
  5
27A
330
1F
100
AcDbEntity
  8
0
  6
SLD-Solid
 62
     7
370
    15
100
AcDbLine
 10
1177.8319827939
 20
991.3667234823
 30
0.0
 11
1185.8319827939
 21
991.3667234823
 31
0.0
  0
LINE
  5
27B
330
1F
100
AcDbEntity
  8
0
  6
SLD-Solid
 62
     7
370
    15
100
AcDbLine
 10
1177.8319827939
 20
993.8667234823
 30
0.0
 11
1185.8319827939
 21
993.8667234823
 31
0.0
  0
LINE
  5
27C
330
1F
100
AcDbEntity
  8
0
  6
SLD-Solid
 62
     7
370
    15
100
AcDbLine
 10
1181.7319827939
 20
994.3667234823
 30
0.0
 11
1173.9319827939
 21
994.3667234823
 31
0.0
  0
LINE
  5
27D
330
1F
100
AcDbEntity
  8
0
  6
SLD-Solid
 62
     7
370
    15
100
AcDbLine
 10
1173.9319827939
 20
458.5667234827
 30
0.0
 11
1181.7319827939
 21
458.5667234827
 31
0.0
  0
SPLINE
  5
27E
330
1F
100
AcDbEntity
  8
0
  6
SLD-Solid
 62
     7
370
    15
100
AcDbSpline
210
0.0
220
0.0
230
1.0
 70
     8
 71
     3
 72
    11
 73
     7
 74
     0
 42
0.00000001
 43
0.00000001
 40
0.0
 40
0.0
 40
0.0
 40
0.0
 40
0.2499999999999849
 40
0.4999999999999909
 40
0.750000000000018
 40
0.9999999999999999
 40
0.9999999999999999
 40
0.9999999999999999
 40
0.9999999999999999
 10
421.2319827939417
 20
459.1374341606706
 30
0.0
 10
421.2627975181557
 20
459.2357082708274
 30
0.0
 10
421.3244269665836
 20
459.4322564911408
 30
0.0
 10
421.7984878534845
 20
459.7270788216113
 30
0.0
 10
422.4761049745334
 20
460.0219011520817
 30
0.0
 10
423.0133568541392
 20
460.2184493723951
 30
0.0
 10
423.2819827939421
 20
460.3167234825518
 30
0.0
  0
LINE
  5
27F
330
1F
100
AcDbEntity
  8
0
  6
SLD-Solid
 62
     7
370
    15
100
AcDbLine
 10
421.2319827939
 20
1140.4960128044
 30
0.0
 11
421.2319827939
 21
459.1374341607
 31
0.0
  0
SPLINE
  5
280
330
1F
100
AcDbEntity
  8
0
  6
SLD-Solid
 62
     7
370
    15
100
AcDbSpline
210
0.0
220
0.0
230
1.0
 70
     8
 71
     3
 72
    11
 73
     7
 74
     0
 42
0.00000001
 43
0.00000001
 40
0.0
 40
0.0
 40
0.0
 40
0.0
 40
0.250000000000017
 40
0.5000000000000097
 40
0.7500000000000039
 40
1.0
 40
1.0
 40
1.0
 40
1.0
 10
423.2819827939404
 20
1139.316723482552
 30
0.0
 10
423.0133568541374
 20
1139.414997592709
 30
0.0
 10
422.4761049745316
 20
1139.611545813022
 30
0.0
 10
421.7984878534825
 20
1139.906368143493
 30
0.0
 10
421.3244269665814
 20
1140.201190473963
 30
0.0
 10
421.2627975181533
 20
1140.397738694277
 30
0.0
 10
421.2319827939393
 20
1140.496012804433
 30
0.0
  0
SPLINE
  5
281
330
1F
100
AcDbEntity
  8
0
  6
SLD-Solid
 62
     7
370
    15
100
AcDbSpline
210
0.0
220
0.0
230
1.0
 70
     8
 71
     3
 72
    12
 73
     8
 74
     0
 42
0.00000001
 43
0.00000001
 40
0.0
 40
0.0
 40
0.0
 40
0.0
 40
0.2286697549032717
 40
0.4574134284525072
 40
0.6861574263649004
 40
0.9149012395111418
 40
1.0
 40
1.0
 40
1.0
 40
1.0
 10
422.1026934720589
 20
1141.366723482552
 30
0.0
 10
422.1926109661273
 20
1141.34098733431
 30
0.0
 10
422.3724750205457
 20
1141.289506718487
 30
0.0
 10
422.6423339858122
 20
1140.889894521856
 30
0.0
 10
422.912032081211
 20
1140.308528187856
 30
0.0
 10
423.1258403907409
 20
1139.74302524937
 30
0.0
 10
423.2486758291425
 20
1139.407658537026
 30
0.0
 10
423.2819827939403
 20
1139.316723482552
 30
0.0
  0
LINE
  5
282
330
1F
100
AcDbEntity
  8
0
  6
SLD-Solid
 62
     7
370
    15
100
AcDbLine
 10
1127.6319827939
 20
1141.3667234826
 30
0.0
 11
1041.5319827939
 21
1141.3667234826
 31
0.0
  0
LINE
  5
283
330
1F
100
AcDbEntity
  8
0
  6
SLD-Solid
 62
     7
370
    15
100
AcDbLine
 10
526.5319827939
 20
1141.3667234826
 30
0.0
 11
422.1026934721
 21
1141.3667234826
 31
0.0
  0
SPLINE
  5
284
330
1F
100
AcDbEntity
  8
0
  6
SLD-Solid
 62
     7
370
    15
100
AcDbSpline
210
0.0
220
0.0
230
1.0
 70
     8
 71
     3
 72
    10
 73
     6
 74
     0
 42
0.00000001
 43
0.00000001
 40
0.0
 40
0.0
 40
0.0
 40
0.0
 40
0.3468498005801162
 40
0.6936996011602135
 40
1.0
 40
1.0
 40
1.0
 40
1.0
 10
1126.78198279394
 20
1139.316723482555
 30
0.0
 10
1126.880256904097
 20
1139.583654042732
 30
0.0
 10
1127.07680512441
 20
1140.117515163087
 30
0.0
 10
1127.360138457722
 20
1140.793165751373
 30
0.0
 10
1127.545197680877
 20
1141.042021546495
 30
0.0
 10
1127.631982793874
 20
1141.158724610151
 30
0.0
  0
LINE
  5
285
330
1F
100
AcDbEntity
  8
0
  6
SLD-Solid
 62
     7
370
    15
100
AcDbLine
 10
422.0319827939
 20
1140.4960128044
 30
0.0
 11
421.2319827939
 21
1140.4960128044
 31
0.0
  0
SPLINE
  5
286
330
1F
100
AcDbEntity
  8
0
  6
SLD-Solid
 62
     7
370
    15
100
AcDbSpline
210
0.0
220
0.0
230
1.0
 70
     8
 71
     3
 72
    11
 73
     7
 74
     0
 42
0.00000001
 43
0.00000001
 40
0.0
 40
0.0
 40
0.0
 40
0.0
 40
0.249999999999981
 40
0.5000000000000056
 40
0.7500000000000108
 40
1.0
 40
1.0
 40
1.0
 40
1.0
 10
423.28198279394
 20
1139.316723482552
 30
0.0
 10
423.1181864891821
 20
1139.414997592709
 30
0.0
 10
422.7905938796662
 20
1139.611545813022
 30
0.0
 10
422.3774127082949
 20
1139.906368143493
 30
0.0
 10
422.0883511918917
 20
1140.201190473963
 30
0.0
 10
422.0507722599235
 20
1140.397738694277
 30
0.0
 10
422.0319827939393
 20
1140.496012804433
 30
0.0
  0
SPLINE
  5
287
330
1F
100
AcDbEntity
  8
0
  6
SLD-Solid
 62
     7
370
    15
100
AcDbSpline
210
0.0
220
0.0
230
1.0
 70
     8
 71
     3
 72
    11
 73
     7
 74
     0
 42
0.00000001
 43
0.00000001
 40
0.0
 40
0.0
 40
0.0
 40
0.0
 40
0.2506719719564791
 40
0.5014887651678047
 40
0.7523060046715032
 40
1.0
 40
1.0
 40
1.0
 40
1.0
 10
422.1026934720589
 20
1140.566723482552
 30
0.0
 10
422.2012342823908
 20
1140.547829730283
 30
0.0
 10
422.3983728332478
 20
1140.510031310217
 30
0.0
 10
422.6941081455228
 20
1140.219292468787
 30
0.0
 10
422.988687193629
 20
1139.805573799121
 30
0.0
 10
423.1846267903678
 20
1139.478991559932
 30
0.0
 10
423.2819827939403
 20
1139.316723482552
 30
0.0
  0
LINE
  5
288
330
1F
100
AcDbEntity
  8
0
  6
SLD-Solid
 62
     7
370
    15
100
AcDbLine
 10
422.1026934721
 20
1141.3667234826
 30
0.0
 11
422.1026934721
 21
1140.5667234826
 31
0.0
  0
SPLINE
  5
289
330
1F
100
AcDbEntity
  8
0
  6
SLD-Solid
 62
     7
370
    15
100
AcDbSpline
210
0.0
220
0.0
230
1.0
 70
     8
 71
     3
 72
    12
 73
     8
 74
     0
 42
0.00000001
 43
0.00000001
 40
0.0
 40
0.0
 40
0.0
 40
0.0
 40
0.2286702771455978
 40
0.4574139526360724
 40
0.6861579520287949
 40
0.9149017666626161
 40
1.0
 40
1.0
 40
1.0
 40
1.0
 10
423.2819827939425
 20
460.3167234825522
 30
0.0
 10
423.1920650926151
 20
460.0712510629815
 30
0.0
 10
423.012200828271
 20
459.5802274323613
 30
0.0
 10
422.7423416598733
 20
458.9370617310225
 30
0.0
 10
422.4726435643315
 20
458.4728940669456
 30
0.0
 10
422.2588354611987
 20
458.2841141930386
 30
0.0
 10
422.1360002301098
 20
458.2704331072961
 30
0.0
 10
422.1026934720612
 20
458.2667234825523
 30
0.0
  0
LINE
  5
28A
330
1F
100
AcDbEntity
  8
0
  6
SLD-Solid
 62
     7
370
    15
100
AcDbLine
 10
422.1026934721
 20
458.2667234826
 30
0.0
 11
422.1026934721
 21
459.0667234826
 31
0.0
  0
SPLINE
  5
28B
330
1F
100
AcDbEntity
  8
0
  6
SLD-Solid
 62
     7
370
    15
100
AcDbSpline
210
0.0
220
0.0
230
1.0
 70
     8
 71
     3
 72
    11
 73
     7
 74
     0
 42
0.00000001
 43
0.00000001
 40
0.0
 40
0.0
 40
0.0
 40
0.0
 40
0.2506688637244494
 40
0.501485649056488
 40
0.752302887858748
 40
0.9999999999999999
 40
0.9999999999999999
 40
0.9999999999999999
 40
0.9999999999999999
 10
423.2819827939425
 20
460.3167234825523
 30
0.0
 10
423.1834432204108
 20
460.1524859413133
 30
0.0
 10
422.9863059243938
 20
459.8239139410101
 30
0.0
 10
422.6905718221215
 20
459.4098645511521
 30
0.0
 10
422.3959915668078
 20
459.1223043166119
 30
0.0
 10
422.2000507154958
 20
459.085172960707
 30
0.0
 10
422.1026934720612
 20
459.0667234825523
 30
0.0
  0
SPLINE
  5
28C
330
1F
100
AcDbEntity
  8
0
  6
SLD-Solid
 62
     7
370
    15
100
AcDbSpline
210
0.0
220
0.0
230
1.0
 70
     8
 71
     3
 72
    11
 73
     7
 74
     0
 42
0.00000001
 43
0.00000001
 40
0.0
 40
0.0
 40
0.0
 40
0.0
 40
0.2499999999999825
 40
0.5000000000000144
 40
0.7500000000000175
 40
1.0
 40
1.0
 40
1.0
 40
1.0
 10
422.0319827939417
 20
459.1374341606707
 30
0.0
 10
422.0507722599258
 20
459.2357082708274
 30
0.0
 10
422.0883511918941
 20
459.4322564911408
 30
0.0
 10
422.377412708297
 20
459.7270788216113
 30
0.0
 10
422.7905938796682
 20
460.0219011520817
 30
0.0
 10
423.118186489184
 20
460.2184493723951
 30
0.0
 10
423.2819827939418
 20
460.3167234825519
 30
0.0
  0
LINE
  5
28D
330
1F
100
AcDbEntity
  8
0
  6
SLD-Solid
 62
     7
370
    15
100
AcDbLine
 10
422.0319827939
 20
459.1374341607
 30
0.0
 11
421.2319827939
 21
459.1374341607
 31
0.0
  0
SPLINE
  5
28E
330
1F
100
AcDbEntity
  8
0
  6
SLD-Solid
 62
     7
370
    15
100
AcDbSpline
210
0.0
220
0.0
230
1.0
 70
     8
 71
     3
 72
    11
 73
     7
 74
     0
 42
0.00000001
 43
0.00000001
 40
0.0
 40
0.0
 40
0.0
 40
0.0
 40
0.2499999999999968
 40
0.5000000000000054
 40
0.7500000000000026
 40
1.0
 40
1.0
 40
1.0
 40
1.0
 10
1127.961272115823
 20
458.2667234825548
 30
0.0
 10
1127.862998005666
 20
458.2975382067688
 30
0.0
 10
1127.666449785353
 20
458.3591676551969
 30
0.0
 10
1127.371627454883
 20
458.8332285420977
 30
0.0
 10
1127.076805124412
 20
459.5108456631464
 30
0.0
 10
1126.880256904099
 20
460.0480975427519
 30
0.0
 10
1126.781982793942
 20
460.3167234825547
 30
0.0
  0
LINE
  5
28F
330
1F
100
AcDbEntity
  8
0
  6
SLD-Solid
 62
     7
370
    15
100
AcDbLine
 10
422.1026934721
 20
458.2667234826
 30
0.0
 11
1127.9612721158
 21
458.2667234826
 31
0.0
  0
SPLINE
  5
290
330
1F
100
AcDbEntity
  8
0
  6
SLD-Solid
 62
     7
370
    15
100
AcDbSpline
210
0.0
220
0.0
230
1.0
 70
     8
 71
     3
 72
     9
 73
     5
 74
     0
 42
0.00000001
 43
0.00000001
 40
0.0
 40
0.0
 40
0.0
 40
0.0
 40
0.690147326609185
 40
0.9999999999999999
 40
0.9999999999999999
 40
0.9999999999999999
 40
0.9999999999999999
 10
1127.631982793874
 20
1139.640310929248
 30
0.0
 10
1127.442656960393
 20
1139.565671157292
 30
0.0
 10
1127.168330267842
 20
1139.457520666695
 30
0.0
 10
1126.873375360507
 20
1139.350029811425
 30
0.0
 10
1126.78198279394
 20
1139.316723482555
 30
0.0
  0
LINE
  5
291
330
1F
100
AcDbEntity
  8
0
  6
SLD-Solid
 62
     7
370
    15
100
AcDbLine
 10
1128.8319827939
 20
459.1374341607
 30
0.0
 11
1128.8319827939
 21
1001.6042890713
 31
0.0
  0
LINE
  5
292
330
1F
100
AcDbEntity
  8
0
  6
SLD-Solid
 62
     7
370
    15
100
AcDbLine
 10
1128.8319827939
 20
1002.4042890713
 30
0.0
 11
1128.8319827939
 21
1003.4042890713
 31
0.0
  0
LINE
  5
293
330
1F
100
AcDbEntity
  8
0
  6
SLD-Solid
 62
     7
370
    15
100
AcDbLine
 10
1128.8319827939
 20
1122.0919635984
 30
0.0
 11
1128.8319827939
 21
1123.0919635984
 31
0.0
  0
LINE
  5
294
330
1F
100
AcDbEntity
  8
0
  6
SLD-Solid
 62
     7
370
    15
100
AcDbLine
 10
1128.8319827939
 20
1123.8919635984
 30
0.0
 11
1128.8319827939
 21
1124.0995970895
 31
0.0
  0
SPLINE
  5
295
330
1F
100
AcDbEntity
  8
0
  6
SLD-Solid
 62
     7
370
    15
100
AcDbSpline
210
0.0
220
0.0
230
1.0
 70
     8
 71
     3
 72
    12
 73
     8
 74
     0
 42
0.00000001
 43
0.00000001
 40
0.0
 40
0.0
 40
0.0
 40
0.0
 40
0.2286702771455874
 40
0.4574139526359849
 40
0.6861579520287018
 40
0.9149017666625142
 40
1.0
 40
1.0
 40
1.0
 40
1.0
 10
1126.781982793942
 20
460.3167234825548
 30
0.0
 10
1127.027455213512
 20
460.2268057812274
 30
0.0
 10
1127.518478844132
 20
460.0469415168834
 30
0.0
 10
1128.161644545471
 20
459.7770823484857
 30
0.0
 10
1128.625812209548
 20
459.5073842529438
 30
0.0
 10
1128.814592083455
 20
459.2935761498111
 30
0.0
 10
1128.828273169198
 20
459.1707409187221
 30
0.0
 10
1128.831982793942
 20
459.1374341606735
 30
0.0
  0
SPLINE
  5
296
330
1F
100
AcDbEntity
  8
0
  6
SLD-Solid
 62
     7
370
    15
100
AcDbSpline
210
0.0
220
0.0
230
1.0
 70
     8
 71
     3
 72
    10
 73
     6
 74
     0
 42
0.00000001
 43
0.00000001
 40
0.0
 40
0.0
 40
0.0
 40
0.0
 40
0.3468498005814041
 40
0.6936996011627886
 40
1.0
 40
1.0
 40
1.0
 40
1.0
 10
1126.78198279394
 20
1139.316723482555
 30
0.0
 10
1126.880256904097
 20
1139.479486019248
 30
0.0
 10
1127.07680512441
 20
1139.805011092636
 30
0.0
 10
1127.360138457721
 20
1140.216993158662
 30
0.0
 10
1127.545197680874
 20
1140.368734497151
 30
0.0
 10
1127.631982793871
 20
1140.439894901818
 30
0.0
  0
SPLINE
  5
297
330
1F
100
AcDbEntity
  8
0
  6
SLD-Solid
 62
     7
370
    15
100
AcDbSpline
210
0.0
220
0.0
230
1.0
 70
     8
 71
     3
 72
     9
 73
     5
 74
     0
 42
0.00000001
 43
0.00000001
 40
0.0
 40
0.0
 40
0.0
 40
0.0
 40
0.4828391249535095
 40
1.0
 40
1.0
 40
1.0
 40
1.0
 10
1127.631982793871
 20
1139.881526362483
 30
0.0
 10
1127.512067169449
 20
1139.790615202601
 30
0.0
 10
1127.263711934288
 20
1139.602330626676
 30
0.0
 10
1126.946191789739
 20
1139.414079565883
 30
0.0
 10
1126.78198279394
 20
1139.316723482555
 30
0.0
  0
LINE
  5
298
330
1F
100
AcDbEntity
  8
0
  6
SLD-Solid
 62
     7
370
    15
100
AcDbLine
 10
1128.0319827939
 20
459.1374341607
 30
0.0
 11
1128.8319827939
 21
459.1374341607
 31
0.0
  0
SPLINE
  5
299
330
1F
100
AcDbEntity
  8
0
  6
SLD-Solid
 62
     7
370
    15
100
AcDbSpline
210
0.0
220
0.0
230
1.0
 70
     8
 71
     3
 72
    11
 73
     7
 74
     0
 42
0.00000001
 43
0.00000001
 40
0.0
 40
0.0
 40
0.0
 40
0.0
 40
0.2506688637243174
 40
0.5014856490563638
 40
0.7523028878586506
 40
1.0
 40
1.0
 40
1.0
 40
1.0
 10
1126.781982793942
 20
460.3167234825548
 30
0.0
 10
1126.94622033518
 20
460.2181839090232
 30
0.0
 10
1127.274792335484
 20
460.0210466130063
 30
0.0
 10
1127.688841725342
 20
459.7253125107339
 30
0.0
 10
1127.976401959882
 20
459.4307322554202
 30
0.0
 10
1128.013533315787
 20
459.2347914041082
 30
0.0
 10
1128.031982793942
 20
459.1374341606735
 30
0.0
  0
SPLINE
  5
29A
330
1F
100
AcDbEntity
  8
0
  6
SLD-Solid
 62
     7
370
    15
100
AcDbSpline
210
0.0
220
0.0
230
1.0
 70
     8
 71
     3
 72
    11
 73
     7
 74
     0
 42
0.00000001
 43
0.00000001
 40
0.0
 40
0.0
 40
0.0
 40
0.0
 40
0.2500000000000116
 40
0.5000000000000089
 40
0.7500000000000048
 40
1.0
 40
1.0
 40
1.0
 40
1.0
 10
1127.961272115823
 20
459.0667234825548
 30
0.0
 10
1127.862998005666
 20
459.085512948539
 30
0.0
 10
1127.666449785353
 20
459.1230918805073
 30
0.0
 10
1127.371627454883
 20
459.4121533969102
 30
0.0
 10
1127.076805124412
 20
459.8253345682813
 30
0.0
 10
1126.880256904099
 20
460.1529271777969
 30
0.0
 10
1126.781982793942
 20
460.3167234825548
 30
0.0
  0
LINE
  5
29B
330
1F
100
AcDbEntity
  8
0
  6
SLD-Solid
 62
     7
370
    15
100
AcDbLine
 10
1127.9612721158
 20
459.0667234826
 30
0.0
 11
1127.9612721158
 21
458.2667234826
 31
0.0
  0
LINE
  5
29C
330
1F
100
AcDbEntity
  8
0
  6
SLD-Solid
 62
     7
370
    15
100
AcDbLine
 10
1080.0819827939
 20
1141.3667234826
 30
0.0
 11
1080.0819827939
 21
1141.4667234826
 31
0.0
  0
LINE
  5
29D
330
1F
100
AcDbEntity
  8
0
  6
SLD-Solid
 62
     7
370
    15
100
AcDbLine
 10
1068.003567992
 20
1157.8667234826
 30
0.0
 11
1067.7819827939
 21
1157.8667234826
 31
0.0
  0
LINE
  5
29E
330
1F
100
AcDbEntity
  8
0
  6
SLD-Solid
 62
     7
370
    15
100
AcDbLine
 10
1047.0319827939
 20
1157.8567234826
 30
0.0
 11
1047.0319827939
 21
1157.8667234826
 31
0.0
  0
LINE
  5
29F
330
1F
100
AcDbEntity
  8
0
  6
SLD-Solid
 62
     7
370
    15
100
AcDbLine
 10
1165.559917675
 20
1132.8685470029
 30
0.0
 11
1165.2459624027
 21
1132.8410794757
 31
0.0
  0
LINE
  5
2A0
330
1F
100
AcDbEntity
  8
0
  6
SLD-Solid
 62
     7
370
    15
100
AcDbLine
 10
1166.3295911343
 20
1133.3122546581
 30
0.0
 11
1166.3387816403
 21
1133.2072066934
 31
0.0
  0
LINE
  5
2A1
330
1F
100
AcDbEntity
  8
0
  6
SLD-Solid
 62
     7
370
    15
100
AcDbLine
 10
488.0319827939
 20
1141.3667234826
 30
0.0
 11
488.0319827939
 21
1141.8667234826
 31
0.0
  0
LINE
  5
2A2
330
1F
100
AcDbEntity
  8
0
  6
SLD-Solid
 62
     7
370
    15
100
AcDbLine
 10
476.8319827939
 20
1141.3667234826
 30
0.0
 11
476.8319827939
 21
1141.8667234826
 31
0.0
  0
LINE
  5
2A3
330
1F
100
AcDbEntity
  8
0
  6
SLD-Solid
 62
     7
370
    15
100
AcDbLine
 10
426.8319827939
 20
1141.8667234826
 30
0.0
 11
426.8319827939
 21
1141.3667234826
 31
0.0
  0
ARC
  5
2A4
330
1F
100
AcDbEntity
  8
0
  6
SLD-Solid
 62
     7
370
    15
100
AcDbCircle
 10
1126.8079874846
 20
532.5595046211
 30
0.0
 40
2.699999999999962
100
AcDbArc
 50
359.6890354576
 51
41.4418449474
  0
LINE
  5
2A5
330
1F
100
AcDbEntity
  8
0
  6
SLD-Solid
 62
     7
370
    15
100
AcDbLine
 10
1129.5079477189
 20
532.5448508342
 30
0.0
 11
1129.4591017626
 21
523.5449833868
 31
0.0
  0
LINE
  5
2A6
330
1F
100
AcDbEntity
  8
0
  6
SLD-Solid
 62
     7
370
    15
100
AcDbLine
 10
1129.4319651202
 20
518.545057027
 30
0.0
 11
1128.8319827939
 21
518.5483133762
 31
0.0
  0
LINE
  5
2A7
330
1F
100
AcDbEntity
  8
0
  6
SLD-Solid
 62
     7
370
    15
100
AcDbLine
 10
1129.4591017626
 20
523.5449833868
 30
0.0
 11
1129.4319651202
 21
518.545057027
 31
0.0
  0
LWPOLYLINE
  5
2A8
330
1F
100
AcDbEntity
  8
0
  6
SLD-Solid
 62
     7
370
    15
100
AcDbPolyline
 90
        3
 70
   128
 43
0.0
 10
1127.1997406555
 20
459.6692114502
 10
1127.4265264421
 20
459.8721798343
 10
1127.4423686354
 20
459.8881521584
  0
LINE
  5
2A9
330
1F
100
AcDbEntity
  8
0
  6
SLD-Center
 62
     7
370
     0
100
AcDbLine
 10
420.3319827939
 20
1099.7667234826
 30
0.0
 11
475.9918335759
 21
1099.7667234812
 31
0.0
  0
LINE
  5
2AA
330
1F
100
AcDbEntity
  8
0
  6
SLD-Center
 62
     7
370
     0
100
AcDbLine
 10
493.5319827939
 20
291.0667234828
 30
0.0
 11
493.5319827939
 21
489.2946990978
 31
0.0
  0
LINE
  5
2AB
330
1F
100
AcDbEntity
  8
0
  6
SLD-Center
 62
     7
370
     0
100
AcDbLine
 10
1082.5319827939
 20
289.0667234826
 30
0.0
 11
1082.5319827939
 21
492.5667234826
 31
0.0
  0
ENDSEC
  0
SECTION
  2
OBJECTS
  0
DICTIONARY
  5
C
330
0
100
AcDbDictionary
281
     1
  3
ACAD_GROUP
350
D
  3
ACAD_LAYOUT
350
1A
  3
ACAD_MLINESTYLE
350
17
  3
ACAD_PLOTSETTINGS
350
19
  3
ACAD_PLOTSTYLENAME
350
E
  0
DICTIONARY
  5
D
102
{ACAD_REACTORS
330
C
102
}
330
C
100
AcDbDictionary
281
     1
  0
DICTIONARY
  5
1A
102
{ACAD_REACTORS
330
C
102
}
330
C
100
AcDbDictionary
281
     1
  3
Layout1
350
1E
  3
Layout2
350
26
  3
Model
350
22
  0
DICTIONARY
  5
17
102
{ACAD_REACTORS
330
C
102
}
330
C
100
AcDbDictionary
281
     1
  3
Standard
350
18
  0
DICTIONARY
  5
19
102
{ACAD_REACTORS
330
C
102
}
330
C
100
AcDbDictionary
281
     1
  0
ACDBDICTIONARYWDFLT
  5
E
102
{ACAD_REACTORS
330
C
102
}
330
C
100
AcDbDictionary
281
     1
  3
Normal
350
F
100
AcDbDictionaryWithDefault
340
F
  0
LAYOUT
  5
1E
102
{ACAD_REACTORS
330
1A
102
}
330
1A
100
AcDbPlotSettings
  1

  2
none_device
  4

  6

 40
0.0
 41
0.0
 42
0.0
 43
0.0
 44
0.0
 45
0.0
 46
0.0
 47
0.0
 48
0.0
 49
0.0
140
0.0
141
0.0
142
1.0
143
1.0
 70
   688
 72
     0
 73
     0
 74
     5
  7

 75
    16
147
1.0
148
0.0
149
0.0
100
AcDbLayout
  1
Layout1
 70
     1
 71
     1
 10
0.0
 20
0.0
 11
420.0
 21
297.0
 12
0.0
 22
0.0
 32
0.0
 14
1.0000000000E+20
 24
1.0000000000E+20
 34
1.0000000000E+20
 15
-1.0000000000E+20
 25
-1.0000000000E+20
 35
-1.0000000000E+20
146
0.0
 13
0.0
 23
0.0
 33
0.0
 16
1.0
 26
0.0
 36
0.0
 17
0.0
 27
1.0
 37
0.0
 76
     0
330
1B
  0
LAYOUT
  5
26
102
{ACAD_REACTORS
330
1A
102
}
330
1A
100
AcDbPlotSettings
  1

  2
none_device
  4

  6

 40
0.0
 41
0.0
 42
0.0
 43
0.0
 44
0.0
 45
0.0
 46
0.0
 47
0.0
 48
0.0
 49
0.0
140
0.0
141
0.0
142
1.0
143
1.0
 70
   688
 72
     0
 73
     0
 74
     5
  7

 75
    16
147
1.0
148
0.0
149
0.0
100
AcDbLayout
  1
Layout2
 70
     1
 71
     2
 10
0.0
 20
0.0
 11
0.0
 21
0.0
 12
0.0
 22
0.0
 32
0.0
 14
0.0
 24
0.0
 34
0.0
 15
0.0
 25
0.0
 35
0.0
146
0.0
 13
0.0
 23
0.0
 33
0.0
 16
1.0
 26
0.0
 36
0.0
 17
0.0
 27
1.0
 37
0.0
 76
     0
330
23
  0
LAYOUT
  5
22
102
{ACAD_REACTORS
330
1A
102
}
330
1A
100
AcDbPlotSettings
  1

  2
none_device
  4

  6

 40
0.0
 41
0.0
 42
0.0
 43
0.0
 44
0.0
 45
0.0
 46
0.0
 47
0.0
 48
0.0
 49
0.0
140
0.0
141
0.0
142
1.0
143
1.0
 70
  1712
 72
     0
 73
     0
 74
     0
  7

 75
     0
147
1.0
148
0.0
149
0.0
100
AcDbLayout
  1
Model
 70
     1
 71
     0
 10
0.0
 20
0.0
 11
1500.0
 21
1500.0
 12
0.0
 22
0.0
 32
0.0
 14
0.0
 24
0.0
 34
0.0
 15
1500.0
 25
1500.0
 35
0.0
146
0.0
 13
0.0
 23
0.0
 33
0.0
 16
1.0
 26
0.0
 36
0.0
 17
0.0
 27
1.0
 37
0.0
 76
     0
330
1F
331
29
  0
MLINESTYLE
  5
18
102
{ACAD_REACTORS
330
17
102
}
330
17
100
AcDbMlineStyle
  2
Standard
 70
     0
  3

 62
   256
 51
90.0
 52
90.0
 71
     2
 49
0.5
 62
   256
  6
BYLAYER
 49
-0.5
 62
   256
  6
BYLAYER
  0
ACDBPLACEHOLDER
  5
F
102
{ACAD_REACTORS
330
E
102
}
330
E
  0
ENDSEC
  0
EOF
