  0
SECTION
  2
HEADER
  9
$ACADVER
  1
AC1015
  9
$ACADMAINTVER
 70
     6
  9
$DWGCODEPAGE
  3
ANSI_1252
  9
$INSBASE
 10
0.0
 20
0.0
 30
0.0
  9
$EXTMIN
 10
0.0
 20
0.0
 30
0.0
  9
$EXTMAX
 10
1500.0
 20
1500.0
 30
0.0
  9
$LIMMIN
 10
0.0
 20
0.0
  9
$LIMMAX
 10
1500.0
 20
1500.0
  9
$ORTHOMODE
 70
     0
  9
$REGENMODE
 70
     1
  9
$FILLMODE
 70
     1
  9
$QTEXTMODE
 70
     0
  9
$MIRRTEXT
 70
     1
  9
$LTSCALE
 40
1.0
  9
$ATTMODE
 70
     1
  9
$TEXTSIZE
 40
3.5
  9
$TRACEWID
 40
1.0
  9
$TEXTSTYLE
  7
STANDARD
  9
$CLAYER
  8
0
  9
$CELTYPE
  6
ByLayer
  9
$CECOLOR
 62
   256
  9
$CELTSCALE
 40
1.0
  9
$DISPSILH
 70
     0
  9
$DIMSCALE
 40
1.0
  9
$DIMASZ
 40
3.302
  9
$DIMEXO
 40
1.0
  9
$DIMDLI
 40
3.75
  9
$DIMRND
 40
0.0
  9
$DIMDLE
 40
0.0
  9
$DIMEXE
 40
1.0
  9
$DIMTP
 40
0.0
  9
$DIMTM
 40
0.0
  9
$DIMTXT
 40
3.5
  9
$DIMCEN
 40
2.5
  9
$DIMTSZ
 40
0.0
  9
$DIMTOL
 70
     0
  9
$DIMLIM
 70
     0
  9
$DIMTIH
 70
     1
  9
$DIMTOH
 70
     1
  9
$DIMSE1
 70
     0
  9
$DIMSE2
 70
     0
  9
$DIMTAD
 70
     1
  9
$DIMZIN
 70
     0
  9
$DIMBLK
  1

  9
$DIMASO
 70
     1
  9
$DIMSHO
 70
     1
  9
$DIMPOST
  1

  9
$DIMAPOST
  1

  9
$DIMALT
 70
     0
  9
$DIMALTD
 70
     3
  9
$DIMALTF
 40
0.0393700787
  9
$DIMLFAC
 40
1.0
  9
$DIMTOFL
 70
     1
  9
$DIMTVP
 40
0.0
  9
$DIMTIX
 70
     0
  9
$DIMSOXD
 70
     0
  9
$DIMSAH
 70
     0
  9
$DIMBLK1
  1

  9
$DIMBLK2
  1

  9
$DIMSTYLE
  2
ISO-25
  9
$DIMCLRD
 70
     0
  9
$DIMCLRE
 70
     0
  9
$DIMCLRT
 70
     0
  9
$DIMTFAC
 40
1.0
  9
$DIMGAP
 40
1.524
  9
$DIMJUST
 70
     0
  9
$DIMSD1
 70
     0
  9
$DIMSD2
 70
     0
  9
$DIMTOLJ
 70
     0
  9
$DIMTZIN
 70
     0
  9
$DIMALTZ
 70
     0
  9
$DIMALTTZ
 70
     0
  9
$DIMUPT
 70
     0
  9
$DIMDEC
 70
     1
  9
$DIMTDEC
 70
     1
  9
$DIMALTU
 70
     2
  9
$DIMALTTD
 70
     3
  9
$DIMTXSTY
  7
STANDARD
  9
$DIMAUNIT
 70
     0
  9
$DIMADEC
 70
     1
  9
$DIMALTRND
 40
0.0
  9
$DIMAZIN
 70
     0
  9
$DIMDSEP
 70
    44
  9
$DIMATFIT
 70
     3
  9
$DIMFRAC
 70
     0
  9
$DIMLDRBLK
  1

  9
$DIMLUNIT
 70
     2
  9
$DIMLWD
 70
    -2
  9
$DIMLWE
 70
    -2
  9
$DIMTMOVE
 70
     0
  9
$LUNITS
 70
     2
  9
$LUPREC
 70
     1
  9
$SKETCHINC
 40
1.0
  9
$FILLETRAD
 40
10.0
  9
$AUNITS
 70
     0
  9
$AUPREC
 70
     1
  9
$MENU
  1
.
  9
$ELEVATION
 40
0.0
  9
$PELEVATION
 40
0.0
  9
$THICKNESS
 40
0.0
  9
$LIMCHECK
 70
     0
  9
$CHAMFERA
 40
10.0
  9
$CHAMFERB
 40
10.0
  9
$CHAMFERC
 40
20.0
  9
$CHAMFERD
 40
0.0
  9
$SKPOLY
 70
     0
  9
$TDCREATE
 40
2455637.333171007
  9
$TDUCREATE
 40
2455637.333171007
  9
$TDUPDATE
 40
2455637.333171018
  9
$TDUUPDATE
 40
2455637.333171018
  9
$TDINDWG
 40
0.0000000116
  9
$TDUSRTIMER
 40
0.0000000116
  9
$USRTIMER
 70
     1
  9
$ANGBASE
 50
0.0
  9
$ANGDIR
 70
     0
  9
$PDMODE
 70
     0
  9
$PDSIZE
 40
-1.0
  9
$PLINEWID
 40
0.0
  9
$SPLFRAME
 70
     0
  9
$SPLINETYPE
 70
     6
  9
$SPLINESEGS
 70
     8
  9
$HANDSEED
  5
2A0
  9
$SURFTAB1
 70
     6
  9
$SURFTAB2
 70
     6
  9
$SURFTYPE
 70
     6
  9
$SURFU
 70
     6
  9
$SURFV
 70
     6
  9
$UCSBASE
  2

  9
$UCSNAME
  2

  9
$UCSORG
 10
0.0
 20
0.0
 30
0.0
  9
$UCSXDIR
 10
1.0
 20
0.0
 30
0.0
  9
$UCSYDIR
 10
0.0
 20
1.0
 30
0.0
  9
$UCSORTHOREF
  2

  9
$UCSORTHOVIEW
 70
     0
  9
$UCSORGTOP
 10
0.0
 20
0.0
 30
0.0
  9
$UCSORGBOTTOM
 10
0.0
 20
0.0
 30
0.0
  9
$UCSORGLEFT
 10
0.0
 20
0.0
 30
0.0
  9
$UCSORGRIGHT
 10
0.0
 20
0.0
 30
0.0
  9
$UCSORGFRONT
 10
0.0
 20
0.0
 30
0.0
  9
$UCSORGBACK
 10
0.0
 20
0.0
 30
0.0
  9
$PUCSBASE
  2

  9
$PUCSNAME
  2

  9
$PUCSORG
 10
0.0
 20
0.0
 30
0.0
  9
$PUCSXDIR
 10
1.0
 20
0.0
 30
0.0
  9
$PUCSYDIR
 10
0.0
 20
1.0
 30
0.0
  9
$PUCSORTHOREF
  2

  9
$PUCSORTHOVIEW
 70
     0
  9
$PUCSORGTOP
 10
0.0
 20
0.0
 30
0.0
  9
$PUCSORGBOTTOM
 10
0.0
 20
0.0
 30
0.0
  9
$PUCSORGLEFT
 10
0.0
 20
0.0
 30
0.0
  9
$PUCSORGRIGHT
 10
0.0
 20
0.0
 30
0.0
  9
$PUCSORGFRONT
 10
0.0
 20
0.0
 30
0.0
  9
$PUCSORGBACK
 10
0.0
 20
0.0
 30
0.0
  9
$USERI1
 70
     0
  9
$USERI2
 70
     0
  9
$USERI3
 70
     0
  9
$USERI4
 70
     0
  9
$USERI5
 70
     0
  9
$USERR1
 40
0.0
  9
$USERR2
 40
0.0
  9
$USERR3
 40
0.0
  9
$USERR4
 40
0.0
  9
$USERR5
 40
0.0
  9
$WORLDVIEW
 70
     1
  9
$SHADEDGE
 70
     3
  9
$SHADEDIF
 70
    70
  9
$TILEMODE
 70
     1
  9
$MAXACTVP
 70
    64
  9
$PINSBASE
 10
0.0
 20
0.0
 30
0.0
  9
$PLIMCHECK
 70
     0
  9
$PEXTMIN
 10
1.0000000000E+20
 20
1.0000000000E+20
 30
1.0000000000E+20
  9
$PEXTMAX
 10
-1.0000000000E+20
 20
-1.0000000000E+20
 30
-1.0000000000E+20
  9
$PLIMMIN
 10
0.0
 20
0.0
  9
$PLIMMAX
 10
420.0
 20
297.0
  9
$UNITMODE
 70
     0
  9
$VISRETAIN
 70
     1
  9
$PLINEGEN
 70
     0
  9
$PSLTSCALE
 70
     1
  9
$TREEDEPTH
 70
  3020
  9
$CMLSTYLE
  2
Standard
  9
$CMLJUST
 70
     0
  9
$CMLSCALE
 40
20.0
  9
$PROXYGRAPHICS
 70
     1
  9
$MEASUREMENT
 70
     1
  9
$CELWEIGHT
370
    -1
  9
$ENDCAPS
280
     0
  9
$JOINSTYLE
280
     0
  9
$LWDISPLAY
290
     1
  9
$INSUNITS
 70
     4
  9
$HYPERLINKBASE
  1

  9
$STYLESHEET
  1

  9
$XEDIT
290
     1
  9
$CEPSNTYPE
380
     0
  9
$PSTYLEMODE
290
     1
  9
$FINGERPRINTGUID
  2
{4B39F45F-F90B-49D2-A852-4BF41C9B6ADD}
  9
$VERSIONGUID
  2
{FAEB1C32-E019-11D5-929B-00C0DF256EC4}
  9
$EXTNAMES
290
     1
  9
$PSVPSCALE
 40
0.0
  9
$OLESTARTUP
290
     0
  0
ENDSEC
  0
SECTION
  2
CLASSES
  0
CLASS
  1
ACDBDICTIONARYWDFLT
  2
AcDbDictionaryWithDefault
  3
ObjectDBX Classes
 90
        0
280
     0
281
     0
  0
CLASS
  1
VISUALSTYLE
  2
AcDbVisualStyle
  3
ObjectDBX Classes
 90
     4095
280
     0
281
     0
  0
CLASS
  1
MATERIAL
  2
AcDbMaterial
  3
ObjectDBX Classes
 90
     1153
280
     0
281
     0
  0
CLASS
  1
ACDBPLACEHOLDER
  2
AcDbPlaceHolder
  3
ObjectDBX Classes
 90
        0
280
     0
281
     0
  0
CLASS
  1
LAYOUT
  2
AcDbLayout
  3
ObjectDBX Classes
 90
        0
280
     0
281
     0
  0
ENDSEC
  0
SECTION
  2
TABLES
  0
TABLE
  2
VPORT
  5
8
330
0
100
AcDbSymbolTable
 70
     1
  0
VPORT
  5
29
330
8
100
AcDbSymbolTableRecord
100
AcDbViewportTableRecord
  2
*Active
 70
     0
 10
0.0
 20
0.0
 11
1.0
 21
1.0
 12
750.0
 22
750.0
 13
0.0
 23
0.0
 14
10.0
 24
10.0
 15
10.0
 25
10.0
 16
0.0
 26
0.0
 36
1.0
 17
0.0
 27
0.0
 37
0.0
 40
1500.0
 41
1.0
 42
50.0
 43
0.0
 44
0.0
 50
0.0
 51
0.0
 71
     0
 72
  2000
 73
     1
 74
     3
 75
     0
 76
     0
 77
     0
 78
     0
281
     0
 65
     1
110
0.0
120
0.0
130
0.0
111
1.0
121
0.0
131
0.0
112
0.0
122
1.0
132
0.0
 79
     0
146
0.0
  0
ENDTAB
  0
TABLE
  2
LTYPE
  5
5
330
0
100
AcDbSymbolTable
 70
     8
  0
LTYPE
  5
14
330
5
100
AcDbSymbolTableRecord
100
AcDbLinetypeTableRecord
  2
ByBlock
 70
     0
  3

 72
    65
 73
     0
 40
0.0
  0
LTYPE
  5
15
330
5
100
AcDbSymbolTableRecord
100
AcDbLinetypeTableRecord
  2
ByLayer
 70
     0
  3

 72
    65
 73
     0
 40
0.0
  0
LTYPE
  5
16
330
5
100
AcDbSymbolTableRecord
100
AcDbLinetypeTableRecord
  2
Continuous
 70
     0
  3
Solid line
 72
    65
 73
     0
 40
0.0
  0
LTYPE
  5
3F
330
5
100
AcDbSymbolTableRecord
100
AcDbLinetypeTableRecord
  2
SLD-Solid
 70
     0
  3
SolidWorks Line Style
 72
    65
 73
     0
 40
0.0
  0
LTYPE
  5
40
330
5
100
AcDbSymbolTableRecord
100
AcDbLinetypeTableRecord
  2
SLD-Dashed
 70
     0
  3
SolidWorks Line Style
 72
    65
 73
     2
 40
1.905
 49
1.27
 74
     0
 49
-0.635
 74
     0
  0
LTYPE
  5
41
330
5
100
AcDbSymbolTableRecord
100
AcDbLinetypeTableRecord
  2
SLD-Phantom
 70
     0
  3
SolidWorks Line Style
 72
    65
 73
     6
 40
12.7
 49
6.35
 74
     0
 49
-1.27
 74
     0
 49
1.27
 74
     0
 49
-1.27
 74
     0
 49
1.27
 74
     0
 49
-1.27
 74
     0
  0
LTYPE
  5
42
330
5
100
AcDbSymbolTableRecord
100
AcDbLinetypeTableRecord
  2
SLD-Chain
 70
     0
  3
SolidWorks Line Style
 72
    65
 73
     4
 40
10.16
 49
6.35
 74
     0
 49
-1.27
 74
     0
 49
1.27
 74
     0
 49
-1.27
 74
     0
  0
LTYPE
  5
43
330
5
100
AcDbSymbolTableRecord
100
AcDbLinetypeTableRecord
  2
SLD-Center
 70
     0
  3
SolidWorks Line Style
 72
    65
 73
     4
 40
19.05
 49
15.24
 74
     0
 49
-1.27
 74
     0
 49
1.27
 74
     0
 49
-1.27
 74
     0
  0
LTYPE
  5
44
330
5
100
AcDbSymbolTableRecord
100
AcDbLinetypeTableRecord
  2
SLD-Stitch
 70
     0
  3
SolidWorks Line Style
 72
    65
 73
     2
 40
0.635
 49
0.0
 74
     0
 49
-0.635
 74
     0
  0
LTYPE
  5
45
330
5
100
AcDbSymbolTableRecord
100
AcDbLinetypeTableRecord
  2
SLD-Thin-Thick-Chain
 70
     0
  3
SolidWorks Line Style
 72
    65
 73
     4
 40
10.16
 49
6.35
 74
     0
 49
-1.27
 74
     0
 49
1.27
 74
     0
 49
-1.27
 74
     0
  0
ENDTAB
  0
TABLE
  2
LAYER
  5
2
330
0
100
AcDbSymbolTable
 70
     4
  0
LAYER
  5
10
330
2
100
AcDbSymbolTableRecord
100
AcDbLayerTableRecord
  2
0
 70
     0
 62
     7
  6
Continuous
370
    -3
390
F
  0
LAYER
  5
46
330
2
100
AcDbSymbolTableRecord
100
AcDbLayerTableRecord
  2
FORMAT
 70
     0
 62
     7
  6
SLD-Solid
370
    -3
390
F
  0
LAYER
  5
47
330
2
100
AcDbSymbolTableRecord
100
AcDbLayerTableRecord
  2
SLD-0
 70
     0
 62
     1
  6
SLD-Solid
370
    -3
390
F
  0
LAYER
  5
48
330
2
100
AcDbSymbolTableRecord
100
AcDbLayerTableRecord
  2
WATERMARK
 70
     0
 62
    20
  6
SLD-Solid
370
    -3
390
F
  0
ENDTAB
  0
TABLE
  2
STYLE
  5
3
330
0
100
AcDbSymbolTable
 70
     1
  0
STYLE
  5
11
330
3
100
AcDbSymbolTableRecord
100
AcDbTextStyleTableRecord
  2
STANDARD
 70
     0
 40
0.0
 41
1.0
 50
0.0
 71
     0
 42
2.5
  3
GOTHIC.TTF
  4

1001
ACAD
1000
CENTURY GOTHIC
1071
       34
  0
ENDTAB
  0
TABLE
  2
VIEW
  5
6
330
0
100
AcDbSymbolTable
 70
     0
  0
ENDTAB
  0
TABLE
  2
UCS
  5
7
330
0
100
AcDbSymbolTable
 70
     0
  0
ENDTAB
  0
TABLE
  2
APPID
  5
9
330
0
100
AcDbSymbolTable
 70
     1
  0
APPID
  5
12
330
9
100
AcDbSymbolTableRecord
100
AcDbRegAppTableRecord
  2
ACAD
 70
     0
  0
ENDTAB
  0
TABLE
  2
DIMSTYLE
  5
A
330
0
100
AcDbSymbolTable
 70
     1
100
AcDbDimStyleTable
  0
DIMSTYLE
105
27
330
A
100
AcDbSymbolTableRecord
100
AcDbDimStyleTableRecord
  2
ISO-25
 70
     0
 41
2.5
 42
0.625
 43
3.75
 44
1.25
 73
     0
 74
     0
 77
     1
 78
     8
140
2.5
141
2.5
143
0.0393700787
147
0.625
171
     3
172
     1
271
     2
272
     2
274
     3
278
    44
283
     0
284
     8
340
11
  0
ENDTAB
  0
TABLE
  2
BLOCK_RECORD
  5
1
330
0
100
AcDbSymbolTable
 70
     1
  0
BLOCK_RECORD
  5
1F
330
1
100
AcDbSymbolTableRecord
100
AcDbBlockTableRecord
  2
*Model_Space
340
22
  0
BLOCK_RECORD
  5
1B
330
1
100
AcDbSymbolTableRecord
100
AcDbBlockTableRecord
  2
*Paper_Space
340
1E
  0
BLOCK_RECORD
  5
23
330
1
100
AcDbSymbolTableRecord
100
AcDbBlockTableRecord
  2
*Paper_Space0
340
26
  0
ENDTAB
  0
ENDSEC
  0
SECTION
  2
BLOCKS
  0
BLOCK
  5
20
330
1F
100
AcDbEntity
  8
0
100
AcDbBlockBegin
  2
*Model_Space
 70
     0
 10
0.0
 20
0.0
 30
0.0
  3
*Model_Space
  1

  0
ENDBLK
  5
21
330
1F
100
AcDbEntity
  8
0
100
AcDbBlockEnd
  0
BLOCK
  5
1C
330
1B
100
AcDbEntity
 67
     1
  8
0
100
AcDbBlockBegin
  2
*Paper_Space
 70
     0
 10
0.0
 20
0.0
 30
0.0
  3
*Paper_Space
  1

  0
ENDBLK
  5
1D
330
1B
100
AcDbEntity
 67
     1
  8
0
100
AcDbBlockEnd
  0
BLOCK
  5
24
330
23
100
AcDbEntity
  8
0
100
AcDbBlockBegin
  2
*Paper_Space0
 70
     0
 10
0.0
 20
0.0
 30
0.0
  3
*Paper_Space0
  1

  0
ENDBLK
  5
25
330
23
100
AcDbEntity
  8
0
100
AcDbBlockEnd
  0
ENDSEC
  0
SECTION
  2
ENTITIES
  0
SPLINE
  5
49
330
1F
100
AcDbEntity
  8
0
  6
SLD-Solid
 62
     7
370
    15
100
AcDbSpline
210
0.0
220
0.0
230
1.0
 70
     8
 71
     3
 72
    13
 73
     9
 74
     0
 42
0.00000001
 43
0.00000001
 40
0.0
 40
0.0
 40
0.0
 40
0.0
 40
0.1560186113410691
 40
0.4086735129029221
 40
0.5953335874249543
 40
0.7561090603069158
 40
0.9249103809606328
 40
1.0
 40
1.0
 40
1.0
 40
1.0
 10
333.0041974984663
 20
938.1876553195989
 30
0.0
 10
333.0039410576478
 20
938.1898735885998
 30
0.0
 10
333.0032693392591
 20
938.1956840991363
 30
0.0
 10
333.013628181865
 20
938.2187346107928
 30
0.0
 10
333.0593486589875
 20
938.2584911143581
 30
0.0
 10
333.127123137354
 20
938.2890287148426
 30
0.0
 10
333.1959784980041
 20
938.3056258638352
 30
0.0
 10
333.2396924196299
 20
938.3044795582332
 30
0.0
 10
333.2531511472305
 20
938.3041266314247
 30
0.0
  0
ARC
  5
4A
330
1F
100
AcDbEntity
  8
0
  6
SLD-Solid
 62
     7
370
    15
100
AcDbCircle
 10
338.3531514444
 20
938.556017999
 30
0.0
 40
0.2500000000001137
100
AcDbArc
 50
270.0
 51
0.0
  0
LINE
  5
4B
330
1F
100
AcDbEntity
  8
0
  6
SLD-Solid
 62
     7
370
    15
100
AcDbLine
 10
333.2531514444
 20
938.306017999
 30
0.0
 11
338.3531514444
 21
938.306017999
 31
0.0
  0
ARC
  5
4C
330
1F
100
AcDbEntity
  8
0
  6
SLD-Solid
 62
     7
370
    15
100
AcDbCircle
 10
338.3531514444
 20
943.3821849712
 30
0.0
 40
0.2500000000001137
100
AcDbArc
 50
0.0
 51
90.0
  0
LINE
  5
4D
330
1F
100
AcDbEntity
  8
0
  6
SLD-Solid
 62
     7
370
    15
100
AcDbLine
 10
338.3531514444
 20
943.6321849712
 30
0.0
 11
333.2531514444
 21
943.6321849712
 31
0.0
  0
ARC
  5
4E
330
1F
100
AcDbEntity
  8
0
  6
SLD-Solid
 62
     7
370
    15
100
AcDbCircle
 10
332.0531514444
 20
943.0816086631
 30
0.0
 40
0.2500000000001137
100
AcDbArc
 50
90.0
 51
180.0
  0
LINE
  5
4F
330
1F
100
AcDbEntity
  8
0
  6
SLD-Solid
 62
     7
370
    15
100
AcDbLine
 10
332.316371857
 20
943.3316086631
 30
0.0
 11
332.0531514444
 21
943.3316086631
 31
0.0
  0
LINE
  5
50
330
1F
100
AcDbEntity
  8
0
  6
SLD-Solid
 62
     7
370
    15
100
AcDbLine
 10
333.8246724612
 20
925.631032355
 30
0.0
 11
338.3531514444
 21
925.631032355
 31
0.0
  0
ARC
  5
51
330
1F
100
AcDbEntity
  8
0
  6
SLD-Solid
 62
     7
370
    15
100
AcDbCircle
 10
338.3531514444
 20
925.881032355
 30
0.0
 40
0.2500000000001137
100
AcDbArc
 50
270.0
 51
0.0
  0
SPLINE
  5
52
330
1F
100
AcDbEntity
  8
0
  6
SLD-Solid
 62
     7
370
    15
100
AcDbSpline
210
0.0
220
0.0
230
1.0
 70
     8
 71
     3
 72
    13
 73
     9
 74
     0
 42
0.00000001
 43
0.00000001
 40
0.0
 40
0.0
 40
0.0
 40
0.0
 40
0.1537005146054757
 40
0.4677837651281241
 40
0.6522647620247765
 40
0.8142558356568668
 40
0.9817880838855241
 40
1.0
 40
1.0
 40
1.0
 40
1.0
 10
333.0007655070784
 20
930.2936619214031
 30
0.0
 10
333.0011294472133
 20
930.2865832037766
 30
0.0
 10
333.0022370901322
 20
930.2650392994367
 30
0.0
 10
332.9799699614453
 20
930.2244516712468
 30
0.0
 10
332.9178325178086
 20
930.1763482519534
 30
0.0
 10
332.8463623843585
 20
930.148736720414
 30
0.0
 10
332.7876510715744
 20
930.1375661598578
 30
0.0
 10
332.7565066226692
 20
930.1394450090872
 30
0.0
 10
332.7534529596221
 20
930.1396292272275
 30
0.0
  0
LINE
  5
53
330
1F
100
AcDbEntity
  8
0
  6
SLD-Solid
 62
     7
370
    15
100
AcDbLine
 10
332.7531514444
 20
930.1389907677
 30
0.0
 11
327.6531514444
 21
930.1389907677
 31
0.0
  0
ARC
  5
54
330
1F
100
AcDbEntity
  8
0
  6
SLD-Solid
 62
     7
370
    15
100
AcDbCircle
 10
327.6531514444
 20
929.8889907677
 30
0.0
 40
0.2500000000000568
100
AcDbArc
 50
90.0
 51
180.0
  0
ARC
  5
55
330
1F
100
AcDbEntity
  8
0
  6
SLD-Solid
 62
     7
370
    15
100
AcDbCircle
 10
327.6531514444
 20
925.451169553
 30
0.0
 40
0.2500000000000568
100
AcDbArc
 50
180.0
 51
270.0
  0
LINE
  5
56
330
1F
100
AcDbEntity
  8
0
  6
SLD-Solid
 62
     7
370
    15
100
AcDbLine
 10
327.6531514444
 20
925.201169553
 30
0.0
 11
332.7531514444
 21
925.201169553
 31
0.0
  0
ARC
  5
57
330
1F
100
AcDbEntity
  8
0
  6
SLD-Solid
 62
     7
370
    15
100
AcDbCircle
 10
333.9531514444
 20
926.1816086631
 30
0.0
 40
0.2499999999999589
100
AcDbArc
 50
301.0756875733
 51
0.0
  0
LINE
  5
58
330
1F
100
AcDbEntity
  8
0
  6
SLD-Solid
 62
     7
370
    15
100
AcDbLine
 10
332.7531514444
 20
944.0620477731
 30
0.0
 11
327.6531514444
 21
944.0620477731
 31
0.0
  0
ARC
  5
59
330
1F
100
AcDbEntity
  8
0
  6
SLD-Solid
 62
     7
370
    15
100
AcDbCircle
 10
327.6531514444
 20
943.8120477731
 30
0.0
 40
0.25
100
AcDbArc
 50
90.0
 51
180.0
  0
LINE
  5
5A
330
1F
100
AcDbEntity
  8
0
  6
SLD-Solid
 62
     7
370
    15
100
AcDbLine
 10
339.6531514444
 20
929.6316086631
 30
0.0
 11
339.8495083783
 21
929.2915084771
 31
0.0
  0
LINE
  5
5B
330
1F
100
AcDbEntity
  8
0
  6
SLD-Solid
 62
     7
370
    15
100
AcDbLine
 10
339.8495083783
 20
939.9717088491
 30
0.0
 11
339.6531514444
 21
939.6316086631
 31
0.0
  0
LINE
  5
5C
330
1F
100
AcDbEntity
  8
0
  6
SLD-Solid
 62
     7
370
    15
100
AcDbLine
 10
339.4031514444
 20
939.6316086631
 30
0.0
 11
339.3149453274
 21
939.7843861392
 31
0.0
  0
LINE
  5
5D
330
1F
100
AcDbEntity
  8
0
  6
SLD-Solid
 62
     7
370
    15
100
AcDbLine
 10
339.3149453274
 20
929.478831187
 30
0.0
 11
339.4031514444
 21
929.6316086631
 31
0.0
  0
LINE
  5
5E
330
1F
100
AcDbEntity
  8
0
  6
SLD-Solid
 62
     7
370
    15
100
AcDbLine
 10
334.2031514444
 20
929.6316086631
 30
0.0
 11
334.2913575613
 21
929.478831187
 31
0.0
  0
LINE
  5
5F
330
1F
100
AcDbEntity
  8
0
  6
SLD-Solid
 62
     7
370
    15
100
AcDbLine
 10
339.6531514444
 20
937.6316086631
 30
0.0
 11
339.4031514444
 21
937.6316086631
 31
0.0
  0
LINE
  5
60
330
1F
100
AcDbEntity
  8
0
  6
SLD-Solid
 62
     7
370
    15
100
AcDbLine
 10
339.4031514444
 20
931.6316086631
 30
0.0
 11
339.6531514444
 21
931.6316086631
 31
0.0
  0
LINE
  5
61
330
1F
100
AcDbEntity
  8
0
  6
SLD-Solid
 62
     7
370
    15
100
AcDbLine
 10
450.2031514441
 20
467.3316086631
 30
0.0
 11
450.2031514441
 21
467.8316086631
 31
0.0
  0
LINE
  5
62
330
1F
100
AcDbEntity
  8
0
  6
SLD-Solid
 62
     7
370
    15
100
AcDbLine
 10
439.8031514441
 20
467.8316086631
 30
0.0
 11
439.8031514441
 21
467.3316086631
 31
0.0
  0
LINE
  5
63
330
1F
100
AcDbEntity
  8
0
  6
SLD-Solid
 62
     7
370
    15
100
AcDbLine
 10
395.2031514441
 20
467.3316086631
 30
0.0
 11
395.2031514441
 21
467.8316086631
 31
0.0
  0
LINE
  5
64
330
1F
100
AcDbEntity
  8
0
  6
SLD-Solid
 62
     7
370
    15
100
AcDbLine
 10
384.8031514441
 20
467.8316086631
 30
0.0
 11
384.8031514441
 21
467.3316086631
 31
0.0
  0
LINE
  5
65
330
1F
100
AcDbEntity
  8
0
  6
SLD-Solid
 62
     7
370
    15
100
AcDbLine
 10
1039.2031514441
 20
467.3316086631
 30
0.0
 11
1039.2031514441
 21
467.8316086631
 31
0.0
  0
LINE
  5
66
330
1F
100
AcDbEntity
  8
0
  6
SLD-Solid
 62
     7
370
    15
100
AcDbLine
 10
1028.8031514441
 20
467.8316086631
 30
0.0
 11
1028.8031514441
 21
467.3316086631
 31
0.0
  0
LINE
  5
67
330
1F
100
AcDbEntity
  8
0
  6
SLD-Solid
 62
     7
370
    15
100
AcDbLine
 10
984.2031514441
 20
467.3316086631
 30
0.0
 11
984.2031514441
 21
467.8316086631
 31
0.0
  0
LINE
  5
68
330
1F
100
AcDbEntity
  8
0
  6
SLD-Solid
 62
     7
370
    15
100
AcDbLine
 10
973.8031514441
 20
467.8316086631
 30
0.0
 11
973.8031514441
 21
467.3316086631
 31
0.0
  0
LINE
  5
69
330
1F
100
AcDbEntity
  8
0
  6
SLD-Solid
 62
     7
370
    15
100
AcDbLine
 10
961.7031514444
 20
884.1316086631
 30
0.0
 11
961.7031514444
 21
884.6316086631
 31
0.0
  0
LINE
  5
6A
330
1F
100
AcDbEntity
  8
0
  6
SLD-Solid
 62
     7
370
    15
100
AcDbLine
 10
951.3031514444
 20
884.6316086631
 30
0.0
 11
951.3031514444
 21
884.1316086631
 31
0.0
  0
LINE
  5
6B
330
1F
100
AcDbEntity
  8
0
  6
SLD-Solid
 62
     7
370
    15
100
AcDbLine
 10
1061.7031514444
 20
884.1316086631
 30
0.0
 11
1061.7031514444
 21
884.6316086631
 31
0.0
  0
LINE
  5
6C
330
1F
100
AcDbEntity
  8
0
  6
SLD-Solid
 62
     7
370
    15
100
AcDbLine
 10
1051.3031514444
 20
884.6316086631
 30
0.0
 11
1051.3031514444
 21
884.1316086631
 31
0.0
  0
LINE
  5
6D
330
1F
100
AcDbEntity
  8
0
  6
SLD-Solid
 62
     7
370
    15
100
AcDbLine
 10
372.7031514444
 20
884.1316086631
 30
0.0
 11
372.7031514444
 21
884.6316086631
 31
0.0
  0
LINE
  5
6E
330
1F
100
AcDbEntity
  8
0
  6
SLD-Solid
 62
     7
370
    15
100
AcDbLine
 10
362.3031514444
 20
884.6316086631
 30
0.0
 11
362.3031514444
 21
884.1316086631
 31
0.0
  0
LINE
  5
6F
330
1F
100
AcDbEntity
  8
0
  6
SLD-Solid
 62
     7
370
    15
100
AcDbLine
 10
472.7031514444
 20
884.1316086631
 30
0.0
 11
472.7031514444
 21
884.6316086631
 31
0.0
  0
LINE
  5
70
330
1F
100
AcDbEntity
  8
0
  6
SLD-Solid
 62
     7
370
    15
100
AcDbLine
 10
462.3031514444
 20
884.6316086631
 30
0.0
 11
462.3031514444
 21
884.1316086631
 31
0.0
  0
LINE
  5
71
330
1F
100
AcDbEntity
  8
0
  6
SLD-Solid
 62
     7
370
    15
100
AcDbLine
 10
1107.6654373801
 20
1066.8718610418
 30
0.0
 11
1115.9399345656
 21
1073.7662570508
 31
0.0
  0
LINE
  5
72
330
1F
100
AcDbEntity
  8
0
  6
SLD-Solid
 62
     7
370
    15
100
AcDbLine
 10
1090.0739950055
 20
1128.5247776766
 30
0.0
 11
1087.5793327457
 21
1128.690534601
 31
0.0
  0
LINE
  5
73
330
1F
100
AcDbEntity
  8
0
  6
SLD-Solid
 62
     7
370
    15
100
AcDbLine
 10
1098.3259658862
 20
1127.9764784796
 30
0.0
 11
1095.062831528
 21
1128.1932962525
 31
0.0
  0
LINE
  5
74
330
1F
100
AcDbEntity
  8
0
  6
SLD-Solid
 62
     7
370
    15
100
AcDbLine
 10
1115.9399345656
 20
1073.7662570508
 30
0.0
 11
1131.701128727
 21
1088.0715488176
 31
0.0
  0
LINE
  5
75
330
1F
100
AcDbEntity
  8
0
  6
SLD-Solid
 62
     7
370
    15
100
AcDbLine
 10
1098.8230151607
 20
1127.9222381007
 30
0.0
 11
1098.3259658862
 21
1127.9764784796
 31
0.0
  0
ARC
  5
76
330
1F
100
AcDbEntity
  8
0
  6
SLD-Solid
 62
     7
370
    15
100
AcDbCircle
 10
1131.029049484
 20
1088.8120280483
 30
0.0
 40
1.000000000000163
100
AcDbArc
 50
312.2277453179
 51
18.0
  0
LINE
  5
77
330
1F
100
AcDbEntity
  8
0
  6
SLD-Solid
 62
     7
370
    15
100
AcDbLine
 10
1097.9179421122
 20
1090.3994308016
 30
0.0
 11
1099.8308429682
 21
1090.9842632839
 31
0.0
  0
LINE
  5
78
330
1F
100
AcDbEntity
  8
0
  6
SLD-Solid
 62
     7
370
    15
100
AcDbLine
 10
1095.0663227242
 20
1128.2030863314
 30
0.0
 11
1090.0718751522
 21
1128.5349405796
 31
0.0
  0
LINE
  5
79
330
1F
100
AcDbEntity
  8
0
  6
SLD-Solid
 62
     7
370
    15
100
AcDbLine
 10
1085.85968861
 20
1089.7534171661
 30
0.0
 11
1096.9563400078
 21
1093.3589377675
 31
0.0
  0
LINE
  5
7A
330
1F
100
AcDbEntity
  8
0
  6
SLD-Solid
 62
     7
370
    15
100
AcDbLine
 10
1094.4842040528
 20
1100.9673898979
 30
0.0
 11
1083.387552655
 21
1097.3618692965
 31
0.0
  0
LINE
  5
7B
330
1F
100
AcDbEntity
  8
0
  6
SLD-Solid
 62
     7
370
    15
100
AcDbLine
 10
446.0031514441
 20
299.3316086631
 30
0.0
 11
446.0031514441
 21
303.3316086631
 31
0.0
  0
LINE
  5
7C
330
1F
100
AcDbEntity
  8
0
  6
SLD-Solid
 62
     7
370
    15
100
AcDbLine
 10
389.0031514441
 20
303.3316086631
 30
0.0
 11
389.0031514441
 21
299.3316086631
 31
0.0
  0
ARC
  5
7D
330
1F
100
AcDbEntity
  8
0
  6
SLD-Solid
 62
     7
370
    15
100
AcDbCircle
 10
444.0031514441
 20
299.3316086631
 30
0.0
 40
2.0
100
AcDbArc
 50
270.0
 51
0.0
  0
ARC
  5
7E
330
1F
100
AcDbEntity
  8
0
  6
SLD-Solid
 62
     7
370
    15
100
AcDbCircle
 10
391.0031514441
 20
299.3316086631
 30
0.0
 40
2.0
100
AcDbArc
 50
180.0
 51
270.0
  0
LINE
  5
7F
330
1F
100
AcDbEntity
  8
0
  6
SLD-Solid
 62
     7
370
    15
100
AcDbLine
 10
1035.0031514441
 20
299.3316086631
 30
0.0
 11
1035.0031514441
 21
303.3316086631
 31
0.0
  0
LINE
  5
80
330
1F
100
AcDbEntity
  8
0
  6
SLD-Solid
 62
     7
370
    15
100
AcDbLine
 10
978.0031514441
 20
303.3316086631
 30
0.0
 11
978.0031514441
 21
299.3316086631
 31
0.0
  0
ARC
  5
81
330
1F
100
AcDbEntity
  8
0
  6
SLD-Solid
 62
     7
370
    15
100
AcDbCircle
 10
1033.0031514441
 20
299.3316086631
 30
0.0
 40
2.0
100
AcDbArc
 50
270.0
 51
0.0
  0
ARC
  5
82
330
1F
100
AcDbEntity
  8
0
  6
SLD-Solid
 62
     7
370
    15
100
AcDbCircle
 10
980.0031514441
 20
299.3316086631
 30
0.0
 40
2.0
100
AcDbArc
 50
180.0
 51
270.0
  0
LINE
  5
83
330
1F
100
AcDbEntity
  8
0
  6
SLD-Solid
 62
     7
370
    15
100
AcDbLine
 10
445.8031514441
 20
303.3316086631
 30
0.0
 11
445.8031514441
 21
371.3316086631
 31
0.0
  0
LINE
  5
84
330
1F
100
AcDbEntity
  8
0
  6
SLD-Solid
 62
     7
370
    15
100
AcDbLine
 10
389.2031514441
 20
371.3316086631
 30
0.0
 11
389.2031514441
 21
303.3316086631
 31
0.0
  0
LINE
  5
85
330
1F
100
AcDbEntity
  8
0
  6
SLD-Solid
 62
     7
370
    15
100
AcDbLine
 10
1034.8031514441
 20
303.3316086631
 30
0.0
 11
1034.8031514441
 21
371.3316086631
 31
0.0
  0
LINE
  5
86
330
1F
100
AcDbEntity
  8
0
  6
SLD-Solid
 62
     7
370
    15
100
AcDbLine
 10
978.2031514441
 20
371.3316086631
 30
0.0
 11
978.2031514441
 21
303.3316086631
 31
0.0
  0
ARC
  5
87
330
1F
100
AcDbEntity
  8
0
  6
SLD-Solid
 62
     7
370
    15
100
AcDbCircle
 10
1039.9031514441
 20
463.8316086631
 30
0.0
 40
1.5
100
AcDbArc
 50
90.0
 51
180.0
  0
ARC
  5
88
330
1F
100
AcDbEntity
  8
0
  6
SLD-Solid
 62
     7
370
    15
100
AcDbCircle
 10
973.1031514441
 20
463.8316086631
 30
0.0
 40
1.5
100
AcDbArc
 50
0.0
 51
90.0
  0
LINE
  5
89
330
1F
100
AcDbEntity
  8
0
  6
SLD-Solid
 62
     7
370
    15
100
AcDbLine
 10
1038.4031514441
 20
377.3641746088
 30
0.0
 11
1038.4031514441
 21
463.8316086631
 31
0.0
  0
LINE
  5
8A
330
1F
100
AcDbEntity
  8
0
  6
SLD-Solid
 62
     7
370
    15
100
AcDbLine
 10
974.6031514441
 20
463.8316086631
 30
0.0
 11
974.6031514441
 21
377.3641746088
 31
0.0
  0
ARC
  5
8B
330
1F
100
AcDbEntity
  8
0
  6
SLD-Solid
 62
     7
370
    15
100
AcDbCircle
 10
1033.7031514441
 20
377.3641746088
 30
0.0
 40
4.699999999999818
100
AcDbArc
 50
350.5402980318
 51
0.0
  0
ARC
  5
8C
330
1F
100
AcDbEntity
  8
0
  6
SLD-Solid
 62
     7
370
    15
100
AcDbCircle
 10
979.3031514441
 20
377.3641746088
 30
0.0
 40
4.699999999999932
100
AcDbArc
 50
180.0
 51
189.4597019682
  0
LINE
  5
8D
330
1F
100
AcDbEntity
  8
0
  6
SLD-Solid
 62
     7
370
    15
100
AcDbLine
 10
974.6670646711
 20
376.5917113843
 30
0.0
 11
975.5435012238
 21
371.3316086631
 31
0.0
  0
LINE
  5
8E
330
1F
100
AcDbEntity
  8
0
  6
SLD-Solid
 62
     7
370
    15
100
AcDbLine
 10
1037.4628016645
 20
371.3316086631
 30
0.0
 11
1038.3392382171
 21
376.5917113843
 31
0.0
  0
ARC
  5
8F
330
1F
100
AcDbEntity
  8
0
  6
SLD-Solid
 62
     7
370
    15
100
AcDbCircle
 10
450.9031514441
 20
463.8316086631
 30
0.0
 40
1.5
100
AcDbArc
 50
90.0
 51
180.0
  0
ARC
  5
90
330
1F
100
AcDbEntity
  8
0
  6
SLD-Solid
 62
     7
370
    15
100
AcDbCircle
 10
384.1031514441
 20
463.8316086631
 30
0.0
 40
1.500000000000057
100
AcDbArc
 50
0.0
 51
90.0
  0
ARC
  5
91
330
1F
100
AcDbEntity
  8
0
  6
SLD-Solid
 62
     7
370
    15
100
AcDbCircle
 10
444.7031514441
 20
377.3641746088
 30
0.0
 40
4.700000000000159
100
AcDbArc
 50
350.5402980318
 51
0.0
  0
ARC
  5
92
330
1F
100
AcDbEntity
  8
0
  6
SLD-Solid
 62
     7
370
    15
100
AcDbCircle
 10
390.3031514441
 20
377.3641746088
 30
0.0
 40
4.699999999999932
100
AcDbArc
 50
180.0
 51
189.4597019682
  0
LINE
  5
93
330
1F
100
AcDbEntity
  8
0
  6
SLD-Solid
 62
     7
370
    15
100
AcDbLine
 10
449.4031514441
 20
377.3641746088
 30
0.0
 11
449.4031514441
 21
463.8316086631
 31
0.0
  0
LINE
  5
94
330
1F
100
AcDbEntity
  8
0
  6
SLD-Solid
 62
     7
370
    15
100
AcDbLine
 10
385.6031514441
 20
463.8316086631
 30
0.0
 11
385.6031514441
 21
377.3641746088
 31
0.0
  0
LINE
  5
95
330
1F
100
AcDbEntity
  8
0
  6
SLD-Solid
 62
     7
370
    15
100
AcDbLine
 10
385.6670646711
 20
376.5917113843
 30
0.0
 11
386.5435012238
 21
371.3316086631
 31
0.0
  0
LINE
  5
96
330
1F
100
AcDbEntity
  8
0
  6
SLD-Solid
 62
     7
370
    15
100
AcDbLine
 10
448.4628016645
 20
371.3316086631
 30
0.0
 11
449.3392382171
 21
376.5917113843
 31
0.0
  0
LINE
  5
97
330
1F
100
AcDbEntity
  8
0
  6
SLD-Solid
 62
     7
370
    15
100
AcDbLine
 10
1026.5031514441
 20
861.6316086631
 30
0.0
 11
1026.7031514441
 21
861.6316086631
 31
0.0
  0
LINE
  5
98
330
1F
100
AcDbEntity
  8
0
  6
SLD-Solid
 62
     7
370
    15
100
AcDbLine
 10
1026.7031514441
 20
860.6316086631
 30
0.0
 11
1026.7031514441
 21
861.6316086631
 31
0.0
  0
LINE
  5
99
330
1F
100
AcDbEntity
  8
0
  6
SLD-Solid
 62
     7
370
    15
100
AcDbLine
 10
1026.7031514441
 20
822.6316086631
 30
0.0
 11
1026.7031514441
 21
860.6316086631
 31
0.0
  0
LINE
  5
9A
330
1F
100
AcDbEntity
  8
0
  6
SLD-Solid
 62
     7
370
    15
100
AcDbLine
 10
1026.5031514441
 20
821.6316086631
 30
0.0
 11
1026.7031514441
 21
821.6316086631
 31
0.0
  0
LINE
  5
9B
330
1F
100
AcDbEntity
  8
0
  6
SLD-Solid
 62
     7
370
    15
100
AcDbLine
 10
1026.7031514441
 20
821.6316086631
 30
0.0
 11
1026.7031514441
 21
822.6316086631
 31
0.0
  0
LINE
  5
9C
330
1F
100
AcDbEntity
  8
0
  6
SLD-Solid
 62
     7
370
    15
100
AcDbLine
 10
345.3031514444
 20
1154.8316086631
 30
0.0
 11
345.3031514444
 21
1173.8316086631
 31
0.0
  0
LINE
  5
9D
330
1F
100
AcDbEntity
  8
0
  6
SLD-Solid
 62
     7
370
    15
100
AcDbLine
 10
345.4031514444
 20
1176.8316086631
 30
0.0
 11
345.3031514444
 21
1176.8316086631
 31
0.0
  0
LINE
  5
9E
330
1F
100
AcDbEntity
  8
0
  6
SLD-Solid
 62
     7
370
    15
100
AcDbLine
 10
345.3031514444
 20
1173.8316086631
 30
0.0
 11
345.3031514444
 21
1176.8316086631
 31
0.0
  0
LINE
  5
9F
330
1F
100
AcDbEntity
  8
0
  6
SLD-Solid
 62
     7
370
    15
100
AcDbLine
 10
345.4031514444
 20
1151.8316086631
 30
0.0
 11
345.3031514444
 21
1151.8316086631
 31
0.0
  0
LINE
  5
A0
330
1F
100
AcDbEntity
  8
0
  6
SLD-Solid
 62
     7
370
    15
100
AcDbLine
 10
345.3031514444
 20
1151.8316086631
 30
0.0
 11
345.3031514444
 21
1154.8316086631
 31
0.0
  0
LINE
  5
A1
330
1F
100
AcDbEntity
  8
0
  6
SLD-Solid
 62
     7
370
    15
100
AcDbLine
 10
345.2931514444
 20
1155.0000915249
 30
0.0
 11
345.3031514444
 21
1155.0000915249
 31
0.0
  0
LINE
  5
A2
330
1F
100
AcDbEntity
  8
0
  6
SLD-Solid
 62
     7
370
    15
100
AcDbLine
 10
345.2931514444
 20
1155.3789695346
 30
0.0
 11
345.3031514444
 21
1155.3789695346
 31
0.0
  0
LINE
  5
A3
330
1F
100
AcDbEntity
  8
0
  6
SLD-Solid
 62
     7
370
    15
100
AcDbLine
 10
345.2931514444
 20
1155.0000915249
 30
0.0
 11
345.2931514444
 21
1155.3789695346
 31
0.0
  0
LINE
  5
A4
330
1F
100
AcDbEntity
  8
0
  6
SLD-Solid
 62
     7
370
    15
100
AcDbLine
 10
345.2931514444
 20
1162.1737796716
 30
0.0
 11
345.3031514444
 21
1162.1737796716
 31
0.0
  0
LINE
  5
A5
330
1F
100
AcDbEntity
  8
0
  6
SLD-Solid
 62
     7
370
    15
100
AcDbLine
 10
345.2931514444
 20
1162.1737796716
 30
0.0
 11
345.2931514444
 21
1162.4758619994
 31
0.0
  0
LINE
  5
A6
330
1F
100
AcDbEntity
  8
0
  6
SLD-Solid
 62
     7
370
    15
100
AcDbLine
 10
345.2931514444
 20
1162.4758619994
 30
0.0
 11
345.3031514444
 21
1162.4758619994
 31
0.0
  0
LINE
  5
A7
330
1F
100
AcDbEntity
  8
0
  6
SLD-Solid
 62
     7
370
    15
100
AcDbLine
 10
345.2931514444
 20
1156.8035876906
 30
0.0
 11
345.3031514444
 21
1156.8035876906
 31
0.0
  0
LINE
  5
A8
330
1F
100
AcDbEntity
  8
0
  6
SLD-Solid
 62
     7
370
    15
100
AcDbLine
 10
345.2931514444
 20
1160.3035876906
 30
0.0
 11
345.2931514444
 21
1156.8035876906
 31
0.0
  0
LINE
  5
A9
330
1F
100
AcDbEntity
  8
0
  6
SLD-Solid
 62
     7
370
    15
100
AcDbLine
 10
345.2931514444
 20
1160.3035876906
 30
0.0
 11
345.3031514444
 21
1160.3035876906
 31
0.0
  0
LINE
  5
AA
330
1F
100
AcDbEntity
  8
0
  6
SLD-Solid
 62
     7
370
    15
100
AcDbLine
 10
345.2931514444
 20
1160.3933312803
 30
0.0
 11
345.3031514444
 21
1160.3933312803
 31
0.0
  0
LINE
  5
AB
330
1F
100
AcDbEntity
  8
0
  6
SLD-Solid
 62
     7
370
    15
100
AcDbLine
 10
345.2931514444
 20
1156.7138441008
 30
0.0
 11
345.3031514444
 21
1156.7138441008
 31
0.0
  0
LINE
  5
AC
330
1F
100
AcDbEntity
  8
0
  6
SLD-Solid
 62
     7
370
    15
100
AcDbLine
 10
345.2931514444
 20
1169.7280219151
 30
0.0
 11
345.3031514444
 21
1169.7280219151
 31
0.0
  0
LINE
  5
AD
330
1F
100
AcDbEntity
  8
0
  6
SLD-Solid
 62
     7
370
    15
100
AcDbLine
 10
345.2931514444
 20
1169.9331501202
 30
0.0
 11
345.3031514444
 21
1169.9331501202
 31
0.0
  0
LINE
  5
AE
330
1F
100
AcDbEntity
  8
0
  6
SLD-Solid
 62
     7
370
    15
100
AcDbLine
 10
345.2931514444
 20
1169.9331501202
 30
0.0
 11
345.2931514444
 21
1169.7280219151
 31
0.0
  0
LINE
  5
AF
330
1F
100
AcDbEntity
  8
0
  6
SLD-Solid
 62
     7
370
    15
100
AcDbLine
 10
345.2931514444
 20
1170.5485347356
 30
0.0
 11
345.3031514444
 21
1170.5485347356
 31
0.0
  0
LINE
  5
B0
330
1F
100
AcDbEntity
  8
0
  6
SLD-Solid
 62
     7
370
    15
100
AcDbLine
 10
345.2931514444
 20
1170.7536629407
 30
0.0
 11
345.3031514444
 21
1170.7536629407
 31
0.0
  0
LINE
  5
B1
330
1F
100
AcDbEntity
  8
0
  6
SLD-Solid
 62
     7
370
    15
100
AcDbLine
 10
345.2931514444
 20
1170.7536629407
 30
0.0
 11
345.2931514444
 21
1170.5485347356
 31
0.0
  0
LINE
  5
B2
330
1F
100
AcDbEntity
  8
0
  6
SLD-Solid
 62
     7
370
    15
100
AcDbLine
 10
345.2931514444
 20
1168.9587911459
 30
0.0
 11
345.3031514444
 21
1168.9587911459
 31
0.0
  0
LINE
  5
B3
330
1F
100
AcDbEntity
  8
0
  6
SLD-Solid
 62
     7
370
    15
100
AcDbLine
 10
345.2931514444
 20
1168.7536629407
 30
0.0
 11
345.3031514444
 21
1168.7536629407
 31
0.0
  0
LINE
  5
B4
330
1F
100
AcDbEntity
  8
0
  6
SLD-Solid
 62
     7
370
    15
100
AcDbLine
 10
345.2931514444
 20
1168.9587911459
 30
0.0
 11
345.2931514444
 21
1168.7536629407
 31
0.0
  0
LINE
  5
B5
330
1F
100
AcDbEntity
  8
0
  6
SLD-Solid
 62
     7
370
    15
100
AcDbLine
 10
345.2931514444
 20
1170.5485347356
 30
0.0
 11
345.2931514444
 21
1169.9331501202
 31
0.0
  0
LINE
  5
B6
330
1F
100
AcDbEntity
  8
0
  6
SLD-Solid
 62
     7
370
    15
100
AcDbLine
 10
345.2931514444
 20
1169.7280219151
 30
0.0
 11
345.2931514444
 21
1168.9587911459
 31
0.0
  0
LINE
  5
B7
330
1F
100
AcDbEntity
  8
0
  6
SLD-Solid
 62
     7
370
    15
100
AcDbLine
 10
345.2931514444
 20
1176.0184663968
 30
0.0
 11
345.3031514444
 21
1176.0184663968
 31
0.0
  0
LINE
  5
B8
330
1F
100
AcDbEntity
  8
0
  6
SLD-Solid
 62
     7
370
    15
100
AcDbLine
 10
345.2931514444
 20
1162.4758619994
 30
0.0
 11
345.2931514444
 21
1168.5786529407
 31
0.0
  0
LINE
  5
B9
330
1F
100
AcDbEntity
  8
0
  6
SLD-Solid
 62
     7
370
    15
100
AcDbLine
 10
345.2931514444
 20
1170.7976445589
 30
0.0
 11
345.2931514444
 21
1176.0184663968
 31
0.0
  0
LINE
  5
BA
330
1F
100
AcDbEntity
  8
0
  6
SLD-Solid
 62
     7
370
    15
100
AcDbLine
 10
345.2931514444
 20
1161.5307471466
 30
0.0
 11
345.3031514444
 21
1161.5307471466
 31
0.0
  0
LINE
  5
BB
330
1F
100
AcDbEntity
  8
0
  6
SLD-Solid
 62
     7
370
    15
100
AcDbLine
 10
345.2931514444
 20
1161.5948497107
 30
0.0
 11
345.3031514444
 21
1161.5948497107
 31
0.0
  0
SPLINE
  5
BC
330
1F
100
AcDbEntity
  8
0
  6
SLD-Solid
 62
     7
370
    15
100
AcDbSpline
210
0.0
220
0.0
230
1.0
 70
     8
 71
     3
 72
    13
 73
     9
 74
     0
 42
0.00000001
 43
0.00000001
 40
0.0
 40
0.0
 40
0.0
 40
0.0
 40
0.0075462231145485
 40
0.272276378851398
 40
0.4815195415730881
 40
0.6613541616921321
 40
0.8304588949397952
 40
0.9999999999999999
 40
0.9999999999999999
 40
0.9999999999999999
 40
0.9999999999999999
 10
331.8031514443607
 20
937.9649243198922
 30
0.0
 10
331.8031546284035
 20
937.964709384897
 30
0.0
 10
331.8032695123077
 20
937.956954283931
 30
0.0
 10
331.8148551719182
 20
937.9430046284584
 30
0.0
 10
331.8575739511913
 20
937.9256509012238
 30
0.0
 10
331.9132455542948
 20
937.9134855243367
 30
0.0
 10
331.9793813476759
 20
937.9053776085677
 30
0.0
 10
332.0285402970742
 20
937.9043066164037
 30
0.0
 10
332.0531514443605
 20
937.9037704302929
 30
0.0
  0
LINE
  5
BD
330
1F
100
AcDbEntity
  8
0
  6
SLD-Solid
 62
     7
370
    15
100
AcDbLine
 10
331.8031514444
 20
930.1389907677
 30
0.0
 11
331.8031514444
 21
937.9649243199
 31
0.0
  0
SPLINE
  5
BE
330
1F
100
AcDbEntity
  8
0
  6
SLD-Solid
 62
     7
370
    15
100
AcDbSpline
210
0.0
220
0.0
230
1.0
 70
     8
 71
     3
 72
    13
 73
     9
 74
     0
 42
0.00000001
 43
0.00000001
 40
0.0
 40
0.0
 40
0.0
 40
0.0
 40
0.1695411050601948
 40
0.3386458383078731
 40
0.5184804584271497
 40
0.7277236211487276
 40
0.9924537768854753
 40
1.0
 40
1.0
 40
1.0
 40
1.0
 10
332.7531514443607
 20
937.9037704302926
 30
0.0
 10
332.7777625916473
 20
937.9043066164037
 30
0.0
 10
332.8269215410457
 20
937.905377608568
 30
0.0
 10
332.8930573344267
 20
937.9134855243365
 30
0.0
 10
332.9487289375303
 20
937.9256509012235
 30
0.0
 10
332.9914477168039
 20
937.9430046284589
 30
0.0
 10
333.0030333764118
 20
937.9569542839303
 30
0.0
 10
333.0031482603184
 20
937.964709384897
 30
0.0
 10
333.0031514443608
 20
937.9649243198922
 30
0.0
  0
LINE
  5
BF
330
1F
100
AcDbEntity
  8
0
  6
SLD-Solid
 62
     7
370
    15
100
AcDbLine
 10
333.0031514444
 20
937.9649243199
 30
0.0
 11
333.0031514444
 21
930.4617485866
 31
0.0
  0
LINE
  5
C0
330
1F
100
AcDbEntity
  8
0
  6
SLD-Solid
 62
     7
370
    15
100
AcDbLine
 10
332.7531514444
 20
937.9037704303
 30
0.0
 11
332.0531514444
 21
937.9037704303
 31
0.0
  0
SPLINE
  5
C1
330
1F
100
AcDbEntity
  8
0
  6
SLD-Solid
 62
     7
370
    15
100
AcDbSpline
210
0.0
220
0.0
230
1.0
 70
     8
 71
     3
 72
    12
 73
     8
 74
     0
 42
0.00000001
 43
0.00000001
 40
0.0
 40
0.0
 40
0.0
 40
0.0
 40
0.2028202020467041
 40
0.404947244942618
 40
0.6098312030740288
 40
0.822693924182651
 40
1.0
 40
1.0
 40
1.0
 40
1.0
 10
333.2531514443606
 20
943.6020486975148
 30
0.0
 10
333.0960106038252
 20
943.5908324549822
 30
0.0
 10
332.7822659679329
 20
943.5684383025933
 30
0.0
 10
332.3618697174635
 20
943.3943776348201
 30
0.0
 10
332.0347911820238
 20
943.1353331715353
 30
0.0
 10
331.8365819157572
 20
942.82332238998
 30
0.0
 10
331.8135967098355
 20
942.6019663227478
 30
0.0
 10
331.8031514443607
 20
942.5013745379906
 30
0.0
  0
SPLINE
  5
C2
330
1F
100
AcDbEntity
  8
0
  6
SLD-Solid
 62
     7
370
    15
100
AcDbSpline
210
0.0
220
0.0
230
1.0
 70
     8
 71
     3
 72
    12
 73
     8
 74
     0
 42
0.00000001
 43
0.00000001
 40
0.0
 40
0.0
 40
0.0
 40
0.0
 40
0.228944073851615
 40
0.4594214300241696
 40
0.6825355698158144
 40
0.8947175231628807
 40
1.0
 40
1.0
 40
1.0
 40
1.0
 10
331.8031514443607
 20
938.1874099880689
 30
0.0
 10
331.8204859289382
 20
938.3034581467431
 30
0.0
 10
331.8552709904574
 20
938.5363316608413
 30
0.0
 10
332.1291408362694
 20
938.8452198482238
 30
0.0
 10
332.5261773707529
 20
939.0680889699747
 30
0.0
 10
332.9270533601054
 20
939.1683382450402
 30
0.0
 10
333.1719387531926
 20
939.1768652281454
 30
0.0
 10
333.2531514443606
 20
939.1796930784994
 30
0.0
  0
LINE
  5
C3
330
1F
100
AcDbEntity
  8
0
  6
SLD-Solid
 62
     7
370
    15
100
AcDbLine
 10
331.8031514444
 20
938.1874099881
 30
0.0
 11
331.8031514444
 21
942.501374538
 31
0.0
  0
LINE
  5
C4
330
1F
100
AcDbEntity
  8
0
  6
SLD-Solid
 62
     7
370
    15
100
AcDbLine
 10
338.6031514444
 20
943.3821849712
 30
0.0
 11
338.6031514444
 21
939.0682204213
 31
0.0
  0
LINE
  5
C5
330
1F
100
AcDbEntity
  8
0
  6
SLD-Solid
 62
     7
370
    15
100
AcDbLine
 10
338.6031514444
 20
939.0682204213
 30
0.0
 11
338.6031514444
 21
938.556017999
 31
0.0
  0
LINE
  5
C6
330
1F
100
AcDbEntity
  8
0
  6
SLD-Solid
 62
     7
370
    15
100
AcDbLine
 10
331.8031514444
 20
937.9649243199
 30
0.0
 11
331.8031514444
 21
938.1874099881
 31
0.0
  0
LINE
  5
C7
330
1F
100
AcDbEntity
  8
0
  6
SLD-Solid
 62
     7
370
    15
100
AcDbLine
 10
333.0031514444
 20
938.1874099881
 30
0.0
 11
333.0031514444
 21
937.9649243199
 31
0.0
  0
LINE
  5
C8
330
1F
100
AcDbEntity
  8
0
  6
SLD-Solid
 62
     7
370
    15
100
AcDbLine
 10
333.2531514444
 20
943.6321849712
 30
0.0
 11
333.2531514444
 21
943.6020486975
 31
0.0
  0
LINE
  5
C9
330
1F
100
AcDbEntity
  8
0
  6
SLD-Solid
 62
     7
370
    15
100
AcDbLine
 10
331.8031514444
 20
942.501374538
 30
0.0
 11
331.8031514444
 21
943.0816086631
 31
0.0
  0
LINE
  5
CA
330
1F
100
AcDbEntity
  8
0
  6
SLD-Solid
 62
     7
370
    15
100
AcDbLine
 10
338.6031514444
 20
926.3932347772
 30
0.0
 11
338.6031514444
 21
925.881032355
 31
0.0
  0
LINE
  5
CB
330
1F
100
AcDbEntity
  8
0
  6
SLD-Solid
 62
     7
370
    15
100
AcDbLine
 10
338.6031514444
 20
929.1302903549
 30
0.0
 11
338.6031514444
 21
926.3932347772
 31
0.0
  0
SPLINE
  5
CC
330
1F
100
AcDbEntity
  8
0
  6
SLD-Solid
 62
     7
370
    15
100
AcDbSpline
210
0.0
220
0.0
230
1.0
 70
     8
 71
     3
 72
    13
 73
     9
 74
     0
 42
0.00000001
 43
0.00000001
 40
0.0
 40
0.0
 40
0.0
 40
0.0
 40
0.0075462231146039
 40
0.2722763788514086
 40
0.4815195415731119
 40
0.6613541616921447
 40
0.8304588949398058
 40
1.0
 40
1.0
 40
1.0
 40
1.0
 10
334.2031514443606
 20
930.5382878336916
 30
0.0
 10
334.2031482603182
 20
930.5383947829608
 30
0.0
 10
334.2030333764132
 20
930.542253635172
 30
0.0
 10
334.1914477168037
 20
930.5492687882327
 30
0.0
 10
334.1487289375304
 20
930.5581380550625
 30
0.0
 10
334.0930573344263
 20
930.5644222649272
 30
0.0
 10
334.0269215410456
 20
930.5686419131973
 30
0.0
 10
333.9777625916474
 20
930.569201392942
 30
0.0
 10
333.9531514443606
 20
930.5694814932813
 30
0.0
  0
LINE
  5
CD
330
1F
100
AcDbEntity
  8
0
  6
SLD-Solid
 62
     7
370
    15
100
AcDbLine
 10
334.2031514444
 20
938.306017999
 30
0.0
 11
334.2031514444
 21
930.5382878337
 31
0.0
  0
SPLINE
  5
CE
330
1F
100
AcDbEntity
  8
0
  6
SLD-Solid
 62
     7
370
    15
100
AcDbSpline
210
0.0
220
0.0
230
1.0
 70
     8
 71
     3
 72
    13
 73
     9
 74
     0
 42
0.00000001
 43
0.00000001
 40
0.0
 40
0.0
 40
0.0
 40
0.0
 40
0.169541105060198
 40
0.3386458383078757
 40
0.5184804584271744
 40
0.7277236211488435
 40
0.9924537768854725
 40
1.0
 40
1.0
 40
1.0
 40
1.0
 10
333.2531514443606
 20
930.5694814932814
 30
0.0
 10
333.2285402970741
 20
930.5692013929421
 30
0.0
 10
333.1793813476758
 20
930.5686419131971
 30
0.0
 10
333.1132455542951
 20
930.5644222649272
 30
0.0
 10
333.0575739511912
 20
930.5581380550632
 30
0.0
 10
333.0148551719183
 20
930.5492687882308
 30
0.0
 10
333.0032695123071
 20
930.5422536351759
 30
0.0
 10
333.0031546284034
 20
930.5383947829608
 30
0.0
 10
333.0031514443608
 20
930.5382878336916
 30
0.0
  0
LINE
  5
CF
330
1F
100
AcDbEntity
  8
0
  6
SLD-Solid
 62
     7
370
    15
100
AcDbLine
 10
333.0031514444
 20
930.5382878337
 30
0.0
 11
333.0031514444
 21
937.9649243199
 31
0.0
  0
LINE
  5
D0
330
1F
100
AcDbEntity
  8
0
  6
SLD-Solid
 62
     7
370
    15
100
AcDbLine
 10
333.2531514444
 20
930.5694814933
 30
0.0
 11
333.9531514444
 21
930.5694814933
 31
0.0
  0
SPLINE
  5
D1
330
1F
100
AcDbEntity
  8
0
  6
SLD-Solid
 62
     7
370
    15
100
AcDbSpline
210
0.0
220
0.0
230
1.0
 70
     8
 71
     3
 72
    12
 73
     8
 74
     0
 42
0.00000001
 43
0.00000001
 40
0.0
 40
0.0
 40
0.0
 40
0.0
 40
0.2028202020467068
 40
0.4049472449426115
 40
0.609831203074042
 40
0.8226939241826552
 40
1.0
 40
1.0
 40
1.0
 40
1.0
 10
332.7531514443607
 20
925.220505253791
 30
0.0
 10
332.9102922848961
 20
925.2327282729791
 30
0.0
 10
333.2240369207882
 20
925.2571325379153
 30
0.0
 10
333.644433171258
 20
925.4467837442464
 30
0.0
 10
333.9715117066979
 20
925.7289139000159
 30
0.0
 10
334.1697209729639
 20
926.0685593625434
 30
0.0
 10
334.1927061788861
 20
926.3093070102192
 30
0.0
 10
334.2031514443606
 20
926.4187109938488
 30
0.0
  0
SPLINE
  5
D2
330
1F
100
AcDbEntity
  8
0
  6
SLD-Solid
 62
     7
370
    15
100
AcDbSpline
210
0.0
220
0.0
230
1.0
 70
     8
 71
     3
 72
    12
 73
     8
 74
     0
 42
0.00000001
 43
0.00000001
 40
0.0
 40
0.0
 40
0.0
 40
0.0
 40
0.2289440738516346
 40
0.4594214300241818
 40
0.6825355698158134
 40
0.8947175231628834
 40
1.0
 40
1.0
 40
1.0
 40
1.0
 10
334.2031514443606
 20
930.2938946069133
 30
0.0
 10
334.1858169597831
 20
930.1650150305853
 30
0.0
 10
334.1510318982639
 20
929.9063927467173
 30
0.0
 10
333.8771620524516
 20
929.5637818932232
 30
0.0
 10
333.4801255179689
 20
929.3167215862792
 30
0.0
 10
333.0792495286159
 20
929.2056372305266
 30
0.0
 10
332.8343641355289
 20
929.1961887431748
 30
0.0
 10
332.7531514443607
 20
929.1930552892942
 30
0.0
  0
LINE
  5
D3
330
1F
100
AcDbEntity
  8
0
  6
SLD-Solid
 62
     7
370
    15
100
AcDbLine
 10
334.2031514444
 20
930.2938946069
 30
0.0
 11
334.2031514444
 21
926.4187109938
 31
0.0
  0
LINE
  5
D4
330
1F
100
AcDbEntity
  8
0
  6
SLD-Solid
 62
     7
370
    15
100
AcDbLine
 10
327.4031514444
 20
925.451169553
 30
0.0
 11
327.4031514444
 21
929.3263531661
 31
0.0
  0
LINE
  5
D5
330
1F
100
AcDbEntity
  8
0
  6
SLD-Solid
 62
     7
370
    15
100
AcDbLine
 10
327.4031514444
 20
929.3263531661
 30
0.0
 11
327.4031514444
 21
929.8889907677
 31
0.0
  0
LINE
  5
D6
330
1F
100
AcDbEntity
  8
0
  6
SLD-Solid
 62
     7
370
    15
100
AcDbLine
 10
333.0031514444
 20
930.2938946069
 30
0.0
 11
333.0031514444
 21
930.5382878337
 31
0.0
  0
LINE
  5
D7
330
1F
100
AcDbEntity
  8
0
  6
SLD-Solid
 62
     7
370
    15
100
AcDbLine
 10
334.2031514444
 20
930.5382878337
 30
0.0
 11
334.2031514444
 21
930.2938946069
 31
0.0
  0
LINE
  5
D8
330
1F
100
AcDbEntity
  8
0
  6
SLD-Solid
 62
     7
370
    15
100
AcDbLine
 10
332.7531514444
 20
925.201169553
 30
0.0
 11
332.7531514444
 21
925.2205052538
 31
0.0
  0
LINE
  5
D9
330
1F
100
AcDbEntity
  8
0
  6
SLD-Solid
 62
     7
370
    15
100
AcDbLine
 10
334.2031514444
 20
926.4187109938
 30
0.0
 11
334.2031514444
 21
926.1816086631
 31
0.0
  0
SPLINE
  5
DA
330
1F
100
AcDbEntity
  8
0
  6
SLD-Solid
 62
     7
370
    15
100
AcDbSpline
210
0.0
220
0.0
230
1.0
 70
     8
 71
     3
 72
    10
 73
     6
 74
     0
 42
0.00000001
 43
0.00000001
 40
0.0
 40
0.0
 40
0.0
 40
0.0
 40
0.3816828359346486
 40
0.7620612310503552
 40
1.0
 40
1.0
 40
1.0
 40
1.0
 10
332.7531514443607
 20
944.0427120723801
 30
0.0
 10
332.909402417006
 20
944.0298556920608
 30
0.0
 10
333.2213703583346
 20
944.0041868694404
 30
0.0
 10
333.5993212079727
 20
943.8472118348924
 30
0.0
 10
333.7620512311548
 20
943.6919372313051
 30
0.0
 10
333.8246724612246
 20
943.6321849711809
 30
0.0
  0
LINE
  5
DB
330
1F
100
AcDbEntity
  8
0
  6
SLD-Solid
 62
     7
370
    15
100
AcDbLine
 10
327.4031514444
 20
943.2494101715
 30
0.0
 11
327.4031514444
 21
943.8120477731
 31
0.0
  0
LINE
  5
DC
330
1F
100
AcDbEntity
  8
0
  6
SLD-Solid
 62
     7
370
    15
100
AcDbLine
 10
327.4031514444
 20
939.9483146154
 30
0.0
 11
327.4031514444
 21
943.2494101715
 31
0.0
  0
LINE
  5
DD
330
1F
100
AcDbEntity
  8
0
  6
SLD-Solid
 62
     7
370
    15
100
AcDbLine
 10
344.406569457
 20
932.7277759742
 30
0.0
 11
344.6031514444
 21
931.8983613108
 31
0.0
  0
LINE
  5
DE
330
1F
100
AcDbEntity
  8
0
  6
SLD-Solid
 62
     7
370
    15
100
AcDbLine
 10
344.6031514444
 20
929.7340286134
 30
0.0
 11
344.406569457
 21
928.9593569683
 31
0.0
  0
LINE
  5
DF
330
1F
100
AcDbEntity
  8
0
  6
SLD-Solid
 62
     7
370
    15
100
AcDbLine
 10
344.406569457
 20
928.9593569683
 30
0.0
 11
340.0997334317
 21
928.9593569683
 31
0.0
  0
SPLINE
  5
E0
330
1F
100
AcDbEntity
  8
0
  6
SLD-Solid
 62
     7
370
    15
100
AcDbSpline
210
0.0
220
0.0
230
1.0
 70
     8
 71
     3
 72
     9
 73
     5
 74
     0
 42
0.00000001
 43
0.00000001
 40
0.0
 40
0.0
 40
0.0
 40
0.0
 40
0.0702005767034158
 40
1.0
 40
1.0
 40
1.0
 40
1.0
 10
339.6531514443608
 20
930.8435664712673
 30
0.0
 10
339.6535975606283
 20
930.7988995572966
 30
0.0
 10
339.6599524410091
 20
930.1626239586025
 30
0.0
 10
339.8878419229043
 20
929.5391047597896
 30
0.0
 10
340.0997334317459
 20
928.9593569683187
 30
0.0
  0
LINE
  5
E1
330
1F
100
AcDbEntity
  8
0
  6
SLD-Solid
 62
     7
370
    15
100
AcDbLine
 10
340.0997334317
 20
932.7277759742
 30
0.0
 11
339.6531514444
 21
930.8435664713
 31
0.0
  0
LINE
  5
E2
330
1F
100
AcDbEntity
  8
0
  6
SLD-Solid
 62
     7
370
    15
100
AcDbLine
 10
344.406569457
 20
932.7277759742
 30
0.0
 11
340.0997334317
 21
932.7277759742
 31
0.0
  0
SPLINE
  5
E3
330
1F
100
AcDbEntity
  8
0
  6
SLD-Solid
 62
     7
370
    15
100
AcDbSpline
210
0.0
220
0.0
230
1.0
 70
     8
 71
     3
 72
     9
 73
     5
 74
     0
 42
0.00000001
 43
0.00000001
 40
0.0
 40
0.0
 40
0.0
 40
0.0
 40
0.2575513451038238
 40
1.0
 40
1.0
 40
1.0
 40
1.0
 10
340.0997334317459
 20
932.7277759742159
 30
0.0
 10
340.032318208971
 20
932.9658736666665
 30
0.0
 10
339.770563712027
 20
933.890340562208
 30
0.0
 10
339.7031802242345
 20
934.8508057413046
 30
0.0
 10
339.6531514443608
 20
935.5639018215993
 30
0.0
  0
LINE
  5
E4
330
1F
100
AcDbEntity
  8
0
  6
SLD-Solid
 62
     7
370
    15
100
AcDbLine
 10
339.6531514444
 20
930.8435664713
 30
0.0
 11
339.6531514444
 21
935.5639018216
 31
0.0
  0
SPLINE
  5
E5
330
1F
100
AcDbEntity
  8
0
  6
SLD-Solid
 62
     7
370
    15
100
AcDbSpline
210
0.0
220
0.0
230
1.0
 70
     8
 71
     3
 72
     9
 73
     5
 74
     0
 42
0.00000001
 43
0.00000001
 40
0.0
 40
0.0
 40
0.0
 40
0.0
 40
0.9250528693138331
 40
1.0
 40
1.0
 40
1.0
 40
1.0
 10
344.4065694569755
 20
932.7277759742159
 30
0.0
 10
344.4851231697406
 20
932.9638107740426
 30
0.0
 10
344.5700412488806
 20
933.218968946788
 30
0.0
 10
344.6008429455756
 20
933.4841496886847
 30
0.0
 10
344.6031514443635
 20
933.504024224403
 30
0.0
  0
SPLINE
  5
E6
330
1F
100
AcDbEntity
  8
0
  6
SLD-Solid
 62
     7
370
    15
100
AcDbSpline
210
0.0
220
0.0
230
1.0
 70
     8
 71
     3
 72
     9
 73
     5
 74
     0
 42
0.00000001
 43
0.00000001
 40
0.0
 40
0.0
 40
0.0
 40
0.0
 40
0.2686336050555994
 40
1.0
 40
1.0
 40
1.0
 40
1.0
 10
339.6531514443608
 20
935.5639018215993
 30
0.0
 10
339.6597803969452
 20
935.8217850211448
 30
0.0
 10
339.6844569543815
 20
936.7817661802111
 30
0.0
 10
339.9243117179815
 20
937.7164392185102
 30
0.0
 10
340.0997334317459
 20
938.4000276689827
 30
0.0
  0
LINE
  5
E7
330
1F
100
AcDbEntity
  8
0
  6
SLD-Solid
 62
     7
370
    15
100
AcDbLine
 10
344.406569457
 20
938.400027669
 30
0.0
 11
340.0997334317
 21
938.400027669
 31
0.0
  0
LINE
  5
E8
330
1F
100
AcDbEntity
  8
0
  6
SLD-Solid
 62
     7
370
    15
100
AcDbLine
 10
344.6031514444
 20
937.4130693331
 30
0.0
 11
344.406569457
 21
938.400027669
 31
0.0
  0
LINE
  5
E9
330
1F
100
AcDbEntity
  8
0
  6
SLD-Solid
 62
     7
370
    15
100
AcDbLine
 10
344.6031514444
 20
938.7913974181
 30
0.0
 11
344.406569457
 21
938.400027669
 31
0.0
  0
SPLINE
  5
EA
330
1F
100
AcDbEntity
  8
0
  6
SLD-Solid
 62
     7
370
    15
100
AcDbSpline
210
0.0
220
0.0
230
1.0
 70
     8
 71
     3
 72
     9
 73
     5
 74
     0
 42
0.00000001
 43
0.00000001
 40
0.0
 40
0.0
 40
0.0
 40
0.0
 40
0.0702005767033784
 40
1.0
 40
1.0
 40
1.0
 40
1.0
 10
339.6531514443606
 20
939.3519440134173
 30
0.0
 10
339.6535975606281
 20
939.3293779636244
 30
0.0
 10
339.6599524410084
 20
939.0079269036373
 30
0.0
 10
339.8878419229041
 20
938.6929204696444
 30
0.0
 10
340.0997334317459
 20
938.4000276689827
 30
0.0
  0
LINE
  5
EB
330
1F
100
AcDbEntity
  8
0
  6
SLD-Solid
 62
     7
370
    15
100
AcDbLine
 10
339.6531514444
 20
935.5639018216
 30
0.0
 11
339.6531514444
 21
939.3519440134
 31
0.0
  0
LINE
  5
EC
330
1F
100
AcDbEntity
  8
0
  6
SLD-Solid
 62
     7
370
    15
100
AcDbLine
 10
344.406569457
 20
940.3038603579
 30
0.0
 11
344.5825143744
 21
939.9288231925
 31
0.0
  0
LINE
  5
ED
330
1F
100
AcDbEntity
  8
0
  6
SLD-Solid
 62
     7
370
    15
100
AcDbLine
 10
340.0997334317
 20
940.3038603579
 30
0.0
 11
339.6531514444
 21
939.3519440134
 31
0.0
  0
LINE
  5
EE
330
1F
100
AcDbEntity
  8
0
  6
SLD-Solid
 62
     7
370
    15
100
AcDbLine
 10
344.406569457
 20
940.3038603579
 30
0.0
 11
340.0997334317
 21
940.3038603579
 31
0.0
  0
LINE
  5
EF
330
1F
100
AcDbEntity
  8
0
  6
SLD-Solid
 62
     7
370
    15
100
AcDbLine
 10
340.0997334317
 20
928.9593569683
 30
0.0
 11
339.9237885143
 21
929.3343941336
 31
0.0
  0
LINE
  5
F0
330
1F
100
AcDbEntity
  8
0
  6
SLD-Solid
 62
     7
370
    15
100
AcDbLine
 10
339.6531514444
 20
929.6316086631
 30
0.0
 11
339.6531514444
 21
930.8435664713
 31
0.0
  0
LINE
  5
F1
330
1F
100
AcDbEntity
  8
0
  6
SLD-Solid
 62
     7
370
    15
100
AcDbLine
 10
344.406569457
 20
928.9593569683
 30
0.0
 11
344.5825143744
 21
929.3343941336
 31
0.0
  0
LINE
  5
F2
330
1F
100
AcDbEntity
  8
0
  6
SLD-Solid
 62
     7
370
    15
100
AcDbLine
 10
339.6531514444
 20
939.3519440134
 30
0.0
 11
339.6531514444
 21
939.6316086631
 31
0.0
  0
LINE
  5
F3
330
1F
100
AcDbEntity
  8
0
  6
SLD-Solid
 62
     7
370
    15
100
AcDbLine
 10
331.356569457
 20
939.2391867065
 30
0.0
 11
331.8031514444
 21
936.5808337303
 31
0.0
  0
SPLINE
  5
F4
330
1F
100
AcDbEntity
  8
0
  6
SLD-Solid
 62
     7
370
    15
100
AcDbSpline
210
0.0
220
0.0
230
1.0
 70
     8
 71
     3
 72
     9
 73
     5
 74
     0
 42
0.00000001
 43
0.00000001
 40
0.0
 40
0.0
 40
0.0
 40
0.0
 40
0.070200576703368
 40
1.0
 40
1.0
 40
1.0
 40
1.0
 10
331.8031514443607
 20
936.5808337303373
 30
0.0
 10
331.8027053280932
 20
936.5178150354934
 30
0.0
 10
331.7963504477126
 20
935.6201202044335
 30
0.0
 10
331.5684609658172
 20
934.7404228484606
 30
0.0
 10
331.3565694569755
 20
933.9224807542013
 30
0.0
  0
LINE
  5
F5
330
1F
100
AcDbEntity
  8
0
  6
SLD-Solid
 62
     7
370
    15
100
AcDbLine
 10
331.356569457
 20
933.9224807542
 30
0.0
 11
327.0497334317
 21
933.9224807542
 31
0.0
  0
SPLINE
  5
F6
330
1F
100
AcDbEntity
  8
0
  6
SLD-Solid
 62
     7
370
    15
100
AcDbSpline
210
0.0
220
0.0
230
1.0
 70
     8
 71
     3
 72
     9
 73
     5
 74
     0
 42
0.00000001
 43
0.00000001
 40
0.0
 40
0.0
 40
0.0
 40
0.0
 40
0.070200576703368
 40
1.0
 40
1.0
 40
1.0
 40
1.0
 10
326.6031514443608
 20
936.5808337303373
 30
0.0
 10
326.6035975606283
 20
936.5178150354934
 30
0.0
 10
326.6099524410093
 20
935.6201202044335
 30
0.0
 10
326.8378419229043
 20
934.7404228484606
 30
0.0
 10
327.0497334317459
 20
933.9224807542013
 30
0.0
  0
LINE
  5
F7
330
1F
100
AcDbEntity
  8
0
  6
SLD-Solid
 62
     7
370
    15
100
AcDbLine
 10
327.0497334317
 20
939.2391867065
 30
0.0
 11
326.6031514444
 21
936.5808337303
 31
0.0
  0
LINE
  5
F8
330
1F
100
AcDbEntity
  8
0
  6
SLD-Solid
 62
     7
370
    15
100
AcDbLine
 10
331.356569457
 20
939.2391867065
 30
0.0
 11
327.0497334317
 21
939.2391867065
 31
0.0
  0
SPLINE
  5
F9
330
1F
100
AcDbEntity
  8
0
  6
SLD-Solid
 62
     7
370
    15
100
AcDbSpline
210
0.0
220
0.0
230
1.0
 70
     8
 71
     3
 72
     9
 73
     5
 74
     0
 42
0.00000001
 43
0.00000001
 40
0.0
 40
0.0
 40
0.0
 40
0.0
 40
0.2686336050556023
 40
1.0
 40
1.0
 40
1.0
 40
1.0
 10
326.6031514443608
 20
931.6186917325069
 30
0.0
 10
326.6097803969454
 20
931.8281706188336
 30
0.0
 10
326.6344569543813
 20
932.607964666877
 30
0.0
 10
326.8743117179815
 20
933.3672008927633
 30
0.0
 10
327.0497334317459
 20
933.9224807542013
 30
0.0
  0
LINE
  5
FA
330
1F
100
AcDbEntity
  8
0
  6
SLD-Solid
 62
     7
370
    15
100
AcDbLine
 10
326.6031514444
 20
931.6186917325
 30
0.0
 11
326.6031514444
 21
936.5808337303
 31
0.0
  0
SPLINE
  5
FB
330
1F
100
AcDbEntity
  8
0
  6
SLD-Solid
 62
     7
370
    15
100
AcDbSpline
210
0.0
220
0.0
230
1.0
 70
     8
 71
     3
 72
     9
 73
     5
 74
     0
 42
0.00000001
 43
0.00000001
 40
0.0
 40
0.0
 40
0.0
 40
0.0
 40
0.2686336050556023
 40
1.0
 40
1.0
 40
1.0
 40
1.0
 10
331.8031514443607
 20
931.6186917325069
 30
0.0
 10
331.7965224917763
 20
931.8281706188336
 30
0.0
 10
331.7718459343399
 20
932.607964666877
 30
0.0
 10
331.53199117074
 20
933.3672008927633
 30
0.0
 10
331.3565694569755
 20
933.9224807542013
 30
0.0
  0
LINE
  5
FC
330
1F
100
AcDbEntity
  8
0
  6
SLD-Solid
 62
     7
370
    15
100
AcDbLine
 10
331.5820684466
 20
930.1389907677
 30
0.0
 11
331.8031514444
 21
931.6186917325
 31
0.0
  0
LINE
  5
FD
330
1F
100
AcDbEntity
  8
0
  6
SLD-Solid
 62
     7
370
    15
100
AcDbLine
 10
327.4031514444
 20
929.3149027108
 30
0.0
 11
327.0497334317
 21
929.3149027108
 31
0.0
  0
SPLINE
  5
FE
330
1F
100
AcDbEntity
  8
0
  6
SLD-Solid
 62
     7
370
    15
100
AcDbSpline
210
0.0
220
0.0
230
1.0
 70
     8
 71
     3
 72
     9
 73
     5
 74
     0
 42
0.00000001
 43
0.00000001
 40
0.0
 40
0.0
 40
0.0
 40
0.0
 40
0.2575513451038324
 40
1.0
 40
1.0
 40
1.0
 40
1.0
 10
327.0497334317459
 20
929.3149027108128
 30
0.0
 10
326.982318208971
 20
929.5083098018504
 30
0.0
 10
326.7205637120272
 20
930.2592555635954
 30
0.0
 10
326.6531802242345
 20
931.0394427817907
 30
0.0
 10
326.6031514443608
 20
931.6186917325069
 30
0.0
  0
SPLINE
  5
FF
330
1F
100
AcDbEntity
  8
0
  6
SLD-Solid
 62
     7
370
    15
100
AcDbSpline
210
0.0
220
0.0
230
1.0
 70
     8
 71
     3
 72
     9
 73
     5
 74
     0
 42
0.00000001
 43
0.00000001
 40
0.0
 40
0.0
 40
0.0
 40
0.0
 40
0.0702005767034046
 40
1.0
 40
1.0
 40
1.0
 40
1.0
 10
326.6031514443608
 20
939.5937506609156
 30
0.0
 10
326.6035975606283
 20
939.5853453972625
 30
0.0
 10
326.6099524410082
 20
939.4656132804062
 30
0.0
 10
326.8378419229041
 20
939.348281618266
 30
0.0
 10
327.0497334317459
 20
939.2391867064736
 30
0.0
  0
LINE
  5
100
330
1F
100
AcDbEntity
  8
0
  6
SLD-Solid
 62
     7
370
    15
100
AcDbLine
 10
326.6031514444
 20
936.5808337303
 30
0.0
 11
326.6031514444
 21
939.5937506609
 31
0.0
  0
SPLINE
  5
101
330
1F
100
AcDbEntity
  8
0
  6
SLD-Solid
 62
     7
370
    15
100
AcDbSpline
210
0.0
220
0.0
230
1.0
 70
     8
 71
     3
 72
     9
 73
     5
 74
     0
 42
0.00000001
 43
0.00000001
 40
0.0
 40
0.0
 40
0.0
 40
0.0
 40
0.0702005767034046
 40
1.0
 40
1.0
 40
1.0
 40
1.0
 10
331.8031514443607
 20
939.5937506609156
 30
0.0
 10
331.8027053280932
 20
939.5853453972625
 30
0.0
 10
331.7963504477128
 20
939.4656132804062
 30
0.0
 10
331.5684609658172
 20
939.348281618266
 30
0.0
 10
331.3565694569755
 20
939.2391867064736
 30
0.0
  0
LINE
  5
102
330
1F
100
AcDbEntity
  8
0
  6
SLD-Solid
 62
     7
370
    15
100
AcDbLine
 10
327.0497334317
 20
929.3149027108
 30
0.0
 11
326.6031514444
 21
929.6694666653
 31
0.0
  0
LINE
  5
103
330
1F
100
AcDbEntity
  8
0
  6
SLD-Solid
 62
     7
370
    15
100
AcDbLine
 10
326.6031514444
 20
931.6186917325
 30
0.0
 11
326.6031514444
 21
929.6317593694
 31
0.0
  0
LINE
  5
104
330
1F
100
AcDbEntity
  8
0
  6
SLD-Solid
 62
     7
370
    15
100
AcDbLine
 10
331.356569457
 20
939.9483146154
 30
0.0
 11
331.8031514444
 21
939.5937506609
 31
0.0
  0
LINE
  5
105
330
1F
100
AcDbEntity
  8
0
  6
SLD-Solid
 62
     7
370
    15
100
AcDbLine
 10
327.0497334317
 20
939.9483146154
 30
0.0
 11
326.6031514444
 21
939.5937506609
 31
0.0
  0
LINE
  5
106
330
1F
100
AcDbEntity
  8
0
  6
SLD-Solid
 62
     7
370
    15
100
AcDbLine
 10
331.356569457
 20
939.9483146154
 30
0.0
 11
327.0497334317
 21
939.9483146154
 31
0.0
  0
LINE
  5
107
330
1F
100
AcDbEntity
  8
0
  6
SLD-Solid
 62
     7
370
    15
100
AcDbLine
 10
338.956569457
 20
940.1329269713
 30
0.0
 11
339.4031514444
 21
937.9990424104
 31
0.0
  0
SPLINE
  5
108
330
1F
100
AcDbEntity
  8
0
  6
SLD-Solid
 62
     7
370
    15
100
AcDbSpline
210
0.0
220
0.0
230
1.0
 70
     8
 71
     3
 72
     9
 73
     5
 74
     0
 42
0.00000001
 43
0.00000001
 40
0.0
 40
0.0
 40
0.0
 40
0.0
 40
0.0702005767033789
 40
0.9999999999999999
 40
0.9999999999999999
 40
0.9999999999999999
 40
0.9999999999999999
 10
339.4031514443607
 20
937.9990424103553
 30
0.0
 10
339.4027053280932
 20
937.9484567201993
 30
0.0
 10
339.3963504477135
 20
937.2278687630713
 30
0.0
 10
339.1684609658176
 20
936.5217275459241
 30
0.0
 10
338.9565694569756
 20
935.8651578494548
 30
0.0
  0
LINE
  5
109
330
1F
100
AcDbEntity
  8
0
  6
SLD-Solid
 62
     7
370
    15
100
AcDbLine
 10
338.956569457
 20
935.8651578495
 30
0.0
 11
334.6497334317
 21
935.8651578495
 31
0.0
  0
SPLINE
  5
10A
330
1F
100
AcDbEntity
  8
0
  6
SLD-Solid
 62
     7
370
    15
100
AcDbSpline
210
0.0
220
0.0
230
1.0
 70
     8
 71
     3
 72
     9
 73
     5
 74
     0
 42
0.00000001
 43
0.00000001
 40
0.0
 40
0.0
 40
0.0
 40
0.0
 40
0.0702005767033789
 40
0.9999999999999999
 40
0.9999999999999999
 40
0.9999999999999999
 40
0.9999999999999999
 10
334.2031514443609
 20
937.9990424103553
 30
0.0
 10
334.2035975606283
 20
937.9484567201993
 30
0.0
 10
334.2099524410096
 20
937.2278687630713
 30
0.0
 10
334.4378419229046
 20
936.5217275459241
 30
0.0
 10
334.649733431746
 20
935.8651578494548
 30
0.0
  0
LINE
  5
10B
330
1F
100
AcDbEntity
  8
0
  6
SLD-Solid
 62
     7
370
    15
100
AcDbLine
 10
334.2673956734
 20
938.306017999
 30
0.0
 11
334.2031514444
 21
937.9990424104
 31
0.0
  0
LINE
  5
10C
330
1F
100
AcDbEntity
  8
0
  6
SLD-Solid
 62
     7
370
    15
100
AcDbLine
 10
338.956569457
 20
940.1329269713
 30
0.0
 11
338.6031514444
 21
940.1329269713
 31
0.0
  0
SPLINE
  5
10D
330
1F
100
AcDbEntity
  8
0
  6
SLD-Solid
 62
     7
370
    15
100
AcDbSpline
210
0.0
220
0.0
230
1.0
 70
     8
 71
     3
 72
     9
 73
     5
 74
     0
 42
0.00000001
 43
0.00000001
 40
0.0
 40
0.0
 40
0.0
 40
0.0
 40
0.2686336050556048
 40
1.0
 40
1.0
 40
1.0
 40
1.0
 10
334.2031514443609
 20
933.1144986953694
 30
0.0
 10
334.2097803969453
 20
933.3646105809789
 30
0.0
 10
334.2344569543814
 20
934.2956626939775
 30
0.0
 10
334.4743117179816
 20
935.2021693467924
 30
0.0
 10
334.649733431746
 20
935.8651578494548
 30
0.0
  0
SPLINE
  5
10E
330
1F
100
AcDbEntity
  8
0
  6
SLD-Solid
 62
     7
370
    15
100
AcDbSpline
210
0.0
220
0.0
230
1.0
 70
     8
 71
     3
 72
     9
 73
     5
 74
     0
 42
0.00000001
 43
0.00000001
 40
0.0
 40
0.0
 40
0.0
 40
0.0
 40
0.2686336050556048
 40
1.0
 40
1.0
 40
1.0
 40
1.0
 10
339.4031514443607
 20
933.1144986953694
 30
0.0
 10
339.3965224917763
 20
933.3646105809789
 30
0.0
 10
339.3718459343402
 20
934.2956626939775
 30
0.0
 10
339.13199117074
 20
935.2021693467924
 30
0.0
 10
338.9565694569754
 20
935.8651578494548
 30
0.0
  0
LINE
  5
10F
330
1F
100
AcDbEntity
  8
0
  6
SLD-Solid
 62
     7
370
    15
100
AcDbLine
 10
339.4031514444
 20
933.1144986954
 30
0.0
 11
339.4031514444
 21
937.9990424104
 31
0.0
  0
SPLINE
  5
110
330
1F
100
AcDbEntity
  8
0
  6
SLD-Solid
 62
     7
370
    15
100
AcDbSpline
210
0.0
220
0.0
230
1.0
 70
     8
 71
     3
 72
     9
 73
     5
 74
     0
 42
0.00000001
 43
0.00000001
 40
0.0
 40
0.0
 40
0.0
 40
0.0
 40
0.2575513451038286
 40
1.0
 40
1.0
 40
1.0
 40
1.0
 10
338.9565694569756
 20
930.3638395412843
 30
0.0
 10
339.0239846797502
 20
930.5947621563405
 30
0.0
 10
339.2857391766946
 20
931.4913702286569
 30
0.0
 10
339.353122664487
 20
932.4228917757347
 30
0.0
 10
339.4031514443607
 20
933.1144986953694
 30
0.0
  0
LINE
  5
111
330
1F
100
AcDbEntity
  8
0
  6
SLD-Solid
 62
     7
370
    15
100
AcDbLine
 10
338.956569457
 20
930.3638395413
 30
0.0
 11
334.6497334317
 21
930.3638395413
 31
0.0
  0
SPLINE
  5
112
330
1F
100
AcDbEntity
  8
0
  6
SLD-Solid
 62
     7
370
    15
100
AcDbSpline
210
0.0
220
0.0
230
1.0
 70
     8
 71
     3
 72
     9
 73
     5
 74
     0
 42
0.00000001
 43
0.00000001
 40
0.0
 40
0.0
 40
0.0
 40
0.0
 40
0.2575513451038286
 40
1.0
 40
1.0
 40
1.0
 40
1.0
 10
334.649733431746
 20
930.3638395412843
 30
0.0
 10
334.5823182089709
 20
930.5947621563405
 30
0.0
 10
334.3205637120275
 20
931.4913702286569
 30
0.0
 10
334.2531802242348
 20
932.4228917757347
 30
0.0
 10
334.2031514443609
 20
933.1144986953694
 30
0.0
  0
LINE
  5
113
330
1F
100
AcDbEntity
  8
0
  6
SLD-Solid
 62
     7
370
    15
100
AcDbLine
 10
338.956569457
 20
930.3638395413
 30
0.0
 11
339.4031514444
 21
929.7470649481
 31
0.0
  0
LINE
  5
114
330
1F
100
AcDbEntity
  8
0
  6
SLD-Solid
 62
     7
370
    15
100
AcDbLine
 10
339.4031514444
 20
933.1144986954
 30
0.0
 11
339.4031514444
 21
929.7470649481
 31
0.0
  0
LINE
  5
115
330
1F
100
AcDbEntity
  8
0
  6
SLD-Solid
 62
     7
370
    15
100
AcDbLine
 10
334.6497334317
 20
930.3638395413
 30
0.0
 11
334.2031514444
 21
929.7470649481
 31
0.0
  0
LINE
  5
116
330
1F
100
AcDbEntity
  8
0
  6
SLD-Solid
 62
     7
370
    15
100
AcDbLine
 10
339.2540313631
 20
939.7492174455
 30
0.0
 11
338.956569457
 21
940.1329269713
 31
0.0
  0
LINE
  5
117
330
1F
100
AcDbEntity
  8
0
  6
SLD-Solid
 62
     7
370
    15
100
AcDbLine
 10
339.4031514444
 20
939.6316086631
 30
0.0
 11
339.4031514444
 21
937.9990424104
 31
0.0
  0
SPLINE
  5
118
330
1F
100
AcDbEntity
  8
0
  6
SLD-Solid
 62
     7
370
    15
100
AcDbSpline
210
0.0
220
0.0
230
1.0
 70
     8
 71
     3
 72
     9
 73
     5
 74
     0
 42
0.00000001
 43
0.00000001
 40
0.0
 40
0.0
 40
0.0
 40
0.0
 40
0.0702005767034191
 40
1.0
 40
1.0
 40
1.0
 40
1.0
 10
339.4031514443607
 20
929.7470649480997
 30
0.0
 10
339.4027053280932
 20
929.7324437408242
 30
0.0
 10
339.3963504477127
 20
929.5241661459374
 30
0.0
 10
339.1684609658172
 20
929.3200642137534
 30
0.0
 10
338.9565694569756
 20
929.130290354915
 30
0.0
  0
LINE
  5
119
330
1F
100
AcDbEntity
  8
0
  6
SLD-Solid
 62
     7
370
    15
100
AcDbLine
 10
338.956569457
 20
929.1302903549
 30
0.0
 11
334.6497334317
 21
929.1302903549
 31
0.0
  0
LINE
  5
11A
330
1F
100
AcDbEntity
  8
0
  6
SLD-Solid
 62
     7
370
    15
100
AcDbLine
 10
334.3522715256
 20
929.5139998807
 30
0.0
 11
334.6497334317
 21
929.1302903549
 31
0.0
  0
LINE
  5
11B
330
1F
100
AcDbEntity
  8
0
  6
SLD-Solid
 62
     7
370
    15
100
AcDbLine
 10
339.4031514444
 20
929.7470649481
 30
0.0
 11
339.4031514444
 21
929.6316086631
 31
0.0
  0
LINE
  5
11C
330
1F
100
AcDbEntity
  8
0
  6
SLD-Solid
 62
     7
370
    15
100
AcDbLine
 10
1111.0031514444
 20
915.3316086631
 30
0.0
 11
1112.6031514444
 21
915.3316086631
 31
0.0
  0
SPLINE
  5
11D
330
1F
100
AcDbEntity
  8
0
  6
SLD-Solid
 62
     7
370
    15
100
AcDbSpline
210
0.0
220
0.0
230
1.0
 70
    24
 71
     3
 72
    11
 73
     7
 74
     0
 42
0.00000001
 43
0.00000001
 40
0.0
 40
0.0
 40
0.0
 40
0.0
 40
0.283277168623825
 40
0.5580022489005121
 40
0.7754022428539292
 40
1.0
 40
1.0
 40
1.0
 40
1.0
 10
1112.603151444355
 20
915.3316086631362
 30
0.0
 10
1112.603151444355
 20
915.3698924953131
 30
0.0
 10
1112.603151444355
 20
915.4453043774462
 30
0.0
 10
1112.603151444355
 20
915.9782430435666
 30
0.0
 10
1112.603151444355
 20
916.6286674734642
 30
0.0
 10
1112.603151444355
 20
917.0907754032802
 30
0.0
 10
1112.603151444355
 20
917.3255919930432
 30
0.0
  0
LINE
  5
11E
330
1F
100
AcDbEntity
  8
0
  6
SLD-Solid
 62
     7
370
    15
100
AcDbLine
 10
1112.6031514444
 20
917.325591993
 30
0.0
 11
1112.6031514444
 21
973.3372307834
 31
0.0
  0
LINE
  5
11F
330
1F
100
AcDbEntity
  8
0
  6
SLD-Solid
 62
     7
370
    15
100
AcDbLine
 10
1111.0031514444
 20
975.3316086631
 30
0.0
 11
1112.6031514444
 21
975.3316086631
 31
0.0
  0
SPLINE
  5
120
330
1F
100
AcDbEntity
  8
0
  6
SLD-Solid
 62
     7
370
    15
100
AcDbSpline
210
0.0
220
0.0
230
1.0
 70
    24
 71
     3
 72
    11
 73
     7
 74
     0
 42
0.00000001
 43
0.00000001
 40
0.0
 40
0.0
 40
0.0
 40
0.0
 40
0.283353412441128
 40
0.5581116990962718
 40
0.775483542421186
 40
0.9999999999999999
 40
0.9999999999999999
 40
0.9999999999999999
 40
0.9999999999999999
 10
1112.603151444355
 20
973.3372307834097
 30
0.0
 10
1112.603151444355
 20
973.6342793582163
 30
0.0
 10
1112.603151444355
 20
974.219365958625
 30
0.0
 10
1112.603151444355
 20
974.8674757290327
 30
0.0
 10
1112.603151444355
 20
975.2613811311447
 30
0.0
 10
1112.603151444355
 20
975.307948512895
 30
0.0
 10
1112.603151444355
 20
975.3316086631364
 30
0.0
  0
LINE
  5
121
330
1F
100
AcDbEntity
  8
0
  6
SLD-Solid
 62
     7
370
    15
100
AcDbLine
 10
1114.0031514444
 20
972.793893155
 30
0.0
 11
1114.0031514444
 21
917.8693241712
 31
0.0
  0
SPLINE
  5
122
330
1F
100
AcDbEntity
  8
0
  6
SLD-Solid
 62
     7
370
    15
100
AcDbSpline
210
0.0
220
0.0
230
1.0
 70
     8
 71
     3
 72
    11
 73
     7
 74
     0
 42
0.00000001
 43
0.00000001
 40
0.0
 40
0.0
 40
0.0
 40
0.0
 40
0.2371941589276038
 40
0.497861974947102
 40
0.7485798819786854
 40
1.0
 40
1.0
 40
1.0
 40
1.0
 10
1112.603151444355
 20
975.3316086631363
 30
0.0
 10
1112.79813068541
 20
975.1886901593994
 30
0.0
 10
1113.207385072044
 20
974.8887093805776
 30
0.0
 10
1113.651000085087
 20
974.2653382352527
 30
0.0
 10
1113.948268444825
 20
973.5496217633408
 30
0.0
 10
1113.984840063414
 20
973.0460374356646
 30
0.0
 10
1114.003151444355
 20
972.7938931550464
 30
0.0
  0
SPLINE
  5
123
330
1F
100
AcDbEntity
  8
0
  6
SLD-Solid
 62
     7
370
    15
100
AcDbSpline
210
0.0
220
0.0
230
1.0
 70
    24
 71
     3
 72
    13
 73
     9
 74
     0
 42
0.00000001
 43
0.00000001
 40
0.0
 40
0.0
 40
0.0
 40
0.0
 40
0.1275360740474427
 40
0.254588719859228
 40
0.4999418984797921
 40
0.7453299828649835
 40
0.872505560577141
 40
1.0
 40
1.0
 40
1.0
 40
1.0
 10
1112.603151444355
 20
975.3316086631362
 30
0.0
 10
1112.603151444355
 20
975.3243414192649
 30
0.0
 10
1112.603151444355
 20
975.3098344781671
 30
0.0
 10
1112.603151444355
 20
975.1493433531908
 30
0.0
 10
1112.603151444355
 20
974.7835639478202
 30
0.0
 10
1112.603151444355
 20
974.2359889575805
 30
0.0
 10
1112.603151444355
 20
973.7361419736443
 30
0.0
 10
1112.603151444355
 20
973.470312124978
 30
0.0
 10
1112.603151444355
 20
973.3372307834097
 30
0.0
  0
SPLINE
  5
124
330
1F
100
AcDbEntity
  8
0
  6
SLD-Solid
 62
     7
370
    15
100
AcDbSpline
210
0.0
220
0.0
230
1.0
 70
     8
 71
     3
 72
    11
 73
     7
 74
     0
 42
0.00000001
 43
0.00000001
 40
0.0
 40
0.0
 40
0.0
 40
0.0
 40
0.2514201137491442
 40
0.5021380165204852
 40
0.7627995894819151
 40
0.9999999999999999
 40
0.9999999999999999
 40
0.9999999999999999
 40
0.9999999999999999
 10
1114.003151444355
 20
917.8693241712261
 30
0.0
 10
1113.984840072703
 20
917.6171798939989
 30
0.0
 10
1113.948268472666
 20
917.1135955730954
 30
0.0
 10
1113.651002403467
 20
916.3978849033351
 30
0.0
 10
1113.207389771282
 20
915.7745129765124
 30
0.0
 10
1112.798135680208
 20
915.4745313399198
 30
0.0
 10
1112.603151444355
 20
915.3316086631362
 30
0.0
  0
SPLINE
  5
125
330
1F
100
AcDbEntity
  8
0
  6
SLD-Solid
 62
     7
370
    15
100
AcDbSpline
210
0.0
220
0.0
230
1.0
 70
    24
 71
     3
 72
    13
 73
     9
 74
     0
 42
0.00000001
 43
0.00000001
 40
0.0
 40
0.0
 40
0.0
 40
0.0
 40
0.1275872441294532
 40
0.2546759233236569
 40
0.5000487292309048
 40
0.7453982611490195
 40
0.872539756542471
 40
1.0
 40
1.0
 40
1.0
 40
1.0
 10
1112.603151444355
 20
917.3255919930432
 30
0.0
 10
1112.603151444355
 20
917.1924204915914
 30
0.0
 10
1112.603151444355
 20
916.9265978748866
 30
0.0
 10
1112.603151444355
 20
916.4268540417473
 30
0.0
 10
1112.603151444355
 20
915.8794506665262
 30
0.0
 10
1112.603151444355
 20
915.5136978903473
 30
0.0
 10
1112.603151444355
 20
915.3534375521666
 30
0.0
 10
1112.603151444355
 20
915.3388910299748
 30
0.0
 10
1112.603151444355
 20
915.3316086631362
 30
0.0
  0
LINE
  5
126
330
1F
100
AcDbEntity
  8
0
  6
SLD-Solid
 62
     7
370
    15
100
AcDbLine
 10
1052.2031514444
 20
1010.3316086631
 30
0.0
 11
1052.2031514444
 21
1008.2816086631
 31
0.0
  0
LINE
  5
127
330
1F
100
AcDbEntity
  8
0
  6
SLD-Solid
 62
     7
370
    15
100
AcDbLine
 10
1108.9531514444
 20
1008.2816086631
 30
0.0
 11
1108.8824407663
 21
1010.3316086631
 31
0.0
  0
LINE
  5
128
330
1F
100
AcDbEntity
  8
0
  6
SLD-Solid
 62
     7
370
    15
100
AcDbLine
 10
1052.2031514444
 20
1008.2816086631
 30
0.0
 11
1052.2031514444
 21
886.1386797309
 31
0.0
  0
LINE
  5
129
330
1F
100
AcDbEntity
  8
0
  6
SLD-Solid
 62
     7
370
    15
100
AcDbLine
 10
1108.9531514444
 20
886.1386797309
 30
0.0
 11
1052.2031514444
 21
886.1386797309
 31
0.0
  0
LINE
  5
12A
330
1F
100
AcDbEntity
  8
0
  6
SLD-Solid
 62
     7
370
    15
100
AcDbLine
 10
1111.0031514444
 20
1008.2816086631
 30
0.0
 11
1111.0031514444
 21
887.3816086631
 31
0.0
  0
SPLINE
  5
12B
330
1F
100
AcDbEntity
  8
0
  6
SLD-Solid
 62
     7
370
    15
100
AcDbSpline
210
0.0
220
0.0
230
1.0
 70
     8
 71
     3
 72
    12
 73
     8
 74
     0
 42
0.00000001
 43
0.00000001
 40
0.0
 40
0.0
 40
0.0
 40
0.0
 40
0.2301693782020195
 40
0.460422164295728
 40
0.6906753391241873
 40
0.9209283614222885
 40
1.0
 40
1.0
 40
1.0
 40
1.0
 10
1111.003151444358
 20
887.3816086631363
 30
0.0
 10
1110.977074136064
 20
887.2862190983826
 30
0.0
 10
1110.924910069681
 20
887.0954054019721
 30
0.0
 10
1110.520200084972
 20
886.8091136593739
 30
0.0
 10
1109.932172229215
 20
886.522998529338
 30
0.0
 10
1109.368147583383
 20
886.2988837219283
 30
0.0
 10
1109.037638409765
 20
886.1712948513583
 30
0.0
 10
1108.953151444358
 20
886.1386797309482
 30
0.0
  0
LINE
  5
12C
330
1F
100
AcDbEntity
  8
0
  6
SLD-Solid
 62
     7
370
    15
100
AcDbLine
 10
1108.9531514444
 20
1008.2816086631
 30
0.0
 11
1111.0031514444
 21
1008.2816086631
 31
0.0
  0
LINE
  5
12D
330
1F
100
AcDbEntity
  8
0
  6
SLD-Solid
 62
     7
370
    15
100
AcDbLine
 10
1108.9531514444
 20
885.3316086631
 30
0.0
 11
1108.9531514444
 21
886.1316086631
 31
0.0
  0
SPLINE
  5
12E
330
1F
100
AcDbEntity
  8
0
  6
SLD-Solid
 62
     7
370
    15
100
AcDbSpline
210
0.0
220
0.0
230
1.0
 70
     8
 71
     3
 72
     9
 73
     5
 74
     0
 42
0.00000001
 43
0.00000001
 40
0.0
 40
0.0
 40
0.0
 40
0.0
 40
0.5275152947319446
 40
1.0
 40
1.0
 40
1.0
 40
1.0
 10
1108.953151444358
 20
886.1316086631363
 30
0.0
 10
1109.121960139354
 20
886.1484705310573
 30
0.0
 10
1109.441967344228
 20
886.1804352306399
 30
0.0
 10
1109.689351223385
 20
886.3843655283355
 30
0.0
 10
1109.806236322617
 20
886.4807194749374
 30
0.0
  0
SPLINE
  5
12F
330
1F
100
AcDbEntity
  8
0
  6
SLD-Solid
 62
     7
370
    15
100
AcDbSpline
210
0.0
220
0.0
230
1.0
 70
     8
 71
     3
 72
    12
 73
     8
 74
     0
 42
0.00000001
 43
0.00000001
 40
0.0
 40
0.0
 40
0.0
 40
0.0
 40
0.2301693782019999
 40
0.460422164295659
 40
0.6906753391241395
 40
0.9209283614222109
 40
1.0
 40
1.0
 40
1.0
 40
1.0
 10
1108.953151444358
 20
885.3316086631362
 30
0.0
 10
1109.200230133419
 20
885.3576859714304
 30
0.0
 10
1109.694477046964
 20
885.4098500378129
 30
0.0
 10
1110.340604218067
 20
885.8145600225221
 30
0.0
 10
1110.804550514254
 20
886.4025878782788
 30
0.0
 10
1110.987360195012
 20
886.9666125241109
 30
0.0
 10
1110.999936583756
 20
887.2971216977294
 30
0.0
 10
1111.003151444358
 20
887.3816086631363
 30
0.0
  0
LINE
  5
130
330
1F
100
AcDbEntity
  8
0
  6
SLD-Solid
 62
     7
370
    15
100
AcDbLine
 10
1052.2031514444
 20
885.3316086631
 30
0.0
 11
1052.2031514444
 21
886.1316086631
 31
0.0
  0
LINE
  5
131
330
1F
100
AcDbEntity
  8
0
  6
SLD-Solid
 62
     7
370
    15
100
AcDbLine
 10
1108.9531514444
 20
886.1316086631
 30
0.0
 11
1052.2031514444
 21
886.1316086631
 31
0.0
  0
LINE
  5
132
330
1F
100
AcDbEntity
  8
0
  6
SLD-Solid
 62
     7
370
    15
100
AcDbLine
 10
1108.9531514444
 20
885.3316086631
 30
0.0
 11
1052.2031514444
 21
885.3316086631
 31
0.0
  0
ARC
  5
133
330
1F
100
AcDbEntity
  8
0
  6
SLD-Solid
 62
     7
370
    15
100
AcDbCircle
 10
1108.9531514444
 20
1008.2816086631
 30
0.0
 40
2.049999999999955
100
AcDbArc
 50
0.0
 51
90.0
  0
LINE
  5
134
330
1F
100
AcDbEntity
  8
0
  6
SLD-Solid
 62
     7
370
    15
100
AcDbLine
 10
1108.9531514444
 20
1009.5316086631
 30
0.0
 11
1108.9531514444
 21
1010.3316086631
 31
0.0
  0
ARC
  5
135
330
1F
100
AcDbEntity
  8
0
  6
SLD-Solid
 62
     7
370
    15
100
AcDbCircle
 10
1108.9531514444
 20
1008.2816086631
 30
0.0
 40
1.249999999999886
100
AcDbArc
 50
0.0
 51
90.0
  0
LINE
  5
136
330
1F
100
AcDbEntity
  8
0
  6
SLD-Solid
 62
     7
370
    15
100
AcDbLine
 10
1108.9100351772
 20
1009.5316086631
 30
0.0
 11
1108.9531514444
 21
1009.5316086631
 31
0.0
  0
LINE
  5
137
330
1F
100
AcDbEntity
  8
0
  6
SLD-Solid
 62
     7
370
    15
100
AcDbLine
 10
1108.9100351772
 20
1009.5316086631
 30
0.0
 11
1108.9531514444
 21
1008.2816086631
 31
0.0
  0
ARC
  5
138
330
1F
100
AcDbEntity
  8
0
  6
SLD-Solid
 62
     7
370
    15
100
AcDbCircle
 10
1053.2031514444
 20
1012.1316086631
 30
0.0
 40
1.000000000000227
100
AcDbArc
 50
180.0
 51
270.0
  0
LINE
  5
139
330
1F
100
AcDbEntity
  8
0
  6
SLD-Solid
 62
     7
370
    15
100
AcDbLine
 10
1052.2031514444
 20
1012.1316086631
 30
0.0
 11
1052.2031514444
 21
1130.8192831903
 31
0.0
  0
ARC
  5
13A
330
1F
100
AcDbEntity
  8
0
  6
SLD-Solid
 62
     7
370
    15
100
AcDbCircle
 10
1053.2031514444
 20
1130.8192831903
 30
0.0
 40
1.000000000000227
100
AcDbArc
 50
90.0
 51
180.0
  0
LINE
  5
13B
330
1F
100
AcDbEntity
  8
0
  6
SLD-Solid
 62
     7
370
    15
100
AcDbLine
 10
1052.2031514444
 20
1131.8192831903
 30
0.0
 11
1070.4423122602
 21
1131.8192831903
 31
0.0
  0
LINE
  5
13C
330
1F
100
AcDbEntity
  8
0
  6
SLD-Solid
 62
     7
370
    15
100
AcDbLine
 10
1052.2031514444
 20
1132.6192831903
 30
0.0
 11
1052.2031514444
 21
1131.8192831903
 31
0.0
  0
LINE
  5
13D
330
1F
100
AcDbEntity
  8
0
  6
SLD-Solid
 62
     7
370
    15
100
AcDbLine
 10
1052.2031514444
 20
1132.6192831903
 30
0.0
 11
1070.4423122602
 21
1132.6192831903
 31
0.0
  0
LINE
  5
13E
330
1F
100
AcDbEntity
  8
0
  6
SLD-Solid
 62
     7
370
    15
100
AcDbLine
 10
1052.2031514444
 20
1011.1316086631
 30
0.0
 11
1052.2031514444
 21
1010.3316086631
 31
0.0
  0
LINE
  5
13F
330
1F
100
AcDbEntity
  8
0
  6
SLD-Solid
 62
     7
370
    15
100
AcDbLine
 10
1052.2031514444
 20
1010.3316086631
 30
0.0
 11
1112.8472207451
 21
1010.3316086631
 31
0.0
  0
LINE
  5
140
330
1F
100
AcDbEntity
  8
0
  6
SLD-Solid
 62
     7
370
    15
100
AcDbLine
 10
1052.2031514444
 20
1011.1316086631
 30
0.0
 11
1112.8472207451
 21
1011.1316086631
 31
0.0
  0
LINE
  5
141
330
1F
100
AcDbEntity
  8
0
  6
SLD-Solid
 62
     7
370
    15
100
AcDbLine
 10
1095.9552498591
 20
1056.093620129
 30
0.0
 11
1071.6311329056
 21
1130.9555544332
 31
0.0
  0
LINE
  5
142
330
1F
100
AcDbEntity
  8
0
  6
SLD-Solid
 62
     7
370
    15
100
AcDbLine
 10
1096.7160950722
 20
1056.3408337245
 30
0.0
 11
1072.3919781186
 21
1131.2027680287
 31
0.0
  0
ARC
  5
143
330
1F
100
AcDbEntity
  8
0
  6
SLD-Solid
 62
     7
370
    15
100
AcDbCircle
 10
1070.4423122602
 20
1130.5692831903
 30
0.0
 40
2.049999999999727
100
AcDbArc
 50
18.0
 51
90.0
  0
ARC
  5
144
330
1F
100
AcDbEntity
  8
0
  6
SLD-Solid
 62
     7
370
    15
100
AcDbCircle
 10
1070.4423122602
 20
1130.5692831903
 30
0.0
 40
1.25
100
AcDbArc
 50
18.0
 51
90.0
  0
LINE
  5
145
330
1F
100
AcDbEntity
  8
0
  6
SLD-Solid
 62
     7
370
    15
100
AcDbLine
 10
1121.9832354476
 20
1042.2029593542
 30
0.0
 11
1102.5328426872
 21
1049.2823233637
 31
0.0
  0
LINE
  5
146
330
1F
100
AcDbEntity
  8
0
  6
SLD-Solid
 62
     7
370
    15
100
AcDbLine
 10
1122.2568515622
 20
1042.9547134508
 30
0.0
 11
1102.8064588019
 21
1050.0340774604
 31
0.0
  0
ARC
  5
147
330
1F
100
AcDbEntity
  8
0
  6
SLD-Solid
 62
     7
370
    15
100
AcDbCircle
 10
1106.2266602351
 20
1059.4310036682
 30
0.0
 40
10.00000000000009
100
AcDbArc
 50
198.0
 51
250.0
  0
ARC
  5
148
330
1F
100
AcDbEntity
  8
0
  6
SLD-Solid
 62
     7
370
    15
100
AcDbCircle
 10
1106.2266602351
 20
1059.4310036682
 30
0.0
 40
10.8000000000001
100
AcDbArc
 50
198.0
 51
250.0
  0
ARC
  5
149
330
1F
100
AcDbEntity
  8
0
  6
SLD-Solid
 62
     7
370
    15
100
AcDbCircle
 10
1112.8472207451
 20
1012.3816086631
 30
0.0
 40
2.050000000000068
100
AcDbArc
 50
270.0
 51
320.0
  0
ARC
  5
14A
330
1F
100
AcDbEntity
  8
0
  6
SLD-Solid
 62
     7
370
    15
100
AcDbCircle
 10
1112.8472207451
 20
1012.3816086631
 30
0.0
 40
1.250000000000015
100
AcDbArc
 50
270.0
 51
320.0
  0
ARC
  5
14B
330
1F
100
AcDbEntity
  8
0
  6
SLD-Solid
 62
     7
370
    15
100
AcDbCircle
 10
1118.5630340143
 20
1032.8060331463
 30
0.0
 40
10.00000000000002
100
AcDbArc
 50
320.0
 51
70.0
  0
ARC
  5
14C
330
1F
100
AcDbEntity
  8
0
  6
SLD-Solid
 62
     7
370
    15
100
AcDbCircle
 10
1118.5630340143
 20
1032.8060331463
 30
0.0
 40
10.80000000000002
100
AcDbArc
 50
320.0
 51
70.0
  0
LINE
  5
14D
330
1F
100
AcDbEntity
  8
0
  6
SLD-Solid
 62
     7
370
    15
100
AcDbLine
 10
1113.804776299
 20
1011.578124151
 30
0.0
 11
1126.2234784455
 21
1026.3781570495
 31
0.0
  0
LINE
  5
14E
330
1F
100
AcDbEntity
  8
0
  6
SLD-Solid
 62
     7
370
    15
100
AcDbLine
 10
1114.4176118535
 20
1011.0638940633
 30
0.0
 11
1126.836314
 21
1025.8639269617
 31
0.0
  0
LINE
  5
14F
330
1F
100
AcDbEntity
  8
0
  6
SLD-Solid
 62
     7
370
    15
100
AcDbLine
 10
1071.9956103311
 20
1132.4226626432
 30
0.0
 11
1072.3919781186
 21
1131.2027680287
 31
0.0
  0
LINE
  5
150
330
1F
100
AcDbEntity
  8
0
  6
SLD-Solid
 62
     7
370
    15
100
AcDbLine
 10
1072.8973048722
 20
1134.9251014792
 30
0.0
 11
1073.1473048722
 21
1135.0364086505
 31
0.0
  0
LINE
  5
151
330
1F
100
AcDbEntity
  8
0
  6
SLD-Solid
 62
     7
370
    15
100
AcDbLine
 10
1072.8973048722
 20
1134.0493924564
 30
0.0
 11
1073.1473048722
 21
1134.1606996277
 31
0.0
  0
LINE
  5
152
330
1F
100
AcDbEntity
  8
0
  6
SLD-Solid
 62
     7
370
    15
100
AcDbLine
 10
1071.9470725945
 20
1132.6316086631
 30
0.0
 11
1071.9956103311
 21
1132.4226626432
 31
0.0
  0
LWPOLYLINE
  5
153
330
1F
100
AcDbEntity
  8
0
  6
SLD-Solid
 62
     7
370
    15
100
AcDbPolyline
 90
        3
 70
   128
 43
0.0
 10
1071.1421147019
 20
1132.6316086631
 10
1071.1519690106
 20
1132.5413551921
 10
1071.1594297646
 20
1132.4897629409
  0
LINE
  5
154
330
1F
100
AcDbEntity
  8
0
  6
SLD-Solid
 62
     7
370
    15
100
AcDbLine
 10
345.4031514444
 20
1151.4316086632
 30
0.0
 11
345.4031514444
 21
1148.0785224086
 31
0.0
  0
LINE
  5
155
330
1F
100
AcDbEntity
  8
0
  6
SLD-Solid
 62
     7
370
    15
100
AcDbLine
 10
345.4031514444
 20
886.1848680961
 30
0.0
 11
345.4031514444
 21
884.6316086631
 31
0.0
  0
LINE
  5
156
330
1F
100
AcDbEntity
  8
0
  6
SLD-Solid
 62
     7
370
    15
100
AcDbLine
 10
345.4031514444
 20
884.6316086631
 30
0.0
 11
346.2031514444
 21
884.6316086631
 31
0.0
  0
LINE
  5
157
330
1F
100
AcDbEntity
  8
0
  6
SLD-Solid
 62
     7
370
    15
100
AcDbLine
 10
346.2031514444
 20
1150.451812766
 30
0.0
 11
346.2031514444
 21
1148.9316086631
 31
0.0
  0
LINE
  5
158
330
1F
100
AcDbEntity
  8
0
  6
SLD-Solid
 62
     7
370
    15
100
AcDbLine
 10
346.2031514444
 20
1147.5412796516
 30
0.0
 11
346.2031514444
 21
1147.1731331477
 31
0.0
  0
LINE
  5
159
330
1F
100
AcDbEntity
  8
0
  6
SLD-Solid
 62
     7
370
    15
100
AcDbLine
 10
346.2031514444
 20
887.0890288798
 30
0.0
 11
346.2031514444
 21
886.7218754385
 31
0.0
  0
LINE
  5
15A
330
1F
100
AcDbEntity
  8
0
  6
SLD-Solid
 62
     7
370
    15
100
AcDbLine
 10
346.2031514444
 20
885.3316086631
 30
0.0
 11
346.2031514444
 21
884.6316086631
 31
0.0
  0
LINE
  5
15B
330
1F
100
AcDbEntity
  8
0
  6
SLD-Solid
 62
     7
370
    15
100
AcDbLine
 10
967.2031514441
 20
881.6316086631
 30
0.0
 11
967.2031514441
 21
884.1316086631
 31
0.0
  0
LINE
  5
15C
330
1F
100
AcDbEntity
  8
0
  6
SLD-Solid
 62
     7
370
    15
100
AcDbLine
 10
964.7031514441
 20
881.6316086631
 30
0.0
 11
967.2031514441
 21
881.6316086631
 31
0.0
  0
LINE
  5
15D
330
1F
100
AcDbEntity
  8
0
  6
SLD-Solid
 62
     7
370
    15
100
AcDbLine
 10
964.7031514441
 20
884.1316086631
 30
0.0
 11
967.2031514441
 21
884.1316086631
 31
0.0
  0
LINE
  5
15E
330
1F
100
AcDbEntity
  8
0
  6
SLD-Solid
 62
     7
370
    15
100
AcDbLine
 10
949.0031514441
 20
881.6316086631
 30
0.0
 11
964.7031514441
 21
881.6316086631
 31
0.0
  0
LINE
  5
15F
330
1F
100
AcDbEntity
  8
0
  6
SLD-Solid
 62
     7
370
    15
100
AcDbLine
 10
949.0031514441
 20
884.1316086631
 30
0.0
 11
964.7031514441
 21
884.1316086631
 31
0.0
  0
LINE
  5
160
330
1F
100
AcDbEntity
  8
0
  6
SLD-Solid
 62
     7
370
    15
100
AcDbLine
 10
946.5031514441
 20
881.6316086631
 30
0.0
 11
946.5031514441
 21
884.1316086631
 31
0.0
  0
LINE
  5
161
330
1F
100
AcDbEntity
  8
0
  6
SLD-Solid
 62
     7
370
    15
100
AcDbLine
 10
946.5031514441
 20
881.6316086631
 30
0.0
 11
949.0031514441
 21
881.6316086631
 31
0.0
  0
LINE
  5
162
330
1F
100
AcDbEntity
  8
0
  6
SLD-Solid
 62
     7
370
    15
100
AcDbLine
 10
946.5031514441
 20
884.1316086631
 30
0.0
 11
949.0031514441
 21
884.1316086631
 31
0.0
  0
LINE
  5
163
330
1F
100
AcDbEntity
  8
0
  6
SLD-Solid
 62
     7
370
    15
100
AcDbLine
 10
970.7031514441
 20
881.6316086631
 30
0.0
 11
986.5889378818
 21
881.6316086631
 31
0.0
  0
LINE
  5
164
330
1F
100
AcDbEntity
  8
0
  6
SLD-Solid
 62
     7
370
    15
100
AcDbLine
 10
1026.4173650065
 20
881.6316086631
 30
0.0
 11
1042.3031514441
 21
881.6316086631
 31
0.0
  0
LINE
  5
165
330
1F
100
AcDbEntity
  8
0
  6
SLD-Solid
 62
     7
370
    15
100
AcDbLine
 10
970.7031514441
 20
884.1316086631
 30
0.0
 11
1042.3031514441
 21
884.1316086631
 31
0.0
  0
LINE
  5
166
330
1F
100
AcDbEntity
  8
0
  6
SLD-Solid
 62
     7
370
    15
100
AcDbLine
 10
968.2031514441
 20
881.6316086631
 30
0.0
 11
968.2031514441
 21
884.1316086631
 31
0.0
  0
LINE
  5
167
330
1F
100
AcDbEntity
  8
0
  6
SLD-Solid
 62
     7
370
    15
100
AcDbLine
 10
968.2031514441
 20
881.6316086631
 30
0.0
 11
970.7031514441
 21
881.6316086631
 31
0.0
  0
LINE
  5
168
330
1F
100
AcDbEntity
  8
0
  6
SLD-Solid
 62
     7
370
    15
100
AcDbLine
 10
968.2031514441
 20
884.1316086631
 30
0.0
 11
970.7031514441
 21
884.1316086631
 31
0.0
  0
LINE
  5
169
330
1F
100
AcDbEntity
  8
0
  6
SLD-Solid
 62
     7
370
    15
100
AcDbLine
 10
1048.3031514441
 20
881.6316086631
 30
0.0
 11
1064.0031514441
 21
881.6316086631
 31
0.0
  0
LINE
  5
16A
330
1F
100
AcDbEntity
  8
0
  6
SLD-Solid
 62
     7
370
    15
100
AcDbLine
 10
1048.3031514441
 20
884.1316086631
 30
0.0
 11
1064.0031514441
 21
884.1316086631
 31
0.0
  0
LINE
  5
16B
330
1F
100
AcDbEntity
  8
0
  6
SLD-Solid
 62
     7
370
    15
100
AcDbLine
 10
1045.8031514441
 20
881.6316086631
 30
0.0
 11
1045.8031514441
 21
884.1316086631
 31
0.0
  0
LINE
  5
16C
330
1F
100
AcDbEntity
  8
0
  6
SLD-Solid
 62
     7
370
    15
100
AcDbLine
 10
1045.8031514441
 20
881.6316086631
 30
0.0
 11
1048.3031514441
 21
881.6316086631
 31
0.0
  0
LINE
  5
16D
330
1F
100
AcDbEntity
  8
0
  6
SLD-Solid
 62
     7
370
    15
100
AcDbLine
 10
1045.8031514441
 20
884.1316086631
 30
0.0
 11
1048.3031514441
 21
884.1316086631
 31
0.0
  0
LINE
  5
16E
330
1F
100
AcDbEntity
  8
0
  6
SLD-Solid
 62
     7
370
    15
100
AcDbLine
 10
1044.8031514441
 20
881.6316086631
 30
0.0
 11
1044.8031514441
 21
884.1316086631
 31
0.0
  0
LINE
  5
16F
330
1F
100
AcDbEntity
  8
0
  6
SLD-Solid
 62
     7
370
    15
100
AcDbLine
 10
1042.3031514441
 20
881.6316086631
 30
0.0
 11
1044.8031514441
 21
881.6316086631
 31
0.0
  0
LINE
  5
170
330
1F
100
AcDbEntity
  8
0
  6
SLD-Solid
 62
     7
370
    15
100
AcDbLine
 10
1042.3031514441
 20
884.1316086631
 30
0.0
 11
1044.8031514441
 21
884.1316086631
 31
0.0
  0
LINE
  5
171
330
1F
100
AcDbEntity
  8
0
  6
SLD-Solid
 62
     7
370
    15
100
AcDbLine
 10
1066.5031514441
 20
881.6316086631
 30
0.0
 11
1066.5031514441
 21
884.1316086631
 31
0.0
  0
LINE
  5
172
330
1F
100
AcDbEntity
  8
0
  6
SLD-Solid
 62
     7
370
    15
100
AcDbLine
 10
1064.0031514441
 20
881.6316086631
 30
0.0
 11
1066.5031514441
 21
881.6316086631
 31
0.0
  0
LINE
  5
173
330
1F
100
AcDbEntity
  8
0
  6
SLD-Solid
 62
     7
370
    15
100
AcDbLine
 10
1064.0031514441
 20
884.1316086631
 30
0.0
 11
1066.5031514441
 21
884.1316086631
 31
0.0
  0
LINE
  5
174
330
1F
100
AcDbEntity
  8
0
  6
SLD-Solid
 62
     7
370
    15
100
AcDbLine
 10
967.2031514441
 20
881.6316086631
 30
0.0
 11
968.2031514441
 21
881.6316086631
 31
0.0
  0
LINE
  5
175
330
1F
100
AcDbEntity
  8
0
  6
SLD-Solid
 62
     7
370
    15
100
AcDbLine
 10
967.2031514441
 20
884.1316086631
 30
0.0
 11
968.2031514441
 21
884.1316086631
 31
0.0
  0
LINE
  5
176
330
1F
100
AcDbEntity
  8
0
  6
SLD-Solid
 62
     7
370
    15
100
AcDbLine
 10
1044.8031514441
 20
881.6316086631
 30
0.0
 11
1045.8031514441
 21
881.6316086631
 31
0.0
  0
LINE
  5
177
330
1F
100
AcDbEntity
  8
0
  6
SLD-Solid
 62
     7
370
    15
100
AcDbLine
 10
1044.8031514441
 20
884.1316086631
 30
0.0
 11
1045.8031514441
 21
884.1316086631
 31
0.0
  0
LINE
  5
178
330
1F
100
AcDbEntity
  8
0
  6
SLD-Solid
 62
     7
370
    15
100
AcDbLine
 10
357.5031514441
 20
881.6316086631
 30
0.0
 11
357.5031514441
 21
884.1316086631
 31
0.0
  0
LINE
  5
179
330
1F
100
AcDbEntity
  8
0
  6
SLD-Solid
 62
     7
370
    15
100
AcDbLine
 10
357.5031514441
 20
884.1316086631
 30
0.0
 11
360.0031514441
 21
884.1316086631
 31
0.0
  0
LINE
  5
17A
330
1F
100
AcDbEntity
  8
0
  6
SLD-Solid
 62
     7
370
    15
100
AcDbLine
 10
357.5031514441
 20
881.6316086631
 30
0.0
 11
360.0031514441
 21
881.6316086631
 31
0.0
  0
LINE
  5
17B
330
1F
100
AcDbEntity
  8
0
  6
SLD-Solid
 62
     7
370
    15
100
AcDbLine
 10
360.0031514441
 20
884.1316086631
 30
0.0
 11
375.7031514441
 21
884.1316086631
 31
0.0
  0
LINE
  5
17C
330
1F
100
AcDbEntity
  8
0
  6
SLD-Solid
 62
     7
370
    15
100
AcDbLine
 10
360.0031514441
 20
881.6316086631
 30
0.0
 11
375.7031514441
 21
881.6316086631
 31
0.0
  0
LINE
  5
17D
330
1F
100
AcDbEntity
  8
0
  6
SLD-Solid
 62
     7
370
    15
100
AcDbLine
 10
378.2031514441
 20
881.6316086631
 30
0.0
 11
378.2031514441
 21
884.1316086631
 31
0.0
  0
LINE
  5
17E
330
1F
100
AcDbEntity
  8
0
  6
SLD-Solid
 62
     7
370
    15
100
AcDbLine
 10
375.7031514441
 20
884.1316086631
 30
0.0
 11
378.2031514441
 21
884.1316086631
 31
0.0
  0
LINE
  5
17F
330
1F
100
AcDbEntity
  8
0
  6
SLD-Solid
 62
     7
370
    15
100
AcDbLine
 10
375.7031514441
 20
881.6316086631
 30
0.0
 11
378.2031514441
 21
881.6316086631
 31
0.0
  0
LINE
  5
180
330
1F
100
AcDbEntity
  8
0
  6
SLD-Solid
 62
     7
370
    15
100
AcDbLine
 10
379.2031514441
 20
881.6316086631
 30
0.0
 11
379.2031514441
 21
884.1316086631
 31
0.0
  0
LINE
  5
181
330
1F
100
AcDbEntity
  8
0
  6
SLD-Solid
 62
     7
370
    15
100
AcDbLine
 10
379.2031514441
 20
884.1316086631
 30
0.0
 11
381.7031514441
 21
884.1316086631
 31
0.0
  0
LINE
  5
182
330
1F
100
AcDbEntity
  8
0
  6
SLD-Solid
 62
     7
370
    15
100
AcDbLine
 10
379.2031514441
 20
881.6316086631
 30
0.0
 11
381.7031514441
 21
881.6316086631
 31
0.0
  0
LINE
  5
183
330
1F
100
AcDbEntity
  8
0
  6
SLD-Solid
 62
     7
370
    15
100
AcDbLine
 10
381.7031514441
 20
884.1316086631
 30
0.0
 11
453.3031514441
 21
884.1316086631
 31
0.0
  0
LINE
  5
184
330
1F
100
AcDbEntity
  8
0
  6
SLD-Solid
 62
     7
370
    15
100
AcDbLine
 10
381.7031514441
 20
881.6316086631
 30
0.0
 11
397.5889378818
 21
881.6316086631
 31
0.0
  0
LINE
  5
185
330
1F
100
AcDbEntity
  8
0
  6
SLD-Solid
 62
     7
370
    15
100
AcDbLine
 10
437.4173650065
 20
881.6316086631
 30
0.0
 11
453.3031514441
 21
881.6316086631
 31
0.0
  0
LINE
  5
186
330
1F
100
AcDbEntity
  8
0
  6
SLD-Solid
 62
     7
370
    15
100
AcDbLine
 10
456.8031514441
 20
881.6316086631
 30
0.0
 11
456.8031514441
 21
884.1316086631
 31
0.0
  0
LINE
  5
187
330
1F
100
AcDbEntity
  8
0
  6
SLD-Solid
 62
     7
370
    15
100
AcDbLine
 10
456.8031514441
 20
884.1316086631
 30
0.0
 11
459.3031514441
 21
884.1316086631
 31
0.0
  0
LINE
  5
188
330
1F
100
AcDbEntity
  8
0
  6
SLD-Solid
 62
     7
370
    15
100
AcDbLine
 10
456.8031514441
 20
881.6316086631
 30
0.0
 11
459.3031514441
 21
881.6316086631
 31
0.0
  0
LINE
  5
189
330
1F
100
AcDbEntity
  8
0
  6
SLD-Solid
 62
     7
370
    15
100
AcDbLine
 10
455.8031514441
 20
881.6316086631
 30
0.0
 11
455.8031514441
 21
884.1316086631
 31
0.0
  0
LINE
  5
18A
330
1F
100
AcDbEntity
  8
0
  6
SLD-Solid
 62
     7
370
    15
100
AcDbLine
 10
453.3031514441
 20
884.1316086631
 30
0.0
 11
455.8031514441
 21
884.1316086631
 31
0.0
  0
LINE
  5
18B
330
1F
100
AcDbEntity
  8
0
  6
SLD-Solid
 62
     7
370
    15
100
AcDbLine
 10
453.3031514441
 20
881.6316086631
 30
0.0
 11
455.8031514441
 21
881.6316086631
 31
0.0
  0
LINE
  5
18C
330
1F
100
AcDbEntity
  8
0
  6
SLD-Solid
 62
     7
370
    15
100
AcDbLine
 10
459.3031514441
 20
884.1316086631
 30
0.0
 11
475.0031514441
 21
884.1316086631
 31
0.0
  0
LINE
  5
18D
330
1F
100
AcDbEntity
  8
0
  6
SLD-Solid
 62
     7
370
    15
100
AcDbLine
 10
459.3031514441
 20
881.6316086631
 30
0.0
 11
475.0031514441
 21
881.6316086631
 31
0.0
  0
LINE
  5
18E
330
1F
100
AcDbEntity
  8
0
  6
SLD-Solid
 62
     7
370
    15
100
AcDbLine
 10
477.5031514441
 20
881.6316086631
 30
0.0
 11
477.5031514441
 21
884.1316086631
 31
0.0
  0
LINE
  5
18F
330
1F
100
AcDbEntity
  8
0
  6
SLD-Solid
 62
     7
370
    15
100
AcDbLine
 10
475.0031514441
 20
884.1316086631
 30
0.0
 11
477.5031514441
 21
884.1316086631
 31
0.0
  0
LINE
  5
190
330
1F
100
AcDbEntity
  8
0
  6
SLD-Solid
 62
     7
370
    15
100
AcDbLine
 10
475.0031514441
 20
881.6316086631
 30
0.0
 11
477.5031514441
 21
881.6316086631
 31
0.0
  0
LINE
  5
191
330
1F
100
AcDbEntity
  8
0
  6
SLD-Solid
 62
     7
370
    15
100
AcDbLine
 10
378.2031514441
 20
884.1316086631
 30
0.0
 11
379.2031514441
 21
884.1316086631
 31
0.0
  0
LINE
  5
192
330
1F
100
AcDbEntity
  8
0
  6
SLD-Solid
 62
     7
370
    15
100
AcDbLine
 10
378.2031514441
 20
881.6316086631
 30
0.0
 11
379.2031514441
 21
881.6316086631
 31
0.0
  0
LINE
  5
193
330
1F
100
AcDbEntity
  8
0
  6
SLD-Solid
 62
     7
370
    15
100
AcDbLine
 10
455.8031514441
 20
884.1316086631
 30
0.0
 11
456.8031514441
 21
884.1316086631
 31
0.0
  0
LINE
  5
194
330
1F
100
AcDbEntity
  8
0
  6
SLD-Solid
 62
     7
370
    15
100
AcDbLine
 10
455.8031514441
 20
881.6316086631
 30
0.0
 11
456.8031514441
 21
881.6316086631
 31
0.0
  0
LINE
  5
195
330
1F
100
AcDbEntity
  8
0
  6
SLD-Solid
 62
     7
370
    15
100
AcDbLine
 10
397.5031514441
 20
881.6316086631
 30
0.0
 11
397.5031514441
 21
508.6316086631
 31
0.0
  0
LINE
  5
196
330
1F
100
AcDbEntity
  8
0
  6
SLD-Solid
 62
     7
370
    15
100
AcDbLine
 10
397.5889378818
 20
881.6316086631
 30
0.0
 11
399.0031514441
 21
881.6316086631
 31
0.0
  0
LINE
  5
197
330
1F
100
AcDbEntity
  8
0
  6
SLD-Solid
 62
     7
370
    15
100
AcDbLine
 10
399.0031514441
 20
881.6316086631
 30
0.0
 11
436.0031514441
 21
881.6316086631
 31
0.0
  0
LINE
  5
198
330
1F
100
AcDbEntity
  8
0
  6
SLD-Solid
 62
     7
370
    15
100
AcDbLine
 10
437.5031514441
 20
881.6316086631
 30
0.0
 11
437.5031514441
 21
508.6316086631
 31
0.0
  0
LINE
  5
199
330
1F
100
AcDbEntity
  8
0
  6
SLD-Solid
 62
     7
370
    15
100
AcDbLine
 10
436.0031514441
 20
881.6316086631
 30
0.0
 11
437.4173650065
 21
881.6316086631
 31
0.0
  0
LINE
  5
19A
330
1F
100
AcDbEntity
  8
0
  6
SLD-Solid
 62
     7
370
    15
100
AcDbLine
 10
988.0031514441
 20
881.6316086631
 30
0.0
 11
1025.0031514441
 21
881.6316086631
 31
0.0
  0
LINE
  5
19B
330
1F
100
AcDbEntity
  8
0
  6
SLD-Solid
 62
     7
370
    15
100
AcDbLine
 10
986.5031514441
 20
881.6316086631
 30
0.0
 11
986.5031514441
 21
508.6316086631
 31
0.0
  0
LINE
  5
19C
330
1F
100
AcDbEntity
  8
0
  6
SLD-Solid
 62
     7
370
    15
100
AcDbLine
 10
986.5889378818
 20
881.6316086631
 30
0.0
 11
988.0031514441
 21
881.6316086631
 31
0.0
  0
LINE
  5
19D
330
1F
100
AcDbEntity
  8
0
  6
SLD-Solid
 62
     7
370
    15
100
AcDbLine
 10
1026.5031514441
 20
881.6316086631
 30
0.0
 11
1026.5031514441
 21
508.6316086631
 31
0.0
  0
LINE
  5
19E
330
1F
100
AcDbEntity
  8
0
  6
SLD-Solid
 62
     7
370
    15
100
AcDbLine
 10
1025.0031514441
 20
881.6316086631
 30
0.0
 11
1026.4173650065
 21
881.6316086631
 31
0.0
  0
LINE
  5
19F
330
1F
100
AcDbEntity
  8
0
  6
SLD-Solid
 62
     7
370
    15
100
AcDbLine
 10
347.3102225119
 20
473.6316086631
 30
0.0
 11
1105.6960803763
 21
473.6316086631
 31
0.0
  0
LINE
  5
1A0
330
1F
100
AcDbEntity
  8
0
  6
SLD-Solid
 62
     7
370
    15
100
AcDbLine
 10
347.3102225119
 20
506.5816086631
 30
0.0
 11
347.3102225119
 21
473.6316086631
 31
0.0
  0
LINE
  5
1A1
330
1F
100
AcDbEntity
  8
0
  6
SLD-Solid
 62
     7
370
    15
100
AcDbLine
 10
1105.6960803763
 20
506.5816086631
 30
0.0
 11
1105.6960803763
 21
473.6316086631
 31
0.0
  0
SPLINE
  5
1A2
330
1F
100
AcDbEntity
  8
0
  6
SLD-Solid
 62
     7
370
    15
100
AcDbSpline
210
0.0
220
0.0
230
1.0
 70
     8
 71
     3
 72
    12
 73
     8
 74
     0
 42
0.00000001
 43
0.00000001
 40
0.0
 40
0.0
 40
0.0
 40
0.0
 40
0.2301693782019777
 40
0.4604221642956536
 40
0.690675339124164
 40
0.9209283614222482
 40
1.0
 40
1.0
 40
1.0
 40
1.0
 10
1104.453151444128
 20
508.6316086631361
 30
0.0
 10
1104.548541008882
 20
508.6055313548421
 30
0.0
 10
1104.739354705292
 20
508.5533672884595
 30
0.0
 10
1105.02564644789
 20
508.1486573037506
 30
0.0
 10
1105.311761577926
 20
507.5606294479937
 30
0.0
 10
1105.535876385336
 20
506.9966048021617
 30
0.0
 10
1105.663465255906
 20
506.6660956285434
 30
0.0
 10
1105.696080376316
 20
506.5816086631363
 30
0.0
  0
SPLINE
  5
1A3
330
1F
100
AcDbEntity
  8
0
  6
SLD-Solid
 62
     7
370
    15
100
AcDbSpline
210
0.0
220
0.0
230
1.0
 70
     8
 71
     3
 72
    12
 73
     8
 74
     0
 42
0.00000001
 43
0.00000001
 40
0.0
 40
0.0
 40
0.0
 40
0.0
 40
0.2301693782020349
 40
0.4604221642957497
 40
0.6906753391242106
 40
0.9209283614223227
 40
0.9999999999999999
 40
0.9999999999999999
 40
0.9999999999999999
 40
0.9999999999999999
 10
347.3102225119396
 20
506.5816086631363
 30
0.0
 10
347.4056120766935
 20
506.8286873521976
 30
0.0
 10
347.5964257731035
 20
507.3229342657425
 30
0.0
 10
347.8827175157024
 20
507.9690614368448
 30
0.0
 10
348.1688326457377
 20
508.4330077330324
 30
0.0
 10
348.3929474531475
 20
508.6158174137905
 30
0.0
 10
348.5205363237176
 20
508.6283938025346
 30
0.0
 10
348.5531514441278
 20
508.6316086631361
 30
0.0
  0
LINE
  5
1A4
330
1F
100
AcDbEntity
  8
0
  6
SLD-Solid
 62
     7
370
    15
100
AcDbLine
 10
348.5531514441
 20
508.6316086631
 30
0.0
 11
1104.4531514441
 21
508.6316086631
 31
0.0
  0
SPLINE
  5
1A5
330
1F
100
AcDbEntity
  8
0
  6
SLD-Solid
 62
     7
370
    15
100
AcDbSpline
210
0.0
220
0.0
230
1.0
 70
     8
 71
     3
 72
    17
 73
    13
 74
     0
 42
0.00000001
 43
0.00000001
 40
0.0
 40
0.0
 40
0.0
 40
0.0
 40
0.1134691409143194
 40
0.2302260747277523
 40
0.3437354275908207
 40
0.4605361783210534
 40
0.5740457178286857
 40
0.6908466730205762
 40
0.8043561351736733
 40
0.9211570132012977
 40
0.960512825829517
 40
1.0
 40
1.0
 40
1.0
 40
1.0
 10
348.5531514441278
 20
508.6316086631361
 30
0.0
 10
348.4313539821351
 20
508.6253141522894
 30
0.0
 10
348.1842299503464
 20
508.6125427457827
 30
0.0
 10
347.8270753094097
 20
508.5099077267126
 30
0.0
 10
347.4904311444751
 20
508.3479576306035
 30
0.0
 10
347.1912955182515
 20
508.1287866791675
 30
0.0
 10
346.9340860295689
 20
507.8572635350844
 30
0.0
 10
346.7318294948143
 20
507.5466197364288
 30
0.0
 10
346.5872814363267
 20
507.2016255210182
 30
0.0
 10
346.5255191846877
 20
506.9174552221816
 30
0.0
 10
346.5054348832186
 20
506.7085034151602
 30
0.0
 10
346.5039134354608
 20
506.6239538702538
 30
0.0
 10
346.5031514441279
 20
506.5816086631363
 30
0.0
  0
SPLINE
  5
1A6
330
1F
100
AcDbEntity
  8
0
  6
SLD-Solid
 62
     7
370
    15
100
AcDbSpline
210
0.0
220
0.0
230
1.0
 70
     8
 71
     3
 72
    12
 73
     8
 74
     0
 42
0.00000001
 43
0.00000001
 40
0.0
 40
0.0
 40
0.0
 40
0.0
 40
0.0120355839804214
 40
0.2643458009552081
 40
0.5239707443105805
 40
0.7590464385635296
 40
1.0
 40
1.0
 40
1.0
 40
1.0
 10
347.6660446513384
 20
507.460648737799
 30
0.0
 10
347.6630380795347
 20
507.458147963539
 30
0.0
 10
347.5970026771069
 20
507.4032217401142
 30
0.0
 10
347.4977682456604
 20
507.2606479022342
 30
0.0
 10
347.3841400707427
 20
507.0465103689401
 30
0.0
 10
347.3159909340078
 20
506.814720600427
 30
0.0
 10
347.3074663603848
 20
506.659949664011
 30
0.0
 10
347.3031514441278
 20
506.5816086631363
 30
0.0
  0
LINE
  5
1A7
330
1F
100
AcDbEntity
  8
0
  6
SLD-Solid
 62
     7
370
    15
100
AcDbLine
 10
346.5031514441
 20
506.5816086631
 30
0.0
 11
347.3031514441
 21
506.5816086631
 31
0.0
  0
LINE
  5
1A8
330
1F
100
AcDbEntity
  8
0
  6
SLD-Solid
 62
     7
370
    15
100
AcDbLine
 10
1106.5031514441
 20
506.5816086631
 30
0.0
 11
1105.7031514441
 21
506.5816086631
 31
0.0
  0
SPLINE
  5
1A9
330
1F
100
AcDbEntity
  8
0
  6
SLD-Solid
 62
     7
370
    15
100
AcDbSpline
210
0.0
220
0.0
230
1.0
 70
     8
 71
     3
 72
     9
 73
     5
 74
     0
 42
0.00000001
 43
0.00000001
 40
0.0
 40
0.0
 40
0.0
 40
0.0
 40
0.5275152947321207
 40
1.0
 40
1.0
 40
1.0
 40
1.0
 10
1105.703151444128
 20
506.5816086631363
 30
0.0
 10
1105.686289576206
 20
506.7504173581318
 30
0.0
 10
1105.654324876624
 20
507.0704245630055
 30
0.0
 10
1105.450394578929
 20
507.3178084421627
 30
0.0
 10
1105.354040632327
 20
507.4346935413943
 30
0.0
  0
SPLINE
  5
1AA
330
1F
100
AcDbEntity
  8
0
  6
SLD-Solid
 62
     7
370
    15
100
AcDbSpline
210
0.0
220
0.0
230
1.0
 70
     8
 71
     3
 72
    12
 73
     8
 74
     0
 42
0.00000001
 43
0.00000001
 40
0.0
 40
0.0
 40
0.0
 40
0.0
 40
0.230169378202035
 40
0.4604221642957295
 40
0.6906753391241977
 40
0.9209283614223192
 40
1.0
 40
1.0
 40
1.0
 40
1.0
 10
1106.503151444128
 20
506.5816086631363
 30
0.0
 10
1106.477074135834
 20
506.8286873521976
 30
0.0
 10
1106.424910069451
 20
507.3229342657425
 30
0.0
 10
1106.020200084742
 20
507.9690614368448
 30
0.0
 10
1105.432172228985
 20
508.4330077330325
 30
0.0
 10
1104.868147583153
 20
508.6158174137905
 30
0.0
 10
1104.537638409535
 20
508.6283938025347
 30
0.0
 10
1104.453151444128
 20
508.6316086631363
 30
0.0
  0
LINE
  5
1AB
330
1F
100
AcDbEntity
  8
0
  6
SLD-Solid
 62
     7
370
    15
100
AcDbLine
 10
347.3031514441
 20
506.5816086631
 30
0.0
 11
347.3031514441
 21
473.6316086631
 31
0.0
  0
LINE
  5
1AC
330
1F
100
AcDbEntity
  8
0
  6
SLD-Solid
 62
     7
370
    15
100
AcDbLine
 10
346.5031514441
 20
506.5816086631
 30
0.0
 11
346.5031514441
 21
473.6316086631
 31
0.0
  0
LINE
  5
1AD
330
1F
100
AcDbEntity
  8
0
  6
SLD-Solid
 62
     7
370
    15
100
AcDbLine
 10
346.5031514441
 20
473.6316086631
 30
0.0
 11
347.3031514441
 21
473.6316086631
 31
0.0
  0
LINE
  5
1AE
330
1F
100
AcDbEntity
  8
0
  6
SLD-Solid
 62
     7
370
    15
100
AcDbLine
 10
1106.5031514441
 20
506.5816086631
 30
0.0
 11
1106.5031514441
 21
473.6316086631
 31
0.0
  0
LINE
  5
1AF
330
1F
100
AcDbEntity
  8
0
  6
SLD-Solid
 62
     7
370
    15
100
AcDbLine
 10
1106.5031514441
 20
473.6316086631
 30
0.0
 11
1105.7031514441
 21
473.6316086631
 31
0.0
  0
LINE
  5
1B0
330
1F
100
AcDbEntity
  8
0
  6
SLD-Solid
 62
     7
370
    15
100
AcDbLine
 10
1105.7031514441
 20
506.5816086631
 30
0.0
 11
1105.7031514441
 21
473.6316086631
 31
0.0
  0
LINE
  5
1B1
330
1F
100
AcDbEntity
  8
0
  6
SLD-Solid
 62
     7
370
    15
100
AcDbLine
 10
369.0102225119
 20
473.6316086631
 30
0.0
 11
369.0102225119
 21
470.5816086631
 31
0.0
  0
LINE
  5
1B2
330
1F
100
AcDbEntity
  8
0
  6
SLD-Solid
 62
     7
370
    15
100
AcDbLine
 10
1054.9960803763
 20
473.6316086631
 30
0.0
 11
1054.9960803763
 21
470.5816086631
 31
0.0
  0
LINE
  5
1B3
330
1F
100
AcDbEntity
  8
0
  6
SLD-Solid
 62
     7
370
    15
100
AcDbLine
 10
1054.9960803763
 20
470.5816086631
 30
0.0
 11
1054.9960803763
 21
467.8316086631
 31
0.0
  0
LINE
  5
1B4
330
1F
100
AcDbEntity
  8
0
  6
SLD-Solid
 62
     7
370
    15
100
AcDbLine
 10
369.0102225119
 20
467.8316086631
 30
0.0
 11
1054.9960803763
 21
467.8316086631
 31
0.0
  0
LINE
  5
1B5
330
1F
100
AcDbEntity
  8
0
  6
SLD-Solid
 62
     7
370
    15
100
AcDbLine
 10
369.0102225119
 20
467.8316086631
 30
0.0
 11
369.0102225119
 21
470.5816086631
 31
0.0
  0
LINE
  5
1B6
330
1F
100
AcDbEntity
  8
0
  6
SLD-Solid
 62
     7
370
    15
100
AcDbLine
 10
369.0031514441
 20
469.3316086631
 30
0.0
 11
367.5031514441
 21
469.3316086631
 31
0.0
  0
LINE
  5
1B7
330
1F
100
AcDbEntity
  8
0
  6
SLD-Solid
 62
     7
370
    15
100
AcDbLine
 10
367.5031514441
 20
473.6316086631
 30
0.0
 11
367.5031514441
 21
469.3316086631
 31
0.0
  0
LINE
  5
1B8
330
1F
100
AcDbEntity
  8
0
  6
SLD-Solid
 62
     7
370
    15
100
AcDbLine
 10
369.0031514441
 20
473.6316086631
 30
0.0
 11
369.0031514441
 21
469.3316086631
 31
0.0
  0
LINE
  5
1B9
330
1F
100
AcDbEntity
  8
0
  6
SLD-Solid
 62
     7
370
    15
100
AcDbLine
 10
1055.0031514441
 20
473.6316086631
 30
0.0
 11
1055.0031514441
 21
469.3316086631
 31
0.0
  0
LINE
  5
1BA
330
1F
100
AcDbEntity
  8
0
  6
SLD-Solid
 62
     7
370
    15
100
AcDbLine
 10
1056.5031514441
 20
469.3316086631
 30
0.0
 11
1056.5031514441
 21
473.6316086631
 31
0.0
  0
LINE
  5
1BB
330
1F
100
AcDbEntity
  8
0
  6
SLD-Solid
 62
     7
370
    15
100
AcDbLine
 10
1055.0031514441
 20
469.3316086631
 30
0.0
 11
1056.5031514441
 21
469.3316086631
 31
0.0
  0
ARC
  5
1BC
330
1F
100
AcDbEntity
  8
0
  6
SLD-Solid
 62
     7
370
    15
100
AcDbCircle
 10
370.2531514441
 20
470.5816086631
 30
0.0
 40
2.750000000000031
100
AcDbArc
 50
207.0356917894
 51
243.1295854596
  0
LINE
  5
1BD
330
1F
100
AcDbEntity
  8
0
  6
SLD-Solid
 62
     7
370
    15
100
AcDbLine
 10
369.0031514441
 20
470.5816086631
 30
0.0
 11
369.0102225119
 21
470.448839429
 31
0.0
  0
ARC
  5
1BE
330
1F
100
AcDbEntity
  8
0
  6
SLD-Solid
 62
     7
370
    15
100
AcDbCircle
 10
1053.7531514441
 20
470.5816086631
 30
0.0
 40
2.750000000000031
100
AcDbArc
 50
296.8704145402
 51
332.9643082106
  0
LINE
  5
1BF
330
1F
100
AcDbEntity
  8
0
  6
SLD-Solid
 62
     7
370
    15
100
AcDbLine
 10
1054.9960803763
 20
470.448839429
 30
0.0
 11
1055.0031514441
 21
470.5816086631
 31
0.0
  0
SPLINE
  5
1C0
330
1F
100
AcDbEntity
  8
0
  6
SLD-Solid
 62
     7
370
    15
100
AcDbSpline
210
0.0
220
0.0
230
1.0
 70
     8
 71
     3
 72
    12
 73
     8
 74
     0
 42
0.00000001
 43
0.00000001
 40
0.0
 40
0.0
 40
0.0
 40
0.0
 40
0.2301693782019697
 40
0.4604221642957128
 40
0.6906753391242079
 40
0.9209283614223058
 40
1.0
 40
1.0
 40
1.0
 40
1.0
 10
346.6531514443609
 20
1146.881608663138
 30
0.0
 10
346.5577618796072
 20
1147.128687352199
 30
0.0
 10
346.3669481831968
 20
1147.622934265743
 30
0.0
 10
346.080656440598
 20
1148.269061436846
 30
0.0
 10
345.7945413105625
 20
1148.733007733033
 30
0.0
 10
345.5704265031527
 20
1148.915817413792
 30
0.0
 10
345.4428376325827
 20
1148.928393802536
 30
0.0
 10
345.4102225121727
 20
1148.931608663137
 30
0.0
  0
SPLINE
  5
1C1
330
1F
100
AcDbEntity
  8
0
  6
SLD-Solid
 62
     7
370
    15
100
AcDbSpline
210
0.0
220
0.0
230
1.0
 70
     8
 71
     3
 72
    11
 73
     7
 74
     0
 42
0.00000001
 43
0.00000001
 40
0.0
 40
0.0
 40
0.0
 40
0.0
 40
0.2543030279684635
 40
0.5087793961834844
 40
0.7632567853905605
 40
1.0
 40
1.0
 40
1.0
 40
1.0
 10
346.6531514443609
 20
1146.881608663138
 30
0.0
 10
346.5477746158199
 20
1147.048242850798
 30
0.0
 10
346.3369491308659
 20
1147.381624808766
 30
0.0
 10
346.0206938951744
 20
1147.799576519387
 30
0.0
 10
345.711626655769
 20
1148.079717401786
 30
0.0
 10
345.5082430236949
 20
1148.114732956252
 30
0.0
 10
345.4102225121727
 20
1148.131608663138
 30
0.0
  0
LINE
  5
1C2
330
1F
100
AcDbEntity
  8
0
  6
SLD-Solid
 62
     7
370
    15
100
AcDbLine
 10
345.4102225122
 20
1148.9316086631
 30
0.0
 11
345.4102225122
 21
1148.1316086631
 31
0.0
  0
SPLINE
  5
1C3
330
1F
100
AcDbEntity
  8
0
  6
SLD-Solid
 62
     7
370
    15
100
AcDbSpline
210
0.0
220
0.0
230
1.0
 70
     8
 71
     3
 72
    12
 73
     8
 74
     0
 42
0.00000001
 43
0.00000001
 40
0.0
 40
0.0
 40
0.0
 40
0.0
 40
0.2301693782019906
 40
0.4604221642956877
 40
0.6906753391241387
 40
0.9209283614222593
 40
1.0
 40
1.0
 40
1.0
 40
1.0
 10
344.6031514443606
 20
1148.124537595326
 30
0.0
 10
344.6292287526547
 20
1148.029148030572
 30
0.0
 10
344.6813928190373
 20
1147.838334334161
 30
0.0
 10
345.0861028037464
 20
1147.552042591563
 30
0.0
 10
345.674130659503
 20
1147.265927461528
 30
0.0
 10
346.2381553053357
 20
1147.041812654118
 30
0.0
 10
346.5686644789538
 20
1146.914223783547
 30
0.0
 10
346.6531514443607
 20
1146.881608663138
 30
0.0
  0
LINE
  5
1C4
330
1F
100
AcDbEntity
  8
0
  6
SLD-Solid
 62
     7
370
    15
100
AcDbLine
 10
344.6031514444
 20
1148.1245375953
 30
0.0
 11
345.4031514444
 21
1148.1245375953
 31
0.0
  0
SPLINE
  5
1C5
330
1F
100
AcDbEntity
  8
0
  6
SLD-Solid
 62
     7
370
    15
100
AcDbSpline
210
0.0
220
0.0
230
1.0
 70
     8
 71
     3
 72
    11
 73
     7
 74
     0
 42
0.00000001
 43
0.00000001
 40
0.0
 40
0.0
 40
0.0
 40
0.0
 40
0.2543030279684166
 40
0.5087793961833343
 40
0.763256785390425
 40
0.9999999999999999
 40
0.9999999999999999
 40
0.9999999999999999
 40
0.9999999999999999
 10
345.4031514443607
 20
1148.124537595326
 30
0.0
 10
345.4226101159508
 20
1148.019160766785
 30
0.0
 10
345.4615407227206
 20
1147.808335281831
 30
0.0
 10
345.7605120557477
 20
1147.492080046139
 30
0.0
 10
346.1764833443919
 20
1147.183012806734
 30
0.0
 10
346.4981328356991
 20
1146.97962917466
 30
0.0
 10
346.6531514443607
 20
1146.881608663138
 30
0.0
  0
LINE
  5
1C6
330
1F
100
AcDbEntity
  8
0
  6
SLD-Solid
 62
     7
370
    15
100
AcDbLine
 10
345.4102225122
 20
1148.9316086631
 30
0.0
 11
1051.3960803765
 21
1148.9316086631
 31
0.0
  0
SPLINE
  5
1C7
330
1F
100
AcDbEntity
  8
0
  6
SLD-Solid
 62
     7
370
    15
100
AcDbSpline
210
0.0
220
0.0
230
1.0
 70
     8
 71
     3
 72
    12
 73
     8
 74
     0
 42
0.00000001
 43
0.00000001
 40
0.0
 40
0.0
 40
0.0
 40
0.0
 40
0.2301693782020227
 40
0.4604221642957168
 40
0.6906753391241882
 40
0.9209283614223204
 40
1.0
 40
1.0
 40
1.0
 40
1.0
 10
1051.396080376549
 20
1148.931608663138
 30
0.0
 10
1051.300690811795
 20
1148.905531354844
 30
0.0
 10
1051.109877115385
 20
1148.853367288461
 30
0.0
 10
1050.823585372787
 20
1148.448657303752
 30
0.0
 10
1050.53747024275
 20
1147.860629447995
 30
0.0
 10
1050.313355435341
 20
1147.296604802162
 30
0.0
 10
1050.185766564771
 20
1146.966095628545
 30
0.0
 10
1050.153151444361
 20
1146.881608663138
 30
0.0
  0
SPLINE
  5
1C8
330
1F
100
AcDbEntity
  8
0
  6
SLD-Solid
 62
     7
370
    15
100
AcDbSpline
210
0.0
220
0.0
230
1.0
 70
     8
 71
     3
 72
    12
 73
     8
 74
     0
 42
0.00000001
 43
0.00000001
 40
0.0
 40
0.0
 40
0.0
 40
0.0
 40
0.2301693782019561
 40
0.460422164295709
 40
0.6906753391241767
 40
0.9209283614222792
 40
1.0
 40
1.0
 40
1.0
 40
1.0
 10
346.6531514443603
 20
887.3816086631374
 30
0.0
 10
346.4060727552991
 20
887.2862190983836
 30
0.0
 10
345.9118258417544
 20
887.0954054019733
 30
0.0
 10
345.2656986706519
 20
886.8091136593749
 30
0.0
 10
344.8017523744646
 20
886.5229985293389
 30
0.0
 10
344.6189426937061
 20
886.2988837219299
 30
0.0
 10
344.6063663049621
 20
886.1712948513593
 30
0.0
 10
344.6031514443606
 20
886.1386797309493
 30
0.0
  0
LINE
  5
1C9
330
1F
100
AcDbEntity
  8
0
  6
SLD-Solid
 62
     7
370
    15
100
AcDbLine
 10
344.6031514444
 20
1148.1245375953
 30
0.0
 11
344.6031514444
 21
886.1386797309
 31
0.0
  0
SPLINE
  5
1CA
330
1F
100
AcDbEntity
  8
0
  6
SLD-Solid
 62
     7
370
    15
100
AcDbSpline
210
0.0
220
0.0
230
1.0
 70
     8
 71
     3
 72
    11
 73
     7
 74
     0
 42
0.00000001
 43
0.00000001
 40
0.0
 40
0.0
 40
0.0
 40
0.0
 40
0.2543030279684442
 40
0.5087793961833481
 40
0.763256785390578
 40
1.0
 40
1.0
 40
1.0
 40
1.0
 10
346.6531514443607
 20
887.3816086631373
 30
0.0
 10
346.4865172567002
 20
887.2762318345966
 30
0.0
 10
346.1531352987324
 20
887.0654063496426
 30
0.0
 10
345.7351835881115
 20
886.749151113951
 30
0.0
 10
345.4550427057126
 20
886.4400838745458
 30
0.0
 10
345.4200271512457
 20
886.2367002424711
 30
0.0
 10
345.4031514443607
 20
886.1386797309493
 30
0.0
  0
LINE
  5
1CB
330
1F
100
AcDbEntity
  8
0
  6
SLD-Solid
 62
     7
370
    15
100
AcDbLine
 10
344.6031514444
 20
886.1386797309
 30
0.0
 11
345.4031514444
 21
886.1386797309
 31
0.0
  0
SPLINE
  5
1CC
330
1F
100
AcDbEntity
  8
0
  6
SLD-Solid
 62
     7
370
    15
100
AcDbSpline
210
0.0
220
0.0
230
1.0
 70
     8
 71
     3
 72
    12
 73
     8
 74
     0
 42
0.00000001
 43
0.00000001
 40
0.0
 40
0.0
 40
0.0
 40
0.0
 40
0.230169378201944
 40
0.4604221642956027
 40
0.6906753391240897
 40
0.920928361422221
 40
1.0
 40
1.0
 40
1.0
 40
1.0
 10
1050.153151444361
 20
887.3816086631372
 30
0.0
 10
1050.248541009114
 20
887.1345299740763
 30
0.0
 10
1050.439354705525
 20
886.6402830605314
 30
0.0
 10
1050.725646448123
 20
885.9941558894288
 30
0.0
 10
1051.011761578159
 20
885.5302095932414
 30
0.0
 10
1051.235876385568
 20
885.3473999124832
 30
0.0
 10
1051.363465256139
 20
885.3348235237389
 30
0.0
 10
1051.396080376549
 20
885.3316086631373
 30
0.0
  0
LINE
  5
1CD
330
1F
100
AcDbEntity
  8
0
  6
SLD-Solid
 62
     7
370
    15
100
AcDbLine
 10
1051.3960803765
 20
885.3316086631
 30
0.0
 11
345.4102225122
 21
885.3316086631
 31
0.0
  0
SPLINE
  5
1CE
330
1F
100
AcDbEntity
  8
0
  6
SLD-Solid
 62
     7
370
    15
100
AcDbSpline
210
0.0
220
0.0
230
1.0
 70
     8
 71
     3
 72
    12
 73
     8
 74
     0
 42
0.00000001
 43
0.00000001
 40
0.0
 40
0.0
 40
0.0
 40
0.0
 40
0.2301693782020044
 40
0.4604221642956894
 40
0.6906753391241542
 40
0.9209283614222545
 40
0.9999999999999999
 40
0.9999999999999999
 40
0.9999999999999999
 40
0.9999999999999999
 10
345.4102225121725
 20
885.3316086631372
 30
0.0
 10
345.5056120769262
 20
885.3576859714312
 30
0.0
 10
345.6964257733362
 20
885.409850037814
 30
0.0
 10
345.9827175159349
 20
885.8145600225231
 30
0.0
 10
346.2688326459706
 20
886.4025878782799
 30
0.0
 10
346.49294745338
 20
886.9666125241122
 30
0.0
 10
346.6205363239507
 20
887.2971216977302
 30
0.0
 10
346.6531514443607
 20
887.3816086631373
 30
0.0
  0
LINE
  5
1CF
330
1F
100
AcDbEntity
  8
0
  6
SLD-Solid
 62
     7
370
    15
100
AcDbLine
 10
345.4102225122
 20
885.3316086631
 30
0.0
 11
345.4102225122
 21
886.1316086631
 31
0.0
  0
SPLINE
  5
1D0
330
1F
100
AcDbEntity
  8
0
  6
SLD-Solid
 62
     7
370
    15
100
AcDbSpline
210
0.0
220
0.0
230
1.0
 70
     8
 71
     3
 72
    11
 73
     7
 74
     0
 42
0.00000001
 43
0.00000001
 40
0.0
 40
0.0
 40
0.0
 40
0.0
 40
0.2543030279683732
 40
0.5087793961833389
 40
0.7632567853905157
 40
1.0
 40
1.0
 40
1.0
 40
1.0
 10
345.4102225121725
 20
886.1316086631373
 30
0.0
 10
345.5155993407133
 20
886.1510673347275
 30
0.0
 10
345.7264248256673
 20
886.1899979414972
 30
0.0
 10
346.0426800613587
 20
886.4889692745244
 30
0.0
 10
346.3517473007638
 20
886.9049405631688
 30
0.0
 10
346.5551309328385
 20
887.2265900544758
 30
0.0
 10
346.6531514443607
 20
887.3816086631373
 30
0.0
  0
LINE
  5
1D1
330
1F
100
AcDbEntity
  8
0
  6
SLD-Solid
 62
     7
370
    15
100
AcDbLine
 10
1051.3960803765
 20
1148.9316086631
 30
0.0
 11
1051.3960803765
 21
1148.1316086631
 31
0.0
  0
SPLINE
  5
1D2
330
1F
100
AcDbEntity
  8
0
  6
SLD-Solid
 62
     7
370
    15
100
AcDbSpline
210
0.0
220
0.0
230
1.0
 70
     8
 71
     3
 72
    11
 73
     7
 74
     0
 42
0.00000001
 43
0.00000001
 40
0.0
 40
0.0
 40
0.0
 40
0.0
 40
0.2543030279684181
 40
0.508779396183317
 40
0.7632567853904182
 40
1.0
 40
1.0
 40
1.0
 40
1.0
 10
1051.396080376549
 20
1148.131608663138
 30
0.0
 10
1051.290703548008
 20
1148.112149991548
 30
0.0
 10
1051.079878063054
 20
1148.073219384778
 30
0.0
 10
1050.763622827363
 20
1147.77424805175
 30
0.0
 10
1050.454555587957
 20
1147.358276763106
 30
0.0
 10
1050.251171955883
 20
1147.036627271799
 30
0.0
 10
1050.153151444361
 20
1146.881608663138
 30
0.0
  0
SPLINE
  5
1D3
330
1F
100
AcDbEntity
  8
0
  6
SLD-Solid
 62
     7
370
    15
100
AcDbSpline
210
0.0
220
0.0
230
1.0
 70
     8
 71
     3
 72
    11
 73
     7
 74
     0
 42
0.00000001
 43
0.00000001
 40
0.0
 40
0.0
 40
0.0
 40
0.0
 40
0.2543030279683969
 40
0.5087793961832283
 40
0.7632567853904804
 40
1.0
 40
1.0
 40
1.0
 40
1.0
 10
1050.153151444361
 20
887.3816086631372
 30
0.0
 10
1050.258528272901
 20
887.2149744754767
 30
0.0
 10
1050.469353757855
 20
886.8815925175087
 30
0.0
 10
1050.785608993547
 20
886.463640806888
 30
0.0
 10
1051.094676232952
 20
886.1834999244891
 30
0.0
 10
1051.298059865027
 20
886.1484843700221
 30
0.0
 10
1051.396080376549
 20
886.1316086631372
 30
0.0
  0
LINE
  5
1D4
330
1F
100
AcDbEntity
  8
0
  6
SLD-Solid
 62
     7
370
    15
100
AcDbLine
 10
1051.3960803765
 20
885.3316086631
 30
0.0
 11
1051.3960803765
 21
886.1316086631
 31
0.0
  0
SPLINE
  5
1D5
330
1F
100
AcDbEntity
  8
0
  6
SLD-Solid
 62
     7
370
    15
100
AcDbSpline
210
0.0
220
0.0
230
1.0
 70
     8
 71
     3
 72
    12
 73
     8
 74
     0
 42
0.00000001
 43
0.00000001
 40
0.0
 40
0.0
 40
0.0
 40
0.0
 40
0.2301693782019439
 40
0.4604221642956303
 40
0.6906753391241179
 40
0.920928361422199
 40
1.0
 40
1.0
 40
1.0
 40
1.0
 10
1050.153151444361
 20
1146.881608663138
 30
0.0
 10
1050.400230133422
 20
1146.976998227891
 30
0.0
 10
1050.894477046967
 20
1147.167811924302
 30
0.0
 10
1051.540604218069
 20
1147.4541036669
 30
0.0
 10
1052.004550514257
 20
1147.740218796936
 30
0.0
 10
1052.187360195015
 20
1147.964333604345
 30
0.0
 10
1052.199936583759
 20
1148.091922474915
 30
0.0
 10
1052.203151444361
 20
1148.124537595326
 30
0.0
  0
SPLINE
  5
1D6
330
1F
100
AcDbEntity
  8
0
  6
SLD-Solid
 62
     7
370
    15
100
AcDbSpline
210
0.0
220
0.0
230
1.0
 70
     8
 71
     3
 72
    11
 73
     7
 74
     0
 42
0.00000001
 43
0.00000001
 40
0.0
 40
0.0
 40
0.0
 40
0.0
 40
0.2543030279684597
 40
0.5087793961832998
 40
0.7632567853905164
 40
1.0
 40
1.0
 40
1.0
 40
1.0
 10
1050.153151444361
 20
1146.881608663138
 30
0.0
 10
1050.319785632021
 20
1146.986985491678
 30
0.0
 10
1050.653167589989
 20
1147.197810976632
 30
0.0
 10
1051.07111930061
 20
1147.514066212324
 30
0.0
 10
1051.351260183009
 20
1147.823133451729
 30
0.0
 10
1051.386275737476
 20
1148.026517083804
 30
0.0
 10
1051.403151444361
 20
1148.124537595326
 30
0.0
  0
LINE
  5
1D7
330
1F
100
AcDbEntity
  8
0
  6
SLD-Solid
 62
     7
370
    15
100
AcDbLine
 10
1052.2031514444
 20
1148.1245375953
 30
0.0
 11
1051.4031514444
 21
1148.1245375953
 31
0.0
  0
SPLINE
  5
1D8
330
1F
100
AcDbEntity
  8
0
  6
SLD-Solid
 62
     7
370
    15
100
AcDbSpline
210
0.0
220
0.0
230
1.0
 70
     8
 71
     3
 72
    17
 73
    13
 74
     0
 42
0.00000001
 43
0.00000001
 40
0.0
 40
0.0
 40
0.0
 40
0.0
 40
0.1134691409143016
 40
0.2302260747277516
 40
0.3437354275908227
 40
0.460536178321098
 40
0.5740457178286861
 40
0.6908466730205651
 40
0.8043561351736748
 40
0.9211570132012856
 40
0.9605128258295409
 40
0.9999999999999999
 40
0.9999999999999999
 40
0.9999999999999999
 40
0.9999999999999999
 10
1052.203151444361
 20
886.1386797309492
 30
0.0
 10
1052.196856933514
 20
886.1856926774377
 30
0.0
 10
1052.184085527007
 20
886.2810807807074
 30
0.0
 10
1052.081450507937
 20
886.4235147115872
 30
0.0
 10
1051.919500411828
 20
886.5673113774596
 30
0.0
 10
1051.700329460392
 20
886.7097779463827
 30
0.0
 10
1051.428806316309
 20
886.853594684466
 30
0.0
 10
1051.118162517653
 20
886.9960642396435
 30
0.0
 10
1050.773168302243
 20
887.1398622750143
 30
0.0
 10
1050.488998003406
 20
887.2516633167121
 30
0.0
 10
1050.280046196384
 20
887.3326272765104
 30
0.0
 10
1050.195496651478
 20
887.3652634090702
 30
0.0
 10
1050.153151444361
 20
887.3816086631372
 30
0.0
  0
LINE
  5
1D9
330
1F
100
AcDbEntity
  8
0
  6
SLD-Solid
 62
     7
370
    15
100
AcDbLine
 10
1052.2031514444
 20
886.1386797309
 30
0.0
 11
1051.4031514444
 21
886.1386797309
 31
0.0
  0
SPLINE
  5
1DA
330
1F
100
AcDbEntity
  8
0
  6
SLD-Solid
 62
     7
370
    15
100
AcDbSpline
210
0.0
220
0.0
230
1.0
 70
     8
 71
     3
 72
    15
 73
    11
 74
     0
 42
0.00000001
 43
0.00000001
 40
0.0
 40
0.0
 40
0.0
 40
0.0
 40
0.1253510903900215
 40
0.2543311564908532
 40
0.3797658073002388
 40
0.5088369174201223
 40
0.6342720666282088
 40
0.7633437066846048
 40
0.8802107727011497
 40
1.0
 40
1.0
 40
1.0
 40
1.0
 10
1051.403151444361
 20
886.1386797309492
 30
0.0
 10
1051.398465119825
 20
886.1906127684248
 30
0.0
 10
1051.388956799352
 20
886.2959823303501
 30
0.0
 10
1051.312710454586
 20
886.4533431205497
 30
0.0
 10
1051.192986557735
 20
886.612214788572
 30
0.0
 10
1051.032133501627
 20
886.769651621194
 30
0.0
 10
1050.834931286809
 20
886.9285579899453
 30
0.0
 10
1050.617391697332
 20
887.0824535271772
 30
0.0
 10
1050.386426497142
 20
887.2339391397361
 30
0.0
 10
1050.231547262809
 20
887.331981954199
 30
0.0
 10
1050.153151444361
 20
887.3816086631372
 30
0.0
  0
LINE
  5
1DB
330
1F
100
AcDbEntity
  8
0
  6
SLD-Solid
 62
     7
370
    15
100
AcDbLine
 10
1052.2031514444
 20
1011.1316086631
 30
0.0
 11
1052.2031514444
 21
1012.1316086631
 31
0.0
  0
LINE
  5
1DC
330
1F
100
AcDbEntity
  8
0
  6
SLD-Solid
 62
     7
370
    15
100
AcDbLine
 10
1052.2031514444
 20
1130.8192831903
 30
0.0
 11
1052.2031514444
 21
1131.8192831903
 31
0.0
  0
LINE
  5
1DD
330
1F
100
AcDbEntity
  8
0
  6
SLD-Solid
 62
     7
370
    15
100
AcDbLine
 10
1052.2031514444
 20
1132.6192831903
 30
0.0
 11
1052.2031514444
 21
1148.1245375953
 31
0.0
  0
LINE
  5
1DE
330
1F
100
AcDbEntity
  8
0
  6
SLD-Solid
 62
     7
370
    15
100
AcDbLine
 10
349.5102225122
 20
884.6316086631
 30
0.0
 11
349.5102225122
 21
885.3316086631
 31
0.0
  0
LINE
  5
1DF
330
1F
100
AcDbEntity
  8
0
  6
SLD-Solid
 62
     7
370
    15
100
AcDbLine
 10
1072.0031514444
 20
885.3316086631
 30
0.0
 11
1072.0031514444
 21
884.6316086631
 31
0.0
  0
LINE
  5
1E0
330
1F
100
AcDbEntity
  8
0
  6
SLD-Solid
 62
     7
370
    15
100
AcDbLine
 10
1072.0031514444
 20
884.6316086631
 30
0.0
 11
349.5102225122
 21
884.6316086631
 31
0.0
  0
LINE
  5
1E1
330
1F
100
AcDbEntity
  8
0
  6
SLD-Solid
 62
     7
370
    15
100
AcDbLine
 10
961.6031514444
 20
1175.6316086631
 30
0.0
 11
456.6031514444
 21
1175.6316086631
 31
0.0
  0
ARC
  5
1E2
330
1F
100
AcDbEntity
  8
0
  6
SLD-Solid
 62
     7
370
    15
100
AcDbCircle
 10
961.6031514444
 20
1170.6316086631
 30
0.0
 40
5.000000000000114
100
AcDbArc
 50
0.0
 51
90.0
  0
LINE
  5
1E3
330
1F
100
AcDbEntity
  8
0
  6
SLD-Solid
 62
     7
370
    15
100
AcDbLine
 10
966.6031514444
 20
1151.8816086631
 30
0.0
 11
966.6031514444
 21
1170.6316086631
 31
0.0
  0
LINE
  5
1E4
330
1F
100
AcDbEntity
  8
0
  6
SLD-Solid
 62
     7
370
    15
100
AcDbLine
 10
451.6031514444
 20
1170.6316086631
 30
0.0
 11
451.6031514444
 21
1151.8816086631
 31
0.0
  0
ARC
  5
1E5
330
1F
100
AcDbEntity
  8
0
  6
SLD-Solid
 62
     7
370
    15
100
AcDbCircle
 10
456.6031514444
 20
1170.6316086631
 30
0.0
 40
5.0
100
AcDbArc
 50
90.0
 51
180.0
  0
LINE
  5
1E6
330
1F
100
AcDbEntity
  8
0
  6
SLD-Solid
 62
     7
370
    15
100
AcDbLine
 10
966.6031514444
 20
1151.8816086631
 30
0.0
 11
966.6031514444
 21
1149.8316086631
 31
0.0
  0
LINE
  5
1E7
330
1F
100
AcDbEntity
  8
0
  6
SLD-Solid
 62
     7
370
    15
100
AcDbLine
 10
966.6031514444
 20
1149.8316086631
 30
0.0
 11
451.6031514444
 21
1149.8316086631
 31
0.0
  0
LINE
  5
1E8
330
1F
100
AcDbEntity
  8
0
  6
SLD-Solid
 62
     7
370
    15
100
AcDbLine
 10
451.6031514444
 20
1149.8316086631
 30
0.0
 11
451.6031514444
 21
1151.8816086631
 31
0.0
  0
LINE
  5
1E9
330
1F
100
AcDbEntity
  8
0
  6
SLD-Solid
 62
     7
370
    15
100
AcDbLine
 10
429.1031514444
 20
1187.6316086631
 30
0.0
 11
989.1031514444
 21
1187.6316086631
 31
0.0
  0
LINE
  5
1EA
330
1F
100
AcDbEntity
  8
0
  6
SLD-Solid
 62
     7
370
    15
100
AcDbLine
 10
989.1031514444
 20
1187.6316086631
 30
0.0
 11
988.6657081267
 21
1182.6316086631
 31
0.0
  0
LINE
  5
1EB
330
1F
100
AcDbEntity
  8
0
  6
SLD-Solid
 62
     7
370
    15
100
AcDbLine
 10
988.6657081267
 20
1182.6316086631
 30
0.0
 11
429.540594762
 21
1182.6316086631
 31
0.0
  0
LINE
  5
1EC
330
1F
100
AcDbEntity
  8
0
  6
SLD-Solid
 62
     7
370
    15
100
AcDbLine
 10
429.1031514444
 20
1187.6316086631
 30
0.0
 11
429.540594762
 21
1182.6316086631
 31
0.0
  0
ARC
  5
1ED
330
1F
100
AcDbEntity
  8
0
  6
SLD-Solid
 62
     7
370
    15
100
AcDbCircle
 10
430.2704890963
 20
1180.6316086631
 30
0.0
 40
2.00000000000002
100
AcDbArc
 50
5.0
 51
90.0
  0
ARC
  5
1EE
330
1F
100
AcDbEntity
  8
0
  6
SLD-Solid
 62
     7
370
    15
100
AcDbCircle
 10
987.9358137924
 20
1180.6316086631
 30
0.0
 40
2.00000000000002
100
AcDbArc
 50
90.0
 51
175.0
  0
LINE
  5
1EF
330
1F
100
AcDbEntity
  8
0
  6
SLD-Solid
 62
     7
370
    15
100
AcDbLine
 10
432.2628784925
 20
1180.8059201486
 30
0.0
 11
433.4154813972
 21
1167.6316086631
 31
0.0
  0
LINE
  5
1F0
330
1F
100
AcDbEntity
  8
0
  6
SLD-Solid
 62
     7
370
    15
100
AcDbLine
 10
971.0531514444
 20
1167.6316086631
 30
0.0
 11
968.1031514444
 21
1167.6316086631
 31
0.0
  0
LINE
  5
1F1
330
1F
100
AcDbEntity
  8
0
  6
SLD-Solid
 62
     7
370
    15
100
AcDbLine
 10
450.106951311
 20
1167.6316086631
 30
0.0
 11
447.5531514444
 21
1167.6316086631
 31
0.0
  0
LINE
  5
1F2
330
1F
100
AcDbEntity
  8
0
  6
SLD-Solid
 62
     7
370
    15
100
AcDbLine
 10
985.9434243962
 20
1180.8059201486
 30
0.0
 11
984.7908214915
 21
1167.6316086631
 31
0.0
  0
SPLINE
  5
1F3
330
1F
100
AcDbEntity
  8
0
  6
SLD-Solid
 62
     7
370
    15
100
AcDbSpline
210
0.0
220
0.0
230
1.0
 70
    24
 71
     3
 72
    10
 73
     6
 74
     0
 42
0.00000001
 43
0.00000001
 40
0.0
 40
0.0
 40
0.0
 40
0.0
 40
0.3517824951640792
 40
0.7458209402969023
 40
1.0
 40
1.0
 40
1.0
 40
1.0
 10
451.6031514443597
 20
1167.631608663124
 30
0.0
 10
451.4620927282094
 20
1167.631608663124
 30
0.0
 10
451.1630313884252
 20
1167.631608663124
 30
0.0
 10
450.6169236516631
 20
1167.631608663124
 30
0.0
 10
450.250595796257
 20
1167.631608663124
 30
0.0
 10
450.1069513109792
 20
1167.631608663124
 30
0.0
  0
LINE
  5
1F4
330
1F
100
AcDbEntity
  8
0
  6
SLD-Solid
 62
     7
370
    15
100
AcDbLine
 10
968.1031514444
 20
1167.6316086631
 30
0.0
 11
966.6031514444
 21
1167.6316086631
 31
0.0
  0
LINE
  5
1F5
330
1F
100
AcDbEntity
  8
0
  6
SLD-Solid
 62
     7
370
    15
100
AcDbLine
 10
451.3844987863
 20
1166.0944845574
 30
0.0
 11
451.3844987863
 21
1149.8316086631
 31
0.0
  0
LINE
  5
1F6
330
1F
100
AcDbEntity
  8
0
  6
SLD-Solid
 62
     7
370
    15
100
AcDbLine
 10
451.6031514444
 20
1166.0944845574
 30
0.0
 11
451.3844987863
 21
1166.0944845574
 31
0.0
  0
LINE
  5
1F7
330
1F
100
AcDbEntity
  8
0
  6
SLD-Solid
 62
     7
370
    15
100
AcDbLine
 10
966.6031514444
 20
1167.1138449678
 30
0.0
 11
967.1209151397
 21
1167.6316086631
 31
0.0
  0
LINE
  5
1F8
330
1F
100
AcDbEntity
  8
0
  6
SLD-Solid
 62
     7
370
    15
100
AcDbLine
 10
966.6031514444
 20
1165.4167886929
 30
0.0
 11
968.451854891
 21
1167.2654921396
 31
0.0
  0
ARC
  5
1F9
330
1F
100
AcDbEntity
  8
0
  6
SLD-Solid
 62
     7
370
    15
100
AcDbCircle
 10
969.3357383675
 20
1166.3816086631
 30
0.0
 40
1.25
100
AcDbArc
 50
90.0
 51
135.0
  0
LINE
  5
1FA
330
1F
100
AcDbEntity
  8
0
  6
SLD-Solid
 62
     7
370
    15
100
AcDbLine
 10
984.8958078877
 20
1168.8316086631
 30
0.0
 11
986.6031514444
 21
1168.8316086631
 31
0.0
  0
LINE
  5
1FB
330
1F
100
AcDbEntity
  8
0
  6
SLD-Solid
 62
     7
370
    15
100
AcDbLine
 10
988.6031514444
 20
1167.6316086631
 30
0.0
 11
988.6031514444
 21
1168.8316086631
 31
0.0
  0
LINE
  5
1FC
330
1F
100
AcDbEntity
  8
0
  6
SLD-Solid
 62
     7
370
    15
100
AcDbLine
 10
986.6031514444
 20
1168.8316086631
 30
0.0
 11
988.6031514444
 21
1168.8316086631
 31
0.0
  0
LINE
  5
1FD
330
1F
100
AcDbEntity
  8
0
  6
SLD-Solid
 62
     7
370
    15
100
AcDbLine
 10
449.8852065385
 20
1167.5944845574
 30
0.0
 11
449.8852065385
 21
1167.6316086631
 31
0.0
  0
LINE
  5
1FE
330
1F
100
AcDbEntity
  8
0
  6
SLD-Solid
 62
     7
370
    15
100
AcDbLine
 10
447.9415206428
 20
1167.5944845574
 30
0.0
 11
449.8852065385
 21
1167.5944845574
 31
0.0
  0
LINE
  5
1FF
330
1F
100
AcDbEntity
  8
0
  6
SLD-Solid
 62
     7
370
    15
100
AcDbLine
 10
431.3852065385
 20
1167.6316086632
 30
0.0
 11
431.3852065385
 21
1168.7944845574
 31
0.0
  0
LINE
  5
200
330
1F
100
AcDbEntity
  8
0
  6
SLD-Solid
 62
     7
370
    15
100
AcDbLine
 10
431.3852065385
 20
1168.7944845574
 30
0.0
 11
433.3137429394
 21
1168.7944845574
 31
0.0
  0
LINE
  5
201
330
1F
100
AcDbEntity
  8
0
  6
SLD-Solid
 62
     7
370
    15
100
AcDbLine
 10
451.3844987863
 20
1166.3444845574
 30
0.0
 11
451.3844987863
 21
1166.0944845574
 31
0.0
  0
ARC
  5
202
330
1F
100
AcDbEntity
  8
0
  6
SLD-Solid
 62
     7
370
    15
100
AcDbCircle
 10
450.1344987863
 20
1166.3444845574
 30
0.0
 40
1.249999999999943
100
AcDbArc
 50
0.0
 51
90.0
  0
LINE
  5
203
330
1F
100
AcDbEntity
  8
0
  6
SLD-Solid
 62
     7
370
    15
100
AcDbLine
 10
449.8852065385
 20
1167.5944845574
 30
0.0
 11
450.1344987863
 21
1167.5944845574
 31
0.0
  0
LINE
  5
204
330
1F
100
AcDbEntity
  8
0
  6
SLD-Solid
 62
     7
370
    15
100
AcDbLine
 10
1107.6654373801
 20
1066.8718610418
 30
0.0
 11
1087.5793327457
 21
1128.690534601
 31
0.0
  0
LINE
  5
205
330
1F
100
AcDbEntity
  8
0
  6
SLD-Solid
 62
     7
370
    15
100
AcDbLine
 10
1099.8093159637
 20
1123.411196366
 30
0.0
 11
1098.3259658862
 21
1127.9764784796
 31
0.0
  0
LINE
  5
206
330
1F
100
AcDbEntity
  8
0
  6
SLD-Solid
 62
     7
370
    15
100
AcDbLine
 10
1115.9399345656
 20
1073.7662570508
 30
0.0
 11
1114.456584488
 21
1078.3315391643
 31
0.0
  0
SPLINE
  5
207
330
1F
100
AcDbEntity
  8
0
  6
SLD-Solid
 62
     7
370
    15
100
AcDbSpline
210
0.0
220
0.0
230
1.0
 70
     8
 71
     3
 72
    16
 73
    12
 74
     0
 42
0.00000001
 43
0.00000001
 40
0.0
 40
0.0
 40
0.0
 40
0.0
 40
0.0000597702847767
 40
0.1251210323923239
 40
0.2500906799919203
 40
0.3750581956784689
 40
0.500023989729505
 40
0.6249879290177793
 40
0.749951689682877
 40
0.8749147384303039
 40
0.9999999999999999
 40
0.9999999999999999
 40
0.9999999999999999
 40
0.9999999999999999
 10
1090.073994577795
 20
1128.524771239469
 30
0.0
 10
1090.073964447611
 20
1128.524775396579
 30
0.0
 10
1090.010890969936
 20
1128.533477745333
 30
0.0
 10
1090.232638139841
 20
1128.50218367257
 30
0.0
 10
1090.748209103151
 20
1128.434211015419
 30
0.0
 10
1091.585971460862
 20
1128.340698977949
 30
0.0
 10
1092.560942364614
 20
1128.259607160043
 30
0.0
 10
1093.543191470826
 20
1128.208669893724
 30
0.0
 10
1094.369949264911
 20
1128.190307222655
 30
0.0
 10
1094.948989166061
 20
1128.191664755715
 30
0.0
 10
1095.024871711337
 20
1128.192752243046
 30
0.0
 10
1095.062831528031
 20
1128.193296252471
 30
0.0
  0
LINE
  5
208
330
1F
100
AcDbEntity
  8
0
  6
SLD-Solid
 62
     7
370
    15
100
AcDbLine
 10
1100.3761702682
 20
1121.6665982051
 30
0.0
 11
1113.8897301835
 21
1080.0761373252
 31
0.0
  0
SPLINE
  5
209
330
1F
100
AcDbEntity
  8
0
  6
SLD-Solid
 62
     7
370
    15
100
AcDbSpline
210
0.0
220
0.0
230
1.0
 70
     8
 71
     3
 72
    12
 73
     8
 74
     0
 42
0.00000001
 43
0.00000001
 40
0.0
 40
0.0
 40
0.0
 40
0.0
 40
0.0304717459515886
 40
0.0888135668586459
 40
0.3925556175487394
 40
0.6962774394175707
 40
1.0
 40
1.0
 40
1.0
 40
1.0
 10
1100.547635564613
 20
1122.616827770822
 30
0.0
 10
1100.544591781331
 20
1122.626987226899
 30
0.0
 10
1100.535720309033
 20
1122.656598182996
 30
0.0
 10
1100.489380191103
 20
1122.786686938927
 30
0.0
 10
1100.368718214786
 20
1122.999792232173
 30
0.0
 10
1100.127044045846
 20
1123.246405590254
 30
0.0
 10
1099.929223150697
 20
1123.341356894222
 30
0.0
 10
1099.830312582838
 20
1123.388832603941
 30
0.0
  0
SPLINE
  5
20A
330
1F
100
AcDbEntity
  8
0
  6
SLD-Solid
 62
     7
370
    15
100
AcDbSpline
210
0.0
220
0.0
230
1.0
 70
     8
 71
     3
 72
    11
 73
     7
 74
     0
 42
0.00000001
 43
0.00000001
 40
0.0
 40
0.0
 40
0.0
 40
0.0
 40
0.3704320937882625
 40
0.7442498469294332
 40
0.9442480537683011
 40
1.0
 40
1.0
 40
1.0
 40
1.0
 10
1099.809315963735
 20
1123.411196366026
 30
0.0
 10
1099.810454769289
 20
1123.408248544369
 30
0.0
 10
1099.812742788803
 20
1123.402325958678
 30
0.0
 10
1099.819139045541
 20
1123.394788375522
 30
0.0
 10
1099.826189873542
 20
1123.390482102482
 30
0.0
 10
1099.829574709586
 20
1123.389127827485
 30
0.0
 10
1099.830312582838
 20
1123.388832603941
 30
0.0
  0
SPLINE
  5
20B
330
1F
100
AcDbEntity
  8
0
  6
SLD-Solid
 62
     7
370
    15
100
AcDbSpline
210
0.0
220
0.0
230
1.0
 70
     8
 71
     3
 72
    12
 73
     8
 74
     0
 42
0.00000001
 43
0.00000001
 40
0.0
 40
0.0
 40
0.0
 40
0.0
 40
0.0304717459457658
 40
0.0888135668584369
 40
0.3925556175486226
 40
0.6962774394174583
 40
1.0
 40
1.0
 40
1.0
 40
1.0
 10
1114.586979447239
 20
1079.40817023052
 30
0.0
 10
1114.59048855329
 20
1079.398161966978
 30
0.0
 10
1114.600716264739
 20
1079.368991679693
 30
0.0
 10
1114.639690574027
 20
1079.23650962746
 30
0.0
 10
1114.667333133179
 20
1078.993180493439
 30
0.0
 10
1114.616770318299
 20
1078.651613583349
 30
0.0
 10
1114.51254082844
 20
1078.458520160037
 30
0.0
 10
1114.460426020133
 20
1078.36197333097
 30
0.0
  0
SPLINE
  5
20C
330
1F
100
AcDbEntity
  8
0
  6
SLD-Solid
 62
     7
370
    15
100
AcDbSpline
210
0.0
220
0.0
230
1.0
 70
     8
 71
     3
 72
    10
 73
     6
 74
     0
 42
0.00000001
 43
0.00000001
 40
0.0
 40
0.0
 40
0.0
 40
0.0
 40
0.2117958997087823
 40
0.4880069094679255
 40
1.0
 40
1.0
 40
1.0
 40
1.0
 10
1114.460426020133
 20
1078.36197333097
 30
0.0
 10
1114.458985378671
 20
1078.359389422189
 30
0.0
 10
1114.455665942418
 20
1078.353435740648
 30
0.0
 10
1114.453904113154
 20
1078.342401649019
 30
0.0
 10
1114.455529007019
 20
1078.335816605586
 30
0.0
 10
1114.456584487994
 20
1078.331539164328
 30
0.0
  0
LINE
  5
20D
330
1F
100
AcDbEntity
  8
0
  6
SLD-Solid
 62
     7
370
    15
100
AcDbLine
 10
1098.8230147328
 20
1127.9222341799
 30
0.0
 11
1098.8323151776
 21
1127.9211175739
 31
0.0
  0
SPLINE
  5
20E
330
1F
100
AcDbEntity
  8
0
  6
SLD-Solid
 62
     7
370
    15
100
AcDbSpline
210
0.0
220
0.0
230
1.0
 70
     8
 71
     3
 72
    12
 73
     8
 74
     0
 42
0.00000001
 43
0.00000001
 40
0.0
 40
0.0
 40
0.0
 40
0.0
 40
0.2238925571850244
 40
0.4477848984196585
 40
0.671682486203095
 40
0.8955821585468896
 40
1.0
 40
1.0
 40
1.0
 40
1.0
 10
1099.055378632705
 20
1127.895738169998
 30
0.0
 10
1099.027677707236
 20
1127.898801402715
 30
0.0
 10
1098.972275883017
 20
1127.904927865196
 30
0.0
 10
1098.900777269374
 20
1127.913098847165
 30
0.0
 10
1098.84873526992
 20
1127.919157642002
 30
0.0
 10
1098.825562385106
 20
1127.921908018668
 30
0.0
 10
1098.823629474264
 20
1127.922155478067
 30
0.0
 10
1098.823014732835
 20
1127.922234179857
 30
0.0
  0
LINE
  5
20F
330
1F
100
AcDbEntity
  8
0
  6
SLD-Solid
 62
     7
370
    15
100
AcDbLine
 10
1099.0553786327
 20
1127.89573817
 30
0.0
 11
1118.0332386795
 21
1125.7752002001
 31
0.0
  0
LINE
  5
210
330
1F
100
AcDbEntity
  8
0
  6
SLD-Solid
 62
     7
370
    15
100
AcDbLine
 10
1118.0332386795
 20
1125.7752002001
 30
0.0
 11
1119.503093319
 21
1125.6132415789
 31
0.0
  0
LINE
  5
211
330
1F
100
AcDbEntity
  8
0
  6
SLD-Solid
 62
     7
370
    15
100
AcDbLine
 10
1121.3434075018
 20
1121.8574369012
 30
0.0
 11
1130.9647536017
 21
1092.2459784041
 31
0.0
  0
LINE
  5
212
330
1F
100
AcDbEntity
  8
0
  6
SLD-Solid
 62
     7
370
    15
100
AcDbLine
 10
1120.3465236949
 20
1124.9255297822
 30
0.0
 11
1121.3434075018
 21
1121.8574369012
 31
0.0
  0
SPLINE
  5
213
330
1F
100
AcDbEntity
  8
0
  6
SLD-Solid
 62
     7
370
    15
100
AcDbSpline
210
0.0
220
0.0
230
1.0
 70
     8
 71
     3
 72
    11
 73
     7
 74
     0
 42
0.00000001
 43
0.00000001
 40
0.0
 40
0.0
 40
0.0
 40
0.0
 40
0.2933118760927614
 40
0.5865991201421302
 40
0.880502146150339
 40
1.0
 40
1.0
 40
1.0
 40
1.0
 10
1119.503093318986
 20
1125.613241578871
 30
0.0
 10
1119.613775604219
 20
1125.589908455518
 30
0.0
 10
1119.835130879695
 20
1125.543244168304
 30
0.0
 10
1120.113024740391
 20
1125.338648024512
 30
0.0
 10
1120.275621088298
 20
1125.116576751665
 30
0.0
 10
1120.330624409028
 20
1124.968370384697
 30
0.0
 10
1120.346523694932
 20
1124.925529782168
 30
0.0
  0
LINE
  5
214
330
1F
100
AcDbEntity
  8
0
  6
SLD-Solid
 62
     7
370
    15
100
AcDbLine
 10
1130.9647536017
 20
1092.2459784041
 30
0.0
 11
1131.9801060003
 21
1089.1210450426
 31
0.0
  0
LINE
  5
215
330
1F
100
AcDbEntity
  8
0
  6
SLD-Solid
 62
     7
370
    15
100
AcDbLine
 10
1095.3340007874
 20
1098.351984478
 30
0.0
 11
1095.4557512993
 21
1097.9772749319
 31
0.0
  0
SPLINE
  5
216
330
1F
100
AcDbEntity
  8
0
  6
SLD-Solid
 62
     7
370
    15
100
AcDbSpline
210
0.0
220
0.0
230
1.0
 70
    24
 71
     3
 72
    15
 73
    11
 74
     0
 42
0.00000001
 43
0.00000001
 40
0.0
 40
0.0
 40
0.0
 40
0.0
 40
0.0013073418575286
 40
0.003109502167066
 40
0.005897756042298
 40
0.0102696093432796
 40
0.0184674105906449
 40
0.0491723679949539
 40
0.1105064211958245
 40
1.0
 40
1.0
 40
1.0
 40
1.0
 10
1095.334000787354
 20
1098.351984478047
 30
0.0
 10
1095.334078487746
 20
1098.352009724435
 30
0.0
 10
1095.334263297509
 20
1098.352069772767
 30
0.0
 10
1095.336095260819
 20
1098.352665013729
 30
0.0
 10
1095.340101087335
 20
1098.353966585664
 30
0.0
 10
1095.348369710154
 20
1098.356653224078
 30
0.0
 10
1095.373783085148
 20
1098.364910530161
 30
0.0
 10
1095.436354848567
 20
1098.385241328525
 30
0.0
 10
1096.056411954898
 20
1098.586710095158
 30
0.0
 10
1096.665921384135
 20
1098.784751713758
 30
0.0
 10
1097.236113819944
 20
1098.970018466797
 30
0.0
  0
LINE
  5
217
330
1F
100
AcDbEntity
  8
0
  6
SLD-Solid
 62
     7
370
    15
100
AcDbLine
 10
1095.4557512993
 20
1097.9772749319
 30
0.0
 11
1095.9520347761
 21
1096.4498714455
 31
0.0
  0
LINE
  5
218
330
1F
100
AcDbEntity
  8
0
  6
SLD-Solid
 62
     7
370
    15
100
AcDbLine
 10
1095.9520347761
 20
1096.4498714455
 30
0.0
 11
1096.1065432733
 21
1095.9743431873
 31
0.0
  0
LINE
  5
219
330
1F
100
AcDbEntity
  8
0
  6
SLD-Solid
 62
     7
370
    15
100
AcDbLine
 10
1098.0194441293
 20
1096.5591756696
 30
0.0
 11
1096.1065432733
 21
1095.9743431873
 31
0.0
  0
LINE
  5
21A
330
1F
100
AcDbEntity
  8
0
  6
SLD-Solid
 62
     7
370
    15
100
AcDbLine
 10
1098.9391197317
 20
1093.7287052084
 30
0.0
 11
1097.0358648699
 21
1093.1141854086
 31
0.0
  0
LINE
  5
21B
330
1F
100
AcDbEntity
  8
0
  6
SLD-Solid
 62
     7
370
    15
100
AcDbLine
 10
1096.1065432733
 20
1095.9743431873
 30
0.0
 11
1097.0358648699
 21
1093.1141854086
 31
0.0
  0
LINE
  5
21C
330
1F
100
AcDbEntity
  8
0
  6
SLD-Solid
 62
     7
370
    15
100
AcDbLine
 10
1097.3819244933
 20
1092.0491234029
 30
0.0
 11
1097.5656906829
 21
1091.4835492264
 31
0.0
  0
LINE
  5
21D
330
1F
100
AcDbEntity
  8
0
  6
SLD-Solid
 62
     7
370
    15
100
AcDbLine
 10
1097.0358648699
 20
1093.1141854086
 30
0.0
 11
1097.3819244933
 21
1092.0491234029
 31
0.0
  0
LINE
  5
21E
330
1F
100
AcDbEntity
  8
0
  6
SLD-Solid
 62
     7
370
    15
100
AcDbLine
 10
1097.5656906829
 20
1091.4835492264
 30
0.0
 11
1097.8914476672
 21
1090.4809723187
 31
0.0
  0
LINE
  5
21F
330
1F
100
AcDbEntity
  8
0
  6
SLD-Solid
 62
     7
370
    15
100
AcDbLine
 10
1097.8914476672
 20
1090.4809723187
 30
0.0
 11
1097.9179421122
 21
1090.3994308016
 31
0.0
  0
SPLINE
  5
220
330
1F
100
AcDbEntity
  8
0
  6
SLD-Solid
 62
     7
370
    15
100
AcDbSpline
210
0.0
220
0.0
230
1.0
 70
     8
 71
     3
 72
    16
 73
    12
 74
     0
 42
0.00000001
 43
0.00000001
 40
0.0
 40
0.0
 40
0.0
 40
0.0
 40
0.0001752464039596
 40
0.1252144210065706
 40
0.2502435855708465
 40
0.3752580360337695
 40
0.5002621062641163
 40
0.625264610509628
 40
0.7502654112533452
 40
0.8753601771999048
 40
1.0
 40
1.0
 40
1.0
 40
1.0
 10
1090.074831262253
 20
1128.534725228278
 30
0.0
 10
1090.074743071367
 20
1128.534737398827
 30
0.0
 10
1090.011730247861
 20
1128.543433316446
 30
0.0
 10
1090.233542469471
 20
1128.512124252732
 30
0.0
 10
1090.749534815166
 20
1128.444091294816
 30
0.0
 10
1091.587931454579
 20
1128.350520315097
 30
0.0
 10
1092.563537963594
 20
1128.2694186206
 30
0.0
 10
1093.546102910933
 20
1128.218536386573
 30
0.0
 10
1094.372836442648
 20
1128.200248258896
 30
0.0
 10
1094.950325780986
 20
1128.201652305322
 30
0.0
 10
1095.025817443212
 20
1128.20273425934
 30
0.0
 10
1095.063494512495
 20
1128.203274250847
 30
0.0
  0
LINE
  5
221
330
1F
100
AcDbEntity
  8
0
  6
SLD-Solid
 62
     7
370
    15
100
AcDbLine
 10
1095.3340007874
 20
1098.351984478
 30
0.0
 11
1094.4842040528
 21
1100.9673898979
 31
0.0
  0
LINE
  5
222
330
1F
100
AcDbEntity
  8
0
  6
SLD-Solid
 62
     7
370
    15
100
AcDbLine
 10
1097.0970561725
 20
1099.3979938991
 30
0.0
 11
1095.1949431399
 21
1098.7799599104
 31
0.0
  0
LINE
  5
223
330
1F
100
AcDbEntity
  8
0
  6
SLD-Solid
 62
     7
370
    15
100
AcDbLine
 10
969.8131514444
 20
1165.1816086631
 30
0.0
 11
969.8131514444
 21
1152.4816086631
 31
0.0
  0
ARC
  5
224
330
1F
100
AcDbEntity
  8
0
  6
SLD-Solid
 62
     7
370
    15
100
AcDbCircle
 10
971.0531514444
 20
1165.1816086631
 30
0.0
 40
1.240000000000123
100
AcDbArc
 50
90.0
 51
180.0
  0
LINE
  5
225
330
1F
100
AcDbEntity
  8
0
  6
SLD-Solid
 62
     7
370
    15
100
AcDbLine
 10
992.8531514444
 20
1166.4216086631
 30
0.0
 11
971.0531514444
 21
1166.4216086631
 31
0.0
  0
ARC
  5
226
330
1F
100
AcDbEntity
  8
0
  6
SLD-Solid
 62
     7
370
    15
100
AcDbCircle
 10
992.8531514444
 20
1168.8816086631
 30
0.0
 40
2.460000000000036
100
AcDbArc
 50
270.0
 51
0.0
  0
LINE
  5
227
330
1F
100
AcDbEntity
  8
0
  6
SLD-Solid
 62
     7
370
    15
100
AcDbLine
 10
995.3131514444
 20
1185.1316086631
 30
0.0
 11
995.3131514444
 21
1168.8816086631
 31
0.0
  0
LINE
  5
228
330
1F
100
AcDbEntity
  8
0
  6
SLD-Solid
 62
     7
370
    15
100
AcDbLine
 10
996.5531514444
 20
1185.1316086631
 30
0.0
 11
995.3131514444
 21
1185.1316086631
 31
0.0
  0
LINE
  5
229
330
1F
100
AcDbEntity
  8
0
  6
SLD-Solid
 62
     7
370
    15
100
AcDbLine
 10
996.5531514444
 20
1185.1816086631
 30
0.0
 11
996.5531514444
 21
1185.1316086631
 31
0.0
  0
LINE
  5
22A
330
1F
100
AcDbEntity
  8
0
  6
SLD-Solid
 62
     7
370
    15
100
AcDbLine
 10
1087.8699599428
 20
1185.1316086631
 30
0.0
 11
1087.8699599428
 21
1185.1816086631
 31
0.0
  0
LINE
  5
22B
330
1F
100
AcDbEntity
  8
0
  6
SLD-Solid
 62
     7
370
    15
100
AcDbLine
 10
1088.3699599428
 20
1185.1316086631
 30
0.0
 11
1087.8699599428
 21
1185.1316086631
 31
0.0
  0
LINE
  5
22C
330
1F
100
AcDbEntity
  8
0
  6
SLD-Solid
 62
     7
370
    15
100
AcDbLine
 10
1088.3699599428
 20
1186.325926111
 30
0.0
 11
1088.3699599428
 21
1185.1316086631
 31
0.0
  0
ARC
  5
22D
330
1F
100
AcDbEntity
  8
0
  6
SLD-Solid
 62
     7
370
    15
100
AcDbCircle
 10
1087.8699599428
 20
1164.3316086631
 30
0.0
 40
22.0000000000002
100
AcDbArc
 50
293.5
 51
88.6977110648
  0
LINE
  5
22E
330
1F
100
AcDbEntity
  8
0
  6
SLD-Solid
 62
     7
370
    15
100
AcDbLine
 10
1073.1473048722
 20
1133.9403117569
 30
0.0
 11
1096.6424394592
 21
1144.1562870267
 31
0.0
  0
LINE
  5
22F
330
1F
100
AcDbEntity
  8
0
  6
SLD-Solid
 62
     7
370
    15
100
AcDbLine
 10
1073.1473048722
 20
1133.9403117569
 30
0.0
 11
1073.1473048722
 21
1135.0816086631
 31
0.0
  0
ARC
  5
230
330
1F
100
AcDbEntity
  8
0
  6
SLD-Solid
 62
     7
370
    15
100
AcDbCircle
 10
1073.0223048722
 20
1135.0816086631
 30
0.0
 40
0.125
100
AcDbArc
 50
0.0
 51
180.0
  0
LINE
  5
231
330
1F
100
AcDbEntity
  8
0
  6
SLD-Solid
 62
     7
370
    15
100
AcDbLine
 10
1052.7031514444
 20
1152.5316086631
 30
0.0
 11
1052.7031514444
 21
1135.0816086631
 31
0.0
  0
LINE
  5
232
330
1F
100
AcDbEntity
  8
0
  6
SLD-Solid
 62
     7
370
    15
100
AcDbLine
 10
1052.6927158367
 20
1152.5316086631
 30
0.0
 11
1052.7031514444
 21
1152.5316086631
 31
0.0
  0
ARC
  5
233
330
1F
100
AcDbEntity
  8
0
  6
SLD-Solid
 62
     7
370
    15
100
AcDbCircle
 10
1052.5781514444
 20
1152.4816086631
 30
0.0
 40
0.1250000000000312
100
AcDbArc
 50
23.5781784782
 51
156.4218215218
  0
LINE
  5
234
330
1F
100
AcDbEntity
  8
0
  6
SLD-Solid
 62
     7
370
    15
100
AcDbLine
 10
1052.4531514444
 20
1152.5316086631
 30
0.0
 11
1052.463587052
 21
1152.5316086631
 31
0.0
  0
LINE
  5
235
330
1F
100
AcDbEntity
  8
0
  6
SLD-Solid
 62
     7
370
    15
100
AcDbLine
 10
1052.4531514444
 20
1152.4816086631
 30
0.0
 11
1052.4531514444
 21
1152.5316086631
 31
0.0
  0
ARC
  5
236
330
1F
100
AcDbEntity
  8
0
  6
SLD-Solid
 62
     7
370
    15
100
AcDbCircle
 10
1075.8620230806
 20
1149.0244083018
 30
0.0
 40
0.250000000000152
100
AcDbArc
 50
99.9421486626
 51
279.9421486627
  0
ARC
  5
237
330
1F
100
AcDbEntity
  8
0
  6
SLD-Solid
 62
     7
370
    15
100
AcDbCircle
 10
1075.3699599428
 20
1151.8316086631
 30
0.0
 40
3.100000000000274
100
AcDbArc
 50
279.9421486627
 51
80.0578513373
  0
ARC
  5
238
330
1F
100
AcDbEntity
  8
0
  6
SLD-Solid
 62
     7
370
    15
100
AcDbCircle
 10
1075.8620230806
 20
1154.6388090244
 30
0.0
 40
0.2500000000001912
100
AcDbArc
 50
80.0578513373
 51
260.0578513374
  0
ARC
  5
239
330
1F
100
AcDbEntity
  8
0
  6
SLD-Solid
 62
     7
370
    15
100
AcDbCircle
 10
1075.3699599428
 20
1151.8316086631
 30
0.0
 40
2.600000000000154
100
AcDbArc
 50
279.9421486627
 51
80.0578513373
  0
ARC
  5
23A
330
1F
100
AcDbEntity
  8
0
  6
SLD-Solid
 62
     7
370
    15
100
AcDbCircle
 10
1074.877896805
 20
1154.6388090244
 30
0.0
 40
0.2499999999999673
100
AcDbArc
 50
279.9421486626
 51
99.9421486627
  0
ARC
  5
23B
330
1F
100
AcDbEntity
  8
0
  6
SLD-Solid
 62
     7
370
    15
100
AcDbCircle
 10
1075.3699599428
 20
1151.8316086631
 30
0.0
 40
3.100000000000089
100
AcDbArc
 50
99.9421486627
 51
260.0578513373
  0
ARC
  5
23C
330
1F
100
AcDbEntity
  8
0
  6
SLD-Solid
 62
     7
370
    15
100
AcDbCircle
 10
1074.877896805
 20
1149.0244083018
 30
0.0
 40
0.250000000000152
100
AcDbArc
 50
260.0578513373
 51
80.0578513374
  0
ARC
  5
23D
330
1F
100
AcDbEntity
  8
0
  6
SLD-Solid
 62
     7
370
    15
100
AcDbCircle
 10
1075.3699599428
 20
1151.8316086631
 30
0.0
 40
2.600000000000194
100
AcDbArc
 50
99.9421486627
 51
260.0578513373
  0
LINE
  5
23E
330
1F
100
AcDbEntity
  8
0
  6
SLD-Solid
 62
     7
370
    15
100
AcDbLine
 10
1052.4531514444
 20
1152.4816086631
 30
0.0
 11
1052.4531514444
 21
1150.0316086631
 31
0.0
  0
LINE
  5
23F
330
1F
100
AcDbEntity
  8
0
  6
SLD-Solid
 62
     7
370
    15
100
AcDbLine
 10
1052.4531514444
 20
1150.0316086631
 30
0.0
 11
969.8131514444
 21
1150.0316086631
 31
0.0
  0
LINE
  5
240
330
1F
100
AcDbEntity
  8
0
  6
SLD-Solid
 62
     7
370
    15
100
AcDbLine
 10
969.8131514444
 20
1150.0316086631
 30
0.0
 11
969.8131514444
 21
1152.4816086631
 31
0.0
  0
LINE
  5
241
330
1F
100
AcDbEntity
  8
0
  6
SLD-Solid
 62
     7
370
    15
100
AcDbLine
 10
1087.8699599428
 20
1187.6316086631
 30
0.0
 11
1087.8699599428
 21
1185.1816086631
 31
0.0
  0
LINE
  5
242
330
1F
100
AcDbEntity
  8
0
  6
SLD-Solid
 62
     7
370
    15
100
AcDbLine
 10
996.5531514444
 20
1185.1816086631
 30
0.0
 11
996.5531514444
 21
1187.6316086631
 31
0.0
  0
LINE
  5
243
330
1F
100
AcDbEntity
  8
0
  6
SLD-Solid
 62
     7
370
    15
100
AcDbLine
 10
996.5531514444
 20
1187.6316086631
 30
0.0
 11
1087.8699599428
 21
1187.6316086631
 31
0.0
  0
LINE
  5
244
330
1F
100
AcDbEntity
  8
0
  6
SLD-Solid
 62
     7
370
    15
100
AcDbLine
 10
1072.8973048722
 20
1135.0816086631
 30
0.0
 11
1072.8973048722
 21
1132.6316086631
 31
0.0
  0
LINE
  5
245
330
1F
100
AcDbEntity
  8
0
  6
SLD-Solid
 62
     7
370
    15
100
AcDbLine
 10
1052.7031514444
 20
1132.6316086631
 30
0.0
 11
1072.8973048722
 21
1132.6316086631
 31
0.0
  0
LINE
  5
246
330
1F
100
AcDbEntity
  8
0
  6
SLD-Solid
 62
     7
370
    15
100
AcDbLine
 10
1052.7031514444
 20
1132.6316086631
 30
0.0
 11
1052.7031514444
 21
1135.0816086631
 31
0.0
  0
LINE
  5
247
330
1F
100
AcDbEntity
  8
0
  6
SLD-Solid
 62
     7
370
    15
100
AcDbLine
 10
992.8531514444
 20
1167.6316086631
 30
0.0
 11
971.0531514444
 21
1167.6316086631
 31
0.0
  0
LINE
  5
248
330
1F
100
AcDbEntity
  8
0
  6
SLD-Solid
 62
     7
370
    15
100
AcDbLine
 10
992.8531514444
 20
1166.4316086631
 30
0.0
 11
971.0531514444
 21
1166.4316086631
 31
0.0
  0
ARC
  5
249
330
1F
100
AcDbEntity
  8
0
  6
SLD-Solid
 62
     7
370
    15
100
AcDbCircle
 10
971.0531514444
 20
1165.1816086631
 30
0.0
 40
1.250000000000114
100
AcDbArc
 50
90.0
 51
180.0
  0
ARC
  5
24A
330
1F
100
AcDbEntity
  8
0
  6
SLD-Solid
 62
     7
370
    15
100
AcDbCircle
 10
971.0531514444
 20
1165.1816086631
 30
0.0
 40
2.450000000000045
100
AcDbArc
 50
90.0
 51
180.0
  0
LINE
  5
24B
330
1F
100
AcDbEntity
  8
0
  6
SLD-Solid
 62
     7
370
    15
100
AcDbLine
 10
969.8031514444
 20
1157.6316086631
 30
0.0
 11
968.6031514444
 21
1157.6316086631
 31
0.0
  0
LINE
  5
24C
330
1F
100
AcDbEntity
  8
0
  6
SLD-Solid
 62
     7
370
    15
100
AcDbLine
 10
968.6031514444
 20
1157.6316086631
 30
0.0
 11
968.6031514444
 21
1158.6316086631
 31
0.0
  0
LINE
  5
24D
330
1F
100
AcDbEntity
  8
0
  6
SLD-Solid
 62
     7
370
    15
100
AcDbLine
 10
969.8031514444
 20
1158.6316086631
 30
0.0
 11
969.8031514444
 21
1157.6316086631
 31
0.0
  0
LINE
  5
24E
330
1F
100
AcDbEntity
  8
0
  6
SLD-Solid
 62
     7
370
    15
100
AcDbLine
 10
968.6031514444
 20
1165.1816086631
 30
0.0
 11
968.6031514444
 21
1158.6316086631
 31
0.0
  0
LINE
  5
24F
330
1F
100
AcDbEntity
  8
0
  6
SLD-Solid
 62
     7
370
    15
100
AcDbLine
 10
969.8031514444
 20
1165.1816086631
 30
0.0
 11
969.8031514444
 21
1158.6316086631
 31
0.0
  0
LINE
  5
250
330
1F
100
AcDbEntity
  8
0
  6
SLD-Solid
 62
     7
370
    15
100
AcDbLine
 10
994.1031514444
 20
1185.1816086631
 30
0.0
 11
994.1031514444
 21
1168.8816086631
 31
0.0
  0
LINE
  5
251
330
1F
100
AcDbEntity
  8
0
  6
SLD-Solid
 62
     7
370
    15
100
AcDbLine
 10
995.3031514444
 20
1185.1816086631
 30
0.0
 11
995.3031514444
 21
1168.8816086631
 31
0.0
  0
LINE
  5
252
330
1F
100
AcDbEntity
  8
0
  6
SLD-Solid
 62
     7
370
    15
100
AcDbLine
 10
995.3031514444
 20
1185.1816086631
 30
0.0
 11
994.1031514444
 21
1185.1816086631
 31
0.0
  0
ARC
  5
253
330
1F
100
AcDbEntity
  8
0
  6
SLD-Solid
 62
     7
370
    15
100
AcDbCircle
 10
992.8531514444
 20
1168.8816086631
 30
0.0
 40
2.450000000000045
100
AcDbArc
 50
270.0
 51
0.0
  0
ARC
  5
254
330
1F
100
AcDbEntity
  8
0
  6
SLD-Solid
 62
     7
370
    15
100
AcDbCircle
 10
992.8531514444
 20
1168.8816086631
 30
0.0
 40
1.25
100
AcDbArc
 50
270.0
 51
0.0
  0
LINE
  5
255
330
1F
100
AcDbEntity
  8
0
  6
SLD-Solid
 62
     7
370
    15
100
AcDbLine
 10
1074.9067705702
 20
1133.2877757804
 30
0.0
 11
1073.9897104958
 21
1132.8890267115
 31
0.0
  0
LINE
  5
256
330
1F
100
AcDbEntity
  8
0
  6
SLD-Solid
 62
     7
370
    15
100
AcDbLine
 10
1073.9897104958
 20
1132.8890267115
 30
0.0
 11
1073.5112116131
 21
1133.9894988007
 31
0.0
  0
LINE
  5
257
330
1F
100
AcDbEntity
  8
0
  6
SLD-Solid
 62
     7
370
    15
100
AcDbLine
 10
1073.5112116131
 20
1133.9894988007
 30
0.0
 11
1074.4282716875
 21
1134.3882478697
 31
0.0
  0
LINE
  5
258
330
1F
100
AcDbEntity
  8
0
  6
SLD-Solid
 62
     7
370
    15
100
AcDbLine
 10
1074.4282716875
 20
1134.3882478697
 30
0.0
 11
1096.6823143661
 21
1144.0645810192
 31
0.0
  0
LINE
  5
259
330
1F
100
AcDbEntity
  8
0
  6
SLD-Solid
 62
     7
370
    15
100
AcDbLine
 10
1074.9067705702
 20
1133.2877757804
 30
0.0
 11
1097.1608132488
 21
1142.96410893
 31
0.0
  0
ARC
  5
25A
330
1F
100
AcDbEntity
  8
0
  6
SLD-Solid
 62
     7
370
    15
100
AcDbCircle
 10
1087.8699599428
 20
1164.3316086631
 30
0.0
 40
23.30000000000017
100
AcDbArc
 50
293.5
 51
88.7703824493
  0
LINE
  5
25B
330
1F
100
AcDbEntity
  8
0
  6
SLD-Solid
 62
     7
370
    15
100
AcDbLine
 10
1088.3699599428
 20
1186.4259518306
 30
0.0
 11
1088.3699599428
 21
1187.6262432385
 31
0.0
  0
ARC
  5
25C
330
1F
100
AcDbEntity
  8
0
  6
SLD-Solid
 62
     7
370
    15
100
AcDbCircle
 10
1087.8699599428
 20
1164.3316086631
 30
0.0
 40
22.1
100
AcDbArc
 50
293.5
 51
88.703604783
  0
ARC
  5
25D
330
1F
100
AcDbEntity
  8
0
  6
SLD-Solid
 62
     7
370
    15
100
AcDbCircle
 10
996.5531514444
 20
1185.1816086631
 30
0.0
 40
1.250000000000114
100
AcDbArc
 50
90.0
 51
180.0
  0
ARC
  5
25E
330
1F
100
AcDbEntity
  8
0
  6
SLD-Solid
 62
     7
370
    15
100
AcDbCircle
 10
996.5531514444
 20
1185.1816086631
 30
0.0
 40
2.450000000000045
100
AcDbArc
 50
90.0
 51
180.0
  0
ARC
  5
25F
330
1F
100
AcDbEntity
  8
0
  6
SLD-Solid
 62
     7
370
    15
100
AcDbCircle
 10
1087.8699599428
 20
1164.3316086631
 30
0.0
 40
23.29999999999995
100
AcDbArc
 50
88.7703824493
 51
90.0
  0
ARC
  5
260
330
1F
100
AcDbEntity
  8
0
  6
SLD-Solid
 62
     7
370
    15
100
AcDbCircle
 10
1087.8699599428
 20
1164.3316086631
 30
0.0
 40
22.1
100
AcDbArc
 50
88.703604783
 51
90.0
  0
LINE
  5
261
330
1F
100
AcDbEntity
  8
0
  6
SLD-Solid
 62
     7
370
    15
100
AcDbLine
 10
345.4031514444
 20
1151.4316086632
 30
0.0
 11
345.4031514444
 21
1186.8316086632
 31
0.0
  0
LINE
  5
262
330
1F
100
AcDbEntity
  8
0
  6
SLD-Solid
 62
     7
370
    15
100
AcDbLine
 10
447.8031514444
 20
1150.4316086632
 30
0.0
 11
346.4031514444
 21
1150.4316086632
 31
0.0
  0
ARC
  5
263
330
1F
100
AcDbEntity
  8
0
  6
SLD-Solid
 62
     7
370
    15
100
AcDbCircle
 10
346.4031514444
 20
1151.4316086632
 30
0.0
 40
0.9999999999998863
100
AcDbArc
 50
180.0
 51
270.0
  0
LINE
  5
264
330
1F
100
AcDbEntity
  8
0
  6
SLD-Solid
 62
     7
370
    15
100
AcDbLine
 10
448.8031514444
 20
1156.8316086632
 30
0.0
 11
448.8031514444
 21
1151.4316086632
 31
0.0
  0
ARC
  5
265
330
1F
100
AcDbEntity
  8
0
  6
SLD-Solid
 62
     7
370
    15
100
AcDbCircle
 10
447.8031514444
 20
1151.4316086632
 30
0.0
 40
0.9999999999998863
100
AcDbArc
 50
270.0
 51
0.0
  0
LINE
  5
266
330
1F
100
AcDbEntity
  8
0
  6
SLD-Solid
 62
     7
370
    15
100
AcDbLine
 10
344.6031514444
 20
1186.8316086632
 30
0.0
 11
345.4031514444
 21
1186.8316086632
 31
0.0
  0
LINE
  5
267
330
1F
100
AcDbEntity
  8
0
  6
SLD-Solid
 62
     7
370
    15
100
AcDbLine
 10
344.6031514444
 20
1186.8316086632
 30
0.0
 11
344.6031514444
 21
1235.6110638229
 31
0.0
  0
LINE
  5
268
330
1F
100
AcDbEntity
  8
0
  6
SLD-Solid
 62
     7
370
    15
100
AcDbLine
 10
345.4031514444
 20
1186.8316086632
 30
0.0
 11
345.4031514444
 21
1235.6110638229
 31
0.0
  0
ARC
  5
269
330
1F
100
AcDbEntity
  8
0
  6
SLD-Solid
 62
     7
370
    15
100
AcDbCircle
 10
346.6531514444
 20
1235.6110638229
 30
0.0
 40
2.049999999999898
100
AcDbArc
 50
75.0
 51
180.0
  0
ARC
  5
26A
330
1F
100
AcDbEntity
  8
0
  6
SLD-Solid
 62
     7
370
    15
100
AcDbCircle
 10
346.6531514444
 20
1235.6110638229
 30
0.0
 40
1.25
100
AcDbArc
 50
75.0
 51
180.0
  0
LINE
  5
26B
330
1F
100
AcDbEntity
  8
0
  6
SLD-Solid
 62
     7
370
    15
100
AcDbLine
 10
346.9766752507
 20
1236.8184711058
 30
0.0
 11
380.2736275719
 21
1227.8965796209
 31
0.0
  0
LINE
  5
26C
330
1F
100
AcDbEntity
  8
0
  6
SLD-Solid
 62
     7
370
    15
100
AcDbLine
 10
347.1837304868
 20
1237.5912117668
 30
0.0
 11
380.480682808
 21
1228.6693202819
 31
0.0
  0
ARC
  5
26D
330
1F
100
AcDbEntity
  8
0
  6
SLD-Solid
 62
     7
370
    15
100
AcDbCircle
 10
373.8031514444
 20
1203.7484339637
 30
0.0
 40
25.80000000000007
100
AcDbArc
 50
0.0
 51
75.0
  0
ARC
  5
26E
330
1F
100
AcDbEntity
  8
0
  6
SLD-Solid
 62
     7
370
    15
100
AcDbCircle
 10
373.8031514444
 20
1203.7484339637
 30
0.0
 40
24.99999999999994
100
AcDbArc
 50
0.0
 51
75.0
  0
LINE
  5
26F
330
1F
100
AcDbEntity
  8
0
  6
SLD-Solid
 62
     7
370
    15
100
AcDbLine
 10
399.6031514444
 20
1203.7484339637
 30
0.0
 11
399.6031514444
 21
1188.8816086632
 31
0.0
  0
LINE
  5
270
330
1F
100
AcDbEntity
  8
0
  6
SLD-Solid
 62
     7
370
    15
100
AcDbLine
 10
398.8031514444
 20
1203.7484339637
 30
0.0
 11
398.8031514444
 21
1188.8816086632
 31
0.0
  0
LINE
  5
271
330
1F
100
AcDbEntity
  8
0
  6
SLD-Solid
 62
     7
370
    15
100
AcDbLine
 10
400.8531514444
 20
1186.8316086632
 30
0.0
 11
422.0531514444
 21
1186.8316086632
 31
0.0
  0
LINE
  5
272
330
1F
100
AcDbEntity
  8
0
  6
SLD-Solid
 62
     7
370
    15
100
AcDbLine
 10
400.8531514444
 20
1187.6316086632
 30
0.0
 11
422.0531514444
 21
1187.6316086632
 31
0.0
  0
ARC
  5
273
330
1F
100
AcDbEntity
  8
0
  6
SLD-Solid
 62
     7
370
    15
100
AcDbCircle
 10
400.8531514444
 20
1188.8816086632
 30
0.0
 40
1.25
100
AcDbArc
 50
180.0
 51
270.0
  0
ARC
  5
274
330
1F
100
AcDbEntity
  8
0
  6
SLD-Solid
 62
     7
370
    15
100
AcDbCircle
 10
400.8531514444
 20
1188.8816086632
 30
0.0
 40
2.050000000000182
100
AcDbArc
 50
180.0
 51
270.0
  0
LINE
  5
275
330
1F
100
AcDbEntity
  8
0
  6
SLD-Solid
 62
     7
370
    15
100
AcDbLine
 10
424.1031514444
 20
1185.5816086632
 30
0.0
 11
424.1031514444
 21
1168.8816086632
 31
0.0
  0
LINE
  5
276
330
1F
100
AcDbEntity
  8
0
  6
SLD-Solid
 62
     7
370
    15
100
AcDbLine
 10
423.3031514444
 20
1185.5816086632
 30
0.0
 11
423.3031514444
 21
1168.8816086632
 31
0.0
  0
LINE
  5
277
330
1F
100
AcDbEntity
  8
0
  6
SLD-Solid
 62
     7
370
    15
100
AcDbLine
 10
425.3531514444
 20
1167.6316086632
 30
0.0
 11
447.5531514444
 21
1167.6316086632
 31
0.0
  0
LINE
  5
278
330
1F
100
AcDbEntity
  8
0
  6
SLD-Solid
 62
     7
370
    15
100
AcDbLine
 10
425.3531514444
 20
1166.8316086632
 30
0.0
 11
447.5531514444
 21
1166.8316086632
 31
0.0
  0
ARC
  5
279
330
1F
100
AcDbEntity
  8
0
  6
SLD-Solid
 62
     7
370
    15
100
AcDbCircle
 10
422.0531514444
 20
1185.5816086632
 30
0.0
 40
2.050000000000125
100
AcDbArc
 50
0.0
 51
90.0
  0
ARC
  5
27A
330
1F
100
AcDbEntity
  8
0
  6
SLD-Solid
 62
     7
370
    15
100
AcDbCircle
 10
422.0531514444
 20
1185.5816086632
 30
0.0
 40
1.250000000000227
100
AcDbArc
 50
0.0
 51
90.0
  0
ARC
  5
27B
330
1F
100
AcDbEntity
  8
0
  6
SLD-Solid
 62
     7
370
    15
100
AcDbCircle
 10
425.3531514444
 20
1168.8816086632
 30
0.0
 40
1.25
100
AcDbArc
 50
180.0
 51
270.0
  0
ARC
  5
27C
330
1F
100
AcDbEntity
  8
0
  6
SLD-Solid
 62
     7
370
    15
100
AcDbCircle
 10
425.3531514444
 20
1168.8816086632
 30
0.0
 40
2.050000000000182
100
AcDbArc
 50
180.0
 51
270.0
  0
ARC
  5
27D
330
1F
100
AcDbEntity
  8
0
  6
SLD-Solid
 62
     7
370
    15
100
AcDbCircle
 10
447.5531514444
 20
1165.5816086632
 30
0.0
 40
2.050000000000125
100
AcDbArc
 50
0.0
 51
90.0
  0
ARC
  5
27E
330
1F
100
AcDbEntity
  8
0
  6
SLD-Solid
 62
     7
370
    15
100
AcDbCircle
 10
447.5531514444
 20
1165.5816086632
 30
0.0
 40
1.249999999999943
100
AcDbArc
 50
0.0
 51
90.0
  0
LINE
  5
27F
330
1F
100
AcDbEntity
  8
0
  6
SLD-Solid
 62
     7
370
    15
100
AcDbLine
 10
448.8031514444
 20
1156.8316086632
 30
0.0
 11
449.6031514444
 21
1156.8316086632
 31
0.0
  0
LINE
  5
280
330
1F
100
AcDbEntity
  8
0
  6
SLD-Solid
 62
     7
370
    15
100
AcDbLine
 10
448.8031514444
 20
1165.5816086632
 30
0.0
 11
448.8031514444
 21
1156.8316086632
 31
0.0
  0
LINE
  5
281
330
1F
100
AcDbEntity
  8
0
  6
SLD-Solid
 62
     7
370
    15
100
AcDbLine
 10
449.6031514444
 20
1165.5816086632
 30
0.0
 11
449.6031514444
 21
1156.8316086632
 31
0.0
  0
LINE
  5
282
330
1F
100
AcDbEntity
  8
0
  6
SLD-Solid
 62
     7
370
    15
100
AcDbLine
 10
446.0031514441
 20
303.3316086631
 30
0.0
 11
389.0031514441
 21
303.3316086631
 31
0.0
  0
LINE
  5
283
330
1F
100
AcDbEntity
  8
0
  6
SLD-Solid
 62
     7
370
    15
100
AcDbLine
 10
444.0031513733
 20
297.3316086631
 30
0.0
 11
391.0031514441
 21
297.3316086631
 31
0.0
  0
LINE
  5
284
330
1F
100
AcDbEntity
  8
0
  6
SLD-Solid
 62
     7
370
    15
100
AcDbLine
 10
1035.0031514441
 20
303.3316086631
 30
0.0
 11
978.0031514441
 21
303.3316086631
 31
0.0
  0
LINE
  5
285
330
1F
100
AcDbEntity
  8
0
  6
SLD-Solid
 62
     7
370
    15
100
AcDbLine
 10
1033.0031513733
 20
297.3316086631
 30
0.0
 11
980.0031514441
 21
297.3316086631
 31
0.0
  0
LINE
  5
286
330
1F
100
AcDbEntity
  8
0
  6
SLD-Solid
 62
     7
370
    15
100
AcDbLine
 10
1041.5031514441
 20
465.3316086631
 30
0.0
 11
1041.5031514441
 21
467.3316086631
 31
0.0
  0
LINE
  5
287
330
1F
100
AcDbEntity
  8
0
  6
SLD-Solid
 62
     7
370
    15
100
AcDbLine
 10
971.5031514441
 20
465.3316086631
 30
0.0
 11
1041.5031514441
 21
465.3316086631
 31
0.0
  0
LINE
  5
288
330
1F
100
AcDbEntity
  8
0
  6
SLD-Solid
 62
     7
370
    15
100
AcDbLine
 10
971.5031514441
 20
465.3316086631
 30
0.0
 11
971.5031514441
 21
467.3316086631
 31
0.0
  0
LINE
  5
289
330
1F
100
AcDbEntity
  8
0
  6
SLD-Solid
 62
     7
370
    15
100
AcDbLine
 10
971.5031514441
 20
467.3316086631
 30
0.0
 11
1041.5031514441
 21
467.3316086631
 31
0.0
  0
LINE
  5
28A
330
1F
100
AcDbEntity
  8
0
  6
SLD-Solid
 62
     7
370
    15
100
AcDbLine
 10
1037.4628016645
 20
371.3316086631
 30
0.0
 11
975.5435012238
 21
371.3316086631
 31
0.0
  0
LINE
  5
28B
330
1F
100
AcDbEntity
  8
0
  6
SLD-Solid
 62
     7
370
    15
100
AcDbLine
 10
452.5031514441
 20
465.3316086631
 30
0.0
 11
452.5031514441
 21
467.3316086631
 31
0.0
  0
LINE
  5
28C
330
1F
100
AcDbEntity
  8
0
  6
SLD-Solid
 62
     7
370
    15
100
AcDbLine
 10
382.5031514441
 20
465.3316086631
 30
0.0
 11
452.5031514441
 21
465.3316086631
 31
0.0
  0
LINE
  5
28D
330
1F
100
AcDbEntity
  8
0
  6
SLD-Solid
 62
     7
370
    15
100
AcDbLine
 10
382.5031514441
 20
467.3316086631
 30
0.0
 11
452.5031514441
 21
467.3316086631
 31
0.0
  0
LINE
  5
28E
330
1F
100
AcDbEntity
  8
0
  6
SLD-Solid
 62
     7
370
    15
100
AcDbLine
 10
382.5031514441
 20
465.3316086631
 30
0.0
 11
382.5031514441
 21
467.3316086631
 31
0.0
  0
LINE
  5
28F
330
1F
100
AcDbEntity
  8
0
  6
SLD-Solid
 62
     7
370
    15
100
AcDbLine
 10
448.4628016645
 20
371.3316086631
 30
0.0
 11
386.5435012238
 21
371.3316086631
 31
0.0
  0
LINE
  5
290
330
1F
100
AcDbEntity
  8
0
  6
SLD-Solid
 62
     7
370
    15
100
AcDbLine
 10
1005.1531514444
 20
1149.8316086632
 30
0.0
 11
1052.7031514444
 21
1149.8316086632
 31
0.0
  0
LINE
  5
291
330
1F
100
AcDbEntity
  8
0
  6
SLD-Solid
 62
     7
370
    15
100
AcDbLine
 10
1005.1531514444
 20
1149.8316086632
 30
0.0
 11
1005.1531514444
 21
1150.0316086631
 31
0.0
  0
LINE
  5
292
330
1F
100
AcDbEntity
  8
0
  6
SLD-Solid
 62
     7
370
    15
100
AcDbLine
 10
972.1031514444
 20
1166.4216086631
 30
0.0
 11
972.1031514444
 21
1166.4316086632
 31
0.0
  0
LINE
  5
293
330
1F
100
AcDbEntity
  8
0
  6
SLD-Solid
 62
     7
370
    15
100
AcDbLine
 10
993.0747366429
 20
1166.4316086632
 30
0.0
 11
992.8531514444
 21
1166.4316086632
 31
0.0
  0
LINE
  5
294
330
1F
100
AcDbEntity
  8
0
  6
SLD-Solid
 62
     7
370
    15
100
AcDbLine
 10
1090.6310863256
 20
1141.4334321835
 30
0.0
 11
1090.3171310533
 21
1141.4059646563
 31
0.0
  0
LINE
  5
295
330
1F
100
AcDbEntity
  8
0
  6
SLD-Solid
 62
     7
370
    15
100
AcDbLine
 10
1091.4007597847
 20
1141.8771398386
 30
0.0
 11
1091.4099502908
 21
1141.772091874
 31
0.0
  0
LINE
  5
296
330
1F
100
AcDbEntity
  8
0
  6
SLD-Solid
 62
     7
370
    15
100
AcDbLine
 10
413.1031514444
 20
1149.8316086631
 30
0.0
 11
413.1031514444
 21
1150.4316086632
 31
0.0
  0
LINE
  5
297
330
1F
100
AcDbEntity
  8
0
  6
SLD-Solid
 62
     7
370
    15
100
AcDbLine
 10
1052.2031514444
 20
1134.1316086631
 30
0.0
 11
1052.7031514444
 21
1134.6316086631
 31
0.0
  0
LINE
  5
298
330
1F
100
AcDbEntity
  8
0
  6
SLD-Solid
 62
     7
370
    15
100
AcDbLine
 10
411.9031514444
 20
1148.9316086631
 30
0.0
 11
411.9031514444
 21
1149.8316086631
 31
0.0
  0
LINE
  5
299
330
1F
100
AcDbEntity
  8
0
  6
SLD-Solid
 62
     7
370
    15
100
AcDbLine
 10
411.9031514444
 20
1149.8316086631
 30
0.0
 11
451.6031514444
 21
1149.8316086631
 31
0.0
  0
LINE
  5
29A
330
1F
100
AcDbEntity
  8
0
  6
SLD-Solid
 62
     7
370
    15
100
AcDbLine
 10
966.6031514444
 20
1149.8316086631
 30
0.0
 11
1005.1531514444
 21
1149.8316086631
 31
0.0
  0
LINE
  5
29B
330
1F
100
AcDbEntity
  8
0
  6
SLD-Solid
 62
     7
370
    15
100
AcDbLine
 10
401.9031514444
 20
1148.9316086631
 30
0.0
 11
401.9031514444
 21
1150.4316086632
 31
0.0
  0
LINE
  5
29C
330
1F
100
AcDbEntity
  8
0
  6
SLD-Solid
 62
     7
370
    15
100
AcDbLine
 10
351.9031514444
 20
1150.4316086632
 30
0.0
 11
351.9031514444
 21
1148.9316086631
 31
0.0
  0
LINE
  5
29D
330
1F
100
AcDbEntity
  8
0
  6
SLD-Center
 62
     7
370
     0
100
AcDbLine
 10
315.0536499198
 20
1108.3316086631
 30
0.0
 11
373.055079011
 21
1108.3316086631
 31
0.0
  0
LINE
  5
29E
330
1F
100
AcDbEntity
  8
0
  6
SLD-Center
 62
     7
370
     0
100
AcDbLine
 10
417.5031514441
 20
299.3316086631
 30
0.0
 11
417.5031514441
 21
579.7775224426
 31
0.0
  0
LINE
  5
29F
330
1F
100
AcDbEntity
  8
0
  6
SLD-Center
 62
     7
370
     0
100
AcDbLine
 10
1006.5031514441
 20
297.3316086631
 30
0.0
 11
1006.5031514441
 21
583.0495468272
 31
0.0
  0
ENDSEC
  0
SECTION
  2
OBJECTS
  0
DICTIONARY
  5
C
330
0
100
AcDbDictionary
281
     1
  3
ACAD_GROUP
350
D
  3
ACAD_LAYOUT
350
1A
  3
ACAD_MLINESTYLE
350
17
  3
ACAD_PLOTSETTINGS
350
19
  3
ACAD_PLOTSTYLENAME
350
E
  0
DICTIONARY
  5
D
102
{ACAD_REACTORS
330
C
102
}
330
C
100
AcDbDictionary
281
     1
  0
DICTIONARY
  5
1A
102
{ACAD_REACTORS
330
C
102
}
330
C
100
AcDbDictionary
281
     1
  3
Layout1
350
1E
  3
Layout2
350
26
  3
Model
350
22
  0
DICTIONARY
  5
17
102
{ACAD_REACTORS
330
C
102
}
330
C
100
AcDbDictionary
281
     1
  3
Standard
350
18
  0
DICTIONARY
  5
19
102
{ACAD_REACTORS
330
C
102
}
330
C
100
AcDbDictionary
281
     1
  0
ACDBDICTIONARYWDFLT
  5
E
102
{ACAD_REACTORS
330
C
102
}
330
C
100
AcDbDictionary
281
     1
  3
Normal
350
F
100
AcDbDictionaryWithDefault
340
F
  0
LAYOUT
  5
1E
102
{ACAD_REACTORS
330
1A
102
}
330
1A
100
AcDbPlotSettings
  1

  2
none_device
  4

  6

 40
0.0
 41
0.0
 42
0.0
 43
0.0
 44
0.0
 45
0.0
 46
0.0
 47
0.0
 48
0.0
 49
0.0
140
0.0
141
0.0
142
1.0
143
1.0
 70
   688
 72
     0
 73
     0
 74
     5
  7

 75
    16
147
1.0
148
0.0
149
0.0
100
AcDbLayout
  1
Layout1
 70
     1
 71
     1
 10
0.0
 20
0.0
 11
420.0
 21
297.0
 12
0.0
 22
0.0
 32
0.0
 14
1.0000000000E+20
 24
1.0000000000E+20
 34
1.0000000000E+20
 15
-1.0000000000E+20
 25
-1.0000000000E+20
 35
-1.0000000000E+20
146
0.0
 13
0.0
 23
0.0
 33
0.0
 16
1.0
 26
0.0
 36
0.0
 17
0.0
 27
1.0
 37
0.0
 76
     0
330
1B
  0
LAYOUT
  5
26
102
{ACAD_REACTORS
330
1A
102
}
330
1A
100
AcDbPlotSettings
  1

  2
none_device
  4

  6

 40
0.0
 41
0.0
 42
0.0
 43
0.0
 44
0.0
 45
0.0
 46
0.0
 47
0.0
 48
0.0
 49
0.0
140
0.0
141
0.0
142
1.0
143
1.0
 70
   688
 72
     0
 73
     0
 74
     5
  7

 75
    16
147
1.0
148
0.0
149
0.0
100
AcDbLayout
  1
Layout2
 70
     1
 71
     2
 10
0.0
 20
0.0
 11
0.0
 21
0.0
 12
0.0
 22
0.0
 32
0.0
 14
0.0
 24
0.0
 34
0.0
 15
0.0
 25
0.0
 35
0.0
146
0.0
 13
0.0
 23
0.0
 33
0.0
 16
1.0
 26
0.0
 36
0.0
 17
0.0
 27
1.0
 37
0.0
 76
     0
330
23
  0
LAYOUT
  5
22
102
{ACAD_REACTORS
330
1A
102
}
330
1A
100
AcDbPlotSettings
  1

  2
none_device
  4

  6

 40
0.0
 41
0.0
 42
0.0
 43
0.0
 44
0.0
 45
0.0
 46
0.0
 47
0.0
 48
0.0
 49
0.0
140
0.0
141
0.0
142
1.0
143
1.0
 70
  1712
 72
     0
 73
     0
 74
     0
  7

 75
     0
147
1.0
148
0.0
149
0.0
100
AcDbLayout
  1
Model
 70
     1
 71
     0
 10
0.0
 20
0.0
 11
1500.0
 21
1500.0
 12
0.0
 22
0.0
 32
0.0
 14
0.0
 24
0.0
 34
0.0
 15
1500.0
 25
1500.0
 35
0.0
146
0.0
 13
0.0
 23
0.0
 33
0.0
 16
1.0
 26
0.0
 36
0.0
 17
0.0
 27
1.0
 37
0.0
 76
     0
330
1F
331
29
  0
MLINESTYLE
  5
18
102
{ACAD_REACTORS
330
17
102
}
330
17
100
AcDbMlineStyle
  2
Standard
 70
     0
  3

 62
   256
 51
90.0
 52
90.0
 71
     2
 49
0.5
 62
   256
  6
BYLAYER
 49
-0.5
 62
   256
  6
BYLAYER
  0
ACDBPLACEHOLDER
  5
F
102
{ACAD_REACTORS
330
E
102
}
330
E
  0
ENDSEC
  0
EOF
