  0
SECTION
  2
HEADER
  9
$ACADVER
  1
AC1021
  9
$ACADMAINTVER
 70
    25
  9
$DWGCODEPAGE
  3
ANSI_1252
  9
$INSBASE
 10
0.0
 20
0.0
 30
0.0
  9
$EXTMIN
 10
0.0
 20
0.0
 30
0.0
  9
$EXTMAX
 10
420.0
 20
297.0
 30
0.0
  9
$LIMMIN
 10
0.0
 20
0.0
  9
$LIMMAX
 10
420.0
 20
297.0
  9
$ORTHOMODE
 70
     0
  9
$REGENMODE
 70
     1
  9
$FILLMODE
 70
     1
  9
$QTEXTMODE
 70
     0
  9
$MIRRTEXT
 70
     1
  9
$LTSCALE
 40
1.0
  9
$ATTMODE
 70
     1
  9
$TEXTSIZE
 40
3.5
  9
$TRACEWID
 40
1.0
  9
$TEXTSTYLE
  7
Standard
  9
$CLAYER
  8
0
  9
$CELTYPE
  6
ByLayer
  9
$CECOLOR
 62
   256
  9
$CELTSCALE
 40
1.0
  9
$DISPSILH
 70
     0
  9
$DIMSCALE
 40
1.0
  9
$DIMASZ
 40
3.302
  9
$DIMEXO
 40
1.0
  9
$DIMDLI
 40
3.75
  9
$DIMRND
 40
0.0
  9
$DIMDLE
 40
0.0
  9
$DIMEXE
 40
1.0
  9
$DIMTP
 40
0.0
  9
$DIMTM
 40
0.0
  9
$DIMTXT
 40
3.5
  9
$DIMCEN
 40
2.5
  9
$DIMTSZ
 40
0.0
  9
$DIMTOL
 70
     0
  9
$DIMLIM
 70
     0
  9
$DIMTIH
 70
     1
  9
$DIMTOH
 70
     1
  9
$DIMSE1
 70
     0
  9
$DIMSE2
 70
     0
  9
$DIMTAD
 70
     1
  9
$DIMZIN
 70
     0
  9
$DIMBLK
  1

  9
$DIMASO
 70
     1
  9
$DIMSHO
 70
     1
  9
$DIMPOST
  1

  9
$DIMAPOST
  1

  9
$DIMALT
 70
     0
  9
$DIMALTD
 70
     3
  9
$DIMALTF
 40
0.0393700787
  9
$DIMLFAC
 40
1.0
  9
$DIMTOFL
 70
     1
  9
$DIMTVP
 40
0.0
  9
$DIMTIX
 70
     0
  9
$DIMSOXD
 70
     0
  9
$DIMSAH
 70
     0
  9
$DIMBLK1
  1

  9
$DIMBLK2
  1

  9
$DIMSTYLE
  2
ISO-25
  9
$DIMCLRD
 70
     0
  9
$DIMCLRE
 70
     0
  9
$DIMCLRT
 70
     0
  9
$DIMTFAC
 40
1.0
  9
$DIMGAP
 40
1.524
  9
$DIMJUST
 70
     0
  9
$DIMSD1
 70
     0
  9
$DIMSD2
 70
     0
  9
$DIMTOLJ
 70
     0
  9
$DIMTZIN
 70
     0
  9
$DIMALTZ
 70
     0
  9
$DIMALTTZ
 70
     0
  9
$DIMUPT
 70
     0
  9
$DIMDEC
 70
     1
  9
$DIMTDEC
 70
     1
  9
$DIMALTU
 70
     2
  9
$DIMALTTD
 70
     3
  9
$DIMTXSTY
  7
Standard
  9
$DIMAUNIT
 70
     0
  9
$DIMADEC
 70
     1
  9
$DIMALTRND
 40
0.0
  9
$DIMAZIN
 70
     0
  9
$DIMDSEP
 70
    44
  9
$DIMATFIT
 70
     3
  9
$DIMFRAC
 70
     0
  9
$DIMLDRBLK
  1

  9
$DIMLUNIT
 70
     2
  9
$DIMLWD
 70
    -2
  9
$DIMLWE
 70
    -2
  9
$DIMTMOVE
 70
     0
  9
$DIMFXL
 40
1.0
  9
$DIMFXLON
 70
     0
  9
$DIMJOGANG
 40
0.7853981634
  9
$DIMTFILL
 70
     0
  9
$DIMTFILLCLR
 70
     0
  9
$DIMARCSYM
 70
     0
  9
$DIMLTYPE
  6

  9
$DIMLTEX1
  6

  9
$DIMLTEX2
  6

  9
$LUNITS
 70
     2
  9
$LUPREC
 70
     1
  9
$SKETCHINC
 40
1.0
  9
$FILLETRAD
 40
10.0
  9
$AUNITS
 70
     0
  9
$AUPREC
 70
     1
  9
$MENU
  1
.
  9
$ELEVATION
 40
0.0
  9
$PELEVATION
 40
0.0
  9
$THICKNESS
 40
0.0
  9
$LIMCHECK
 70
     0
  9
$CHAMFERA
 40
10.0
  9
$CHAMFERB
 40
10.0
  9
$CHAMFERC
 40
20.0
  9
$CHAMFERD
 40
0.0
  9
$SKPOLY
 70
     0
  9
$TDCREATE
 40
2455748.460815521
  9
$TDUCREATE
 40
2455748.419148854
  9
$TDUPDATE
 40
2455748.460815533
  9
$TDUUPDATE
 40
2455748.419148866
  9
$TDINDWG
 40
0.0000000116
  9
$TDUSRTIMER
 40
0.0000000116
  9
$USRTIMER
 70
     1
  9
$ANGBASE
 50
0.0
  9
$ANGDIR
 70
     0
  9
$PDMODE
 70
     0
  9
$PDSIZE
 40
-1.0
  9
$PLINEWID
 40
0.0
  9
$SPLFRAME
 70
     0
  9
$SPLINETYPE
 70
     6
  9
$SPLINESEGS
 70
     8
  9
$HANDSEED
  5
229
  9
$SURFTAB1
 70
     6
  9
$SURFTAB2
 70
     6
  9
$SURFTYPE
 70
     6
  9
$SURFU
 70
     6
  9
$SURFV
 70
     6
  9
$UCSBASE
  2

  9
$UCSNAME
  2

  9
$UCSORG
 10
0.0
 20
0.0
 30
0.0
  9
$UCSXDIR
 10
1.0
 20
0.0
 30
0.0
  9
$UCSYDIR
 10
0.0
 20
1.0
 30
0.0
  9
$UCSORTHOREF
  2

  9
$UCSORTHOVIEW
 70
     0
  9
$UCSORGTOP
 10
0.0
 20
0.0
 30
0.0
  9
$UCSORGBOTTOM
 10
0.0
 20
0.0
 30
0.0
  9
$UCSORGLEFT
 10
0.0
 20
0.0
 30
0.0
  9
$UCSORGRIGHT
 10
0.0
 20
0.0
 30
0.0
  9
$UCSORGFRONT
 10
0.0
 20
0.0
 30
0.0
  9
$UCSORGBACK
 10
0.0
 20
0.0
 30
0.0
  9
$PUCSBASE
  2

  9
$PUCSNAME
  2

  9
$PUCSORG
 10
0.0
 20
0.0
 30
0.0
  9
$PUCSXDIR
 10
1.0
 20
0.0
 30
0.0
  9
$PUCSYDIR
 10
0.0
 20
1.0
 30
0.0
  9
$PUCSORTHOREF
  2

  9
$PUCSORTHOVIEW
 70
     0
  9
$PUCSORGTOP
 10
0.0
 20
0.0
 30
0.0
  9
$PUCSORGBOTTOM
 10
0.0
 20
0.0
 30
0.0
  9
$PUCSORGLEFT
 10
0.0
 20
0.0
 30
0.0
  9
$PUCSORGRIGHT
 10
0.0
 20
0.0
 30
0.0
  9
$PUCSORGFRONT
 10
0.0
 20
0.0
 30
0.0
  9
$PUCSORGBACK
 10
0.0
 20
0.0
 30
0.0
  9
$USERI1
 70
     0
  9
$USERI2
 70
     0
  9
$USERI3
 70
     0
  9
$USERI4
 70
     0
  9
$USERI5
 70
     0
  9
$USERR1
 40
0.0
  9
$USERR2
 40
0.0
  9
$USERR3
 40
0.0
  9
$USERR4
 40
0.0
  9
$USERR5
 40
0.0
  9
$WORLDVIEW
 70
     1
  9
$SHADEDGE
 70
     3
  9
$SHADEDIF
 70
    70
  9
$TILEMODE
 70
     1
  9
$MAXACTVP
 70
    64
  9
$PINSBASE
 10
0.0
 20
0.0
 30
0.0
  9
$PLIMCHECK
 70
     0
  9
$PEXTMIN
 10
1.0000000000E+20
 20
1.0000000000E+20
 30
1.0000000000E+20
  9
$PEXTMAX
 10
-1.0000000000E+20
 20
-1.0000000000E+20
 30
-1.0000000000E+20
  9
$PLIMMIN
 10
0.0
 20
0.0
  9
$PLIMMAX
 10
420.0
 20
297.0
  9
$UNITMODE
 70
     0
  9
$VISRETAIN
 70
     1
  9
$PLINEGEN
 70
     0
  9
$PSLTSCALE
 70
     1
  9
$TREEDEPTH
 70
  3020
  9
$CMLSTYLE
  2
Standard
  9
$CMLJUST
 70
     0
  9
$CMLSCALE
 40
20.0
  9
$PROXYGRAPHICS
 70
     1
  9
$MEASUREMENT
 70
     1
  9
$CELWEIGHT
370
    -1
  9
$ENDCAPS
280
     0
  9
$JOINSTYLE
280
     0
  9
$LWDISPLAY
290
     1
  9
$INSUNITS
 70
     4
  9
$HYPERLINKBASE
  1

  9
$STYLESHEET
  1

  9
$XEDIT
290
     1
  9
$CEPSNTYPE
380
     0
  9
$PSTYLEMODE
290
     1
  9
$FINGERPRINTGUID
  2
{FAAAC257-76CB-4EB1-8B45-9C857D793A27}
  9
$VERSIONGUID
  2
{FAEB1C32-E019-11D5-929B-00C0DF256EC4}
  9
$EXTNAMES
290
     1
  9
$PSVPSCALE
 40
0.0
  9
$OLESTARTUP
290
     0
  9
$SORTENTS
280
   127
  9
$INDEXCTL
280
     0
  9
$HIDETEXT
280
     1
  9
$XCLIPFRAME
290
     0
  9
$HALOGAP
280
     0
  9
$OBSCOLOR
 70
   257
  9
$OBSLTYPE
280
     0
  9
$INTERSECTIONDISPLAY
280
     0
  9
$INTERSECTIONCOLOR
 70
   257
  9
$DIMASSOC
280
     2
  9
$PROJECTNAME
  1

  9
$CAMERADISPLAY
290
     0
  9
$LENSLENGTH
 40
50.0
  9
$CAMERAHEIGHT
 40
0.0
  9
$STEPSPERSEC
 40
2.0
  9
$STEPSIZE
 40
6.0
  9
$3DDWFPREC
 40
2.0
  9
$PSOLWIDTH
 40
5.0
  9
$PSOLHEIGHT
 40
80.0
  9
$LOFTANG1
 40
1.5707963268
  9
$LOFTANG2
 40
1.5707963268
  9
$LOFTMAG1
 40
0.0
  9
$LOFTMAG2
 40
0.0
  9
$LOFTPARAM
 70
     7
  9
$LOFTNORMALS
280
     1
  9
$LATITUDE
 40
37.795
  9
$LONGITUDE
 40
-122.394
  9
$NORTHDIRECTION
 40
0.0
  9
$TIMEZONE
 70
 -8000
  9
$LIGHTGLYPHDISPLAY
280
     1
  9
$TILEMODELIGHTSYNCH
280
     1
  9
$SOLIDHIST
280
     1
  9
$SHOWHIST
280
     1
  9
$DWFFRAME
280
     2
  9
$DGNFRAME
280
     2
  9
$REALWORLDSCALE
290
     1
  9
$INTERFERECOLOR
 62
   256
  9
$CSHADOW
280
     0
  9
$SHADOWPLANELOCATION
 40
0.0
  0
ENDSEC
  0
SECTION
  2
CLASSES
  0
CLASS
  1
ACDBDICTIONARYWDFLT
  2
AcDbDictionaryWithDefault
  3
ObjectDBX Classes
 90
        0
 91
        4
280
     0
281
     0
  0
CLASS
  1
VISUALSTYLE
  2
AcDbVisualStyle
  3
ObjectDBX Classes
 90
     4095
 91
        4
280
     0
281
     0
  0
CLASS
  1
MATERIAL
  2
AcDbMaterial
  3
ObjectDBX Classes
 90
     1153
 91
        4
280
     0
281
     0
  0
ENDSEC
  0
SECTION
  2
TABLES
  0
TABLE
  2
VPORT
  5
8
330
0
100
AcDbSymbolTable
 70
     1
  0
VPORT
  5
29
330
8
100
AcDbSymbolTableRecord
100
AcDbViewportTableRecord
  2
*Active
 70
     0
 10
0.0
 20
0.0
 11
1.0
 21
1.0
 12
210.0
 22
148.5
 13
0.0
 23
0.0
 14
10.0
 24
10.0
 15
10.0
 25
10.0
 16
0.0
 26
0.0
 36
1.0
 17
0.0
 27
0.0
 37
0.0
 40
297.0
 41
1.4141414141
 42
50.0
 43
0.0
 44
0.0
 50
0.0
 51
0.0
 71
     0
 72
  2000
 73
     1
 74
     3
 75
     0
 76
     0
 77
     0
 78
     0
281
     0
 65
     1
110
0.0
120
0.0
130
0.0
111
1.0
121
0.0
131
0.0
112
0.0
122
1.0
132
0.0
 79
     0
146
0.0
 60
     3
 61
     5
292
     1
282
     1
141
0.0
142
0.0
 63
   250
  0
ENDTAB
  0
TABLE
  2
LTYPE
  5
5
330
0
100
AcDbSymbolTable
 70
     6
  0
LTYPE
  5
14
330
5
100
AcDbSymbolTableRecord
100
AcDbLinetypeTableRecord
  2
ByBlock
 70
     0
  3

 72
    65
 73
     0
 40
0.0
  0
LTYPE
  5
15
330
5
100
AcDbSymbolTableRecord
100
AcDbLinetypeTableRecord
  2
ByLayer
 70
     0
  3

 72
    65
 73
     0
 40
0.0
  0
LTYPE
  5
16
330
5
100
AcDbSymbolTableRecord
100
AcDbLinetypeTableRecord
  2
Continuous
 70
     0
  3
Solid line
 72
    65
 73
     0
 40
0.0
  0
LTYPE
  5
3F
330
5
100
AcDbSymbolTableRecord
100
AcDbLinetypeTableRecord
  2
HIDDEN
 70
     0
  3
Hidden __ __ __ __ __ __ __ __ __ __ __ __ __ __
 72
    65
 73
     2
 40
1.905
 49
1.27
 74
     0
 49
-0.635
 74
     0
  0
LTYPE
  5
40
330
5
100
AcDbSymbolTableRecord
100
AcDbLinetypeTableRecord
  2
PHANTOM
 70
     0
  3
Phantom ______  __  __  ______  __  __  ______
 72
    65
 73
     6
 40
12.7
 49
6.35
 74
     0
 49
-1.27
 74
     0
 49
1.27
 74
     0
 49
-1.27
 74
     0
 49
1.27
 74
     0
 49
-1.27
 74
     0
  0
LTYPE
  5
41
330
5
100
AcDbSymbolTableRecord
100
AcDbLinetypeTableRecord
  2
CENTER
 70
     0
  3
Center ____ _ ____ _ ____ _ ____ _ ____ _ ____
 72
    65
 73
     4
 40
10.16
 49
6.35
 74
     0
 49
-1.27
 74
     0
 49
1.27
 74
     0
 49
-1.27
 74
     0
  0
LTYPE
  5
42
330
5
100
AcDbSymbolTableRecord
100
AcDbLinetypeTableRecord
  2
CENTERX2
 70
     0
  3
Center (2x) ________  __  ________  __  _____
 72
    65
 73
     4
 40
20.32
 49
12.7
 74
     0
 49
-2.54
 74
     0
 49
2.54
 74
     0
 49
-2.54
 74
     0
  0
LTYPE
  5
43
330
5
100
AcDbSymbolTableRecord
100
AcDbLinetypeTableRecord
  2
DOT2
 70
     0
  3
Dot (.5x) ........................................
 72
    65
 73
     2
 40
0.635
 49
0.0
 74
     0
 49
-0.635
 74
     0
  0
ENDTAB
  0
TABLE
  2
LAYER
  5
2
330
0
100
AcDbSymbolTable
 70
     1
  0
LAYER
  5
10
330
2
100
AcDbSymbolTableRecord
100
AcDbLayerTableRecord
  2
0
 70
     0
 62
     7
  6
Continuous
370
    -3
390
F
347
3E
  0
ENDTAB
  0
TABLE
  2
STYLE
  5
3
330
0
100
AcDbSymbolTable
 70
     1
  0
STYLE
  5
11
330
3
100
AcDbSymbolTableRecord
100
AcDbTextStyleTableRecord
  2
Standard
 70
     0
 40
0.0
 41
1.0
 50
0.0
 71
     0
 42
2.5
  3
txt
  4

  0
ENDTAB
  0
TABLE
  2
VIEW
  5
6
330
0
100
AcDbSymbolTable
 70
     0
  0
ENDTAB
  0
TABLE
  2
UCS
  5
7
330
0
100
AcDbSymbolTable
 70
     0
  0
ENDTAB
  0
TABLE
  2
APPID
  5
9
330
0
100
AcDbSymbolTable
 70
     1
  0
APPID
  5
12
330
9
100
AcDbSymbolTableRecord
100
AcDbRegAppTableRecord
  2
ACAD
 70
     0
  0
ENDTAB
  0
TABLE
  2
DIMSTYLE
  5
A
330
0
100
AcDbSymbolTable
 70
     1
100
AcDbDimStyleTable
  0
DIMSTYLE
105
27
330
A
100
AcDbSymbolTableRecord
100
AcDbDimStyleTableRecord
  2
ISO-25
 70
     0
 41
2.5
 42
0.625
 43
3.75
 44
1.25
 73
     0
 74
     0
 77
     1
 78
     8
140
2.5
141
2.5
143
0.0393700787
147
0.625
171
     3
172
     1
271
     2
272
     2
274
     3
278
    44
283
     0
284
     8
340
11
  0
ENDTAB
  0
TABLE
  2
BLOCK_RECORD
  5
1
330
0
100
AcDbSymbolTable
 70
     1
  0
BLOCK_RECORD
  5
1F
330
1
100
AcDbSymbolTableRecord
100
AcDbBlockTableRecord
  2
*Model_Space
340
22
 70
     0
280
     1
281
     0
  0
BLOCK_RECORD
  5
1B
330
1
100
AcDbSymbolTableRecord
100
AcDbBlockTableRecord
  2
*Paper_Space
340
1E
 70
     0
280
     1
281
     0
  0
BLOCK_RECORD
  5
23
330
1
100
AcDbSymbolTableRecord
100
AcDbBlockTableRecord
  2
*Paper_Space0
340
26
 70
     0
280
     1
281
     0
  0
ENDTAB
  0
ENDSEC
  0
SECTION
  2
BLOCKS
  0
BLOCK
  5
20
330
1F
100
AcDbEntity
  8
0
100
AcDbBlockBegin
  2
*Model_Space
 70
     0
 10
0.0
 20
0.0
 30
0.0
  3
*Model_Space
  1

  0
ENDBLK
  5
21
330
1F
100
AcDbEntity
  8
0
100
AcDbBlockEnd
  0
BLOCK
  5
1C
330
1B
100
AcDbEntity
 67
     1
  8
0
100
AcDbBlockBegin
  2
*Paper_Space
 70
     0
 10
0.0
 20
0.0
 30
0.0
  3
*Paper_Space
  1

  0
ENDBLK
  5
1D
330
1B
100
AcDbEntity
 67
     1
  8
0
100
AcDbBlockEnd
  0
BLOCK
  5
24
330
23
100
AcDbEntity
  8
0
100
AcDbBlockBegin
  2
*Paper_Space0
 70
     0
 10
0.0
 20
0.0
 30
0.0
  3
*Paper_Space0
  1

  0
ENDBLK
  5
25
330
23
100
AcDbEntity
  8
0
100
AcDbBlockEnd
  0
ENDSEC
  0
SECTION
  2
ENTITIES
  0
LINE
  5
44
330
1F
100
AcDbEntity
  8
0
  6
Continuous
 62
     7
370
    15
100
AcDbLine
 10
-143.7805779339
 20
35.336151353
 30
0.0
 11
-145.780581987
 21
33.3361472999
 31
0.0
  0
LINE
  5
45
330
1F
100
AcDbEntity
  8
0
  6
Continuous
 62
     7
370
    15
100
AcDbLine
 10
-145.780581987
 20
15.3361555254
 30
0.0
 11
-143.7805779339
 21
13.3361514723
 31
0.0
  0
LINE
  5
46
330
1F
100
AcDbEntity
  8
0
  6
Continuous
 62
     7
370
    15
100
AcDbLine
 10
-143.7805779339
 20
13.3361514723
 30
0.0
 11
-141.7805738808
 21
15.3361555254
 31
0.0
  0
LINE
  5
47
330
1F
100
AcDbEntity
  8
0
  6
Continuous
 62
     7
370
    15
100
AcDbLine
 10
-141.7805738808
 20
33.3361472999
 30
0.0
 11
-143.7805779339
 21
35.336151353
 31
0.0
  0
LINE
  5
48
330
1F
100
AcDbEntity
  8
0
  6
Continuous
 62
     7
370
    15
100
AcDbLine
 10
-129.7805793644
 20
13.3361514723
 30
0.0
 11
-114.3805868984
 21
13.3361514723
 31
0.0
  0
LINE
  5
49
330
1F
100
AcDbEntity
  8
0
  6
Continuous
 62
     7
370
    15
100
AcDbLine
 10
-114.3805868984
 20
35.336151353
 30
0.0
 11
-129.7805793644
 21
35.336151353
 31
0.0
  0
LINE
  5
4A
330
1F
100
AcDbEntity
  8
0
  6
Continuous
 62
     7
370
    15
100
AcDbLine
 10
641.6503600716
 20
92.3482623016
 30
0.0
 11
641.6503600716
 21
92.8482558643
 31
0.0
  0
LINE
  5
4B
330
1F
100
AcDbEntity
  8
0
  6
Continuous
 62
     7
370
    15
100
AcDbLine
 10
633.6503438591
 20
92.8482558643
 30
0.0
 11
633.6503438591
 21
92.3482623016
 31
0.0
  0
ARC
  5
4C
330
1F
100
AcDbEntity
  8
0
  6
Continuous
 62
     7
370
    15
100
AcDbCircle
 10
-8.8805750962
 20
-131.1638487955
 30
0.0
 40
2.000000000000002
100
AcDbArc
 50
270.0
 51
0.0
  0
ARC
  5
4D
330
1F
100
AcDbEntity
  8
0
  6
Continuous
 62
     7
370
    15
100
AcDbCircle
 10
-61.8805750962
 20
-131.1638487955
 30
0.0
 40
2.0
100
AcDbArc
 50
180.0
 51
270.0
  0
LINE
  5
4E
330
1F
100
AcDbEntity
  8
0
  6
Continuous
 62
     7
370
    15
100
AcDbLine
 10
-6.8805702091
 20
-131.1638507927
 30
0.0
 11
-6.8805702091
 21
-127.1638426865
 31
0.0
  0
LINE
  5
4F
330
1F
100
AcDbEntity
  8
0
  6
Continuous
 62
     7
370
    15
100
AcDbLine
 10
-63.8805814148
 20
-127.1638426865
 30
0.0
 11
-63.8805814148
 21
-131.1638507927
 31
0.0
  0
LINE
  5
50
330
1F
100
AcDbEntity
  8
0
  6
Continuous
 62
     7
370
    15
100
AcDbLine
 10
-7.0805735947
 20
-127.1638426865
 30
0.0
 11
-7.0805735947
 21
-98.1638584221
 31
0.0
  0
LINE
  5
51
330
1F
100
AcDbEntity
  8
0
  6
Continuous
 62
     7
370
    15
100
AcDbLine
 10
-63.6805780293
 20
-98.1638584221
 30
0.0
 11
-63.6805780293
 21
-127.1638426865
 31
0.0
  0
ARC
  5
52
330
1F
100
AcDbEntity
  8
0
  6
Continuous
 62
     7
370
    15
100
AcDbCircle
 10
-1.9805750962
 20
-36.6638487955
 30
0.0
 40
1.500000000000007
100
AcDbArc
 50
90.0
 51
180.0
  0
ARC
  5
53
330
1F
100
AcDbEntity
  8
0
  6
Continuous
 62
     7
370
    15
100
AcDbCircle
 10
-68.7805750962
 20
-36.6638487955
 30
0.0
 40
1.500000000000007
100
AcDbArc
 50
0.0
 51
90.0
  0
LINE
  5
54
330
1F
100
AcDbEntity
  8
0
  6
Continuous
 62
     7
370
    15
100
AcDbLine
 10
-3.4805722595
 20
-92.1312723244
 30
0.0
 11
-3.4805722595
 21
-36.6638455475
 31
0.0
  0
LINE
  5
55
330
1F
100
AcDbEntity
  8
0
  6
Continuous
 62
     7
370
    15
100
AcDbLine
 10
-67.2805793644
 20
-36.6638455475
 30
0.0
 11
-67.2805793644
 21
-92.1312723244
 31
0.0
  0
ARC
  5
56
330
1F
100
AcDbEntity
  8
0
  6
Continuous
 62
     7
370
    15
100
AcDbCircle
 10
-8.1805750962
 20
-92.1312828498
 30
0.0
 40
4.699999999999988
100
AcDbArc
 50
350.5402980318
 51
0.0
  0
ARC
  5
57
330
1F
100
AcDbEntity
  8
0
  6
Continuous
 62
     7
370
    15
100
AcDbCircle
 10
-62.5805750962
 20
-92.1312828498
 30
0.0
 40
4.699999999999997
100
AcDbArc
 50
180.0
 51
189.4597019682
  0
LINE
  5
58
330
1F
100
AcDbEntity
  8
0
  6
Continuous
 62
     7
370
    15
100
AcDbLine
 10
-67.2166533829
 20
-92.9037485207
 30
0.0
 11
-66.3402266861
 21
-98.1638584221
 31
0.0
  0
LINE
  5
59
330
1F
100
AcDbEntity
  8
0
  6
Continuous
 62
     7
370
    15
100
AcDbLine
 10
-4.4209249378
 20
-98.1638584221
 30
0.0
 11
-3.5444833399
 21
-92.9037485207
 31
0.0
  0
LINE
  5
5A
330
1F
100
AcDbEntity
  8
0
  6
Continuous
 62
     7
370
    15
100
AcDbLine
 10
567.1194307445
 20
-131.1638507927
 30
0.0
 11
567.1194307445
 21
-127.1638426865
 31
0.0
  0
LINE
  5
5B
330
1F
100
AcDbEntity
  8
0
  6
Continuous
 62
     7
370
    15
100
AcDbLine
 10
510.1194195389
 20
-127.1638426865
 30
0.0
 11
510.1194195389
 21
-131.1638507927
 31
0.0
  0
ARC
  5
5C
330
1F
100
AcDbEntity
  8
0
  6
Continuous
 62
     7
370
    15
100
AcDbCircle
 10
565.1194249038
 20
-131.1638487956
 30
0.0
 40
2.000000000000028
100
AcDbArc
 50
270.0
 51
0.0
  0
ARC
  5
5D
330
1F
100
AcDbEntity
  8
0
  6
Continuous
 62
     7
370
    15
100
AcDbCircle
 10
512.1194249038
 20
-131.1638487956
 30
0.0
 40
2.000000000000028
100
AcDbArc
 50
180.0
 51
270.0
  0
LINE
  5
5E
330
1F
100
AcDbEntity
  8
0
  6
Continuous
 62
     7
370
    15
100
AcDbLine
 10
566.919427359
 20
-127.1638426865
 30
0.0
 11
566.919427359
 21
-98.1638584221
 31
0.0
  0
LINE
  5
5F
330
1F
100
AcDbEntity
  8
0
  6
Continuous
 62
     7
370
    15
100
AcDbLine
 10
510.3194229244
 20
-98.1638584221
 30
0.0
 11
510.3194229244
 21
-127.1638426865
 31
0.0
  0
ARC
  5
60
330
1F
100
AcDbEntity
  8
0
  6
Continuous
 62
     7
370
    15
100
AcDbCircle
 10
572.0194249038
 20
-36.6638487956
 30
0.0
 40
1.500000000000114
100
AcDbArc
 50
90.0
 51
180.0
  0
ARC
  5
61
330
1F
100
AcDbEntity
  8
0
  6
Continuous
 62
     7
370
    15
100
AcDbCircle
 10
505.2194249038
 20
-36.6638487956
 30
0.0
 40
1.500000000000057
100
AcDbArc
 50
0.0
 51
90.0
  0
LINE
  5
62
330
1F
100
AcDbEntity
  8
0
  6
Continuous
 62
     7
370
    15
100
AcDbLine
 10
570.5194286941
 20
-92.1312723244
 30
0.0
 11
570.5194286941
 21
-36.6638455475
 31
0.0
  0
LINE
  5
63
330
1F
100
AcDbEntity
  8
0
  6
Continuous
 62
     7
370
    15
100
AcDbLine
 10
506.7194215893
 20
-36.6638455475
 30
0.0
 11
506.7194215893
 21
-92.1312723244
 31
0.0
  0
ARC
  5
64
330
1F
100
AcDbEntity
  8
0
  6
Continuous
 62
     7
370
    15
100
AcDbCircle
 10
565.8194249038
 20
-92.1312828499
 30
0.0
 40
4.699999999999891
100
AcDbArc
 50
350.5402980318
 51
0.0
  0
ARC
  5
65
330
1F
100
AcDbEntity
  8
0
  6
Continuous
 62
     7
370
    15
100
AcDbCircle
 10
511.4194249038
 20
-92.1312828499
 30
0.0
 40
4.699999999999947
100
AcDbArc
 50
180.0
 51
189.4597019682
  0
LINE
  5
66
330
1F
100
AcDbEntity
  8
0
  6
Continuous
 62
     7
370
    15
100
AcDbLine
 10
506.7833475708
 20
-92.9037485207
 30
0.0
 11
507.6597742676
 21
-98.1638584221
 31
0.0
  0
LINE
  5
67
330
1F
100
AcDbEntity
  8
0
  6
Continuous
 62
     7
370
    15
100
AcDbLine
 10
569.5790760158
 20
-98.1638584221
 30
0.0
 11
570.4555027126
 21
-92.9037485207
 31
0.0
  0
LINE
  5
68
330
1F
100
AcDbEntity
  8
0
  6
Continuous
 62
     7
370
    15
100
AcDbLine
 10
627.3503415226
 20
92.3482623016
 30
0.0
 11
627.3503415226
 21
92.8482558643
 31
0.0
  0
LINE
  5
69
330
1F
100
AcDbEntity
  8
0
  6
Continuous
 62
     7
370
    15
100
AcDbLine
 10
619.3503551124
 20
92.8482558643
 30
0.0
 11
619.3503551124
 21
92.3482623016
 31
0.0
  0
LINE
  5
6A
330
1F
100
AcDbEntity
  8
0
  6
Continuous
 62
     7
370
    15
100
AcDbLine
 10
655.719410622
 20
18.8719030535
 30
0.0
 11
656.0194306015
 21
19.5570137417
 31
0.0
  0
LINE
  5
6B
330
1F
100
AcDbEntity
  8
0
  6
Continuous
 62
     7
370
    15
100
AcDbLine
 10
656.0194306015
 20
42.4152907049
 30
0.0
 11
655.719410622
 21
43.1003864919
 31
0.0
  0
ARC
  5
6C
330
1F
100
AcDbEntity
  8
0
  6
Continuous
 62
     7
370
    15
100
AcDbCircle
 10
670.0194249039
 20
26.0861512045
 30
0.0
 40
0.5
100
AcDbArc
 50
270.0
 51
0.0
  0
ARC
  5
6D
330
1F
100
AcDbEntity
  8
0
  6
Continuous
 62
     7
370
    15
100
AcDbCircle
 10
670.0194249039
 20
35.8861512045
 30
0.0
 40
0.5
100
AcDbArc
 50
0.0
 51
90.0
  0
LINE
  5
6E
330
1F
100
AcDbEntity
  8
0
  6
Continuous
 62
     7
370
    15
100
AcDbLine
 10
656.0194306015
 20
25.5861576711
 30
0.0
 11
670.019429171
 21
25.5861576711
 31
0.0
  0
LINE
  5
6F
330
1F
100
AcDbEntity
  8
0
  6
Continuous
 62
     7
370
    15
100
AcDbLine
 10
670.019429171
 20
36.3861467754
 30
0.0
 11
656.0194306015
 21
36.3861467754
 31
0.0
  0
LINE
  5
70
330
1F
100
AcDbEntity
  8
0
  6
Continuous
 62
     7
370
    15
100
AcDbLine
 10
-131.7805834175
 20
13.3361514723
 30
0.0
 11
-129.7805793644
 21
15.3361555254
 31
0.0
  0
LINE
  5
71
330
1F
100
AcDbEntity
  8
0
  6
Continuous
 62
     7
370
    15
100
AcDbLine
 10
-129.7805793644
 20
33.3361472999
 30
0.0
 11
-131.7805834175
 21
35.336151353
 31
0.0
  0
LINE
  5
72
330
1F
100
AcDbEntity
  8
0
  6
Continuous
 62
     7
370
    15
100
AcDbLine
 10
-131.7805834175
 20
35.336151353
 30
0.0
 11
-133.7805874706
 21
33.3361472999
 31
0.0
  0
LINE
  5
73
330
1F
100
AcDbEntity
  8
0
  6
Continuous
 62
     7
370
    15
100
AcDbLine
 10
-133.7805874706
 20
15.3361555254
 30
0.0
 11
-131.7805834175
 21
13.3361514723
 31
0.0
  0
LINE
  5
74
330
1F
100
AcDbEntity
  8
0
  6
Continuous
 62
     7
370
    15
100
AcDbLine
 10
-135.7805617214
 20
35.336151353
 30
0.0
 11
-137.7805657745
 21
33.3361472999
 31
0.0
  0
LINE
  5
75
330
1F
100
AcDbEntity
  8
0
  6
Continuous
 62
     7
370
    15
100
AcDbLine
 10
-137.7805657745
 20
15.3361555254
 30
0.0
 11
-135.7805617214
 21
13.3361514723
 31
0.0
  0
LINE
  5
76
330
1F
100
AcDbEntity
  8
0
  6
Continuous
 62
     7
370
    15
100
AcDbLine
 10
-135.7805617214
 20
13.3361514723
 30
0.0
 11
-133.7805874706
 21
15.3361555254
 31
0.0
  0
LINE
  5
77
330
1F
100
AcDbEntity
  8
0
  6
Continuous
 62
     7
370
    15
100
AcDbLine
 10
-133.7805874706
 20
33.3361472999
 30
0.0
 11
-135.7805617214
 21
35.336151353
 31
0.0
  0
LINE
  5
78
330
1F
100
AcDbEntity
  8
0
  6
Continuous
 62
     7
370
    15
100
AcDbLine
 10
-139.7805698277
 20
35.336151353
 30
0.0
 11
-141.7805738808
 21
33.3361472999
 31
0.0
  0
LINE
  5
79
330
1F
100
AcDbEntity
  8
0
  6
Continuous
 62
     7
370
    15
100
AcDbLine
 10
-141.7805738808
 20
15.3361555254
 30
0.0
 11
-139.7805698277
 21
13.3361514723
 31
0.0
  0
LINE
  5
7A
330
1F
100
AcDbEntity
  8
0
  6
Continuous
 62
     7
370
    15
100
AcDbLine
 10
-139.7805698277
 20
13.3361514723
 30
0.0
 11
-137.7805657745
 21
15.3361555254
 31
0.0
  0
LINE
  5
7B
330
1F
100
AcDbEntity
  8
0
  6
Continuous
 62
     7
370
    15
100
AcDbLine
 10
-137.7805657745
 20
33.3361472999
 30
0.0
 11
-139.7805698277
 21
35.336151353
 31
0.0
  0
LINE
  5
7C
330
1F
100
AcDbEntity
  8
0
  6
Continuous
 62
     7
370
    15
100
AcDbLine
 10
661.7194227814
 20
-1.5138540352
 30
0.0
 11
671.7194132446
 21
2.486154071
 31
0.0
  0
LINE
  5
7D
330
1F
100
AcDbEntity
  8
0
  6
Continuous
 62
     7
370
    15
100
AcDbLine
 10
664.0407554745
 20
62.5576075231
 30
0.0
 11
661.7194227814
 21
63.4861584818
 31
0.0
  0
LINE
  5
7E
330
1F
100
AcDbEntity
  8
0
  6
Continuous
 62
     7
370
    15
100
AcDbLine
 10
671.7194132446
 20
59.4861503755
 30
0.0
 11
668.6830036281
 21
60.7007142221
 31
0.0
  0
LINE
  5
7F
330
1F
100
AcDbEntity
  8
0
  6
Continuous
 62
     7
370
    15
100
AcDbLine
 10
671.7194132446
 20
2.486154071
 30
0.0
 11
691.129785025
 21
11.2208124315
 31
0.0
  0
LINE
  5
80
330
1F
100
AcDbEntity
  8
0
  6
Continuous
 62
     7
370
    15
100
AcDbLine
 10
672.1753887771
 20
59.2809762871
 30
0.0
 11
671.7194132446
 21
59.4861503755
 31
0.0
  0
ARC
  5
81
330
1F
100
AcDbEntity
  8
0
  6
Continuous
 62
     7
370
    15
100
AcDbCircle
 10
690.7194249038
 20
12.1327368144
 30
0.0
 40
0.9999999999999779
100
AcDbArc
 50
294.227745318
 51
0.0
  0
LINE
  5
82
330
1F
100
AcDbEntity
  8
0
  6
Continuous
 62
     7
370
    15
100
AcDbLine
 10
659.7194187282
 20
23.8743420755
 30
0.0
 11
661.7194227814
 21
23.8394286548
 31
0.0
  0
LINE
  5
83
330
1F
100
AcDbEntity
  8
0
  6
Continuous
 62
     7
370
    15
100
AcDbLine
 10
668.6893515228
 20
60.7089545643
 30
0.0
 11
664.0418879627
 21
62.5679340278
 31
0.0
  0
LINE
  5
84
330
1F
100
AcDbEntity
  8
0
  6
Continuous
 62
     7
370
    15
100
AcDbLine
 10
-143.7805779339
 20
35.3077199375
 30
0.0
 11
-143.7805779339
 21
35.336151353
 31
0.0
  0
LINE
  5
85
330
1F
100
AcDbEntity
  8
0
  6
Continuous
 62
     7
370
    15
100
AcDbLine
 10
-143.7805779339
 20
13.3361514723
 30
0.0
 11
-143.7805779339
 21
35.3077199375
 31
0.0
  0
LINE
  5
86
330
1F
100
AcDbEntity
  8
0
  6
Continuous
 62
     7
370
    15
100
AcDbLine
 10
-145.780581987
 20
33.3128865873
 30
0.0
 11
-145.780581987
 21
33.3361472999
 31
0.0
  0
LINE
  5
87
330
1F
100
AcDbEntity
  8
0
  6
Continuous
 62
     7
370
    15
100
AcDbLine
 10
-145.780581987
 20
15.3361555254
 30
0.0
 11
-145.780581987
 21
33.3128865873
 31
0.0
  0
LINE
  5
88
330
1F
100
AcDbEntity
  8
0
  6
Continuous
 62
     7
370
    15
100
AcDbLine
 10
-141.7805738808
 20
33.3128865873
 30
0.0
 11
-141.7805738808
 21
33.3361472999
 31
0.0
  0
LINE
  5
89
330
1F
100
AcDbEntity
  8
0
  6
Continuous
 62
     7
370
    15
100
AcDbLine
 10
-141.7805738808
 20
15.3361555254
 30
0.0
 11
-141.7805738808
 21
33.3128865873
 31
0.0
  0
LINE
  5
8A
330
1F
100
AcDbEntity
  8
0
  6
Continuous
 62
     7
370
    15
100
AcDbLine
 10
617.42196604
 20
212.5151917403
 30
0.0
 11
617.8855113624
 21
211.0886067217
 31
0.0
  0
LINE
  5
8B
330
1F
100
AcDbEntity
  8
0
  6
Continuous
 62
     7
370
    15
100
AcDbLine
 10
617.0829646229
 20
209.513514868
 30
0.0
 11
615.6563572525
 21
209.049988172
 31
0.0
  0
ARC
  5
8C
330
1F
100
AcDbEntity
  8
0
  6
Continuous
 62
     7
370
    15
100
AcDbCircle
 10
618.2717769851
 20
209.8997857516
 30
0.0
 40
1.250000000000067
100
AcDbArc
 50
108.0
 51
198.0
  0
ARC
  5
8D
330
1F
100
AcDbEntity
  8
0
  6
Continuous
 62
     7
370
    15
100
AcDbCircle
 10
618.2717769851
 20
209.8997857516
 30
0.0
 40
2.750000000000081
100
AcDbArc
 50
108.0
 51
198.0
  0
LINE
  5
8E
330
1F
100
AcDbEntity
  8
0
  6
Continuous
 62
     7
370
    15
100
AcDbLine
 10
636.7827765583
 20
148.8836627518
 30
0.0
 11
617.0829646229
 21
209.513514868
 31
0.0
  0
LINE
  5
8F
330
1F
100
AcDbEntity
  8
0
  6
Continuous
 62
     7
370
    15
100
AcDbLine
 10
635.3561989902
 20
148.4201397812
 30
0.0
 11
636.7827765583
 21
148.8836627518
 31
0.0
  0
LINE
  5
90
330
1F
100
AcDbEntity
  8
0
  6
Continuous
 62
     7
370
    15
100
AcDbLine
 10
652.8113000034
 20
198.2530538058
 30
0.0
 11
651.3847224354
 21
197.7895271098
 31
0.0
  0
LINE
  5
91
330
1F
100
AcDbEntity
  8
0
  6
Continuous
 62
     7
370
    15
100
AcDbLine
 10
622.4030367969
 20
212.5564362919
 30
0.0
 11
621.9394914745
 21
213.9830213105
 31
0.0
  0
ARC
  5
92
330
1F
100
AcDbEntity
  8
0
  6
Continuous
 62
     7
370
    15
100
AcDbCircle
 10
629.5104150651
 20
190.6821372455
 30
0.0
 40
23.00000000000005
100
AcDbArc
 50
18.0
 51
108.0
  0
ARC
  5
93
330
1F
100
AcDbEntity
  8
0
  6
Continuous
 62
     7
370
    15
100
AcDbCircle
 10
629.5104150651
 20
190.6821372455
 30
0.0
 40
24.50000000000003
100
AcDbArc
 50
18.0
 51
108.0
  0
LINE
  5
94
330
1F
100
AcDbEntity
  8
0
  6
Continuous
 62
     7
370
    15
100
AcDbLine
 10
617.8855113624
 20
211.0886067217
 30
0.0
 11
622.4030367969
 21
212.5564362919
 31
0.0
  0
LINE
  5
95
330
1F
100
AcDbEntity
  8
0
  6
Continuous
 62
     7
370
    15
100
AcDbLine
 10
617.42196604
 20
212.5151917403
 30
0.0
 11
621.9394914745
 21
213.9830213105
 31
0.0
  0
LINE
  5
96
330
1F
100
AcDbEntity
  8
0
  6
Continuous
 62
     7
370
    15
100
AcDbLine
 10
638.3278779625
 20
144.1283818399
 30
0.0
 11
636.9013003944
 21
143.6648514187
 31
0.0
  0
LWPOLYLINE
  5
97
330
1F
100
AcDbEntity
  8
0
  6
Continuous
 62
     7
370
    15
100
AcDbPolyline
 90
        9
 70
   128
 43
0.0
 10
636.7827765583
 20
148.8836627518
 10
637.0842270492
 20
147.9559537088
 10
637.3740546345
 20
147.0638956939
 10
637.6412026523
 20
146.2417688286
 10
637.875329697
 20
145.521171025
 10
638.0674950718
 20
144.9297886407
 10
638.210248196
 20
144.4903533971
 10
638.2981948494
 20
144.2197483098
 10
638.3278779625
 20
144.1283818399
  0
LINE
  5
98
330
1F
100
AcDbEntity
  8
0
  6
Continuous
 62
     7
370
    15
100
AcDbLine
 10
653.5478345989
 20
191.1321315979
 30
0.0
 11
654.974412167
 21
191.5956582939
 31
0.0
  0
LINE
  5
99
330
1F
100
AcDbEntity
  8
0
  6
Continuous
 62
     7
370
    15
100
AcDbLine
 10
658.064585173
 20
182.0850927448
 30
0.0
 11
656.638007605
 21
181.6215660488
 31
0.0
  0
LWPOLYLINE
  5
9A
330
1F
100
AcDbEntity
  8
0
  6
Continuous
 62
     7
370
    15
100
AcDbPolyline
 90
        9
 70
   128
 43
0.0
 10
656.638007605
 20
181.6215660488
 10
656.5786413788
 20
181.8043101644
 10
656.4027778744
 20
182.3455166137
 10
656.1172120212
 20
183.2243871009
 10
655.7329110741
 20
184.4071481442
 10
655.2646271824
 20
185.8483437514
 10
654.7303907513
 20
187.4925974821
 10
654.1507057785
 20
189.2767135119
 10
653.5478345989
 20
191.1321315979
  0
LWPOLYLINE
  5
9B
330
1F
100
AcDbEntity
  8
0
  6
Continuous
 62
     7
370
    15
100
AcDbPolyline
 90
        9
 70
   128
 43
0.0
 10
654.974412167
 20
191.5956582939
 10
655.5772833465
 20
189.7402402078
 10
656.1569683193
 20
187.9561204528
 10
656.6912345528
 20
186.3118704473
 10
657.1594886421
 20
184.8706711149
 10
657.5437895893
 20
183.6879137968
 10
657.8293554424
 20
182.8090433096
 10
658.0052189468
 20
182.2678368603
 10
658.064585173
 20
182.0850927448
  0
LINE
  5
9C
330
1F
100
AcDbEntity
  8
0
  6
Continuous
 62
     7
370
    15
100
AcDbLine
 10
651.3847224354
 20
197.7895271098
 30
0.0
 11
653.5478345989
 21
191.1321315979
 31
0.0
  0
LINE
  5
9D
330
1F
100
AcDbEntity
  8
0
  6
Continuous
 62
     7
370
    15
100
AcDbLine
 10
652.8113000034
 20
198.2530538058
 30
0.0
 11
654.974412167
 21
191.5956582939
 31
0.0
  0
LINE
  5
9E
330
1F
100
AcDbEntity
  8
0
  6
Continuous
 62
     7
370
    15
100
AcDbLine
 10
614.784490311
 20
215.3044767743
 30
0.0
 11
615.0258295177
 21
215.4103774642
 31
0.0
  0
ARC
  5
9F
330
1F
100
AcDbEntity
  8
0
  6
Continuous
 62
     7
370
    15
100
AcDbCircle
 10
613.9808820835
 20
217.1359338121
 30
0.0
 40
2.0
100
AcDbArc
 50
270.0
 51
293.6906453817
  0
LINE
  5
A0
330
1F
100
AcDbEntity
  8
0
  6
Continuous
 62
     7
370
    15
100
AcDbLine
 10
593.9503423809
 20
229.8359336396
 30
0.0
 11
593.9503423809
 21
215.1359334653
 31
0.0
  0
LINE
  5
A1
330
1F
100
AcDbEntity
  8
0
  6
Continuous
 62
     7
370
    15
100
AcDbLine
 10
593.9503423809
 20
229.8359336396
 30
0.0
 11
596.4003615021
 21
229.8359336396
 31
0.0
  0
LINE
  5
A2
330
1F
100
AcDbEntity
  8
0
  6
Continuous
 62
     7
370
    15
100
AcDbLine
 10
596.4003615021
 20
229.8359336396
 30
0.0
 11
596.4003615021
 21
215.1359334653
 31
0.0
  0
LINE
  5
A3
330
1F
100
AcDbEntity
  8
0
  6
Continuous
 62
     7
370
    15
100
AcDbLine
 10
589.90035578
 20
232.6359337726
 30
0.0
 11
596.4003615021
 21
232.6359337726
 31
0.0
  0
LINE
  5
A4
330
1F
100
AcDbEntity
  8
0
  6
Continuous
 62
     7
370
    15
100
AcDbLine
 10
589.90035578
 20
267.6359336888
 30
0.0
 11
589.90035578
 21
232.6359337726
 31
0.0
  0
ARC
  5
A5
330
1F
100
AcDbEntity
  8
0
  6
Continuous
 62
     7
370
    15
100
AcDbCircle
 10
591.9003552329
 20
267.6359338121
 30
0.0
 40
2.0
100
AcDbArc
 50
90.0
 51
180.0
  0
LINE
  5
A6
330
1F
100
AcDbEntity
  8
0
  6
Continuous
 62
     7
370
    15
100
AcDbLine
 10
628.90036031
 20
269.6359340166
 30
0.0
 11
591.9003598331
 21
269.6359340166
 31
0.0
  0
ARC
  5
A7
330
1F
100
AcDbEntity
  8
0
  6
Continuous
 62
     7
370
    15
100
AcDbCircle
 10
629.0003552329
 20
246.6361512045
 30
0.0
 40
23.00000000000004
100
AcDbArc
 50
296.1145004007
 51
90.2491128697
  0
LINE
  5
A8
330
1F
100
AcDbEntity
  8
0
  6
Continuous
 62
     7
370
    15
100
AcDbLine
 10
614.7834472298
 20
215.3044637357
 30
0.0
 11
639.1241960167
 21
225.9840784659
 31
0.0
  0
ARC
  5
A9
330
1F
100
AcDbEntity
  8
0
  6
Continuous
 62
     7
370
    15
100
AcDbCircle
 10
613.9798862797
 20
217.1359338121
 30
0.0
 40
2.000000000000004
100
AcDbArc
 50
270.0
 51
293.6896982314
  0
LINE
  5
AA
330
1F
100
AcDbEntity
  8
0
  6
Continuous
 62
     7
370
    15
100
AcDbLine
 10
596.4003615021
 20
215.1359334653
 30
0.0
 11
613.9798872112
 21
215.1359334653
 31
0.0
  0
ARC
  5
AB
330
1F
100
AcDbEntity
  8
0
  6
Continuous
 62
     7
370
    15
100
AcDbCircle
 10
617.0003552329
 20
236.9415921408
 30
0.0
 40
0.2503511010932462
100
AcDbArc
 50
79.8945592916
 51
263.9942235051
  0
ARC
  5
AC
330
1F
100
AcDbEntity
  8
0
  6
Continuous
 62
     7
370
    15
100
AcDbCircle
 10
616.5003552329
 20
234.1361512045
 30
0.0
 40
2.599999999999997
100
AcDbArc
 50
280.4998591652
 51
79.5001408348
  0
ARC
  5
AD
330
1F
100
AcDbEntity
  8
0
  6
Continuous
 62
     7
370
    15
100
AcDbCircle
 10
617.0003552329
 20
231.3307102682
 30
0.0
 40
0.2503511010932182
100
AcDbArc
 50
96.005776495
 51
280.1054407084
  0
ARC
  5
AE
330
1F
100
AcDbEntity
  8
0
  6
Continuous
 62
     7
370
    15
100
AcDbCircle
 10
616.5003552329
 20
234.1361512045
 30
0.0
 40
3.099999999999981
100
AcDbArc
 50
280.1054407084
 51
79.8945592916
  0
ARC
  5
AF
330
1F
100
AcDbEntity
  8
0
  6
Continuous
 62
     7
370
    15
100
AcDbCircle
 10
616.5003552329
 20
234.1361512045
 30
0.0
 40
3.100000000000021
100
AcDbArc
 50
100.8891073053
 51
259.1110070997
  0
ARC
  5
B0
330
1F
100
AcDbEntity
  8
0
  6
Continuous
 62
     7
370
    15
100
AcDbCircle
 10
615.9620425558
 20
231.3378380565
 30
0.0
 40
0.250379496815768
100
AcDbArc
 50
259.1110070997
 51
83.3730607602
  0
ARC
  5
B1
330
1F
100
AcDbEntity
  8
0
  6
Continuous
 62
     7
370
    15
100
AcDbCircle
 10
616.5003552329
 20
234.1361512045
 30
0.0
 40
2.600000000000018
100
AcDbArc
 50
101.3148497955
 51
258.700947069
  0
ARC
  5
B2
330
1F
100
AcDbEntity
  8
0
  6
Continuous
 62
     7
370
    15
100
AcDbCircle
 10
615.9620425558
 20
236.9344342322
 30
0.0
 40
0.2504090746768949
100
AcDbArc
 50
276.4642622073
 51
100.8891073053
  0
LINE
  5
B3
330
1F
100
AcDbEntity
  8
0
  6
Continuous
 62
     7
370
    15
100
AcDbLine
 10
596.4003615021
 20
232.6359337726
 30
0.0
 11
596.4003615021
 21
229.8359336396
 31
0.0
  0
LINE
  5
B4
330
1F
100
AcDbEntity
  8
0
  6
Continuous
 62
     7
370
    15
100
AcDbLine
 10
593.9503423809
 20
229.8359336396
 30
0.0
 11
593.219410622
 21
229.8359336396
 31
0.0
  0
LINE
  5
B5
330
1F
100
AcDbEntity
  8
0
  6
Continuous
 62
     7
370
    15
100
AcDbLine
 10
593.219410622
 20
215.1359334653
 30
0.0
 11
593.9503423809
 21
215.1359334653
 31
0.0
  0
LINE
  5
B6
330
1F
100
AcDbEntity
  8
0
  6
Continuous
 62
     7
370
    15
100
AcDbLine
 10
-129.7805793644
 20
35.336151353
 30
0.0
 11
-129.7805793644
 21
13.3361514723
 31
0.0
  0
LINE
  5
B7
330
1F
100
AcDbEntity
  8
0
  6
Continuous
 62
     7
370
    15
100
AcDbLine
 10
641.6503600716
 20
92.3482623016
 30
0.0
 11
633.6503438591
 21
92.3482623016
 31
0.0
  0
LINE
  5
B8
330
1F
100
AcDbEntity
  8
0
  6
Continuous
 62
     7
370
    15
100
AcDbLine
 10
592.4194268822
 20
229.8359336396
 30
0.0
 11
592.4194268822
 21
231.3290802827
 31
0.0
  0
LINE
  5
B9
330
1F
100
AcDbEntity
  8
0
  6
Continuous
 62
     7
370
    15
100
AcDbLine
 10
654.3194167255
 20
57.0917721903
 30
0.0
 11
654.3194167255
 21
1.0801401054
 31
0.0
  0
SPLINE
  5
BA
330
1F
100
AcDbEntity
  8
0
  6
Continuous
 62
     7
370
    15
100
AcDbSpline
210
0.0
220
0.0
230
1.0
 70
     8
 71
     3
 72
    16
 73
    12
 74
     0
 42
0.00000001
 43
0.00000001
 40
0.0
 40
0.0
 40
0.0
 40
0.0
 40
0.125
 40
0.125
 40
0.25
 40
0.25
 40
0.5
 40
0.5
 40
0.75
 40
0.75
 40
1.0
 40
1.0
 40
1.0
 40
1.0
 10
654.3194249038567
 20
57.09177332474463
 30
0.0
 10
654.4260841500518
 20
57.07737531682644
 30
0.0
 10
654.5283679707834
 20
57.06151624560005
 30
0.0
 10
654.7228377167953
 20
57.02718338764154
 30
0.0
 10
654.8150236420755
 20
57.00870960090943
 30
0.0
 10
655.0744140079526
 20
56.94982728412046
 30
0.0
 10
655.2244510385856
 20
56.90595779747104
 30
0.0
 10
655.467968983753
 20
56.81144889547735
 30
0.0
 10
655.5612727069249
 20
56.76087931403956
 30
0.0
 10
655.6870006669766
 20
56.65637004557697
 30
0.0
 10
655.7194249038567
 20
56.60243035855217
 30
0.0
 10
655.7194249038567
 20
56.54843569638124
 30
0.0
  0
LINE
  5
BB
330
1F
100
AcDbEntity
  8
0
  6
Continuous
 62
     7
370
    15
100
AcDbLine
 10
655.719410622
 20
56.5484311497
 30
0.0
 11
655.719410622
 21
1.6238685762
 31
0.0
  0
SPLINE
  5
BC
330
1F
100
AcDbEntity
  8
0
  6
Continuous
 62
     7
370
    15
100
AcDbSpline
210
0.0
220
0.0
230
1.0
 70
     8
 71
     3
 72
    19
 73
    15
 74
     0
 42
0.00000001
 43
0.00000001
 40
0.0
 40
0.0
 40
0.0
 40
0.0
 40
0.057095908092662
 40
0.115651805237113
 40
0.1756735616979767
 40
0.2371666253302755
 40
0.3001360595090994
 40
0.3645865770444565
 40
0.4305225705602984
 40
0.4979481397533499
 40
0.6162043907298324
 40
0.7486213188526918
 40
0.8538534972356918
 40
1.0
 40
1.0
 40
1.0
 40
1.0
 10
654.3194249038567
 20
1.08013453437808
 30
0.0
 10
654.3680504708382
 20
1.086960490540606
 30
0.0
 10
654.4665450003054
 20
1.10078694814561
 30
0.0
 10
654.6083261195657
 20
1.124150138422736
 30
0.0
 10
654.7469719486685
 20
1.149739998701632
 30
0.0
 10
654.8809290178006
 20
1.177739622135798
 30
0.0
 10
655.0092754870287
 20
1.208098167101934
 30
0.0
 10
655.130846845184
 20
1.240829865727239
 30
0.0
 10
655.2445035821738
 20
1.275930646748552
 30
0.0
 10
655.3744887618644
 20
1.322541948572509
 30
0.0
 10
655.5125770312798
 20
1.384690828896501
 30
0.0
 10
655.6240329841145
 20
1.457501734597078
 30
0.0
 10
655.7028944199506
 20
1.538610087280096
 30
0.0
 10
655.7133476224424
 20
1.592522893033244
 30
0.0
 10
655.7194249038567
 20
1.62386671256104
 30
0.0
  0
SPLINE
  5
BD
330
1F
100
AcDbEntity
  8
0
  6
Continuous
 62
     7
370
    15
100
AcDbSpline
210
0.0
220
0.0
230
1.0
 70
     8
 71
     3
 72
    19
 73
    15
 74
     0
 42
0.00000001
 43
0.00000001
 40
0.0
 40
0.0
 40
0.0
 40
0.0
 40
0.0571143122037879
 40
0.1156859695386053
 40
0.1757206699038247
 40
0.2372237019665103
 40
0.3001999818643153
 40
0.3646540860234593
 40
0.4305902805559897
 40
0.4980125476391956
 40
0.61627719101061
 40
0.7486631870564162
 40
0.8538896613728936
 40
1.0
 40
1.0
 40
1.0
 40
1.0
 10
654.3194249038567
 20
-0.9138487955288599
 30
0.0
 10
654.368052418419
 20
-0.8820342883023857
 30
0.0
 10
654.4665482411177
 20
-0.8175934857806433
 30
0.0
 10
654.6083340531643
 20
-0.7089703131483438
 30
0.0
 10
654.7469819033543
 20
-0.5898678228374032
 30
0.0
 10
654.8809391273451
 20
-0.4593326339708825
 30
0.0
 10
655.0092840138573
 20
-0.3175305149912544
 30
0.0
 10
655.1308524513562
 20
-0.1644344100341366
 30
0.0
 10
655.2445053272216
 20
-0.0001910017497775
 30
0.0
 10
655.374494253244
 20
0.2176605091986639
 30
0.0
 10
655.51257910007
 20
0.5071676303952388
 30
0.0
 10
655.6240377262727
 20
0.847531435701071
 30
0.0
 10
655.7028955417916
 20
1.225247089446352
 30
0.0
 10
655.7133483458059
 20
1.477325347535474
 30
0.0
 10
655.7194249038567
 20
1.62386671256104
 30
0.0
  0
SPLINE
  5
BE
330
1F
100
AcDbEntity
  8
0
  6
Continuous
 62
     7
370
    15
100
AcDbSpline
210
0.0
220
0.0
230
1.0
 70
     8
 71
     3
 72
    10
 73
     6
 74
     0
 42
0.00000001
 43
0.00000001
 40
0.0
 40
0.0
 40
0.0
 40
0.0
 40
0.5
 40
0.5
 40
1.0
 40
1.0
 40
1.0
 40
1.0
 10
654.3194249038567
 20
1.08013453437808
 30
0.0
 10
654.3199668020796
 20
0.5305489225096438
 30
0.0
 10
654.3194249038567
 20
0.0314527300357414
 30
0.0
 10
654.3194249038567
 20
-0.6913464889806709
 30
0.0
 10
654.3188831997232
 20
-0.9141903336605806
 30
0.0
 10
654.3194249038567
 20
-0.9138487955288599
 30
0.0
  0
SPLINE
  5
BF
330
1F
100
AcDbEntity
  8
0
  6
Continuous
 62
     7
370
    15
100
AcDbSpline
210
0.0
220
0.0
230
1.0
 70
     8
 71
     3
 72
    19
 73
    15
 74
     0
 42
0.00000001
 43
0.00000001
 40
0.0
 40
0.0
 40
0.0
 40
0.0
 40
0.0571115640935922
 40
0.115681259286636
 40
0.1757147833893903
 40
0.2372174247608634
 40
0.3001940990521362
 40
0.3646493820584478
 40
0.4305875391447072
 40
0.4980125516486611
 40
0.616261616538448
 40
0.748663192415951
 40
0.8538790033185847
 40
1.0
 40
1.0
 40
1.0
 40
1.0
 10
654.3194249038567
 20
59.08615120447114
 30
0.0
 10
654.3680500999176
 20
59.05433826907574
 30
0.0
 10
654.4665419553351
 20
58.98990017345465
 30
0.0
 10
654.6083234206072
 20
58.8812812171359
 30
0.0
 10
654.7469691767451
 20
58.76218181942633
 30
0.0
 10
654.8809263485501
 20
58.63164830228945
 30
0.0
 10
655.009272918688
 20
58.48984609065555
 30
0.0
 10
655.1308444247019
 20
58.33674781834414
 30
0.0
 10
655.2445013378322
 20
58.17249991547541
 30
0.0
 10
655.3744850455857
 20
57.95465782813813
 30
0.0
 10
655.5125732211234
 20
57.66514955089524
 30
0.0
 10
655.6240312140964
 20
57.32479647655283
 30
0.0
 10
655.7028940635888
 20
56.94706605493802
 30
0.0
 10
655.7133475219812
 20
56.69498776977034
 30
0.0
 10
655.7194249038567
 20
56.54843569638124
 30
0.0
  0
SPLINE
  5
C0
330
1F
100
AcDbEntity
  8
0
  6
Continuous
 62
     7
370
    15
100
AcDbSpline
210
0.0
220
0.0
230
1.0
 70
     8
 71
     3
 72
    10
 73
     6
 74
     0
 42
0.00000001
 43
0.00000001
 40
0.0
 40
0.0
 40
0.0
 40
0.0
 40
0.5
 40
0.5
 40
1.0
 40
1.0
 40
1.0
 40
1.0
 10
654.3194249038567
 20
59.08615120447114
 30
0.0
 10
654.3188833066545
 20
59.08649267518395
 30
0.0
 10
654.3194249038567
 20
58.8635500237075
 30
0.0
 10
654.3194249038567
 20
58.14055364855017
 30
0.0
 10
654.3199666951101
 20
57.64135893713124
 30
0.0
 10
654.3194249038567
 20
57.09177332474463
 30
0.0
  0
ARC
  5
C1
330
1F
100
AcDbEntity
  8
0
  6
Continuous
 62
     7
370
    15
100
AcDbCircle
 10
484.2194249038
 20
-40.1638487956
 30
0.0
 40
7.000000000000024
100
AcDbArc
 50
14.0552328202
 51
73.1650193278
  0
ARC
  5
C2
330
1F
100
AcDbEntity
  8
0
  6
Continuous
 62
     7
370
    15
100
AcDbCircle
 10
484.2194249038
 20
-40.1638487956
 30
0.0
 40
4.000000000000012
100
AcDbArc
 50
25.1506634126
 51
84.2608295227
  0
LINE
  5
C3
330
1F
100
AcDbEntity
  8
0
  6
Continuous
 62
     7
370
    15
100
AcDbLine
 10
-35.3805609108
 20
-133.1638548458
 30
0.0
 11
-61.8805773617
 21
-133.1638548458
 31
0.0
  0
LINE
  5
C4
330
1F
100
AcDbEntity
  8
0
  6
Continuous
 62
     7
370
    15
100
AcDbLine
 10
-8.8805742622
 20
-133.1638548458
 30
0.0
 11
-35.3805609108
 21
-133.1638548458
 31
0.0
  0
LINE
  5
C5
330
1F
100
AcDbEntity
  8
0
  6
Continuous
 62
     7
370
    15
100
AcDbLine
 10
-35.3805609108
 20
-127.1638426865
 30
0.0
 11
-63.8805814148
 21
-127.1638426865
 31
0.0
  0
LINE
  5
C6
330
1F
100
AcDbEntity
  8
0
  6
Continuous
 62
     7
370
    15
100
AcDbLine
 10
-6.8805702091
 20
-127.1638426865
 30
0.0
 11
-35.3805609108
 21
-127.1638426865
 31
0.0
  0
LINE
  5
C7
330
1F
100
AcDbEntity
  8
0
  6
Continuous
 62
     7
370
    15
100
AcDbLine
 10
9.6194259762
 20
-35.1638350571
 30
0.0
 11
9.6194259762
 21
-33.4638509835
 31
0.0
  0
LINE
  5
C8
330
1F
100
AcDbEntity
  8
0
  6
Continuous
 62
     7
370
    15
100
AcDbLine
 10
-80.3805776001
 20
-35.1638350571
 30
0.0
 11
9.6194259762
 21
-35.1638350571
 31
0.0
  0
LINE
  5
C9
330
1F
100
AcDbEntity
  8
0
  6
Continuous
 62
     7
370
    15
100
AcDbLine
 10
-80.3805776001
 20
-35.1638350571
 30
0.0
 11
-80.3805776001
 21
-33.4638509835
 31
0.0
  0
LINE
  5
CA
330
1F
100
AcDbEntity
  8
0
  6
Continuous
 62
     7
370
    15
100
AcDbLine
 10
-35.3805609108
 20
-98.1638584221
 30
0.0
 11
-66.3402266861
 21
-98.1638584221
 31
0.0
  0
LINE
  5
CB
330
1F
100
AcDbEntity
  8
0
  6
Continuous
 62
     7
370
    15
100
AcDbLine
 10
-4.4209249378
 20
-98.1638584221
 30
0.0
 11
-35.3805609108
 21
-98.1638584221
 31
0.0
  0
ARC
  5
CC
330
1F
100
AcDbEntity
  8
0
  6
Continuous
 62
     7
370
    15
100
AcDbCircle
 10
-111.2705750962
 20
277.6861512045
 30
0.0
 40
1.900000000000006
100
AcDbArc
 50
90.0
 51
180.0
  0
LINE
  5
CD
330
1F
100
AcDbEntity
  8
0
  6
Continuous
 62
     7
370
    15
100
AcDbLine
 10
-81.2705643536
 20
279.5861508762
 30
0.0
 11
-111.2705655457
 21
279.5861508762
 31
0.0
  0
ARC
  5
CE
330
1F
100
AcDbEntity
  8
0
  6
Continuous
 62
     7
370
    15
100
AcDbCircle
 10
-81.2705750962
 20
277.6861512045
 30
0.0
 40
1.90000000000002
100
AcDbArc
 50
0.0
 51
90.0
  0
LINE
  5
CF
330
1F
100
AcDbEntity
  8
0
  6
Continuous
 62
     7
370
    15
100
AcDbLine
 10
-79.3705768944
 20
234.5861511835
 30
0.0
 11
-79.3705768944
 21
277.6861522412
 31
0.0
  0
LINE
  5
D0
330
1F
100
AcDbEntity
  8
0
  6
Continuous
 62
     7
370
    15
100
AcDbLine
 10
-113.1705828072
 20
234.5861511835
 30
0.0
 11
-79.3705768944
 21
234.5861511835
 31
0.0
  0
LINE
  5
D1
330
1F
100
AcDbEntity
  8
0
  6
Continuous
 62
     7
370
    15
100
AcDbLine
 10
-113.1705828072
 20
277.6861522412
 30
0.0
 11
-113.1705828072
 21
234.5861511835
 31
0.0
  0
LINE
  5
D2
330
1F
100
AcDbEntity
  8
0
  6
Continuous
 62
     7
370
    15
100
AcDbLine
 10
-79.3705768944
 20
234.5861511835
 30
0.0
 11
-79.3705768944
 21
232.1361511545
 31
0.0
  0
LINE
  5
D3
330
1F
100
AcDbEntity
  8
0
  6
Continuous
 62
     7
370
    15
100
AcDbLine
 10
-113.1705828072
 20
232.1361511545
 30
0.0
 11
-113.1705828072
 21
234.5861511835
 31
0.0
  0
SPLINE
  5
D4
330
1F
100
AcDbEntity
  8
0
  6
Continuous
 62
     7
370
    15
100
AcDbSpline
210
0.0
220
0.0
230
1.0
 70
     8
 71
     3
 72
    24
 73
    20
 74
     0
 42
0.00000001
 43
0.00000001
 40
0.0
 40
0.0
 40
0.0
 40
0.0
 40
0.0644512564079551
 40
0.1250748349618298
 40
0.1818723400885764
 40
0.2348457697409592
 40
0.2839976347069084
 40
0.3293311279772425
 40
0.3708503715759628
 40
0.408560787421501
 40
0.4424696748697147
 40
0.4725871493092095
 40
0.4989277482530396
 40
0.5714944947878869
 40
0.647786523457439
 40
0.7283531857573008
 40
0.8136604203297753
 40
0.9041000269768766
 40
1.0
 40
1.0
 40
1.0
 40
1.0
 10
-112.3305750961512
 20
-31.41384879551945
 30
0.0
 10
-112.3669072967615
 20
-31.44950866216956
 30
0.0
 10
-112.4374139749612
 20
-31.51871060150463
 30
0.0
 10
-112.5397987077023
 20
-31.61869717992688
 30
0.0
 10
-112.6349087161848
 20
-31.71184716322262
 30
0.0
 10
-112.7224941165205
 20
-31.79812302023893
 30
0.0
 10
-112.8024447228039
 20
-31.87753492550732
 30
0.0
 10
-112.8748140164983
 20
-31.95008181967662
 30
0.0
 10
-112.9397726691879
 20
-32.01576615892338
 30
0.0
 10
-112.9975830937873
 20
-32.07458964902854
 30
0.0
 10
-113.0485683106893
 20
-32.12655812405829
 30
0.0
 10
-113.0930984890886
 20
-32.17167072127081
 30
0.0
 10
-113.1558432745397
 20
-32.23416662665824
 30
0.0
 10
-113.2400993334651
 20
-32.31160240724896
 30
0.0
 10
-113.342620149229
 20
-32.3990074948608
 30
0.0
 10
-113.4366215468285
 20
-32.47753822958393
 30
0.0
 10
-113.5139023937262
 20
-32.54697709639631
 30
0.0
 10
-113.569335713663
 20
-32.60824843536098
 30
0.0
 10
-113.5767561541668
 20
-32.64028833852567
 30
0.0
 10
-113.5805750961512
 20
-32.65677772770758
 30
0.0
  0
LINE
  5
D5
330
1F
100
AcDbEntity
  8
0
  6
Continuous
 62
     7
370
    15
100
AcDbLine
 10
-114.3805868984
 20
-32.6567742909
 30
0.0
 11
-113.5805733563
 21
-32.6567742909
 31
0.0
  0
SPLINE
  5
D6
330
1F
100
AcDbEntity
  8
0
  6
Continuous
 62
     7
370
    15
100
AcDbSpline
210
0.0
220
0.0
230
1.0
 70
     8
 71
     3
 72
    32
 73
    28
 74
     0
 42
0.00000001
 43
0.00000001
 40
0.0
 40
0.0
 40
0.0
 40
0.0
 40
0.125
 40
0.125
 40
0.25
 40
0.25
 40
0.375
 40
0.375
 40
0.4375
 40
0.4375
 40
0.46875
 40
0.46875
 40
0.484375
 40
0.484375
 40
0.4921875
 40
0.4921875
 40
0.49609375
 40
0.49609375
 40
0.498046875
 40
0.498046875
 40
0.5
 40
0.5
 40
0.625
 40
0.625
 40
0.75
 40
0.75
 40
1.0
 40
1.0
 40
1.0
 40
1.0
 10
-112.3305750961512
 20
-31.4138487955194
 30
0.0
 10
-112.4991803093584
 20
-31.51500760243181
 30
0.0
 10
-112.6549360949735
 20
-31.60740200317108
 30
0.0
 10
-112.9351072896338
 20
-31.77497739988394
 30
0.0
 10
-113.0595336041736
 20
-31.85010582792741
 30
0.0
 10
-113.2769995213879
 20
-31.98304414338832
 30
0.0
 10
-113.3701241933248
 20
-32.04085403080575
 30
0.0
 10
-113.4888337614956
 20
-32.11457995646255
 30
0.0
 10
-113.5249250449771
 20
-32.13699044743657
 30
0.0
 10
-113.5742443671
 20
-32.1673589575302
 30
0.0
 10
-113.5898815374198
 20
-32.1769405898335
 30
0.0
 10
-113.6121848207447
 20
-32.19050123169664
 30
0.0
 10
-113.6194271711606
 20
-32.19488614455246
 30
0.0
 10
-113.6300089788698
 20
-32.20126056218814
 30
0.0
 10
-113.6334892946734
 20
-32.20335154279191
 30
0.0
 10
-113.6386401327162
 20
-32.20643727578576
 30
0.0
 10
-113.6403454727434
 20
-32.20745739713177
 30
0.0
 10
-113.6428861726855
 20
-32.20897489467267
 30
0.0
 10
-113.6437301876466
 20
-32.20947861310663
 30
0.0
 10
-113.6454124639701
 20
-32.21048182181529
 30
0.0
 10
-113.6457642298978
 20
-32.21069166241008
 30
0.0
 10
-113.7316869631859
 20
-32.2618483442721
 30
0.0
 10
-113.8181421207348
 20
-32.30890264958375
 30
0.0
 10
-113.9849114806015
 20
-32.39638055885619
 30
0.0
 10
-114.0652210976438
 20
-32.43680416281697
 30
0.0
 10
-114.2772934313434
 20
-32.54812892267262
 30
0.0
 10
-114.3805750961512
 20
-32.60886232017318
 30
0.0
 10
-114.3805750961512
 20
-32.65677772770758
 30
0.0
  0
LINE
  5
D7
330
1F
100
AcDbEntity
  8
0
  6
Continuous
 62
     7
370
    15
100
AcDbLine
 10
-114.3805868984
 20
231.3290802827
 30
0.0
 11
-114.3805868984
 21
-32.6567742909
 31
0.0
  0
SPLINE
  5
D8
330
1F
100
AcDbEntity
  8
0
  6
Continuous
 62
     7
370
    15
100
AcDbSpline
210
0.0
220
0.0
230
1.0
 70
     8
 71
     3
 72
    12
 73
     8
 74
     0
 42
0.00000001
 43
0.00000001
 40
0.0
 40
0.0
 40
0.0
 40
0.0
 40
0.1873888962736596
 40
0.375434844467139
 40
0.5704436618291364
 40
0.7798242478713034
 40
1.0
 40
1.0
 40
1.0
 40
1.0
 10
-114.3805868984332
 20
231.3290802826768
 30
0.0
 10
-114.3602470440058
 20
231.3061120882585
 30
0.0
 10
-114.3194960164089
 20
231.2600951647877
 30
0.0
 10
-114.0082834241184
 20
231.088576565997
 30
0.0
 10
-113.5502288327346
 20
230.8334751322665
 30
0.0
 10
-112.9771422885379
 20
230.4767346425929
 30
0.0
 10
-112.5496779920983
 20
230.218508798858
 30
0.0
 10
-112.3305745483508
 20
230.0861511444336
 30
0.0
  0
LINE
  5
D9
330
1F
100
AcDbEntity
  8
0
  6
Continuous
 62
     7
370
    15
100
AcDbLine
 10
-112.3305745484
 20
230.0861511444
 30
0.0
 11
-112.3305745484
 21
-31.4138386334
 31
0.0
  0
SPLINE
  5
DA
330
1F
100
AcDbEntity
  8
0
  6
Continuous
 62
     7
370
    15
100
AcDbSpline
210
0.0
220
0.0
230
1.0
 70
     8
 71
     3
 72
    11
 73
     7
 74
     0
 42
0.00000001
 43
0.00000001
 40
0.0
 40
0.0
 40
0.0
 40
0.0
 40
0.2542995956623119
 40
0.5087776708851077
 40
0.763248337670488
 40
1.0
 40
1.0
 40
1.0
 40
1.0
 10
-113.573510205852
 20
-32.66383744127693
 30
0.0
 10
-113.468123062214
 20
-32.6443781245847
 30
0.0
 10
-113.257274809224
 20
-32.60544583372532
 30
0.0
 10
-112.9410789765689
 20
-32.30649189861523
 30
0.0
 10
-112.6319735818799
 20
-31.89051326719089
 30
0.0
 10
-112.4285955258186
 20
-31.56886273213405
 30
0.0
 10
-112.3305745483508
 20
-31.41383863336983
 30
0.0
  0
SPLINE
  5
DB
330
1F
100
AcDbEntity
  8
0
  6
Continuous
 62
     7
370
    15
100
AcDbSpline
210
0.0
220
0.0
230
1.0
 70
     8
 71
     3
 72
    12
 73
     8
 74
     0
 42
0.00000001
 43
0.00000001
 40
0.0
 40
0.0
 40
0.0
 40
0.0
 40
0.2301626190912585
 40
0.460423327610734
 40
0.6906746178880678
 40
0.9209285840122929
 40
0.9999999999999999
 40
0.9999999999999999
 40
0.9999999999999999
 40
0.9999999999999999
 10
-113.573510205852
 20
-33.46385098345223
 30
0.0
 10
-113.4781127060331
 20
-33.43776911844765
 30
0.0
 10
-113.287277050418
 20
-33.38559427301402
 30
0.0
 10
-113.0010119303881
 20
-32.98092129609592
 30
0.0
 10
-112.7148851517511
 20
-32.39284998239145
 30
0.0
 10
-112.4907743269313
 20
-31.82883639884287
 30
0.0
 10
-112.3631886774972
 20
-31.4983255835925
 30
0.0
 10
-112.3305745483508
 20
-31.41383863336988
 30
0.0
  0
LINE
  5
DC
330
1F
100
AcDbEntity
  8
0
  6
Continuous
 62
     7
370
    15
100
AcDbLine
 10
-113.5735102059
 20
-33.4638509835
 30
0.0
 11
-113.5735102059
 21
-32.6638374413
 31
0.0
  0
LINE
  5
DD
330
1F
100
AcDbEntity
  8
0
  6
Continuous
 62
     7
370
    15
100
AcDbLine
 10
592.4123637318
 20
-33.4638509835
 30
0.0
 11
-113.5735102059
 21
-33.4638509835
 31
0.0
  0
LINE
  5
DE
330
1F
100
AcDbEntity
  8
0
  6
Continuous
 62
     7
370
    15
100
AcDbLine
 10
-112.3305745484
 20
-31.4138386334
 30
0.0
 11
591.1694280743
 21
-31.4138386334
 31
0.0
  0
SPLINE
  5
DF
330
1F
100
AcDbEntity
  8
0
  6
Continuous
 62
     7
370
    15
100
AcDbSpline
210
0.0
220
0.0
230
1.0
 70
     8
 71
     3
 72
    12
 73
     8
 74
     0
 42
0.00000001
 43
0.00000001
 40
0.0
 40
0.0
 40
0.0
 40
0.0
 40
0.2353717912313129
 40
0.5035766837719213
 40
0.7398194771610161
 40
0.9425433839129661
 40
1.0
 40
1.0
 40
1.0
 40
1.0
 10
591.1694280742537
 20
-31.41383863336983
 30
0.0
 10
591.3111018357152
 20
-31.64754426075717
 30
0.0
 10
591.6142120878026
 20
-32.14755619592935
 30
0.0
 10
592.0249790953611
 20
-32.81708778076181
 30
0.0
 10
592.2806150484283
 20
-33.29334581956722
 30
0.0
 10
592.3820086285905
 20
-33.4527478954052
 30
0.0
 10
592.406872870344
 20
-33.46184257263018
 30
0.0
 10
592.4123637317549
 20
-33.46385098345223
 30
0.0
  0
LINE
  5
E0
330
1F
100
AcDbEntity
  8
0
  6
Continuous
 62
     7
370
    15
100
AcDbLine
 10
591.1694280743
 20
230.0861511444
 30
0.0
 11
-112.3305745484
 21
230.0861511444
 31
0.0
  0
LINE
  5
E1
330
1F
100
AcDbEntity
  8
0
  6
Continuous
 62
     7
370
    15
100
AcDbLine
 10
591.1694280743
 20
-31.4138386334
 30
0.0
 11
591.1694280743
 21
230.0861511444
 31
0.0
  0
SPLINE
  5
E2
330
1F
100
AcDbEntity
  8
0
  6
Continuous
 62
     7
370
    15
100
AcDbSpline
210
0.0
220
0.0
230
1.0
 70
     8
 71
     3
 72
    14
 73
    10
 74
     0
 42
0.00000001
 43
0.00000001
 40
0.0
 40
0.0
 40
0.0
 40
0.0
 40
0.25
 40
0.25
 40
0.5
 40
0.5
 40
0.75
 40
0.75
 40
1.0
 40
1.0
 40
1.0
 40
1.0
 10
593.2194249038487
 20
-32.65677772770486
 30
0.0
 10
593.2194249038487
 20
-32.55318406346497
 30
0.0
 10
593.166068891019
 20
-32.44962290567355
 30
0.0
 10
592.9606869999751
 20
-32.24246808364217
 30
0.0
 10
592.808741930765
 20
-32.13889067262654
 30
0.0
 10
592.4292456797973
 20
-31.93173585059517
 30
0.0
 10
592.2018438136092
 20
-31.82815843957948
 30
0.0
 10
591.7060080667853
 20
-31.62100361754811
 30
0.0
 10
591.4378113845706
 20
-31.51744245975652
 30
0.0
 10
591.1694249038488
 20
-31.41384879551678
 30
0.0
  0
SPLINE
  5
E3
330
1F
100
AcDbEntity
  8
0
  6
Continuous
 62
     7
370
    15
100
AcDbSpline
210
0.0
220
0.0
230
1.0
 70
     8
 71
     3
 72
    12
 73
     8
 74
     0
 42
0.00000001
 43
0.00000001
 40
0.0
 40
0.0
 40
0.0
 40
0.0
 40
0.2301698457962347
 40
0.4604244734087108
 40
0.6906816534086299
 40
0.920936609550844
 40
1.0
 40
1.0
 40
1.0
 40
1.0
 10
591.1694280742537
 20
230.0861511444336
 30
0.0
 10
591.4165051089155
 20
230.1815408756287
 30
0.0
 10
591.910750187727
 20
230.3723554743098
 30
0.0
 10
592.556890492283
 20
230.658647251266
 30
0.0
 10
593.0208197799216
 20
230.9447626451885
 30
0.0
 10
593.2036625991433
 20
231.1688632691183
 30
0.0
 10
593.2162047759033
 20
231.296464690615
 30
0.0
 10
593.2194106220137
 20
231.3290802826768
 30
0.0
  0
LINE
  5
E4
330
1F
100
AcDbEntity
  8
0
  6
Continuous
 62
     7
370
    15
100
AcDbLine
 10
593.219410622
 20
-32.6567742909
 30
0.0
 11
593.219410622
 21
231.3290802827
 31
0.0
  0
SPLINE
  5
E5
330
1F
100
AcDbEntity
  8
0
  6
Continuous
 62
     7
370
    15
100
AcDbSpline
210
0.0
220
0.0
230
1.0
 70
     8
 71
     3
 72
    12
 73
     8
 74
     0
 42
0.00000001
 43
0.00000001
 40
0.0
 40
0.0
 40
0.0
 40
0.0
 40
0.3486286161417121
 40
0.5715715909217352
 40
0.7575691298624704
 40
0.9445272481911529
 40
1.0
 40
1.0
 40
1.0
 40
1.0
 10
591.1694280742537
 20
-31.41383863336983
 30
0.0
 10
591.3653612151393
 20
-31.6089163721332
 30
0.0
 10
591.6865907753793
 20
-31.92874351292396
 30
0.0
 10
592.0632714839821
 20
-32.31461892348781
 30
0.0
 10
592.2818609368913
 20
-32.55990204215681
 30
0.0
 10
592.3804862615563
 20
-32.65638221185052
 30
0.0
 10
592.4064278153631
 20
-32.66244920004324
 30
0.0
 10
592.4123637317549
 20
-32.66383744127699
 30
0.0
  0
LINE
  5
E6
330
1F
100
AcDbEntity
  8
0
  6
Continuous
 62
     7
370
    15
100
AcDbLine
 10
592.4123637318
 20
-33.4638509835
 30
0.0
 11
592.4123637318
 21
-32.6638374413
 31
0.0
  0
LINE
  5
E7
330
1F
100
AcDbEntity
  8
0
  6
Continuous
 62
     7
370
    15
100
AcDbLine
 10
593.219410622
 20
-32.6567742909
 30
0.0
 11
592.4194268822
 21
-32.6567742909
 31
0.0
  0
SPLINE
  5
E8
330
1F
100
AcDbEntity
  8
0
  6
Continuous
 62
     7
370
    15
100
AcDbSpline
210
0.0
220
0.0
230
1.0
 70
     8
 71
     3
 72
    14
 73
    10
 74
     0
 42
0.00000001
 43
0.00000001
 40
0.0
 40
0.0
 40
0.0
 40
0.0
 40
0.25
 40
0.25
 40
0.5
 40
0.5
 40
0.75
 40
0.75
 40
1.0
 40
1.0
 40
1.0
 40
1.0
 10
592.4194249038487
 20
-32.65677772770486
 30
0.0
 10
592.4194249038488
 20
-32.55320031668924
 30
0.0
 10
592.3868907496841
 20
-32.44962290567355
 30
0.0
 10
592.2616578892915
 20
-32.24246808364217
 30
0.0
 10
592.1690084568464
 20
-32.13889067262649
 30
0.0
 10
591.9376083038173
 20
-31.93173585059517
 30
0.0
 10
591.7989486293122
 20
-31.82815843957948
 30
0.0
 10
591.4966097592977
 20
-31.62100361754816
 30
0.0
 10
591.3330495212231
 20
-31.51742620653247
 30
0.0
 10
591.1694249038486
 20
-31.41384879551678
 30
0.0
  0
SPLINE
  5
E9
330
1F
100
AcDbEntity
  8
0
  6
Continuous
 62
     7
370
    15
100
AcDbSpline
210
0.0
220
0.0
230
1.0
 70
     8
 71
     3
 72
    14
 73
    10
 74
     0
 42
0.00000001
 43
0.00000001
 40
0.0
 40
0.0
 40
0.0
 40
0.0
 40
0.25
 40
0.25
 40
0.5
 40
0.5
 40
0.75
 40
0.75
 40
1.0
 40
1.0
 40
1.0
 40
1.0
 10
-112.3305750961524
 20
230.0861512044806
 30
0.0
 10
-112.4341525071682
 20
230.2497758218551
 30
0.0
 10
-112.5377299181838
 20
230.4133360599297
 30
0.0
 10
-112.744884740215
 20
230.7156749299442
 30
0.0
 10
-112.8484621512308
 20
230.8543346044493
 30
0.0
 10
-113.055616973262
 20
231.0857347574784
 30
0.0
 10
-113.1591943842778
 20
231.1783841899235
 30
0.0
 10
-113.3663492063092
 20
231.303617050316
 30
0.0
 10
-113.4699266173249
 20
231.3361512044806
 30
0.0
 10
-113.5735040283406
 20
231.3361512044806
 30
0.0
  0
LINE
  5
EA
330
1F
100
AcDbEntity
  8
0
  6
Continuous
 62
     7
370
    15
100
AcDbLine
 10
-113.5735102059
 20
231.3361513493
 30
0.0
 11
-113.5735102059
 21
232.1361511545
 31
0.0
  0
SPLINE
  5
EB
330
1F
100
AcDbEntity
  8
0
  6
Continuous
 62
     7
370
    15
100
AcDbSpline
210
0.0
220
0.0
230
1.0
 70
     8
 71
     3
 72
    14
 73
    10
 74
     0
 42
0.00000001
 43
0.00000001
 40
0.0
 40
0.0
 40
0.0
 40
0.0
 40
0.25
 40
0.25
 40
0.5
 40
0.5
 40
0.75
 40
0.75
 40
1.0
 40
1.0
 40
1.0
 40
1.0
 10
-112.3305750961525
 20
230.0861512044806
 30
0.0
 10
-112.4341687603924
 20
230.3545376852028
 30
0.0
 10
-112.5377299181839
 20
230.6227343674171
 30
0.0
 10
-112.7448847402152
 20
231.118570114241
 30
0.0
 10
-112.8484621512309
 20
231.3459719804293
 30
0.0
 10
-113.0556169732622
 20
231.7254682313969
 30
0.0
 10
-113.1591943842779
 20
231.877413300607
 30
0.0
 10
-113.3663492063092
 20
232.0827951916507
 30
0.0
 10
-113.4699103641007
 20
232.1361512044807
 30
0.0
 10
-113.5735040283407
 20
232.1361512044807
 30
0.0
  0
LWPOLYLINE
  5
EC
330
1F
100
AcDbEntity
  8
0
  6
Continuous
 62
     7
370
    15
100
AcDbPolyline
 90
        2
 70
   128
 43
0.0
 10
-112.3305745484
 20
230.0861511444
 10
-112.3305745484
 20
230.0861511444
  0
SPLINE
  5
ED
330
1F
100
AcDbEntity
  8
0
  6
Continuous
 62
     7
370
    15
100
AcDbSpline
210
0.0
220
0.0
230
1.0
 70
     8
 71
     3
 72
    18
 73
    14
 74
     0
 42
0.00000001
 43
0.00000001
 40
0.0
 40
0.0
 40
0.0
 40
0.0
 40
0.1249999999999818
 40
0.1249999999999818
 40
0.2499999999999637
 40
0.2499999999999637
 40
0.3749999999999455
 40
0.3749999999999455
 40
0.4999999999999274
 40
0.4999999999999274
 40
0.7499999999999637
 40
0.7499999999999637
 40
1.0
 40
1.0
 40
1.0
 40
1.0
 10
-113.5805750959628
 20
231.3290776023095
 30
0.0
 10
-113.5805733796109
 20
231.3174024793806
 30
0.0
 10
-113.568879362371
 20
231.2990767834739
 30
0.0
 10
-113.5248645830844
 20
231.2488645822234
 30
0.0
 10
-113.4920173101001
 20
231.216585462553
 30
0.0
 10
-113.41127727708
 20
231.1408377337404
 30
0.0
 10
-113.36249866146
 20
231.0964830442652
 30
0.0
 10
-113.2553124513535
 20
230.9983892498385
 30
0.0
 10
-113.1970021783628
 20
230.9447238533581
 30
0.0
 10
-113.0117937822856
 20
230.7692222257054
 30
0.0
 10
-112.8830709790371
 20
230.6373040733313
 30
0.0
 10
-112.6117141304935
 20
230.3651826329614
 30
0.0
 10
-112.4711516615305
 20
230.226635327661
 30
0.0
 10
-112.3305750961522
 20
230.0861512044807
 30
0.0
  0
LINE
  5
EE
330
1F
100
AcDbEntity
  8
0
  6
Continuous
 62
     7
370
    15
100
AcDbLine
 10
-114.3805868984
 20
231.3290802827
 30
0.0
 11
-113.5805733563
 21
231.3290802827
 31
0.0
  0
SPLINE
  5
EF
330
1F
100
AcDbEntity
  8
0
  6
Continuous
 62
     7
370
    15
100
AcDbSpline
210
0.0
220
0.0
230
1.0
 70
     8
 71
     3
 72
    32
 73
    28
 74
     0
 42
0.00000001
 43
0.00000001
 40
0.0
 40
0.0
 40
0.0
 40
0.0
 40
0.25
 40
0.25
 40
0.375
 40
0.375
 40
0.4375
 40
0.4375
 40
0.46875
 40
0.46875
 40
0.484375
 40
0.484375
 40
0.4921875
 40
0.4921875
 40
0.49609375
 40
0.49609375
 40
0.498046875
 40
0.498046875
 40
0.5
 40
0.5
 40
0.625
 40
0.625
 40
0.75
 40
0.75
 40
0.875
 40
0.875
 40
1.0
 40
1.0
 40
1.0
 40
1.0
 10
592.4123538360351
 20
232.1361512044833
 30
0.0
 10
592.3716793326693
 20
232.1361512044833
 30
0.0
 10
592.314717079016
 20
232.0437694394642
 30
0.0
 10
592.2041995921059
 20
231.838904031752
 30
0.0
 10
592.163217105453
 20
231.759600943146
 30
0.0
 10
592.0955283889491
 20
231.6321910884913
 30
0.0
 10
592.0719296523606
 20
231.5882987250714
 30
0.0
 10
592.0349778008467
 20
231.5212000522953
 30
0.0
 10
592.0224015592368
 20
231.4986227887165
 30
0.0
 10
592.0031487601642
 20
231.4645401481926
 30
0.0
 10
591.9966664210306
 20
231.45314307766
 30
0.0
 10
591.9868458031654
 20
231.4360050647832
 30
0.0
 10
591.9835560790164
 20
231.4302853218091
 30
0.0
 10
591.9785972155016
 20
231.4216965465787
 30
0.0
 10
591.9769402147812
 20
231.418832094446
 30
0.0
 10
591.9744486443783
 20
231.4145333042211
 30
0.0
 10
591.9736171093571
 20
231.4131000221255
 30
0.0
 10
591.9719520162066
 20
231.410232783457
 30
0.0
 10
591.9707290055904
 20
231.4081295196085
 30
0.0
 10
591.9417963878591
 20
231.3584063513353
 30
0.0
 10
591.903746200279
 20
231.2969007863205
 30
0.0
 10
591.8085204510313
 20
231.14390150235
 30
0.0
 10
591.7513448893632
 20
231.0523326657117
 30
0.0
 10
591.6178683919386
 20
230.8349827297999
 30
0.0
 10
591.5415674561822
 20
230.70909466912
 30
0.0
 10
591.3698402105807
 20
230.4223731479261
 30
0.0
 10
591.2744767761458
 20
230.2615160617852
 30
0.0
 10
591.169424903847
 20
230.0861512044831
 30
0.0
  0
LINE
  5
F0
330
1F
100
AcDbEntity
  8
0
  6
Continuous
 62
     7
370
    15
100
AcDbLine
 10
592.4123637318
 20
232.1361511545
 30
0.0
 11
-113.1805665852
 21
232.1361511545
 31
0.0
  0
LINE
  5
F1
330
1F
100
AcDbEntity
  8
0
  6
Continuous
 62
     7
370
    15
100
AcDbLine
 10
592.4123637318
 20
232.1361511545
 30
0.0
 11
592.4123637318
 21
231.3361513493
 31
0.0
  0
SPLINE
  5
F2
330
1F
100
AcDbEntity
  8
0
  6
Continuous
 62
     7
370
    15
100
AcDbSpline
210
0.0
220
0.0
230
1.0
 70
     8
 71
     3
 72
    24
 73
    20
 74
     0
 42
0.00000001
 43
0.00000001
 40
0.0
 40
0.0
 40
0.0
 40
0.0
 40
0.0459084819137735
 40
0.0908676285697902
 40
0.1349219452764334
 40
0.1781187407982104
 40
0.2205082016902246
 40
0.2621434405670309
 40
0.303080512197349
 40
0.3433783912463549
 40
0.383098905791014
 40
0.4223066214818076
 40
0.4610686724855561
 40
0.4994545371301093
 40
0.5585300488469759
 40
0.6380531470530041
 40
0.7381162600158498
 40
0.8587594596871014
 40
1.0
 40
1.0
 40
1.0
 40
1.0
 10
592.4123538360353
 20
231.3361512044833
 30
0.0
 10
592.4053692406964
 20
231.335270414007
 30
0.0
 10
592.3915444835162
 20
231.3335270468009
 30
0.0
 10
592.3669848943707
 20
231.3198437506546
 30
0.0
 10
592.3398767318308
 20
231.2990120073698
 30
0.0
 10
592.3099463386925
 20
231.2710568784206
 30
0.0
 10
592.2772640842544
 20
231.2370139496316
 30
0.0
 10
592.241810998555
 20
231.197646067786
 30
0.0
 10
592.2035908766678
 20
231.1537640092924
 30
0.0
 10
592.162603424381
 20
231.1061303418389
 30
0.0
 10
592.1188428723851
 20
231.0554806993751
 30
0.0
 10
592.0723291456295
 20
231.0024920463906
 30
0.0
 10
592.0229870444067
 20
230.9478559683959
 30
0.0
 10
591.9616365739629
 20
230.8818212959635
 30
0.0
 10
591.8740782349032
 20
230.79507280427
 30
0.0
 10
591.7499349425946
 20
230.6740567828718
 30
0.0
 10
591.5893612335308
 20
230.5145699797118
 30
0.0
 10
591.3922877216166
 20
230.3141184703715
 30
0.0
 10
591.247508180732
 20
230.1660229000902
 30
0.0
 10
591.1694249038472
 20
230.0861512044831
 30
0.0
  0
LWPOLYLINE
  5
F3
330
1F
100
AcDbEntity
  8
0
  6
Continuous
 62
     7
370
    15
100
AcDbPolyline
 90
        2
 70
   128
 43
0.0
 10
591.1694280743
 20
230.0861511444
 10
591.1694280743
 20
230.0861511444
  0
SPLINE
  5
F4
330
1F
100
AcDbEntity
  8
0
  6
Continuous
 62
     7
370
    15
100
AcDbSpline
210
0.0
220
0.0
230
1.0
 70
     8
 71
     3
 72
    11
 73
     7
 74
     0
 42
0.00000001
 43
0.00000001
 40
0.0
 40
0.0
 40
0.0
 40
0.0
 40
0.2543049720564781
 40
0.5087861767600113
 40
0.7632711227270753
 40
1.0
 40
1.0
 40
1.0
 40
1.0
 10
591.1694280742537
 20
230.0861511444336
 30
0.0
 10
591.3360665227038
 20
230.1915279751357
 30
0.0
 10
591.6694588995912
 20
230.4023546623941
 30
0.0
 10
592.0873980946355
 20
230.7186130082214
 30
0.0
 10
592.3675327248841
 20
231.0276592288533
 30
0.0
 10
592.4025507659767
 20
231.2310573646535
 30
0.0
 10
592.4194268821608
 20
231.3290802826768
 30
0.0
  0
LINE
  5
F5
330
1F
100
AcDbEntity
  8
0
  6
Continuous
 62
     7
370
    15
100
AcDbLine
 10
592.4194268822
 20
231.3290802827
 30
0.0
 11
593.219410622
 21
231.3290802827
 31
0.0
  0
LINE
  5
F6
330
1F
100
AcDbEntity
  8
0
  6
Continuous
 62
     7
370
    15
100
AcDbLine
 10
593.9503423809
 20
188.3290816163
 30
0.0
 11
593.219410622
 21
188.3290816163
 31
0.0
  0
LINE
  5
F7
330
1F
100
AcDbEntity
  8
0
  6
Continuous
 62
     7
370
    15
100
AcDbLine
 10
593.219410622
 20
108.3290871298
 30
0.0
 11
593.9503423809
 21
108.3290871298
 31
0.0
  0
LINE
  5
F8
330
1F
100
AcDbEntity
  8
0
  6
Continuous
 62
     7
370
    15
100
AcDbLine
 10
484.6194200157
 20
-82.2138342942
 30
0.0
 11
484.6194200157
 21
-33.4638509835
 31
0.0
  0
LINE
  5
F9
330
1F
100
AcDbEntity
  8
0
  6
Continuous
 62
     7
370
    15
100
AcDbLine
 10
484.1016642689
 20
-84.6638534153
 30
0.0
 11
-3.4805722595
 21
-84.6638534153
 31
0.0
  0
LINE
  5
FA
330
1F
100
AcDbEntity
  8
0
  6
Continuous
 62
     7
370
    15
100
AcDbLine
 10
484.6194200157
 20
-84.6638534153
 30
0.0
 11
484.6194200157
 21
-82.2138342942
 31
0.0
  0
LINE
  5
FB
330
1F
100
AcDbEntity
  8
0
  6
Continuous
 62
     7
370
    15
100
AcDbLine
 10
484.6194200157
 20
-84.6638534153
 30
0.0
 11
484.1016642689
 21
-84.6638534153
 31
0.0
  0
LINE
  5
FC
330
1F
100
AcDbEntity
  8
0
  6
Continuous
 62
     7
370
    15
100
AcDbLine
 10
484.9855415462
 20
-85.0299749459
 30
0.0
 11
485.8340732693
 21
-84.1814432228
 31
0.0
  0
SPLINE
  5
FD
330
1F
100
AcDbEntity
  8
0
  6
Continuous
 62
     7
370
    15
100
AcDbSpline
210
0.0
220
0.0
230
1.0
 70
     8
 71
     3
 72
    10
 73
     6
 74
     0
 42
0.00000001
 43
0.00000001
 40
0.0
 40
0.0
 40
0.0
 40
0.0
 40
0.2774194487487501
 40
0.7623567486040997
 40
1.0
 40
1.0
 40
1.0
 40
1.0
 10
484.9855415462384
 20
-85.02997494585458
 30
0.0
 10
484.9173350651159
 20
-84.97025886692133
 30
0.0
 10
484.7299016626748
 20
-84.8061573377018
 30
0.0
 10
484.4146335578716
 20
-84.68189134499998
 30
0.0
 10
484.179120211137
 20
-84.6683175748702
 30
0.0
 10
484.1016642688642
 20
-84.66385341532174
 30
0.0
  0
SPLINE
  5
FE
330
1F
100
AcDbEntity
  8
0
  6
Continuous
 62
     7
370
    15
100
AcDbSpline
210
0.0
220
0.0
230
1.0
 70
     8
 71
     3
 72
     9
 73
     5
 74
     0
 42
0.00000001
 43
0.00000001
 40
0.0
 40
0.0
 40
0.0
 40
0.0
 40
0.6141696874646725
 40
1.0
 40
1.0
 40
1.0
 40
1.0
 10
485.8340732692609
 20
-84.18144322283212
 30
0.0
 10
485.6142845680689
 20
-83.99116691280462
 30
0.0
 10
485.2564214144846
 20
-83.68135626289607
 30
0.0
 10
484.7967681704928
 20
-83.5900702900601
 30
0.0
 10
484.6194200157056
 20
-83.55484939463082
 30
0.0
  0
LINE
  5
FF
330
1F
100
AcDbEntity
  8
0
  6
Continuous
 62
     7
370
    15
100
AcDbLine
 10
485.8340732693
 20
-84.1814432228
 30
0.0
 11
492.5390295624
 21
-90.8863995159
 31
0.0
  0
LINE
  5
100
330
1F
100
AcDbEntity
  8
0
  6
Continuous
 62
     7
370
    15
100
AcDbLine
 10
492.5390295624
 20
-90.8863995159
 30
0.0
 11
491.6904978393
 21
-91.734931239
 31
0.0
  0
LINE
  5
101
330
1F
100
AcDbEntity
  8
0
  6
Continuous
 62
     7
370
    15
100
AcDbLine
 10
484.9855415462
 20
-85.0299749459
 30
0.0
 11
491.6904978393
 21
-91.734931239
 31
0.0
  0
LINE
  5
102
330
1F
100
AcDbEntity
  8
0
  6
Continuous
 62
     7
370
    15
100
AcDbLine
 10
627.5487057804
 20
-81.4138505543
 30
0.0
 11
627.5487057804
 21
-38.4638462151
 31
0.0
  0
LINE
  5
103
330
1F
100
AcDbEntity
  8
0
  6
Continuous
 62
     7
370
    15
100
AcDbLine
 10
627.5487057804
 20
-38.4638462151
 30
0.0
 11
570.5194286941
 21
-38.4638462151
 31
0.0
  0
LINE
  5
104
330
1F
100
AcDbEntity
  8
0
  6
Continuous
 62
     7
370
    15
100
AcDbLine
 10
506.7194215893
 20
-38.4638462151
 30
0.0
 11
484.6194200157
 21
-38.4638462151
 31
0.0
  0
LINE
  5
105
330
1F
100
AcDbEntity
  8
0
  6
Continuous
 62
     7
370
    15
100
AcDbLine
 10
626.3694278835
 20
-83.4638629044
 30
0.0
 11
609.5765344738
 21
-83.4638629044
 31
0.0
  0
LINE
  5
106
330
1F
100
AcDbEntity
  8
0
  6
Continuous
 62
     7
370
    15
100
AcDbLine
 10
609.5765344738
 20
-83.4638629044
 30
0.0
 11
608.3265356659
 21
-83.4638629044
 31
0.0
  0
LINE
  5
107
330
1F
100
AcDbEntity
  8
0
  6
Continuous
 62
     7
370
    15
100
AcDbLine
 10
608.3265356659
 20
-83.4638629044
 30
0.0
 11
608.3265356659
 21
-82.8634653176
 31
0.0
  0
LINE
  5
108
330
1F
100
AcDbEntity
  8
0
  6
Continuous
 62
     7
370
    15
100
AcDbLine
 10
608.3265356659
 20
-82.8634653176
 30
0.0
 11
570.5194286941
 21
-82.8634653176
 31
0.0
  0
LINE
  5
109
330
1F
100
AcDbEntity
  8
0
  6
Continuous
 62
     7
370
    15
100
AcDbLine
 10
506.7194215893
 20
-83.4638629044
 30
0.0
 11
484.6194200157
 21
-83.4638629044
 31
0.0
  0
SPLINE
  5
10A
330
1F
100
AcDbEntity
  8
0
  6
Continuous
 62
     7
370
    15
100
AcDbSpline
210
0.0
220
0.0
230
1.0
 70
     8
 71
     3
 72
    14
 73
    10
 74
     0
 42
0.00000001
 43
0.00000001
 40
0.0
 40
0.0
 40
0.0
 40
0.0
 40
0.25
 40
0.25
 40
0.5
 40
0.5
 40
0.75
 40
0.75
 40
1.0
 40
1.0
 40
1.0
 40
1.0
 10
627.5487142257292
 20
-81.4138487955523
 30
0.0
 10
627.450424492397
 20
-81.68223582822654
 30
0.0
 10
627.3521660054157
 20
-81.95043195848883
 30
0.0
 10
627.1556177851021
 20
-82.44626770531266
 30
0.0
 10
627.0573436749454
 20
-82.67366957150085
 30
0.0
 10
626.8607954546317
 20
-83.05316582246857
 30
0.0
 10
626.762521344475
 20
-83.20511089167853
 30
0.0
 10
626.5659731241614
 20
-83.41049278272233
 30
0.0
 10
626.4677146371802
 20
-83.4638487955523
 30
0.0
 10
626.3694249038479
 20
-83.4638487955523
 30
0.0
  0
SPLINE
  5
10B
330
1F
100
AcDbEntity
  8
0
  6
Continuous
 62
     7
370
    15
100
AcDbSpline
210
0.0
220
0.0
230
1.0
 70
     8
 71
     3
 72
    10
 73
     6
 74
     0
 42
0.00000001
 43
0.00000001
 40
0.0
 40
0.0
 40
0.0
 40
0.0
 40
0.0729050439961107
 40
0.5393433195271897
 40
1.0
 40
1.0
 40
1.0
 40
1.0
 10
627.191882574452
 20
-82.33822918779794
 30
0.0
 10
627.2134132759903
 20
-82.32449554999488
 30
0.0
 10
627.3726949854986
 20
-82.2228956414574
 30
0.0
 10
627.5580889967475
 20
-81.8938156973511
 30
0.0
 10
627.5990659740787
 20
-81.57317239815725
 30
0.0
 10
627.6194266914259
 20
-81.41385055429883
 30
0.0
  0
LINE
  5
10C
330
1F
100
AcDbEntity
  8
0
  6
Continuous
 62
     7
370
    15
100
AcDbLine
 10
627.6194266914
 20
-81.4138505543
 30
0.0
 11
628.4194104313
 21
-81.4138505543
 31
0.0
  0
SPLINE
  5
10D
330
1F
100
AcDbEntity
  8
0
  6
Continuous
 62
     7
370
    15
100
AcDbSpline
210
0.0
220
0.0
230
1.0
 70
     8
 71
     3
 72
    12
 73
     8
 74
     0
 42
0.00000001
 43
0.00000001
 40
0.0
 40
0.0
 40
0.0
 40
0.0
 40
0.2286711262236718
 40
0.4574084428802347
 40
0.6861582056240136
 40
0.9149017211765108
 40
1.0
 40
1.0
 40
1.0
 40
1.0
 10
626.3694278835188
 20
-83.46386290438119
 30
0.0
 10
626.6149014186822
 20
-83.43812797909439
 30
0.0
 10
627.105919543015
 20
-83.38665067936918
 30
0.0
 10
627.7490901990326
 20
-82.98701394800345
 30
0.0
 10
628.2132557906588
 20
-82.40567751577815
 30
0.0
 10
628.4020212759682
 20
-81.8401290195343
 30
0.0
 10
628.415701134353
 20
-81.50478041100668
 30
0.0
 10
628.4194104312788
 20
-81.41385055429879
 30
0.0
  0
ARC
  5
10E
330
1F
100
AcDbEntity
  8
0
  6
Continuous
 62
     7
370
    15
100
AcDbCircle
 10
629.6694249038
 20
-40.5138487956
 30
0.0
 40
2.050000000000068
100
AcDbArc
 50
90.0
 51
180.0
  0
LINE
  5
10F
330
1F
100
AcDbEntity
  8
0
  6
Continuous
 62
     7
370
    15
100
AcDbLine
 10
629.6694390415
 20
-39.2638597573
 30
0.0
 11
629.6694390415
 21
-38.4638462151
 31
0.0
  0
ARC
  5
110
330
1F
100
AcDbEntity
  8
0
  6
Continuous
 62
     7
370
    15
100
AcDbCircle
 10
629.6694249038
 20
-40.5138487956
 30
0.0
 40
1.25
100
AcDbArc
 50
90.0
 51
180.0
  0
LINE
  5
111
330
1F
100
AcDbEntity
  8
0
  6
Continuous
 62
     7
370
    15
100
AcDbLine
 10
628.4194104313
 20
-40.5138585652
 30
0.0
 11
627.6194266914
 21
-40.5138585652
 31
0.0
  0
LINE
  5
112
330
1F
100
AcDbEntity
  8
0
  6
Continuous
 62
     7
370
    15
100
AcDbLine
 10
629.6694390415
 20
-38.4638462151
 30
0.0
 11
645.9694318413
 21
-38.4638462151
 31
0.0
  0
LINE
  5
113
330
1F
100
AcDbEntity
  8
0
  6
Continuous
 62
     7
370
    15
100
AcDbLine
 10
645.9694318413
 20
-39.2638597573
 30
0.0
 11
645.9694318413
 21
-38.4638462151
 31
0.0
  0
LINE
  5
114
330
1F
100
AcDbEntity
  8
0
  6
Continuous
 62
     7
370
    15
100
AcDbLine
 10
629.6694390415
 20
-39.2638597573
 30
0.0
 11
645.9694318413
 21
-39.2638597573
 31
0.0
  0
LINE
  5
115
330
1F
100
AcDbEntity
  8
0
  6
Continuous
 62
     7
370
    15
100
AcDbLine
 10
648.019414389
 20
-50.2638373459
 30
0.0
 11
647.2194306492
 21
-50.2638373459
 31
0.0
  0
LINE
  5
116
330
1F
100
AcDbEntity
  8
0
  6
Continuous
 62
     7
370
    15
100
AcDbLine
 10
648.019414389
 20
-55.2638623799
 30
0.0
 11
648.019414389
 21
-50.2638373459
 31
0.0
  0
LINE
  5
117
330
1F
100
AcDbEntity
  8
0
  6
Continuous
 62
     7
370
    15
100
AcDbLine
 10
648.019414389
 20
-55.2638623799
 30
0.0
 11
647.2194306492
 21
-55.2638623799
 31
0.0
  0
LINE
  5
118
330
1F
100
AcDbEntity
  8
0
  6
Continuous
 62
     7
370
    15
100
AcDbLine
 10
647.2194306492
 20
-55.2638623799
 30
0.0
 11
647.2194306492
 21
-50.2638373459
 31
0.0
  0
LINE
  5
119
330
1F
100
AcDbEntity
  8
0
  6
Continuous
 62
     7
370
    15
100
AcDbLine
 10
647.2194306492
 20
-40.5138585652
 30
0.0
 11
648.019414389
 21
-40.5138585652
 31
0.0
  0
ARC
  5
11A
330
1F
100
AcDbEntity
  8
0
  6
Continuous
 62
     7
370
    15
100
AcDbCircle
 10
645.9694249038
 20
-40.5138487956
 30
0.0
 40
1.250000000000227
100
AcDbArc
 50
0.0
 51
90.0
  0
ARC
  5
11B
330
1F
100
AcDbEntity
  8
0
  6
Continuous
 62
     7
370
    15
100
AcDbCircle
 10
645.9694249038
 20
-40.5138487956
 30
0.0
 40
2.050000000000111
100
AcDbArc
 50
0.0
 51
90.0
  0
LINE
  5
11C
330
1F
100
AcDbEntity
  8
0
  6
Continuous
 62
     7
370
    15
100
AcDbLine
 10
648.019414389
 20
-50.2638373459
 30
0.0
 11
648.019414389
 21
-40.5138585652
 31
0.0
  0
LINE
  5
11D
330
1F
100
AcDbEntity
  8
0
  6
Continuous
 62
     7
370
    15
100
AcDbLine
 10
647.2194306492
 20
-50.2638373459
 30
0.0
 11
647.2194306492
 21
-40.5138585652
 31
0.0
  0
LINE
  5
11E
330
1F
100
AcDbEntity
  8
0
  6
Continuous
 62
     7
370
    15
100
AcDbLine
 10
628.4194104313
 20
-81.4138505543
 30
0.0
 11
628.4194104313
 21
-40.5138585652
 31
0.0
  0
LINE
  5
11F
330
1F
100
AcDbEntity
  8
0
  6
Continuous
 62
     7
370
    15
100
AcDbLine
 10
627.6194266914
 20
-81.4138505543
 30
0.0
 11
627.6194266914
 21
-40.5138585652
 31
0.0
  0
LWPOLYLINE
  5
120
330
1F
100
AcDbEntity
  8
0
  6
Continuous
 62
     7
370
    15
100
AcDbPolyline
 90
        3
 70
   128
 43
0.0
 10
608.1270091175
 20
-82.8634653176
 10
608.1492714523
 20
-82.8853700245
 10
608.3265356659
 20
-83.0386433686
  0
LINE
  5
121
330
1F
100
AcDbEntity
  8
0
  6
Continuous
 62
     7
370
    15
100
AcDbLine
 10
608.3265356659
 20
-83.4638629044
 30
0.0
 11
570.5194286941
 21
-83.4638629044
 31
0.0
  0
SPLINE
  5
122
330
1F
100
AcDbEntity
  8
0
  6
Continuous
 62
     7
370
    15
100
AcDbSpline
210
0.0
220
0.0
230
1.0
 70
     8
 71
     3
 72
    26
 73
    22
 74
     0
 42
0.00000001
 43
0.00000001
 40
0.0
 40
0.0
 40
0.0
 40
0.0
 40
0.25
 40
0.25
 40
0.375
 40
0.375
 40
0.4375
 40
0.4375
 40
0.46875
 40
0.46875
 40
0.484375
 40
0.484375
 40
0.4921875
 40
0.4921875
 40
0.49609375
 40
0.49609375
 40
0.5
 40
0.5
 40
0.75
 40
0.75
 40
1.0
 40
1.0
 40
1.0
 40
1.0
 10
595.2694249038568
 20
-31.41384879552883
 30
0.0
 10
594.9649213860156
 20
-31.60409927563268
 30
0.0
 10
594.6964534039936
 20
-31.76541045782194
 30
0.0
 10
594.3649954419022
 20
-31.96585447961276
 30
0.0
 10
594.2660602015321
 20
-32.02564390632867
 30
0.0
 10
594.1342531883809
 20
-32.10479017558104
 30
0.0
 10
594.093067214126
 20
-32.12941595352825
 30
0.0
 10
594.0352069821453
 20
-32.16372015274366
 30
0.0
 10
594.016572735858
 20
-32.17471580786452
 30
0.0
 10
593.9895696493793
 20
-32.19055067361953
 30
0.0
 10
593.9807266395371
 20
-32.19571919271691
 30
0.0
 10
593.9676951171267
 20
-32.20330731713123
 30
0.0
 10
593.9633901069343
 20
-32.20580924956407
 30
0.0
 10
593.9569903207787
 20
-32.20952098465546
 30
0.0
 10
593.9548666801677
 20
-32.2107513690929
 30
0.0
 10
593.9506385547556
 20
-32.21319841678189
 30
0.0
 10
593.9491453827965
 20
-32.21406205602634
 30
0.0
 10
593.7732382503204
 20
-32.31564578929175
 30
0.0
 10
593.5956169816596
 20
-32.40241897967711
 30
0.0
 10
593.3181152681019
 20
-32.54946992801872
 30
0.0
 10
593.2194249038567
 20
-32.60954936240468
 30
0.0
 10
593.2194249038567
 20
-32.65677772771686
 30
0.0
  0
LINE
  5
123
330
1F
100
AcDbEntity
  8
0
  6
Continuous
 62
     7
370
    15
100
AcDbLine
 10
593.219410622
 20
91.0290774023
 30
0.0
 11
593.219410622
 21
-32.6567742909
 31
0.0
  0
SPLINE
  5
124
330
1F
100
AcDbEntity
  8
0
  6
Continuous
 62
     7
370
    15
100
AcDbSpline
210
0.0
220
0.0
230
1.0
 70
     8
 71
     3
 72
    12
 73
     8
 74
     0
 42
0.00000001
 43
0.00000001
 40
0.0
 40
0.0
 40
0.0
 40
0.0
 40
0.1878231671640564
 40
0.3762664475705895
 40
0.5715037321454055
 40
0.7808688508468584
 40
0.9999999999999999
 40
0.9999999999999999
 40
0.9999999999999999
 40
0.9999999999999999
 10
593.2194106220137
 20
91.02907740228233
 30
0.0
 10
593.2398263174268
 20
91.0057405397513
 30
0.0
 10
593.2807251123078
 20
90.95898976616687
 30
0.0
 10
593.5931568309036
 20
90.78718806271077
 30
0.0
 10
594.0523342197641
 20
90.53193932583665
 30
0.0
 10
594.6250027167323
 20
90.17541299524648
 30
0.0
 10
595.0513769978415
 20
89.91786538602666
 30
0.0
 10
595.2694229720961
 20
89.78615664594228
 30
0.0
  0
LINE
  5
125
330
1F
100
AcDbEntity
  8
0
  6
Continuous
 62
     7
370
    15
100
AcDbLine
 10
595.2694229721
 20
89.7861566459
 30
0.0
 11
595.2694229721
 21
-31.4138386334
 31
0.0
  0
SPLINE
  5
126
330
1F
100
AcDbEntity
  8
0
  6
Continuous
 62
     7
370
    15
100
AcDbSpline
210
0.0
220
0.0
230
1.0
 70
     8
 71
     3
 72
    11
 73
     7
 74
     0
 42
0.00000001
 43
0.00000001
 40
0.0
 40
0.0
 40
0.0
 40
0.0
 40
0.2542995956623119
 40
0.5087776708851077
 40
0.763248337670488
 40
1.0
 40
1.0
 40
1.0
 40
1.0
 10
594.0264873145949
 20
-32.66383744127693
 30
0.0
 10
594.1318744582329
 20
-32.6443781245847
 30
0.0
 10
594.3427227112226
 20
-32.60544583372532
 30
0.0
 10
594.658918543878
 20
-32.30649189861523
 30
0.0
 10
594.9680239385668
 20
-31.89051326719089
 30
0.0
 10
595.1714019946281
 20
-31.56886273213405
 30
0.0
 10
595.2694229720961
 20
-31.41383863336983
 30
0.0
  0
SPLINE
  5
127
330
1F
100
AcDbEntity
  8
0
  6
Continuous
 62
     7
370
    15
100
AcDbSpline
210
0.0
220
0.0
230
1.0
 70
     8
 71
     3
 72
    12
 73
     8
 74
     0
 42
0.00000001
 43
0.00000001
 40
0.0
 40
0.0
 40
0.0
 40
0.0
 40
0.2301626190912585
 40
0.460423327610734
 40
0.6906746178880678
 40
0.9209285840122929
 40
0.9999999999999999
 40
0.9999999999999999
 40
0.9999999999999999
 40
0.9999999999999999
 10
594.0264873145949
 20
-33.46385098345223
 30
0.0
 10
594.1218848144138
 20
-33.43776911844765
 30
0.0
 10
594.3127204700289
 20
-33.38559427301402
 30
0.0
 10
594.5989855900585
 20
-32.98092129609592
 30
0.0
 10
594.8851123686958
 20
-32.39284998239145
 30
0.0
 10
595.1092231935154
 20
-31.82883639884287
 30
0.0
 10
595.2368088429496
 20
-31.4983255835925
 30
0.0
 10
595.2694229720961
 20
-31.41383863336988
 30
0.0
  0
LINE
  5
128
330
1F
100
AcDbEntity
  8
0
  6
Continuous
 62
     7
370
    15
100
AcDbLine
 10
594.0264873146
 20
-32.6638374413
 30
0.0
 11
594.0264873146
 21
-33.4638509835
 31
0.0
  0
LINE
  5
129
330
1F
100
AcDbEntity
  8
0
  6
Continuous
 62
     7
370
    15
100
AcDbLine
 10
594.0264873146
 20
-33.4638509835
 30
0.0
 11
650.2194218277
 21
-33.4638509835
 31
0.0
  0
LINE
  5
12A
330
1F
100
AcDbEntity
  8
0
  6
Continuous
 62
     7
370
    15
100
AcDbLine
 10
595.2694229721
 20
-31.4138386334
 30
0.0
 11
650.6694368957
 21
-31.4138386334
 31
0.0
  0
SPLINE
  5
12B
330
1F
100
AcDbEntity
  8
0
  6
Continuous
 62
     7
370
    15
100
AcDbSpline
210
0.0
220
0.0
230
1.0
 70
     8
 71
     3
 72
    14
 73
    10
 74
     0
 42
0.00000001
 43
0.00000001
 40
0.0
 40
0.0
 40
0.0
 40
0.0
 40
0.25
 40
0.25
 40
0.5
 40
0.5
 40
0.75
 40
0.75
 40
1.0
 40
1.0
 40
1.0
 40
1.0
 10
650.6694249038567
 20
-31.41384879552883
 30
0.0
 10
650.6319182722174
 20
-31.68224062303887
 30
0.0
 10
650.5944249038566
 20
-31.95043195846537
 30
0.0
 10
650.5194249038566
 20
-32.44626770528913
 30
0.0
 10
650.4819249038567
 20
-32.67366957147738
 30
0.0
 10
650.4069249038566
 20
-33.05316582244505
 30
0.0
 10
650.3694249038567
 20
-33.20511089165507
 30
0.0
 10
650.2944249038567
 20
-33.41049278269887
 30
0.0
 10
650.256931535496
 20
-33.46384879552883
 30
0.0
 10
650.2194249038566
 20
-33.46384879552883
 30
0.0
  0
LINE
  5
12C
330
1F
100
AcDbEntity
  8
0
  6
Continuous
 62
     7
370
    15
100
AcDbLine
 10
650.6694368957
 20
89.7861566459
 30
0.0
 11
595.2694229721
 21
89.7861566459
 31
0.0
  0
LINE
  5
12D
330
1F
100
AcDbEntity
  8
0
  6
Continuous
 62
     7
370
    15
100
AcDbLine
 10
650.6694368957
 20
89.7861566459
 30
0.0
 11
650.6694368957
 21
-31.4138386334
 31
0.0
  0
SPLINE
  5
12E
330
1F
100
AcDbEntity
  8
0
  6
Continuous
 62
     7
370
    15
100
AcDbSpline
210
0.0
220
0.0
230
1.0
 70
     8
 71
     3
 72
    23
 73
    19
 74
     0
 42
0.00000001
 43
0.00000001
 40
0.0
 40
0.0
 40
0.0
 40
0.0
 40
0.065450692969548
 40
0.1274869292054414
 40
0.1861147735739933
 40
0.2413414355673416
 40
0.2931755659505569
 40
0.3416276551239699
 40
0.3867105773844302
 40
0.4284403489089575
 40
0.466837206159368
 40
0.5019271770951957
 40
0.5753415108219996
 40
0.6520032170288987
 40
0.7324037584549469
 40
0.8169687836138197
 40
0.9060636013684361
 40
1.0
 40
1.0
 40
1.0
 40
1.0
 10
595.2694249038568
 20
-31.41384879552883
 30
0.0
 10
595.2332270579252
 20
-31.45076327728163
 30
0.0
 10
595.1627197491058
 20
-31.5226664720129
 30
0.0
 10
595.059343715121
 20
-31.62643538733645
 30
0.0
 10
594.9620584456757
 20
-31.72352312882037
 30
0.0
 10
594.8711716433845
 20
-31.81385778188112
 30
0.0
 10
594.7869211931935
 20
-31.8974581366292
 30
0.0
 10
594.7093820983818
 20
-31.97432249090526
 30
0.0
 10
594.6385125843683
 20
-32.04445017837043
 30
0.0
 10
594.5741816713743
 20
-32.10785626786588
 30
0.0
 10
594.5161452144507
 20
-32.16450284110917
 30
0.0
 10
594.4436984297869
 20
-32.2342937554278
 30
0.0
 10
594.3544614307199
 20
-32.31473439559279
 30
0.0
 10
594.2519589737283
 20
-32.40142193502643
 30
0.0
 10
594.1591952797116
 20
-32.47930725663456
 30
0.0
 10
594.0837805921791
 20
-32.54810063727454
 30
0.0
 10
594.0302226047736
 20
-32.60873197573
 30
0.0
 10
594.0230870545294
 20
-32.64048251966195
 30
0.0
 10
594.0194249038567
 20
-32.65677772771686
 30
0.0
  0
LINE
  5
12F
330
1F
100
AcDbEntity
  8
0
  6
Continuous
 62
     7
370
    15
100
AcDbLine
 10
593.219410622
 20
-32.6567742909
 30
0.0
 11
594.0194241642
 21
-32.6567742909
 31
0.0
  0
SPLINE
  5
130
330
1F
100
AcDbEntity
  8
0
  6
Continuous
 62
     7
370
    15
100
AcDbSpline
210
0.0
220
0.0
230
1.0
 70
     8
 71
     3
 72
    14
 73
    10
 74
     0
 42
0.00000001
 43
0.00000001
 40
0.0
 40
0.0
 40
0.0
 40
0.0
 40
0.25
 40
0.25
 40
0.5
 40
0.5
 40
0.75
 40
0.75
 40
1.0
 40
1.0
 40
1.0
 40
1.0
 10
595.2694249038566
 20
89.78615120447114
 30
0.0
 10
595.165847492841
 20
89.94977582184552
 30
0.0
 10
595.0622700818253
 20
90.11333605992014
 30
0.0
 10
594.8551152597938
 20
90.41567492993465
 30
0.0
 10
594.7515378487782
 20
90.55433460443962
 30
0.0
 10
594.5443830267469
 20
90.78573475746873
 30
0.0
 10
594.4408056157313
 20
90.87838418991379
 30
0.0
 10
594.2336507936999
 20
91.00361705030637
 30
0.0
 10
594.1300733826841
 20
91.03615120447105
 30
0.0
 10
594.0264959716685
 20
91.03615120447114
 30
0.0
  0
LINE
  5
131
330
1F
100
AcDbEntity
  8
0
  6
Continuous
 62
     7
370
    15
100
AcDbLine
 10
594.0264873146
 20
91.0361554538
 30
0.0
 11
594.0264873146
 21
91.8361540949
 31
0.0
  0
SPLINE
  5
132
330
1F
100
AcDbEntity
  8
0
  6
Continuous
 62
     7
370
    15
100
AcDbSpline
210
0.0
220
0.0
230
1.0
 70
     8
 71
     3
 72
    14
 73
    10
 74
     0
 42
0.00000001
 43
0.00000001
 40
0.0
 40
0.0
 40
0.0
 40
0.0
 40
0.25
 40
0.25
 40
0.5
 40
0.5
 40
0.75
 40
0.75
 40
1.0
 40
1.0
 40
1.0
 40
1.0
 10
595.2694249038566
 20
89.78615120447114
 30
0.0
 10
595.1658312396166
 20
90.05453768519345
 30
0.0
 10
595.0622700818253
 20
90.3227343674075
 30
0.0
 10
594.8551152597939
 20
90.81857011423122
 30
0.0
 10
594.7515378487782
 20
91.04597198041944
 30
0.0
 10
594.5443830267469
 20
91.42546823138711
 30
0.0
 10
594.4408056157313
 20
91.5774133005971
 30
0.0
 10
594.2336507936998
 20
91.78279519164101
 30
0.0
 10
594.1300896359085
 20
91.83615120447102
 30
0.0
 10
594.0264959716685
 20
91.83615120447114
 30
0.0
  0
LWPOLYLINE
  5
133
330
1F
100
AcDbEntity
  8
0
  6
Continuous
 62
     7
370
    15
100
AcDbPolyline
 90
        2
 70
   128
 43
0.0
 10
595.2694229721
 20
89.7861566459
 10
595.2694229721
 20
89.7861566459
  0
SPLINE
  5
134
330
1F
100
AcDbEntity
  8
0
  6
Continuous
 62
     7
370
    15
100
AcDbSpline
210
0.0
220
0.0
230
1.0
 70
     8
 71
     3
 72
    18
 73
    14
 74
     0
 42
0.00000001
 43
0.00000001
 40
0.0
 40
0.0
 40
0.0
 40
0.0
 40
0.1250000000000108
 40
0.1250000000000108
 40
0.2500000000000216
 40
0.2500000000000216
 40
0.3750000000000324
 40
0.3750000000000324
 40
0.5000000000000432
 40
0.5000000000000432
 40
0.7500000000000215
 40
0.7500000000000215
 40
1.0
 40
1.0
 40
1.0
 40
1.0
 10
594.0194249040497
 20
91.02907750444724
 30
0.0
 10
594.0194266364774
 20
91.01707753085606
 30
0.0
 10
594.0311086451726
 20
90.99856182872252
 30
0.0
 10
594.075093101118
 20
90.94815086967276
 30
0.0
 10
594.1079196572603
 20
90.91586895338538
 30
0.0
 10
594.1886357578941
 20
90.84020662658901
 30
0.0
 10
594.2374094042561
 20
90.79594046876205
 30
0.0
 10
594.3446353354241
 20
90.69801190125511
 30
0.0
 10
594.4029694183916
 20
90.64444180002972
 30
0.0
 10
594.58821574664
 20
90.4691884660607
 30
0.0
 10
594.7170030328051
 20
90.33723101429486
 30
0.0
 10
594.9882856769837
 20
90.06518856022936
 30
0.0
 10
595.1288663018945
 20
89.92661725136317
 30
0.0
 10
595.2694249038567
 20
89.78615120447114
 30
0.0
  0
LINE
  5
135
330
1F
100
AcDbEntity
  8
0
  6
Continuous
 62
     7
370
    15
100
AcDbLine
 10
593.219410622
 20
91.0290774023
 30
0.0
 11
594.0194241642
 21
91.0290774023
 31
0.0
  0
SPLINE
  5
136
330
1F
100
AcDbEntity
  8
0
  6
Continuous
 62
     7
370
    15
100
AcDbSpline
210
0.0
220
0.0
230
1.0
 70
     8
 71
     3
 72
    14
 73
    10
 74
     0
 42
0.00000001
 43
0.00000001
 40
0.0
 40
0.0
 40
0.0
 40
0.0
 40
0.25
 40
0.25
 40
0.5
 40
0.5
 40
0.75
 40
0.75
 40
1.0
 40
1.0
 40
1.0
 40
1.0
 10
650.3771914869177
 20
91.83615120447116
 30
0.0
 10
650.4015486265371
 20
91.83615120447111
 30
0.0
 10
650.4258970564076
 20
91.78279519164111
 30
0.0
 10
650.4746026258974
 20
91.57741330059727
 30
0.0
 10
650.4989554106423
 20
91.42546823138731
 30
0.0
 10
650.5476609801322
 20
91.04597198041964
 30
0.0
 10
650.5720137648769
 20
90.81857011423139
 30
0.0
 10
650.6207193343669
 20
90.32273436740762
 30
0.0
 10
650.6450677642374
 20
90.0545435635115
 30
0.0
 10
650.6694249038566
 20
89.78615120447117
 30
0.0
  0
LINE
  5
137
330
1F
100
AcDbEntity
  8
0
  6
Continuous
 62
     7
370
    15
100
AcDbLine
 10
594.0264873146
 20
91.8361540949
 30
0.0
 11
650.3771953224
 21
91.8361540949
 31
0.0
  0
LINE
  5
138
330
1F
100
AcDbEntity
  8
0
  6
Continuous
 62
     7
370
    15
100
AcDbLine
 10
652.7194194435
 20
-31.4138386334
 30
0.0
 11
650.6694368957
 21
-31.4138386334
 31
0.0
  0
LINE
  5
139
330
1F
100
AcDbEntity
  8
0
  6
Continuous
 62
     7
370
    15
100
AcDbLine
 10
650.6694368957
 20
89.7861566459
 30
0.0
 11
652.7194194435
 21
89.7861566459
 31
0.0
  0
LINE
  5
13A
330
1F
100
AcDbEntity
  8
0
  6
Continuous
 62
     7
370
    15
100
AcDbLine
 10
652.7194194435
 20
89.7861566459
 30
0.0
 11
652.7194194435
 21
-31.4138386334
 31
0.0
  0
SPLINE
  5
13B
330
1F
100
AcDbEntity
  8
0
  6
Continuous
 62
     7
370
    15
100
AcDbSpline
210
0.0
220
0.0
230
1.0
 70
     8
 71
     3
 72
    12
 73
     8
 74
     0
 42
0.00000001
 43
0.00000001
 40
0.0
 40
0.0
 40
0.0
 40
0.0
 40
0.1986308583715614
 40
0.4263131915482681
 40
0.6540212107833062
 40
0.8817251524423426
 40
1.0
 40
1.0
 40
1.0
 40
1.0
 10
651.9194357036482
 20
89.78615664594228
 30
0.0
 10
651.9075573387973
 20
89.9160354123733
 30
0.0
 10
651.8820632958706
 20
90.19478883409992
 30
0.0
 10
651.6687183077078
 20
90.57925362282576
 30
0.0
 10
651.3300748410428
 20
90.87799377271061
 30
0.0
 10
650.9721991622753
 20
91.01925969990974
 30
0.0
 10
650.7465696483661
 20
91.03185103367196
 30
0.0
 10
650.6694368957411
 20
91.0361554538494
 30
0.0
  0
LINE
  5
13C
330
1F
100
AcDbEntity
  8
0
  6
Continuous
 62
     7
370
    15
100
AcDbLine
 10
650.6694368957
 20
91.0361554538
 30
0.0
 11
650.6694368957
 21
91.8361540949
 31
0.0
  0
SPLINE
  5
13D
330
1F
100
AcDbEntity
  8
0
  6
Continuous
 62
     7
370
    15
100
AcDbSpline
210
0.0
220
0.0
230
1.0
 70
     8
 71
     3
 72
    12
 73
     8
 74
     0
 42
0.00000001
 43
0.00000001
 40
0.0
 40
0.0
 40
0.0
 40
0.0
 40
0.2196121761367726
 40
0.4392528930393823
 40
0.6588849833230983
 40
0.8785286749308291
 40
1.0
 40
1.0
 40
1.0
 40
1.0
 10
652.7194194435011
 20
89.7861566459423
 30
0.0
 10
652.6956903673484
 20
90.0219107342352
 30
0.0
 10
652.6482291312159
 20
90.49344954938735
 30
0.0
 10
652.2788494179058
 20
91.11817905424712
 30
0.0
 10
651.737301854878
 20
91.58254154283266
 30
0.0
 10
651.164139005735
 20
91.80790068833042
 30
0.0
 10
650.7993415543798
 20
91.8287349853491
 30
0.0
 10
650.6694368957411
 20
91.8361540948635
 30
0.0
  0
LINE
  5
13E
330
1F
100
AcDbEntity
  8
0
  6
Continuous
 62
     7
370
    15
100
AcDbLine
 10
650.6694368957
 20
-32.6638374413
 30
0.0
 11
650.6694368957
 21
-33.4638509835
 31
0.0
  0
SPLINE
  5
13F
330
1F
100
AcDbEntity
  8
0
  6
Continuous
 62
     7
370
    15
100
AcDbSpline
210
0.0
220
0.0
230
1.0
 70
     8
 71
     3
 72
    11
 73
     7
 74
     0
 42
0.00000001
 43
0.00000001
 40
0.0
 40
0.0
 40
0.0
 40
0.0
 40
0.2499948267661242
 40
0.4999925552529198
 40
0.7499956523659308
 40
1.0
 40
1.0
 40
1.0
 40
1.0
 10
650.6694368957411
 20
-32.66383744127693
 30
0.0
 10
650.8332355291391
 20
-32.64505600737089
 30
0.0
 10
651.1608346971658
 20
-32.60749292156029
 30
0.0
 10
651.5740033566692
 20
-32.3184346953832
 30
0.0
 10
651.8630565885478
 20
-31.90522317364253
 30
0.0
 10
651.9006426339471
 20
-31.57763375322825
 30
0.0
 10
651.9194357036482
 20
-31.41383863336983
 30
0.0
  0
SPLINE
  5
140
330
1F
100
AcDbEntity
  8
0
  6
Continuous
 62
     7
370
    15
100
AcDbSpline
210
0.0
220
0.0
230
1.0
 70
     8
 71
     3
 72
    11
 73
     7
 74
     0
 42
0.00000001
 43
0.00000001
 40
0.0
 40
0.0
 40
0.0
 40
0.0
 40
0.2499942845999071
 40
0.4999955207334011
 40
0.7499941874152843
 40
1.0
 40
1.0
 40
1.0
 40
1.0
 10
650.6694368957411
 20
-33.46385098345223
 30
0.0
 10
650.9380583549815
 20
-33.43303541732895
 30
0.0
 10
651.4753087429578
 20
-33.37140342820116
 30
0.0
 10
652.152914503981
 20
-32.89735469089411
 30
0.0
 10
652.6269825551858
 20
-32.21972233340264
 30
0.0
 10
652.6886068538245
 20
-31.68246909279748
 30
0.0
 10
652.7194194435011
 20
-31.41383863336983
 30
0.0
  0
LINE
  5
141
330
1F
100
AcDbEntity
  8
0
  6
Continuous
 62
     7
370
    15
100
AcDbLine
 10
650.6694368957
 20
-33.4638509835
 30
0.0
 11
650.2194218277
 21
-33.4638509835
 31
0.0
  0
LINE
  5
142
330
1F
100
AcDbEntity
  8
0
  6
Continuous
 62
     7
370
    15
100
AcDbLine
 10
650.3771953224
 20
91.8361540949
 30
0.0
 11
650.6694368957
 21
91.8361540949
 31
0.0
  0
LINE
  5
143
330
1F
100
AcDbEntity
  8
0
  6
Continuous
 62
     7
370
    15
100
AcDbLine
 10
538.6194102405
 20
-127.1638426865
 30
0.0
 11
510.1194195389
 21
-127.1638426865
 31
0.0
  0
LINE
  5
144
330
1F
100
AcDbEntity
  8
0
  6
Continuous
 62
     7
370
    15
100
AcDbLine
 10
567.1194307445
 20
-127.1638426865
 30
0.0
 11
538.6194102405
 21
-127.1638426865
 31
0.0
  0
LINE
  5
145
330
1F
100
AcDbEntity
  8
0
  6
Continuous
 62
     7
370
    15
100
AcDbLine
 10
538.6194102405
 20
-133.1638548458
 30
0.0
 11
512.119423592
 21
-133.1638548458
 31
0.0
  0
LINE
  5
146
330
1F
100
AcDbEntity
  8
0
  6
Continuous
 62
     7
370
    15
100
AcDbLine
 10
565.1194266914
 20
-133.1638548458
 30
0.0
 11
538.6194102405
 21
-133.1638548458
 31
0.0
  0
LINE
  5
147
330
1F
100
AcDbEntity
  8
0
  6
Continuous
 62
     7
370
    15
100
AcDbLine
 10
-79.3805606724
 20
273.4361510789
 30
0.0
 11
-79.3805606724
 21
279.9361493503
 31
0.0
  0
ARC
  5
148
330
1F
100
AcDbEntity
  8
0
  6
Continuous
 62
     7
370
    15
100
AcDbCircle
 10
563.2138638647
 20
292.1507290756
 30
0.0
 40
10.00000000000008
100
AcDbArc
 50
28.590234854
 51
76.0806356206
  0
LINE
  5
149
330
1F
100
AcDbEntity
  8
0
  6
Continuous
 62
     7
370
    15
100
AcDbLine
 10
571.9944946407
 20
296.9361502742
 30
0.0
 11
584.8019234775
 21
273.4361510789
 31
0.0
  0
LINE
  5
14A
330
1F
100
AcDbEntity
  8
0
  6
Continuous
 62
     7
370
    15
100
AcDbLine
 10
-79.3805606724
 20
273.4361510789
 30
0.0
 11
584.8019234775
 21
273.4361510789
 31
0.0
  0
LINE
  5
14B
330
1F
100
AcDbEntity
  8
0
  6
Continuous
 62
     7
370
    15
100
AcDbLine
 10
-111.3805659176
 20
410.0361462747
 30
0.0
 11
-111.3805659176
 21
440.2361508524
 31
0.0
  0
LINE
  5
14C
330
1F
100
AcDbEntity
  8
0
  6
Continuous
 62
     7
370
    15
100
AcDbLine
 10
-111.3805659176
 20
340.0361534273
 30
0.0
 11
-113.3805699707
 21
340.0361534273
 31
0.0
  0
LINE
  5
14D
330
1F
100
AcDbEntity
  8
0
  6
Continuous
 62
     7
370
    15
100
AcDbLine
 10
-113.3805699707
 20
309.8361488497
 30
0.0
 11
-111.3805659176
 21
309.8361488497
 31
0.0
  0
LINE
  5
14E
330
1F
100
AcDbEntity
  8
0
  6
Continuous
 62
     7
370
    15
100
AcDbLine
 10
-113.3805699707
 20
340.0361534273
 30
0.0
 11
-113.3805699707
 21
410.0361462747
 31
0.0
  0
LINE
  5
14F
330
1F
100
AcDbEntity
  8
0
  6
Continuous
 62
     7
370
    15
100
AcDbLine
 10
-113.3805699707
 20
440.2361508524
 30
0.0
 11
-113.3805699707
 21
470.1361503517
 31
0.0
  0
LINE
  5
150
330
1F
100
AcDbEntity
  8
0
  6
Continuous
 62
     7
370
    15
100
AcDbLine
 10
-113.3805699707
 20
470.1361503517
 30
0.0
 11
565.6194202541
 21
301.8570836698
 31
0.0
  0
LINE
  5
151
330
1F
100
AcDbEntity
  8
0
  6
Continuous
 62
     7
370
    15
100
AcDbLine
 10
-111.3805659176
 20
309.8361488497
 30
0.0
 11
-111.3805659176
 21
340.0361534273
 31
0.0
  0
LINE
  5
152
330
1F
100
AcDbEntity
  8
0
  6
Continuous
 62
     7
370
    15
100
AcDbLine
 10
-79.3805606724
 20
279.9361493503
 30
0.0
 11
-113.3805699707
 21
279.9361493503
 31
0.0
  0
LINE
  5
153
330
1F
100
AcDbEntity
  8
0
  6
Continuous
 62
     7
370
    15
100
AcDbLine
 10
-113.3805699707
 20
410.0361462747
 30
0.0
 11
-111.3805659176
 21
410.0361462747
 31
0.0
  0
LINE
  5
154
330
1F
100
AcDbEntity
  8
0
  6
Continuous
 62
     7
370
    15
100
AcDbLine
 10
-113.3805699707
 20
279.9361493503
 30
0.0
 11
-113.3805699707
 21
309.8361488497
 31
0.0
  0
LINE
  5
155
330
1F
100
AcDbEntity
  8
0
  6
Continuous
 62
     7
370
    15
100
AcDbLine
 10
-111.3805659176
 20
440.2361508524
 30
0.0
 11
-113.3805699707
 21
440.2361508524
 31
0.0
  0
SPLINE
  5
156
330
1F
100
AcDbEntity
  8
0
  6
Continuous
 62
     7
370
    15
100
AcDbSpline
210
0.0
220
0.0
230
1.0
 70
     8
 71
     3
 72
    22
 73
    18
 74
     0
 42
0.00000001
 43
0.00000001
 40
0.0
 40
0.0
 40
0.0
 40
0.0
 40
0.125
 40
0.125
 40
0.25
 40
0.25
 40
0.375
 40
0.375
 40
0.5
 40
0.5
 40
0.625
 40
0.625
 40
0.75
 40
0.75
 40
0.875
 40
0.875
 40
1.0
 40
1.0
 40
1.0
 40
1.0
 10
584.8019299703104
 20
273.4361512044607
 30
0.0
 10
584.8362787784283
 20
273.2051498515139
 30
0.0
 10
584.8701516428165
 20
272.9773723645799
 30
0.0
 10
584.9382360479898
 20
272.5282830119774
 30
0.0
 10
584.9726764838932
 20
272.3056416734294
 30
0.0
 10
585.0405445794584
 20
271.8840643845806
 30
0.0
 10
585.0742638765546
 20
271.6830741682419
 30
0.0
 10
585.1425416142031
 20
271.3012189077905
 30
0.0
 10
585.1767781409043
 20
271.1224930327048
 30
0.0
 10
585.2445084259516
 20
270.8003867476935
 30
0.0
 10
585.278430374021
 20
270.6547228511559
 30
0.0
 10
585.3470088647019
 20
270.3983737189182
 30
0.0
 10
585.3807734289176
 20
270.2909510276046
 30
0.0
 10
585.4485382306199
 20
270.1162314224206
 30
0.0
 10
585.4828648099189
 20
270.0486029584053
 30
0.0
 10
585.5511505194951
 20
269.9588074659752
 30
0.0
 10
585.5850733815965
 20
269.9361524191837
 30
0.0
 10
585.6194221672527
 20
269.9361512045101
 30
0.0
  0
SPLINE
  5
157
330
1F
100
AcDbEntity
  8
0
  6
Continuous
 62
     7
370
    15
100
AcDbSpline
210
0.0
220
0.0
230
1.0
 70
     8
 71
     3
 72
    12
 73
     8
 74
     0
 42
0.00000001
 43
0.00000001
 40
0.0
 40
0.0
 40
0.0
 40
0.0
 40
0.2274192136267252
 40
0.4548414769448334
 40
0.6821923713649469
 40
0.9095374301554502
 40
1.0
 40
1.0
 40
1.0
 40
1.0
 10
584.8019234775435
 20
273.4361510788685
 30
0.0
 10
584.8639243618736
 20
273.2575170125606
 30
0.0
 10
584.9879269619659
 20
272.9002464844623
 30
0.0
 10
585.1738736702272
 20
272.4315822900878
 30
0.0
 10
585.3597590204944
 20
272.0919582494073
 30
0.0
 10
585.5086201925441
 20
271.9499564616758
 30
0.0
 10
585.594878054765
 20
271.9392105435402
 30
0.0
 10
585.6194309829604
 20
271.9361517643219
 30
0.0
  0
LINE
  5
158
330
1F
100
AcDbEntity
  8
0
  6
Continuous
 62
     7
370
    15
100
AcDbLine
 10
585.619430983
 20
271.9361517643
 30
0.0
 11
585.619430983
 21
269.9361514365
 31
0.0
  0
LINE
  5
159
330
1F
100
AcDbEntity
  8
0
  6
Continuous
 62
     7
370
    15
100
AcDbLine
 10
655.1689617275
 20
94.4161709463
 30
0.0
 11
667.5876490711
 21
109.2161979591
 31
0.0
  0
ARC
  5
15A
330
1F
100
AcDbEntity
  8
0
  6
Continuous
 62
     7
370
    15
100
AcDbCircle
 10
654.5944245337
 20
94.898259285
 30
0.0
 40
0.75
100
AcDbArc
 50
270.0
 51
320.0
  0
LINE
  5
15B
330
1F
100
AcDbEntity
  8
0
  6
Continuous
 62
     7
370
    15
100
AcDbLine
 10
594.9503593086
 20
94.1482629692
 30
0.0
 11
654.5944325565
 21
94.1482629692
 31
0.0
  0
ARC
  5
15C
330
1F
100
AcDbEntity
  8
0
  6
Continuous
 62
     7
370
    15
100
AcDbCircle
 10
594.9503552329
 20
94.648259285
 30
0.0
 40
0.5000000000001137
100
AcDbArc
 50
180.0
 51
270.0
  0
LINE
  5
15D
330
1F
100
AcDbEntity
  8
0
  6
Continuous
 62
     7
370
    15
100
AcDbLine
 10
594.4503657459
 20
213.3359346604
 30
0.0
 11
594.4503657459
 21
94.6482565319
 31
0.0
  0
ARC
  5
15E
330
1F
100
AcDbEntity
  8
0
  6
Continuous
 62
     7
370
    15
100
AcDbCircle
 10
594.9503552329
 20
213.3359338121
 30
0.0
 40
0.5000000000001137
100
AcDbArc
 50
90.0
 51
180.0
  0
LINE
  5
15F
330
1F
100
AcDbEntity
  8
0
  6
Continuous
 62
     7
370
    15
100
AcDbLine
 10
612.3711578487
 20
213.835933811
 30
0.0
 11
594.9503593086
 21
213.835933811
 31
0.0
  0
ARC
  5
160
330
1F
100
AcDbEntity
  8
0
  6
Continuous
 62
     7
370
    15
100
AcDbCircle
 10
612.3711516807
 20
213.3359338121
 30
0.0
 40
0.5000000000000289
100
AcDbArc
 50
18.0
 51
90.0
  0
LINE
  5
161
330
1F
100
AcDbEntity
  8
0
  6
Continuous
 62
     7
370
    15
100
AcDbLine
 10
637.2269205688
 20
138.4557630932
 30
0.0
 11
612.8466837047
 21
213.4904429381
 31
0.0
  0
ARC
  5
162
330
1F
100
AcDbEntity
  8
0
  6
Continuous
 62
     7
370
    15
100
AcDbCircle
 10
647.9738640236
 20
141.9476542901
 30
0.0
 40
11.3000000000001
100
AcDbArc
 50
198.0
 51
250.0
  0
LINE
  5
163
330
1F
100
AcDbEntity
  8
0
  6
Continuous
 62
     7
370
    15
100
AcDbLine
 10
663.5594181656
 20
124.2497634207
 30
0.0
 11
644.1090218662
 21
131.32912629
 31
0.0
  0
ARC
  5
164
330
1F
100
AcDbEntity
  8
0
  6
Continuous
 62
     7
370
    15
100
AcDbCircle
 10
660.3102378028
 20
115.3226837682
 30
0.0
 40
9.500000000000012
100
AcDbArc
 50
320.0
 51
70.0
  0
LINE
  5
165
330
1F
100
AcDbEntity
  8
0
  6
Continuous
 62
     7
370
    15
100
AcDbLine
 10
654.5944325565
 20
94.1482629692
 30
0.0
 11
654.5944325565
 21
93.6482545053
 31
0.0
  0
LINE
  5
166
330
1F
100
AcDbEntity
  8
0
  6
Continuous
 62
     7
370
    15
100
AcDbLine
 10
594.9503593086
 20
94.1482629692
 30
0.0
 11
594.9503593086
 21
93.6482545053
 31
0.0
  0
ARC
  5
167
330
1F
100
AcDbEntity
  8
0
  6
Continuous
 62
     7
370
    15
100
AcDbCircle
 10
594.9503552329
 20
94.648259285
 30
0.0
 40
1.000000000000114
100
AcDbArc
 50
180.0
 51
270.0
  0
LINE
  5
168
330
1F
100
AcDbEntity
  8
0
  6
Continuous
 62
     7
370
    15
100
AcDbLine
 10
594.4503657459
 20
94.6482565319
 30
0.0
 11
593.9503423809
 21
94.6482565319
 31
0.0
  0
LINE
  5
169
330
1F
100
AcDbEntity
  8
0
  6
Continuous
 62
     7
370
    15
100
AcDbLine
 10
593.9503423809
 20
94.6482565319
 30
0.0
 11
593.9503423809
 21
213.3359346604
 31
0.0
  0
LINE
  5
16A
330
1F
100
AcDbEntity
  8
0
  6
Continuous
 62
     7
370
    15
100
AcDbLine
 10
593.9503423809
 20
213.3359346604
 30
0.0
 11
594.4503657459
 21
213.3359346604
 31
0.0
  0
ARC
  5
16B
330
1F
100
AcDbEntity
  8
0
  6
Continuous
 62
     7
370
    15
100
AcDbCircle
 10
594.9503552329
 20
213.3359338121
 30
0.0
 40
1.000000000000114
100
AcDbArc
 50
90.0
 51
180.0
  0
LINE
  5
16C
330
1F
100
AcDbEntity
  8
0
  6
Continuous
 62
     7
370
    15
100
AcDbLine
 10
594.9503593086
 20
214.3359329616
 30
0.0
 11
594.9503593086
 21
213.835933811
 31
0.0
  0
LWPOLYLINE
  5
16D
330
1F
100
AcDbEntity
  8
0
  6
Continuous
 62
     7
370
    15
100
AcDbPolyline
 90
        9
 70
   128
 43
0.0
 10
637.7024464249
 20
138.6102732336
 10
637.6933269142
 20
138.6073004519
 10
637.6662664055
 20
138.5985087668
 10
637.62230798
 20
138.5842334544
 10
637.5631801723
 20
138.565018407
 10
637.4911181568
 20
138.5416012322
 10
637.4088935493
 20
138.5148909008
 10
637.3196951984
 20
138.4859081423
 10
637.2269205688
 20
138.4557630932
  0
LWPOLYLINE
  5
16E
330
1F
100
AcDbEntity
  8
0
  6
Continuous
 62
     7
370
    15
100
AcDbPolyline
 90
        9
 70
   128
 43
0.0
 10
644.2800573944
 20
131.7989748036
 10
644.2767493366
 20
131.7899446999
 10
644.2670337795
 20
131.7632120167
 10
644.2512385486
 20
131.719790033
 10
644.2299596905
 20
131.66136258
 10
644.20403167
 20
131.5901573812
 10
644.1744677662
 20
131.5089311516
 10
644.1424004673
 20
131.4207907831
 10
644.1090218662
 20
131.32912629
  0
LWPOLYLINE
  5
16F
330
1F
100
AcDbEntity
  8
0
  6
Continuous
 62
     7
370
    15
100
AcDbPolyline
 90
        9
 70
   128
 43
0.0
 10
663.5594181656
 20
124.2497634207
 10
663.5927967667
 20
124.3414279138
 10
663.6248640655
 20
124.4295682823
 10
663.6544279693
 20
124.510794512
 10
663.6803559898
 20
124.5819922601
 10
663.7016050457
 20
124.6404271638
 10
663.7174300789
 20
124.6838416969
 10
663.727145636
 20
124.7105818307
 10
663.7304536938
 20
124.7196119344
  0
LWPOLYLINE
  5
170
330
1F
100
AcDbEntity
  8
0
  6
Continuous
 62
     7
370
    15
100
AcDbPolyline
 90
        9
 70
   128
 43
0.0
 10
667.5876490711
 20
109.2161979591
 10
667.6623932957
 20
109.1534938728
 10
667.7342466949
 20
109.0932037746
 10
667.8004674553
 20
109.0376373445
 10
667.858492577
 20
108.9889403497
 10
667.9061166881
 20
108.9489754354
 10
667.9415218471
 20
108.9192774212
 10
667.9633371471
 20
108.9009787952
 10
667.9706685184
 20
108.8948097145
  0
LWPOLYLINE
  5
171
330
1F
100
AcDbEntity
  8
0
  6
Continuous
 62
     7
370
    15
100
AcDbPolyline
 90
        9
 70
   128
 43
0.0
 10
655.1689617275
 20
94.4161709463
 10
655.2436761497
 20
94.35346686
 10
655.315529549
 20
94.2931767618
 10
655.3817503094
 20
94.2376103317
 10
655.4398052334
 20
94.1889133369
 10
655.4874293445
 20
94.1489335214
 10
655.5228345035
 20
94.1192355072
 10
655.5446200012
 20
94.1009517824
 10
655.5519811748
 20
94.0947678005
  0
LINE
  5
172
330
1F
100
AcDbEntity
  8
0
  6
Continuous
 62
     7
370
    15
100
AcDbLine
 10
-113.1805665852
 20
231.1361512234
 30
0.0
 11
-113.1805665852
 21
230.9439960932
 31
0.0
  0
LINE
  5
173
330
1F
100
AcDbEntity
  8
0
  6
Continuous
 62
     7
370
    15
100
AcDbLine
 10
-113.1805665852
 20
250.1361515438
 30
0.0
 11
-113.1705828072
 21
250.1361515438
 31
0.0
  0
LINE
  5
174
330
1F
100
AcDbEntity
  8
0
  6
Continuous
 62
     7
370
    15
100
AcDbLine
 10
583.6194269298
 20
-35.1638350571
 30
0.0
 11
583.6194269298
 21
-33.4638509835
 31
0.0
  0
LINE
  5
175
330
1F
100
AcDbEntity
  8
0
  6
Continuous
 62
     7
370
    15
100
AcDbLine
 10
493.6194233536
 20
-35.1638350571
 30
0.0
 11
493.6194233536
 21
-33.4638509835
 31
0.0
  0
LINE
  5
176
330
1F
100
AcDbEntity
  8
0
  6
Continuous
 62
     7
370
    15
100
AcDbLine
 10
493.6194233536
 20
-35.1638350571
 30
0.0
 11
583.6194269298
 21
-35.1638350571
 31
0.0
  0
LINE
  5
177
330
1F
100
AcDbEntity
  8
0
  6
Continuous
 62
     7
370
    15
100
AcDbLine
 10
538.6194102405
 20
-98.1638584221
 30
0.0
 11
507.6597742676
 21
-98.1638584221
 31
0.0
  0
LINE
  5
178
330
1F
100
AcDbEntity
  8
0
  6
Continuous
 62
     7
370
    15
100
AcDbLine
 10
569.5790760158
 20
-98.1638584221
 30
0.0
 11
538.6194102405
 21
-98.1638584221
 31
0.0
  0
LINE
  5
179
330
1F
100
AcDbEntity
  8
0
  6
Continuous
 62
     7
370
    15
100
AcDbLine
 10
-79.3705768944
 20
267.4861509418
 30
0.0
 11
-79.3705768944
 21
234.5861511835
 31
0.0
  0
LINE
  5
17A
330
1F
100
AcDbEntity
  8
0
  6
Continuous
 62
     7
370
    15
100
AcDbLine
 10
-79.3705768944
 20
267.4861509418
 30
0.0
 11
589.6094255089
 21
267.4861509418
 31
0.0
  0
LINE
  5
17B
330
1F
100
AcDbEntity
  8
0
  6
Continuous
 62
     7
370
    15
100
AcDbLine
 10
589.6094255089
 20
234.5861511835
 30
0.0
 11
589.6094255089
 21
267.4861509418
 31
0.0
  0
LINE
  5
17C
330
1F
100
AcDbEntity
  8
0
  6
Continuous
 62
     7
370
    15
100
AcDbLine
 10
-79.3705768944
 20
234.5861511835
 30
0.0
 11
589.6094255089
 21
234.5861511835
 31
0.0
  0
LINE
  5
17D
330
1F
100
AcDbEntity
  8
0
  6
Continuous
 62
     7
370
    15
100
AcDbLine
 10
589.6094255089
 20
234.5861511835
 30
0.0
 11
589.6094255089
 21
232.1361511545
 31
0.0
  0
LINE
  5
17E
330
1F
100
AcDbEntity
  8
0
  6
Continuous
 62
     7
370
    15
100
AcDbLine
 10
589.6094255089
 20
269.9361514365
 30
0.0
 11
589.6094255089
 21
267.4861509418
 31
0.0
  0
LINE
  5
17F
330
1F
100
AcDbEntity
  8
0
  6
Continuous
 62
     7
370
    15
100
AcDbLine
 10
-79.3705768944
 20
269.9361514365
 30
0.0
 11
589.6094255089
 21
269.9361514365
 31
0.0
  0
LWPOLYLINE
  5
180
330
1F
100
AcDbEntity
  8
0
  6
Continuous
 62
     7
370
    15
100
AcDbPolyline
 90
        3
 70
   128
 43
0.0
 10
-113.1517179371
 20
277.9532220279
 10
-113.1565459133
 20
277.9300134694
 10
-113.1805665852
 20
277.6861522412
  0
LINE
  5
181
330
1F
100
AcDbEntity
  8
0
  6
Continuous
 62
     7
370
    15
100
AcDbLine
 10
-113.1805665852
 20
277.6861522412
 30
0.0
 11
-114.3805868984
 21
277.6861522412
 31
0.0
  0
ARC
  5
182
330
1F
100
AcDbEntity
  8
0
  6
Continuous
 62
     7
370
    15
100
AcDbCircle
 10
-111.9305750962
 20
277.6861512045
 30
0.0
 40
2.450000000000026
100
AcDbArc
 50
113.3114456817
 51
180.0
  0
LINE
  5
183
330
1F
100
AcDbEntity
  8
0
  6
Continuous
 62
     7
370
    15
100
AcDbLine
 10
-114.3805868984
 20
232.1361511545
 30
0.0
 11
-113.1805665852
 21
232.1361511545
 31
0.0
  0
LINE
  5
184
330
1F
100
AcDbEntity
  8
0
  6
Continuous
 62
     7
370
    15
100
AcDbLine
 10
-113.1805665852
 20
277.6861522412
 30
0.0
 11
-113.1805665852
 21
232.1361511545
 31
0.0
  0
LINE
  5
185
330
1F
100
AcDbEntity
  8
0
  6
Continuous
 62
     7
370
    15
100
AcDbLine
 10
-114.3805868984
 20
277.6861522412
 30
0.0
 11
-114.3805868984
 21
232.1361511545
 31
0.0
  0
ARC
  5
186
330
1F
100
AcDbEntity
  8
0
  6
Continuous
 62
     7
370
    15
100
AcDbCircle
 10
-81.8305750962
 20
277.6861512045
 30
0.0
 40
2.450000000000041
100
AcDbArc
 50
9.5338295107
 51
66.6885543183
  0
LINE
  5
187
330
1F
100
AcDbEntity
  8
0
  6
Continuous
 62
     7
370
    15
100
AcDbLine
 10
590.2301780819
 20
268.7361497497
 30
0.0
 11
590.0694243549
 21
268.7361497497
 31
0.0
  0
LINE
  5
188
330
1F
100
AcDbEntity
  8
0
  6
Continuous
 62
     7
370
    15
100
AcDbLine
 10
590.0694243549
 20
269.9361514365
 30
0.0
 11
590.0694243549
 21
268.7361497497
 31
0.0
  0
LINE
  5
189
330
1F
100
AcDbEntity
  8
0
  6
Continuous
 62
     7
370
    15
100
AcDbLine
 10
629.0003471016
 20
269.9361514365
 30
0.0
 11
590.0694243549
 21
269.9361514365
 31
0.0
  0
LINE
  5
18A
330
1F
100
AcDbEntity
  8
0
  6
Continuous
 62
     7
370
    15
100
AcDbLine
 10
615.0256805061
 20
215.41074068
 30
0.0
 11
615.1200942634
 21
215.1935692941
 31
0.0
  0
LINE
  5
18B
330
1F
100
AcDbEntity
  8
0
  6
Continuous
 62
     7
370
    15
100
AcDbLine
 10
615.1200942634
 20
215.1935692941
 30
0.0
 11
638.2912211059
 21
225.2686513653
 31
0.0
  0
ARC
  5
18C
330
1F
100
AcDbEntity
  8
0
  6
Continuous
 62
     7
370
    15
100
AcDbCircle
 10
629.0003552329
 20
246.6361512045
 30
0.0
 40
23.30000000000001
100
AcDbArc
 50
293.5
 51
90.0
  0
LINE
  5
18D
330
1F
100
AcDbEntity
  8
0
  6
Continuous
 62
     7
370
    15
100
AcDbLine
 10
590.0694243549
 20
269.9361514365
 30
0.0
 11
589.6094255089
 21
269.8925804412
 31
0.0
  0
LWPOLYLINE
  5
18E
330
1F
100
AcDbEntity
  8
0
  6
Continuous
 62
     7
370
    15
100
AcDbPolyline
 90
        3
 70
   128
 43
0.0
 10
590.0694243549
 20
268.7361497497
 10
589.8255519508
 20
268.7121328031
 10
589.6094255089
 20
268.6484340643
  0
LINE
  5
18F
330
1F
100
AcDbEntity
  8
0
  6
Continuous
 62
     7
370
    15
100
AcDbLine
 10
654.5944325565
 20
92.8482558643
 30
0.0
 11
654.5944325565
 21
93.6482545053
 31
0.0
  0
LINE
  5
190
330
1F
100
AcDbEntity
  8
0
  6
Continuous
 62
     7
370
    15
100
AcDbLine
 10
595.950346434
 20
93.6482545053
 30
0.0
 11
595.950346434
 21
92.8482558643
 31
0.0
  0
LINE
  5
191
330
1F
100
AcDbEntity
  8
0
  6
Continuous
 62
     7
370
    15
100
AcDbLine
 10
595.950346434
 20
93.6482545053
 30
0.0
 11
654.5944325565
 21
93.6482545053
 31
0.0
  0
LINE
  5
192
330
1F
100
AcDbEntity
  8
0
  6
Continuous
 62
     7
370
    15
100
AcDbLine
 10
595.950346434
 20
92.8482558643
 30
0.0
 11
654.5944325565
 21
92.8482558643
 31
0.0
  0
LINE
  5
193
330
1F
100
AcDbEntity
  8
0
  6
Continuous
 62
     7
370
    15
100
AcDbLine
 10
595.950346434
 20
215.1359334653
 30
0.0
 11
595.950346434
 21
214.3359329616
 31
0.0
  0
LINE
  5
194
330
1F
100
AcDbEntity
  8
0
  6
Continuous
 62
     7
370
    15
100
AcDbLine
 10
593.9503423809
 20
214.3359329616
 30
0.0
 11
593.9503423809
 21
215.1359334653
 31
0.0
  0
LINE
  5
195
330
1F
100
AcDbEntity
  8
0
  6
Continuous
 62
     7
370
    15
100
AcDbLine
 10
595.950346434
 20
214.3359329616
 30
0.0
 11
593.9503423809
 21
214.3359329616
 31
0.0
  0
LINE
  5
196
330
1F
100
AcDbEntity
  8
0
  6
Continuous
 62
     7
370
    15
100
AcDbLine
 10
593.9503423809
 20
215.1359334653
 30
0.0
 11
595.950346434
 21
215.1359334653
 31
0.0
  0
LINE
  5
197
330
1F
100
AcDbEntity
  8
0
  6
Continuous
 62
     7
370
    15
100
AcDbLine
 10
593.9503423809
 20
92.8482558643
 30
0.0
 11
593.9503423809
 21
93.6482545053
 31
0.0
  0
LINE
  5
198
330
1F
100
AcDbEntity
  8
0
  6
Continuous
 62
     7
370
    15
100
AcDbLine
 10
593.9503423809
 20
93.6482545053
 30
0.0
 11
595.950346434
 21
93.6482545053
 31
0.0
  0
LINE
  5
199
330
1F
100
AcDbEntity
  8
0
  6
Continuous
 62
     7
370
    15
100
AcDbLine
 10
595.950346434
 20
92.8482558643
 30
0.0
 11
593.9503423809
 21
92.8482558643
 31
0.0
  0
LINE
  5
19A
330
1F
100
AcDbEntity
  8
0
  6
Continuous
 62
     7
370
    15
100
AcDbLine
 10
612.1895126938
 20
214.3359329616
 30
0.0
 11
612.1895126938
 21
215.1359334653
 31
0.0
  0
LINE
  5
19B
330
1F
100
AcDbEntity
  8
0
  6
Continuous
 62
     7
370
    15
100
AcDbLine
 10
595.950346434
 20
214.3359329616
 30
0.0
 11
612.1895126938
 21
214.3359329616
 31
0.0
  0
LINE
  5
19C
330
1F
100
AcDbEntity
  8
0
  6
Continuous
 62
     7
370
    15
100
AcDbLine
 10
595.950346434
 20
215.1359334653
 30
0.0
 11
612.1895126938
 21
215.1359334653
 31
0.0
  0
LINE
  5
19D
330
1F
100
AcDbEntity
  8
0
  6
Continuous
 62
     7
370
    15
100
AcDbLine
 10
637.7024464249
 20
138.6102732336
 30
0.0
 11
638.4632997154
 21
138.8574834978
 31
0.0
  0
LINE
  5
19E
330
1F
100
AcDbEntity
  8
0
  6
Continuous
 62
     7
370
    15
100
AcDbLine
 10
637.7024464249
 20
138.6102732336
 30
0.0
 11
613.3783273338
 21
213.4722057795
 31
0.0
  0
LINE
  5
19F
330
1F
100
AcDbEntity
  8
0
  6
Continuous
 62
     7
370
    15
100
AcDbLine
 10
613.3783273338
 20
213.4722057795
 30
0.0
 11
614.1391806244
 21
213.7194179063
 31
0.0
  0
LINE
  5
1A0
330
1F
100
AcDbEntity
  8
0
  6
Continuous
 62
     7
370
    15
100
AcDbLine
 10
638.4632997154
 20
138.8574834978
 30
0.0
 11
614.1391806244
 21
213.7194179063
 31
0.0
  0
ARC
  5
1A1
330
1F
100
AcDbEntity
  8
0
  6
Continuous
 62
     7
370
    15
100
AcDbCircle
 10
612.1895160487
 20
213.0859338121
 30
0.0
 40
2.049999999999992
100
AcDbArc
 50
18.0
 51
90.0
  0
ARC
  5
1A2
330
1F
100
AcDbEntity
  8
0
  6
Continuous
 62
     7
370
    15
100
AcDbCircle
 10
612.1895160487
 20
213.0859338121
 30
0.0
 40
1.249999999999915
100
AcDbArc
 50
18.0
 51
90.0
  0
LINE
  5
1A3
330
1F
100
AcDbEntity
  8
0
  6
Continuous
 62
     7
370
    15
100
AcDbLine
 10
655.5519811748
 20
94.0947678005
 30
0.0
 11
656.1648063301
 21
93.5805436289
 31
0.0
  0
LINE
  5
1A4
330
1F
100
AcDbEntity
  8
0
  6
Continuous
 62
     7
370
    15
100
AcDbLine
 10
655.5519811748
 20
94.0947678005
 30
0.0
 11
667.9706685184
 21
108.8948097145
 31
0.0
  0
LINE
  5
1A5
330
1F
100
AcDbEntity
  8
0
  6
Continuous
 62
     7
370
    15
100
AcDbLine
 10
668.583523476
 20
108.3805706417
 30
0.0
 11
667.9706685184
 21
108.8948097145
 31
0.0
  0
LINE
  5
1A6
330
1F
100
AcDbEntity
  8
0
  6
Continuous
 62
     7
370
    15
100
AcDbLine
 10
656.1648063301
 20
93.5805436289
 30
0.0
 11
668.583523476
 21
108.3805706417
 31
0.0
  0
LINE
  5
1A7
330
1F
100
AcDbEntity
  8
0
  6
Continuous
 62
     7
370
    15
100
AcDbLine
 10
663.7304536938
 20
124.7196119344
 30
0.0
 11
664.0040688156
 21
125.4713606154
 31
0.0
  0
LINE
  5
1A8
330
1F
100
AcDbEntity
  8
0
  6
Continuous
 62
     7
370
    15
100
AcDbLine
 10
644.5536725162
 20
132.5507309353
 30
0.0
 11
644.2800573944
 21
131.7989748036
 31
0.0
  0
LINE
  5
1A9
330
1F
100
AcDbEntity
  8
0
  6
Continuous
 62
     7
370
    15
100
AcDbLine
 10
664.0040688156
 20
125.4713606154
 30
0.0
 11
644.5536725162
 21
132.5507309353
 31
0.0
  0
LINE
  5
1AA
330
1F
100
AcDbEntity
  8
0
  6
Continuous
 62
     7
370
    15
100
AcDbLine
 10
663.7304536938
 20
124.7196119344
 30
0.0
 11
644.2800573944
 21
131.7989748036
 31
0.0
  0
ARC
  5
1AB
330
1F
100
AcDbEntity
  8
0
  6
Continuous
 62
     7
370
    15
100
AcDbCircle
 10
647.9738640236
 20
141.9476542901
 30
0.0
 40
10.80000000000004
100
AcDbArc
 50
198.0
 51
250.0
  0
ARC
  5
1AC
330
1F
100
AcDbEntity
  8
0
  6
Continuous
 62
     7
370
    15
100
AcDbCircle
 10
647.9738640236
 20
141.9476542901
 30
0.0
 40
10.00000000000004
100
AcDbArc
 50
198.0
 51
250.0
  0
ARC
  5
1AD
330
1F
100
AcDbEntity
  8
0
  6
Continuous
 62
     7
370
    15
100
AcDbCircle
 10
654.5944245337
 20
94.898259285
 30
0.0
 40
1.250000000000069
100
AcDbArc
 50
270.0
 51
320.0
  0
ARC
  5
1AE
330
1F
100
AcDbEntity
  8
0
  6
Continuous
 62
     7
370
    15
100
AcDbCircle
 10
654.5944245337
 20
94.898259285
 30
0.0
 40
2.050000000000062
100
AcDbArc
 50
270.0
 51
320.0
  0
ARC
  5
1AF
330
1F
100
AcDbEntity
  8
0
  6
Continuous
 62
     7
370
    15
100
AcDbCircle
 10
660.3102378028
 20
115.3226837682
 30
0.0
 40
9.999999999999982
100
AcDbArc
 50
320.0
 51
70.0
  0
ARC
  5
1B0
330
1F
100
AcDbEntity
  8
0
  6
Continuous
 62
     7
370
    15
100
AcDbCircle
 10
660.3102378028
 20
115.3226837682
 30
0.0
 40
10.8
100
AcDbArc
 50
320.0
 51
70.0
  0
LWPOLYLINE
  5
1B1
330
1F
100
AcDbEntity
  8
0
  6
Continuous
 62
     7
370
    15
100
AcDbPolyline
 90
        3
 70
   128
 43
0.0
 10
612.8926388859
 20
215.1359334653
 10
612.9019372105
 20
215.0507938182
 10
612.9083447098
 20
215.0057792728
  0
LINE
  5
1B2
330
1F
100
AcDbEntity
  8
0
  6
Continuous
 62
     7
370
    15
100
AcDbLine
 10
613.6977486252
 20
215.1359334653
 30
0.0
 11
613.7458793758
 21
214.9298839336
 31
0.0
  0
LINE
  5
1B3
330
1F
100
AcDbEntity
  8
0
  6
Continuous
 62
     7
370
    15
100
AcDbLine
 10
613.7458793758
 20
214.9298839336
 30
0.0
 11
614.1391806244
 21
213.7194179063
 31
0.0
  0
ARC
  5
1B4
330
1F
100
AcDbEntity
  8
0
  6
Continuous
 62
     7
370
    15
100
AcDbCircle
 10
615.0473600671
 20
214.9694186506
 30
0.0
 40
1.250000000000189
100
AcDbArc
 50
172.3447513296
 51
198.0
  0
LINE
  5
1B5
330
1F
100
AcDbEntity
  8
0
  6
Continuous
 62
     7
370
    15
100
AcDbLine
 10
627.3503415226
 20
92.3482623016
 30
0.0
 11
619.3503551124
 21
92.3482623016
 31
0.0
  0
LINE
  5
1B6
330
1F
100
AcDbEntity
  8
0
  6
Continuous
 62
     7
370
    15
100
AcDbLine
 10
656.0194306015
 20
30.9861447727
 30
0.0
 11
656.0194306015
 21
42.4152907049
 31
0.0
  0
LINE
  5
1B7
330
1F
100
AcDbEntity
  8
0
  6
Continuous
 62
     7
370
    15
100
AcDbLine
 10
656.0194306015
 20
19.5570137417
 30
0.0
 11
656.0194306015
 21
30.9861447727
 31
0.0
  0
LINE
  5
1B8
330
1F
100
AcDbEntity
  8
0
  6
Continuous
 62
     7
370
    15
100
AcDbLine
 10
670.5194227337
 20
26.0861512338
 30
0.0
 11
670.5194227337
 21
30.9861447727
 31
0.0
  0
LINE
  5
1B9
330
1F
100
AcDbEntity
  8
0
  6
Continuous
 62
     7
370
    15
100
AcDbLine
 10
-131.7805834175
 20
35.3077199375
 30
0.0
 11
-131.7805834175
 21
35.336151353
 31
0.0
  0
LINE
  5
1BA
330
1F
100
AcDbEntity
  8
0
  6
Continuous
 62
     7
370
    15
100
AcDbLine
 10
-131.7805834175
 20
13.3361514723
 30
0.0
 11
-131.7805834175
 21
35.3077199375
 31
0.0
  0
LINE
  5
1BB
330
1F
100
AcDbEntity
  8
0
  6
Continuous
 62
     7
370
    15
100
AcDbLine
 10
-133.7805874706
 20
33.3128865873
 30
0.0
 11
-133.7805874706
 21
33.3361472999
 31
0.0
  0
LINE
  5
1BC
330
1F
100
AcDbEntity
  8
0
  6
Continuous
 62
     7
370
    15
100
AcDbLine
 10
-133.7805874706
 20
15.3361555254
 30
0.0
 11
-133.7805874706
 21
33.3128865873
 31
0.0
  0
LINE
  5
1BD
330
1F
100
AcDbEntity
  8
0
  6
Continuous
 62
     7
370
    15
100
AcDbLine
 10
650.6492011188
 20
-31.5825793827
 30
0.0
 11
650.8003883003
 21
-31.4138386334
 31
0.0
  0
LINE
  5
1BE
330
1F
100
AcDbEntity
  8
0
  6
Continuous
 62
     7
370
    15
100
AcDbLine
 10
652.7194194435
 20
59.0861585056
 30
0.0
 11
654.3194167255
 21
59.0861585056
 31
0.0
  0
SPLINE
  5
1BF
330
1F
100
AcDbEntity
  8
0
  6
Continuous
 62
     7
370
    15
100
AcDbSpline
210
0.0
220
0.0
230
1.0
 70
    24
 71
     3
 72
    11
 73
     7
 74
     0
 42
0.00000001
 43
0.00000001
 40
0.0
 40
0.0
 40
0.0
 40
0.0
 40
0.2833563126583961
 40
0.5581039516594536
 40
0.775483069848563
 40
1.0
 40
1.0
 40
1.0
 40
1.0
 10
654.3194167255293
 20
57.09177219026146
 30
0.0
 10
654.3194167255293
 20
57.38882201567419
 30
0.0
 10
654.3194167255293
 20
57.97389696899802
 30
0.0
 10
654.3194167255294
 20
58.6220303124331
 30
0.0
 10
654.3194167255293
 20
59.01591602871073
 30
0.0
 10
654.3194167255293
 20
59.06249356241428
 30
0.0
 10
654.3194167255293
 20
59.08615850560722
 30
0.0
  0
LINE
  5
1C0
330
1F
100
AcDbEntity
  8
0
  6
Continuous
 62
     7
370
    15
100
AcDbLine
 10
652.7194194435
 20
57.0917721903
 30
0.0
 11
654.3194167255
 21
57.0917721903
 31
0.0
  0
LINE
  5
1C1
330
1F
100
AcDbEntity
  8
0
  6
Continuous
 62
     7
370
    15
100
AcDbLine
 10
652.7194194435
 20
1.0801401054
 30
0.0
 11
654.3194167255
 21
1.0801401054
 31
0.0
  0
SPLINE
  5
1C2
330
1F
100
AcDbEntity
  8
0
  6
Continuous
 62
     7
370
    15
100
AcDbSpline
210
0.0
220
0.0
230
1.0
 70
    24
 71
     3
 72
    11
 73
     7
 74
     0
 42
0.00000001
 43
0.00000001
 40
0.0
 40
0.0
 40
0.0
 40
0.0
 40
0.2832785355327876
 40
0.5580054923007601
 40
0.7754050878180899
 40
1.0
 40
1.0
 40
1.0
 40
1.0
 10
654.3194167255293
 20
-0.9138438785785685
 30
0.0
 10
654.3194167255292
 20
-0.8755625135897505
 30
0.0
 10
654.3194167255294
 20
-0.8001554169089764
 30
0.0
 10
654.3194167255291
 20
-0.2672146556675914
 30
0.0
 10
654.3194167255293
 20
0.38320979063447
 30
0.0
 10
654.3194167255293
 20
0.8453223927771814
 30
0.0
 10
654.3194167255293
 20
1.080140105414962
 30
0.0
  0
LINE
  5
1C3
330
1F
100
AcDbEntity
  8
0
  6
Continuous
 62
     7
370
    15
100
AcDbLine
 10
652.7194194435
 20
-0.9138438786
 30
0.0
 11
654.3194167255
 21
-0.9138438786
 31
0.0
  0
LINE
  5
1C4
330
1F
100
AcDbEntity
  8
0
  6
Continuous
 62
     7
370
    15
100
AcDbLine
 10
-135.7805617214
 20
35.3077199375
 30
0.0
 11
-135.7805617214
 21
35.336151353
 31
0.0
  0
LINE
  5
1C5
330
1F
100
AcDbEntity
  8
0
  6
Continuous
 62
     7
370
    15
100
AcDbLine
 10
-135.7805617214
 20
13.3361514723
 30
0.0
 11
-135.7805617214
 21
35.3077199375
 31
0.0
  0
LINE
  5
1C6
330
1F
100
AcDbEntity
  8
0
  6
Continuous
 62
     7
370
    15
100
AcDbLine
 10
-137.7805657745
 20
33.3128865873
 30
0.0
 11
-137.7805657745
 21
33.3361472999
 31
0.0
  0
LINE
  5
1C7
330
1F
100
AcDbEntity
  8
0
  6
Continuous
 62
     7
370
    15
100
AcDbLine
 10
-137.7805657745
 20
15.3361555254
 30
0.0
 11
-137.7805657745
 21
33.3128865873
 31
0.0
  0
LINE
  5
1C8
330
1F
100
AcDbEntity
  8
0
  6
Continuous
 62
     7
370
    15
100
AcDbLine
 10
-139.7805698277
 20
35.3077199375
 30
0.0
 11
-139.7805698277
 21
35.336151353
 31
0.0
  0
LINE
  5
1C9
330
1F
100
AcDbEntity
  8
0
  6
Continuous
 62
     7
370
    15
100
AcDbLine
 10
-139.7805698277
 20
13.3361514723
 30
0.0
 11
-139.7805698277
 21
35.3077199375
 31
0.0
  0
LINE
  5
1CA
330
1F
100
AcDbEntity
  8
0
  6
Continuous
 62
     7
370
    15
100
AcDbLine
 10
671.7194132446
 20
54.685935012
 30
0.0
 11
671.7194132446
 21
59.4861503755
 31
0.0
  0
SPLINE
  5
1CB
330
1F
100
AcDbEntity
  8
0
  6
Continuous
 62
     7
370
    15
100
AcDbSpline
210
0.0
220
0.0
230
1.0
 70
     8
 71
     3
 72
     9
 73
     5
 74
     0
 42
0.00000001
 43
0.00000001
 40
0.0
 40
0.0
 40
0.0
 40
0.0
 40
0.5209725205107094
 40
1.0
 40
1.0
 40
1.0
 40
1.0
 10
671.0908226608168
 20
53.58122252576408
 30
0.0
 10
671.1189101535373
 20
53.82498586718229
 30
0.0
 10
671.1728237317299
 20
54.29288644124566
 30
0.0
 10
671.54238381122
 20
54.55863442513115
 30
0.0
 10
671.7194132446181
 20
54.68593501203117
 30
0.0
  0
LINE
  5
1CC
330
1F
100
AcDbEntity
  8
0
  6
Continuous
 62
     7
370
    15
100
AcDbLine
 10
671.0908226608
 20
8.3910819208
 30
0.0
 11
671.0908226608
 21
53.5812225258
 31
0.0
  0
SPLINE
  5
1CD
330
1F
100
AcDbEntity
  8
0
  6
Continuous
 62
     7
370
    15
100
AcDbSpline
210
0.0
220
0.0
230
1.0
 70
     8
 71
     3
 72
     9
 73
     5
 74
     0
 42
0.00000001
 43
0.00000001
 40
0.0
 40
0.0
 40
0.0
 40
0.0
 40
0.4790274794892906
 40
1.0
 40
1.0
 40
1.0
 40
1.0
 10
671.7194132446181
 20
7.286369434524154
 30
0.0
 10
671.54238381122
 20
7.413670021424151
 30
0.0
 10
671.1728237317299
 20
7.679418005309635
 30
0.0
 10
671.1189101535373
 20
8.147318579373064
 30
0.0
 10
671.0908226608168
 20
8.391081920791244
 30
0.0
  0
LINE
  5
1CE
330
1F
100
AcDbEntity
  8
0
  6
Continuous
 62
     7
370
    15
100
AcDbLine
 10
671.7194132446
 20
2.486154071
 30
0.0
 11
671.7194132446
 21
7.2863694345
 31
0.0
  0
SPLINE
  5
1CF
330
1F
100
AcDbEntity
  8
0
  6
Continuous
 62
     7
370
    15
100
AcDbSpline
210
0.0
220
0.0
230
1.0
 70
     8
 71
     3
 72
    16
 73
    12
 74
     0
 42
0.00000001
 43
0.00000001
 40
0.0
 40
0.0
 40
0.0
 40
0.0
 40
0.0000580797084852
 40
0.1251215178161621
 40
0.250090146750996
 40
0.3750590968996734
 40
0.5000243172108667
 40
0.6249885967428975
 40
0.7499529194794867
 40
0.874915360856025
 40
1.0
 40
1.0
 40
1.0
 40
1.0
 10
664.0407554744612
 20
62.55760752313194
 30
0.0
 10
664.0407355967018
 20
62.55762243035964
 30
0.0
 10
663.9979128023467
 20
62.58973717417446
 30
0.0
 10
664.1779318054732
 20
62.48510080197897
 30
0.0
 10
664.6557899962411
 20
62.26366343630738
 30
0.0
 10
665.4213899510347
 20
61.91516979282691
 30
0.0
 10
666.3241867646279
 20
61.5369533911429
 30
0.0
 10
667.2424726129724
 20
61.18493794286814
 30
0.0
 10
668.0231019566978
 20
60.91198673508377
 30
0.0
 10
668.5742235746781
 20
60.7343596657082
 30
0.0
 10
668.6467317987581
 20
60.71193302327679
 30
0.0
 10
668.6830036281477
 20
60.70071422212181
 30
0.0
  0
LINE
  5
1D0
330
1F
100
AcDbEntity
  8
0
  6
Continuous
 62
     7
370
    15
100
AcDbLine
 10
661.7194227814
 20
-1.5138540352
 30
0.0
 11
661.7194227814
 21
25.6263908064
 31
0.0
  0
LINE
  5
1D1
330
1F
100
AcDbEntity
  8
0
  6
Continuous
 62
     7
370
    15
100
AcDbLine
 10
661.7194227814
 20
36.3861467754
 30
0.0
 11
661.7194227814
 21
63.4861584818
 31
0.0
  0
LINE
  5
1D2
330
1F
100
AcDbEntity
  8
0
  6
Continuous
 62
     7
370
    15
100
AcDbLine
 10
671.7194132446
 20
52.8515573656
 30
0.0
 11
671.7194132446
 21
9.120747081
 31
0.0
  0
ARC
  5
1D3
330
1F
100
AcDbEntity
  8
0
  6
Continuous
 62
     7
370
    15
100
AcDbCircle
 10
670.9076413004
 20
9.1844797612
 30
0.0
 40
0.8142699453633263
100
AcDbArc
 50
283.0007566513
 51
355.5108839303
  0
ARC
  5
1D4
330
1F
100
AcDbEntity
  8
0
  6
Continuous
 62
     7
370
    15
100
AcDbCircle
 10
670.9076413004
 20
52.7878246854
 30
0.0
 40
0.8142699453633211
100
AcDbArc
 50
4.4891160697
 51
76.9992433487
  0
SPLINE
  5
1D5
330
1F
100
AcDbEntity
  8
0
  6
Continuous
 62
     7
370
    15
100
AcDbSpline
210
0.0
220
0.0
230
1.0
 70
     8
 71
     3
 72
    12
 73
     8
 74
     0
 42
0.00000001
 43
0.00000001
 40
0.0
 40
0.0
 40
0.0
 40
0.0
 40
0.0304821234999106
 40
0.0888193659450202
 40
0.3925618908119862
 40
0.6962869891348119
 40
1.0
 40
1.0
 40
1.0
 40
1.0
 10
672.1761338352095
 20
53.70227955930287
 30
0.0
 10
672.1763744453788
 20
53.71288632870625
 30
0.0
 10
672.1770755396672
 20
53.74379252633823
 30
0.0
 10
672.1732174349377
 20
53.88183107828309
 30
0.0
 10
672.1243040308798
 20
54.12179361775352
 30
0.0
 10
671.9706753480613
 20
54.43101272606382
 30
0.0
 10
671.811888372213
 20
54.58245467902431
 30
0.0
 10
671.7324964641463
 20
54.65817414872703
 30
0.0
  0
SPLINE
  5
1D6
330
1F
100
AcDbEntity
  8
0
  6
Continuous
 62
     7
370
    15
100
AcDbSpline
210
0.0
220
0.0
230
1.0
 70
     8
 71
     3
 72
     9
 73
     5
 74
     0
 42
0.00000001
 43
0.00000001
 40
0.0
 40
0.0
 40
0.0
 40
0.0
 40
0.4684414473195182
 40
1.0
 40
1.0
 40
1.0
 40
1.0
 10
672.1761338352095
 20
53.7022795593029
 30
0.0
 10
672.049445578869
 20
53.61326880119105
 30
0.0
 10
671.7789992785567
 20
53.42325410752732
 30
0.0
 10
671.7400937898736
 20
53.04997635008099
 30
0.0
 10
671.7194132446181
 20
52.85155736558495
 30
0.0
  0
SPLINE
  5
1D7
330
1F
100
AcDbEntity
  8
0
  6
Continuous
 62
     7
370
    15
100
AcDbSpline
210
0.0
220
0.0
230
1.0
 70
     8
 71
     3
 72
    11
 73
     7
 74
     0
 42
0.00000001
 43
0.00000001
 40
0.0
 40
0.0
 40
0.0
 40
0.0
 40
0.3705958859612836
 40
0.743955442228858
 40
0.9440640987048499
 40
1.0
 40
1.0
 40
1.0
 40
1.0
 10
671.7194132446181
 20
54.68593501203117
 30
0.0
 10
671.7195820823944
 20
54.68278010724784
 30
0.0
 10
671.7199210170327
 20
54.67644677039171
 30
0.0
 10
671.723704658642
 20
54.66727953107004
 30
0.0
 10
671.7290596493611
 20
54.66100755653886
 30
0.0
 10
671.7318802674357
 20
54.65868215881262
 30
0.0
 10
671.7324964641463
 20
54.65817414872703
 30
0.0
  0
SPLINE
  5
1D8
330
1F
100
AcDbEntity
  8
0
  6
Continuous
 62
     7
370
    15
100
AcDbSpline
210
0.0
220
0.0
230
1.0
 70
     8
 71
     3
 72
     9
 73
     5
 74
     0
 42
0.00000001
 43
0.00000001
 40
0.0
 40
0.0
 40
0.0
 40
0.0
 40
0.5315567618628744
 40
0.9999999999999999
 40
0.9999999999999999
 40
0.9999999999999999
 40
0.9999999999999999
 10
671.7194132446181
 20
9.120747080970382
 30
0.0
 10
671.7400941013951
 20
8.922329430483849
 30
0.0
 10
671.7790003072058
 20
8.54905292509034
 30
0.0
 10
672.0494455771961
 20
8.359026554474125
 30
0.0
 10
672.1761338352095
 20
8.270009986091232
 30
0.0
  0
SPLINE
  5
1D9
330
1F
100
AcDbEntity
  8
0
  6
Continuous
 62
     7
370
    15
100
AcDbSpline
210
0.0
220
0.0
230
1.0
 70
     8
 71
     3
 72
    12
 73
     8
 74
     0
 42
0.00000001
 43
0.00000001
 40
0.0
 40
0.0
 40
0.0
 40
0.0
 40
0.2499999999999991
 40
0.2499999999999991
 40
0.4999999999999981
 40
0.4999999999999981
 40
1.0
 40
1.0
 40
1.0
 40
1.0
 10
671.7324907857853
 20
7.314136582837111
 30
0.0
 10
671.8021367952908
 20
7.370077773394184
 30
0.0
 10
671.8649690218759
 20
7.434388893849592
 30
0.0
 10
671.9773453374214
 20
7.579333891397533
 30
0.0
 10
672.0259265051137
 20
7.659263554502305
 30
0.0
 10
672.1423697459838
 20
7.909932537533471
 30
0.0
 10
672.1817534804824
 20
8.096542675517654
 30
0.0
 10
672.1761351756558
 20
8.270015622636183
 30
0.0
  0
SPLINE
  5
1DA
330
1F
100
AcDbEntity
  8
0
  6
Continuous
 62
     7
370
    15
100
AcDbSpline
210
0.0
220
0.0
230
1.0
 70
     8
 71
     3
 72
    10
 73
     6
 74
     0
 42
0.00000001
 43
0.00000001
 40
0.0
 40
0.0
 40
0.0
 40
0.0
 40
0.2120356695405076
 40
0.4883829647365568
 40
1.0
 40
1.0
 40
1.0
 40
1.0
 10
671.7324964641463
 20
7.314130297828292
 30
0.0
 10
671.7303208288904
 20
7.312117908934102
 30
0.0
 10
671.7253096758204
 20
7.307482762137941
 30
0.0
 10
671.7202309105945
 20
7.297530211661352
 30
0.0
 10
671.7197351420026
 20
7.290763190745037
 30
0.0
 10
671.7194132446181
 20
7.286369434524154
 30
0.0
  0
SPLINE
  5
1DB
330
1F
100
AcDbEntity
  8
0
  6
Continuous
 62
     7
370
    15
100
AcDbSpline
210
0.0
220
0.0
230
1.0
 70
     8
 71
     3
 72
    11
 73
     7
 74
     0
 42
0.00000001
 43
0.00000001
 40
0.0
 40
0.0
 40
0.0
 40
0.0
 40
0.3658297534599547
 40
0.7252616809809118
 40
0.9820712533192011
 40
1.0
 40
1.0
 40
1.0
 40
1.0
 10
674.6670715450178
 20
53.14466320626793
 30
0.0
 10
674.3259993242392
 20
53.3130425206253
 30
0.0
 10
673.6498197356784
 20
53.64685644204159
 30
0.0
 10
672.789795562227
 20
53.82921626197862
 30
0.0
 10
672.3432887854323
 20
53.77382072882286
 30
0.0
 10
672.1863737258915
 20
53.70666216211642
 30
0.0
 10
672.1761338352095
 20
53.7022795593029
 30
0.0
  0
LINE
  5
1DC
330
1F
100
AcDbEntity
  8
0
  6
Continuous
 62
     7
370
    15
100
AcDbLine
 10
674.667071545
 20
53.1446632063
 30
0.0
 11
674.667071545
 21
8.8276412403
 31
0.0
  0
SPLINE
  5
1DD
330
1F
100
AcDbEntity
  8
0
  6
Continuous
 62
     7
370
    15
100
AcDbSpline
210
0.0
220
0.0
230
1.0
 70
     8
 71
     3
 72
    11
 73
     7
 74
     0
 42
0.00000001
 43
0.00000001
 40
0.0
 40
0.0
 40
0.0
 40
0.0
 40
0.2357956634133214
 40
0.2748983740266256
 40
0.6342513682427232
 40
1.0
 40
1.0
 40
1.0
 40
1.0
 10
672.1761338352095
 20
8.270009986091232
 30
0.0
 10
672.3239555735754
 20
8.226680621008093
 30
0.0
 10
672.4962910395224
 20
8.176165815788423
 30
0.0
 10
672.9793994088975
 20
8.185146315447895
 30
0.0
 10
673.6502401442664
 20
8.324784949031605
 30
0.0
 10
674.3261405227101
 20
8.659039730415625
 30
0.0
 10
674.6670715450178
 20
8.827641240287399
 30
0.0
  0
SPLINE
  5
1DE
330
1F
100
AcDbEntity
  8
0
  6
Continuous
 62
     7
370
    15
100
AcDbSpline
210
0.0
220
0.0
230
1.0
 70
     8
 71
     3
 72
    10
 73
     6
 74
     0
 42
0.00000001
 43
0.00000001
 40
0.0
 40
0.0
 40
0.0
 40
0.0
 40
0.5
 40
0.5
 40
1.0
 40
1.0
 40
1.0
 40
1.0
 10
691.1297895811772
 20
14.66549322685551
 30
0.0
 10
688.464231884402
 20
13.44721231694482
 30
0.0
 10
685.789646928116
 20
12.26235444486901
 30
0.0
 10
680.4311819295173
 20
9.937999663788528
 30
0.0
 10
677.7471299481031
 20
8.79891472760838
 30
0.0
 10
675.0599799554279
 20
7.678629252709873
 30
0.0
  0
SPLINE
  5
1DF
330
1F
100
AcDbEntity
  8
0
  6
Continuous
 62
     7
370
    15
100
AcDbSpline
210
0.0
220
0.0
230
1.0
 70
     8
 71
     3
 72
    10
 73
     6
 74
     0
 42
0.00000001
 43
0.00000001
 40
0.0
 40
0.0
 40
0.0
 40
0.0
 40
0.3554430964509104
 40
0.7142368520143481
 40
1.0
 40
1.0
 40
1.0
 40
1.0
 10
675.0599853633772
 20
7.678627601790971
 30
0.0
 10
674.6045083697485
 20
7.513402805881364
 30
0.0
 10
673.6892607328056
 20
7.181395687770237
 30
0.0
 10
672.4987752900945
 20
7.053529125837398
 30
0.0
 10
671.9678716440925
 20
7.234082349647425
 30
0.0
 10
671.7324964641463
 20
7.314130297828292
 30
0.0
  0
ARC
  5
1E0
330
1F
100
AcDbEntity
  8
0
  6
Continuous
 62
     7
370
    15
100
AcDbCircle
 10
670.9380767489
 20
6.9107968137
 30
0.0
 40
4.192814656637259
100
AcDbArc
 50
10.5521357072
 51
27.204878853
  0
SPLINE
  5
1E1
330
1F
100
AcDbEntity
  8
0
  6
Continuous
 62
     7
370
    15
100
AcDbSpline
210
0.0
220
0.0
230
1.0
 70
     8
 71
     3
 72
    12
 73
     8
 74
     0
 42
0.00000001
 43
0.00000001
 40
0.0
 40
0.0
 40
0.0
 40
0.0
 40
0.2238484098096116
 40
0.4477362210271266
 40
0.6717019466640898
 40
0.8956241186319743
 40
1.0
 40
1.0
 40
1.0
 40
1.0
 10
672.388177358998
 20
59.18395482652245
 30
0.0
 10
672.3627869959789
 20
59.19542769823261
 30
0.0
 10
672.3120018007738
 20
59.21837546108788
 30
0.0
 10
672.2465233312676
 20
59.24825929688304
 30
0.0
 10
672.1989011228181
 20
59.27008207623288
 30
0.0
 10
672.1777039367403
 20
59.27986636707413
 30
0.0
 10
672.1759472735216
 20
59.2806972295741
 30
0.0
 10
672.1753887771498
 20
59.28096138589439
 30
0.0
  0
LINE
  5
1E2
330
1F
100
AcDbEntity
  8
0
  6
Continuous
 62
     7
370
    15
100
AcDbLine
 10
672.388177359
 20
59.1839548265
 30
0.0
 11
689.7819153904
 21
51.3027306711
 31
0.0
  0
LINE
  5
1E3
330
1F
100
AcDbEntity
  8
0
  6
Continuous
 62
     7
370
    15
100
AcDbLine
 10
689.7819153904
 20
51.3027306711
 30
0.0
 11
691.129785025
 21
50.6944801723
 31
0.0
  0
LINE
  5
1E4
330
1F
100
AcDbEntity
  8
0
  6
Continuous
 62
     7
370
    15
100
AcDbLine
 10
691.129785025
 20
47.306805483
 30
0.0
 11
691.129785025
 21
50.6944801723
 31
0.0
  0
SPLINE
  5
1E5
330
1F
100
AcDbEntity
  8
0
  6
Continuous
 62
     7
370
    15
100
AcDbSpline
210
0.0
220
0.0
230
1.0
 70
     8
 71
     3
 72
    10
 73
     6
 74
     0
 42
0.00000001
 43
0.00000001
 40
0.0
 40
0.0
 40
0.0
 40
0.0
 40
0.5
 40
0.5
 40
1.0
 40
1.0
 40
1.0
 40
1.0
 10
675.0599799554279
 20
54.29367315623054
 30
0.0
 10
677.7471299481031
 20
53.17338768133198
 30
0.0
 10
680.4311819295175
 20
52.03430274515192
 30
0.0
 10
685.7896469281159
 20
49.7099479640715
 30
0.0
 10
688.4642318844021
 20
48.5250900919956
 30
0.0
 10
691.1297895811772
 20
47.3068091820849
 30
0.0
  0
SPLINE
  5
1E6
330
1F
100
AcDbEntity
  8
0
  6
Continuous
 62
     7
370
    15
100
AcDbSpline
210
0.0
220
0.0
230
1.0
 70
     8
 71
     3
 72
    10
 73
     6
 74
     0
 42
0.00000001
 43
0.00000001
 40
0.0
 40
0.0
 40
0.0
 40
0.0
 40
0.285763147985652
 40
0.6445569035490897
 40
1.0
 40
1.0
 40
1.0
 40
1.0
 10
671.7324964641463
 20
54.65817414872703
 30
0.0
 10
671.9678716440924
 20
54.7382220969079
 30
0.0
 10
672.4987752900942
 20
54.91877532071787
 30
0.0
 10
673.6892607328056
 20
54.79090875878511
 30
0.0
 10
674.6045083697485
 20
54.45890164067388
 30
0.0
 10
675.0599853633772
 20
54.2936768447643
 30
0.0
  0
ARC
  5
1E7
330
1F
100
AcDbEntity
  8
0
  6
Continuous
 62
     7
370
    15
100
AcDbCircle
 10
670.9380767489
 20
55.0615076329
 30
0.0
 40
4.192814656637259
100
AcDbArc
 50
332.795121147
 51
349.4478642928
  0
LINE
  5
1E8
330
1F
100
AcDbEntity
  8
0
  6
Continuous
 62
     7
370
    15
100
AcDbLine
 10
674.667071545
 20
8.8276412403
 30
0.0
 11
690.7368712067
 21
15.6674083387
 31
0.0
  0
ARC
  5
1E9
330
1F
100
AcDbEntity
  8
0
  6
Continuous
 62
     7
370
    15
100
AcDbCircle
 10
685.6950410135
 20
13.112180642
 30
0.0
 40
5.652365901038831
100
AcDbArc
 50
15.950603679
 51
26.8761462417
  0
LINE
  5
1EA
330
1F
100
AcDbEntity
  8
0
  6
Continuous
 62
     7
370
    15
100
AcDbLine
 10
690.7368712067
 20
46.3048961078
 30
0.0
 11
674.667071545
 21
53.1446632063
 31
0.0
  0
ARC
  5
1EB
330
1F
100
AcDbEntity
  8
0
  6
Continuous
 62
     7
370
    15
100
AcDbCircle
 10
685.6960402392
 20
48.8597319432
 30
0.0
 40
5.651297460537462
100
AcDbArc
 50
333.122817819
 51
344.0504322603
  0
LINE
  5
1EC
330
1F
100
AcDbEntity
  8
0
  6
Continuous
 62
     7
370
    15
100
AcDbLine
 10
690.7368712067
 20
15.6674083387
 30
0.0
 11
690.7368712067
 21
46.3048961078
 31
0.0
  0
ARC
  5
1ED
330
1F
100
AcDbEntity
  8
0
  6
Continuous
 62
     7
370
    15
100
AcDbCircle
 10
690.9635709302
 20
14.498609018
 30
0.0
 40
1.190581629633446
100
AcDbArc
 50
50.5903740148
 51
100.9767650103
  0
ARC
  5
1EE
330
1F
100
AcDbEntity
  8
0
  6
Continuous
 62
     7
370
    15
100
AcDbCircle
 10
690.8849704455
 20
15.464561945
 30
0.0
 40
0.8357247313942487
100
AcDbArc
 50
287.0338636805
 51
356.8394068058
  0
ARC
  5
1EF
330
1F
100
AcDbEntity
  8
0
  6
Continuous
 62
     7
370
    15
100
AcDbCircle
 10
690.9635709302
 20
47.4736954286
 30
0.0
 40
1.190581629633458
100
AcDbArc
 50
259.0232349897
 51
309.4096259852
  0
ARC
  5
1F0
330
1F
100
AcDbEntity
  8
0
  6
Continuous
 62
     7
370
    15
100
AcDbCircle
 10
690.8849704455
 20
46.5077425016
 30
0.0
 40
0.8357247313944378
100
AcDbArc
 50
3.1605931942
 51
72.9661363194
  0
LINE
  5
1F1
330
1F
100
AcDbEntity
  8
0
  6
Continuous
 62
     7
370
    15
100
AcDbLine
 10
691.7194239735
 20
46.5538200056
 30
0.0
 11
691.7194239735
 21
15.418484441
 31
0.0
  0
LINE
  5
1F2
330
1F
100
AcDbEntity
  8
0
  6
Continuous
 62
     7
370
    15
100
AcDbLine
 10
691.7194239735
 20
15.418484441
 30
0.0
 11
691.7194239735
 21
12.1327336942
 31
0.0
  0
LINE
  5
1F3
330
1F
100
AcDbEntity
  8
0
  6
Continuous
 62
     7
370
    15
100
AcDbLine
 10
691.7194239735
 20
49.7798021948
 30
0.0
 11
691.7194239735
 21
46.5538200056
 31
0.0
  0
SPLINE
  5
1F4
330
1F
100
AcDbEntity
  8
0
  6
Continuous
 62
     7
370
    15
100
AcDbSpline
210
0.0
220
0.0
230
1.0
 70
     8
 71
     3
 72
    11
 73
     7
 74
     0
 42
0.00000001
 43
0.00000001
 40
0.0
 40
0.0
 40
0.0
 40
0.0
 40
0.2933083878215925
 40
0.5865899304125978
 40
0.88050081780877
 40
1.0
 40
1.0
 40
1.0
 40
1.0
 10
691.1297850250136
 20
50.69448017232475
 30
0.0
 10
691.2278382887798
 20
50.63808691244981
 30
0.0
 10
691.4239358419275
 20
50.52530555412773
 30
0.0
 10
691.6250040782986
 20
50.24485602526541
 30
0.0
 10
691.7110464540904
 20
49.98341352934629
 30
0.0
 10
691.7175454046182
 20
49.82545985202125
 30
0.0
 10
691.7194239734541
 20
49.77980219476277
 30
0.0
  0
LINE
  5
1F5
330
1F
100
AcDbEntity
  8
0
  6
Continuous
 62
     7
370
    15
100
AcDbLine
 10
659.7194187282
 20
25.5861576711
 30
0.0
 11
659.7194187282
 21
25.0142511045
 31
0.0
  0
LINE
  5
1F6
330
1F
100
AcDbEntity
  8
0
  6
Continuous
 62
     7
370
    15
100
AcDbLine
 10
659.7194187282
 20
25.0142511045
 30
0.0
 11
659.7194187282
 21
23.960083357
 31
0.0
  0
LINE
  5
1F7
330
1F
100
AcDbEntity
  8
0
  6
Continuous
 62
     7
370
    15
100
AcDbLine
 10
659.7194187282
 20
23.960083357
 30
0.0
 11
659.7194187282
 21
23.8743420755
 31
0.0
  0
SPLINE
  5
1F8
330
1F
100
AcDbEntity
  8
0
  6
Continuous
 62
     7
370
    15
100
AcDbSpline
210
0.0
220
0.0
230
1.0
 70
     8
 71
     3
 72
    16
 73
    12
 74
     0
 42
0.00000001
 43
0.00000001
 40
0.0
 40
0.0
 40
0.0
 40
0.0
 40
0.0000087512111173
 40
0.1250689109454311
 40
0.2501185860912848
 40
0.3751537008462817
 40
0.5001786339031747
 40
0.625200921325328
 40
0.7502230386306058
 40
0.8753396404652308
 40
1.0
 40
1.0
 40
1.0
 40
1.0
 10
664.0444211601149
 20
62.5669207488781
 30
0.0
 10
664.04441122551
 20
62.56692571617972
 30
0.0
 10
663.9024297096216
 20
62.63791646188874
 30
0.0
 10
664.2280542755466
 20
62.47614834028903
 30
0.0
 10
664.6477639605231
 20
62.27750756692294
 30
0.0
 10
665.4295857905348
 20
61.92260136977312
 30
0.0
 10
666.3287970494833
 20
61.54583542635675
 30
0.0
 10
667.248513723282
 20
61.19331607986456
 30
0.0
 10
668.0288523855154
 20
60.92057631843753
 30
0.0
 10
668.5786084198337
 20
60.74343767376125
 30
0.0
 10
668.6507127859436
 20
60.72114067983742
 30
0.0
 10
668.6866991161238
 20
60.71001254670677
 30
0.0
  0
LINE
  5
1F9
330
1F
100
AcDbEntity
  8
0
  6
Continuous
 62
     7
370
    15
100
AcDbLine
 10
-113.3805699707
 20
309.9361505424
 30
0.0
 11
-111.3805659176
 21
309.9361505424
 31
0.0
  0
LINE
  5
1FA
330
1F
100
AcDbEntity
  8
0
  6
Continuous
 62
     7
370
    15
100
AcDbLine
 10
-113.3805699707
 20
339.9361517345
 30
0.0
 11
-113.3805699707
 21
309.9361505424
 31
0.0
  0
LINE
  5
1FB
330
1F
100
AcDbEntity
  8
0
  6
Continuous
 62
     7
370
    15
100
AcDbLine
 10
-113.3805699707
 20
339.9361517345
 30
0.0
 11
-111.3805659176
 21
339.9361517345
 31
0.0
  0
LINE
  5
1FC
330
1F
100
AcDbEntity
  8
0
  6
Continuous
 62
     7
370
    15
100
AcDbLine
 10
-111.3805659176
 20
339.9361517345
 30
0.0
 11
-111.3805659176
 21
309.9361505424
 31
0.0
  0
LINE
  5
1FD
330
1F
100
AcDbEntity
  8
0
  6
Continuous
 62
     7
370
    15
100
AcDbLine
 10
-113.3805699707
 20
440.1361491596
 30
0.0
 11
-111.3805659176
 21
440.1361491596
 31
0.0
  0
LINE
  5
1FE
330
1F
100
AcDbEntity
  8
0
  6
Continuous
 62
     7
370
    15
100
AcDbLine
 10
-111.3805659176
 20
440.1361491596
 30
0.0
 11
-111.3805659176
 21
410.1361479675
 31
0.0
  0
LINE
  5
1FF
330
1F
100
AcDbEntity
  8
0
  6
Continuous
 62
     7
370
    15
100
AcDbLine
 10
-113.3805699707
 20
440.1361491596
 30
0.0
 11
-113.3805699707
 21
410.1361479675
 31
0.0
  0
LINE
  5
200
330
1F
100
AcDbEntity
  8
0
  6
Continuous
 62
     7
370
    15
100
AcDbLine
 10
-113.3805699707
 20
410.1361479675
 30
0.0
 11
-111.3805659176
 21
410.1361479675
 31
0.0
  0
LINE
  5
201
330
1F
100
AcDbEntity
  8
0
  6
Continuous
 62
     7
370
    15
100
AcDbLine
 10
-113.3805699707
 20
470.1361503517
 30
0.0
 11
-111.3805659176
 21
470.1361503517
 31
0.0
  0
LINE
  5
202
330
1F
100
AcDbEntity
  8
0
  6
Continuous
 62
     7
370
    15
100
AcDbLine
 10
-111.3805659176
 20
470.1361503517
 30
0.0
 11
-111.3805659176
 21
469.6404781257
 31
0.0
  0
LINE
  5
203
330
1F
100
AcDbEntity
  8
0
  6
Continuous
 62
     7
370
    15
100
AcDbLine
 10
-113.3805699707
 20
440.2361508524
 30
0.0
 11
-113.3805699707
 21
440.1361491596
 31
0.0
  0
LINE
  5
204
330
1F
100
AcDbEntity
  8
0
  6
Continuous
 62
     7
370
    15
100
AcDbLine
 10
-113.3805699707
 20
410.1361479675
 30
0.0
 11
-113.3805699707
 21
410.0361462747
 31
0.0
  0
LINE
  5
205
330
1F
100
AcDbEntity
  8
0
  6
Continuous
 62
     7
370
    15
100
AcDbLine
 10
-113.3805699707
 20
340.0361534273
 30
0.0
 11
-113.3805699707
 21
339.9361517345
 31
0.0
  0
LINE
  5
206
330
1F
100
AcDbEntity
  8
0
  6
Continuous
 62
     7
370
    15
100
AcDbLine
 10
-113.3805699707
 20
309.9361505424
 30
0.0
 11
-113.3805699707
 21
309.8361488497
 31
0.0
  0
LINE
  5
207
330
1F
100
AcDbEntity
  8
0
  6
Continuous
 62
     8
370
    15
100
AcDbLine
 10
-35.3805609108
 20
-131.1638507927
 30
0.0
 11
-63.8805814148
 21
-131.1638507927
 31
0.0
  0
LINE
  5
208
330
1F
100
AcDbEntity
  8
0
  6
Continuous
 62
     8
370
    15
100
AcDbLine
 10
-6.8805702091
 20
-131.1638507927
 30
0.0
 11
-35.3805609108
 21
-131.1638507927
 31
0.0
  0
LINE
  5
209
330
1F
100
AcDbEntity
  8
0
  6
Continuous
 62
     8
370
    15
100
AcDbLine
 10
-35.3805609108
 20
-36.6638455475
 30
0.0
 11
-67.2805793644
 21
-36.6638455475
 31
0.0
  0
LINE
  5
20A
330
1F
100
AcDbEntity
  8
0
  6
Continuous
 62
     8
370
    15
100
AcDbLine
 10
-3.4805722595
 20
-36.6638455475
 30
0.0
 11
-35.3805609108
 21
-36.6638455475
 31
0.0
  0
LINE
  5
20B
330
1F
100
AcDbEntity
  8
0
  6
Continuous
 62
     8
370
    15
100
AcDbLine
 10
-35.3805609108
 20
-92.1312723244
 30
0.0
 11
-67.2805793644
 21
-92.1312723244
 31
0.0
  0
LINE
  5
20C
330
1F
100
AcDbEntity
  8
0
  6
Continuous
 62
     8
370
    15
100
AcDbLine
 10
-3.4805722595
 20
-92.1312723244
 30
0.0
 11
-35.3805609108
 21
-92.1312723244
 31
0.0
  0
LINE
  5
20D
330
1F
100
AcDbEntity
  8
0
  6
Continuous
 62
     8
370
    15
100
AcDbLine
 10
-35.3805609108
 20
-92.9037485207
 30
0.0
 11
-67.2166533829
 21
-92.9037485207
 31
0.0
  0
LINE
  5
20E
330
1F
100
AcDbEntity
  8
0
  6
Continuous
 62
     8
370
    15
100
AcDbLine
 10
-3.5444833399
 20
-92.9037485207
 30
0.0
 11
-35.3805609108
 21
-92.9037485207
 31
0.0
  0
LINE
  5
20F
330
1F
100
AcDbEntity
  8
0
  6
Continuous
 62
     8
370
    15
100
AcDbLine
 10
484.6194200157
 20
-82.2138342942
 30
0.0
 11
-3.4805722595
 21
-82.2138342942
 31
0.0
  0
LINE
  5
210
330
1F
100
AcDbEntity
  8
0
  6
Continuous
 62
     8
370
    15
100
AcDbLine
 10
627.5487057804
 20
-81.4138505543
 30
0.0
 11
570.5194286941
 21
-81.4138505543
 31
0.0
  0
LINE
  5
211
330
1F
100
AcDbEntity
  8
0
  6
Continuous
 62
     8
370
    15
100
AcDbLine
 10
506.7194215893
 20
-81.4138505543
 30
0.0
 11
484.6194200157
 21
-81.4138505543
 31
0.0
  0
LINE
  5
212
330
1F
100
AcDbEntity
  8
0
  6
Continuous
 62
     8
370
    15
100
AcDbLine
 10
538.6194102405
 20
-131.1638507927
 30
0.0
 11
510.1194195389
 21
-131.1638507927
 31
0.0
  0
LINE
  5
213
330
1F
100
AcDbEntity
  8
0
  6
Continuous
 62
     8
370
    15
100
AcDbLine
 10
567.1194307445
 20
-131.1638507927
 30
0.0
 11
538.6194102405
 21
-131.1638507927
 31
0.0
  0
LINE
  5
214
330
1F
100
AcDbEntity
  8
0
  6
Continuous
 62
     8
370
    15
100
AcDbLine
 10
612.3711578487
 20
214.3226672029
 30
0.0
 11
612.3711578487
 21
213.835933811
 31
0.0
  0
LWPOLYLINE
  5
215
330
1F
100
AcDbEntity
  8
0
  6
Continuous
 62
     8
370
    15
100
AcDbPolyline
 90
        8
 70
   128
 43
0.0
 10
613.3096031784
 20
213.6408515339
 10
613.2859997391
 20
213.6331904744
 10
613.2420711159
 20
213.6189114367
 10
613.1829433082
 20
213.5996963894
 10
613.1108812927
 20
213.5762829398
 10
613.0286566852
 20
213.5495707458
 10
612.9394583343
 20
213.5205861246
 10
612.8466837047
 20
213.4904429381
  0
LINE
  5
216
330
1F
100
AcDbEntity
  8
0
  6
Continuous
 62
     8
370
    15
100
AcDbLine
 10
-113.1805665852
 20
249.1361513799
 30
0.0
 11
-113.1705828072
 21
249.1361513799
 31
0.0
  0
LINE
  5
217
330
1F
100
AcDbEntity
  8
0
  6
Continuous
 62
     8
370
    15
100
AcDbLine
 10
538.6194102405
 20
-36.6638455475
 30
0.0
 11
506.7194215893
 21
-36.6638455475
 31
0.0
  0
LINE
  5
218
330
1F
100
AcDbEntity
  8
0
  6
Continuous
 62
     8
370
    15
100
AcDbLine
 10
570.5194286941
 20
-36.6638455475
 30
0.0
 11
538.6194102405
 21
-36.6638455475
 31
0.0
  0
LINE
  5
219
330
1F
100
AcDbEntity
  8
0
  6
Continuous
 62
     8
370
    15
100
AcDbLine
 10
538.6194102405
 20
-92.1312723244
 30
0.0
 11
506.7194215893
 21
-92.1312723244
 31
0.0
  0
LINE
  5
21A
330
1F
100
AcDbEntity
  8
0
  6
Continuous
 62
     8
370
    15
100
AcDbLine
 10
570.5194286941
 20
-92.1312723244
 30
0.0
 11
538.6194102405
 21
-92.1312723244
 31
0.0
  0
LINE
  5
21B
330
1F
100
AcDbEntity
  8
0
  6
Continuous
 62
     8
370
    15
100
AcDbLine
 10
538.6194102405
 20
-92.9037485207
 30
0.0
 11
506.7833475708
 21
-92.9037485207
 31
0.0
  0
LINE
  5
21C
330
1F
100
AcDbEntity
  8
0
  6
Continuous
 62
     8
370
    15
100
AcDbLine
 10
570.4555027126
 20
-92.9037485207
 30
0.0
 11
538.6194102405
 21
-92.9037485207
 31
0.0
  0
LINE
  5
21D
330
1F
100
AcDbEntity
  8
0
  6
Continuous
 62
     8
370
    15
100
AcDbLine
 10
-111.9305677773
 20
279.9361493503
 30
0.0
 11
-111.9305677773
 21
279.4678356563
 31
0.0
  0
LINE
  5
21E
330
1F
100
AcDbEntity
  8
0
  6
Continuous
 62
     8
370
    15
100
AcDbLine
 10
-81.8305797936
 20
279.5861508762
 30
0.0
 11
-81.8305797936
 21
279.9361493503
 31
0.0
  0
LINE
  5
21F
330
1F
100
AcDbEntity
  8
0
  6
Continuous
 62
     8
370
    15
100
AcDbLine
 10
629.0003471016
 20
269.6361500835
 30
0.0
 11
629.0003471016
 21
269.9361514365
 31
0.0
  0
LINE
  5
220
330
1F
100
AcDbEntity
  8
0
  6
Continuous
 62
     8
370
    15
100
AcDbLine
 10
638.2912211059
 20
225.2686513653
 30
0.0
 11
638.1634287475
 21
225.5625395169
 31
0.0
  0
LINE
  5
221
330
1F
100
AcDbEntity
  8
0
  6
Continuous
 62
     8
370
    15
100
AcDbLine
 10
613.7458793758
 20
214.9298839336
 30
0.0
 11
613.3245937466
 21
214.7930018669
 31
0.0
  0
LINE
  5
222
330
1F
100
AcDbEntity
  8
0
  6
Continuous
 62
     8
370
    15
100
AcDbLine
 10
670.019429171
 20
30.9861447727
 30
0.0
 11
670.019429171
 21
36.3861467754
 31
0.0
  0
LINE
  5
223
330
1F
100
AcDbEntity
  8
0
  6
Continuous
 62
     8
370
    15
100
AcDbLine
 10
670.019429171
 20
25.5861576711
 30
0.0
 11
670.019429171
 21
30.9861447727
 31
0.0
  0
LINE
  5
224
330
1F
100
AcDbEntity
  8
0
  6
Continuous
 62
     8
370
    15
100
AcDbLine
 10
691.129785025
 20
11.2208124315
 30
0.0
 11
691.129785025
 21
14.6654989635
 31
0.0
  0
LINE
  5
225
330
1F
100
AcDbEntity
  8
0
  6
Continuous
 62
     8
370
    15
100
AcDbLine
 10
661.7194227814
 20
24.9901857292
 30
0.0
 11
659.7194187282
 21
25.0142511045
 31
0.0
  0
LINE
  5
226
330
1F
100
AcDbEntity
  8
0
  6
Continuous
 62
     8
370
    15
100
AcDbLine
 10
661.7194227814
 20
23.9311602031
 30
0.0
 11
659.7194187282
 21
23.960083357
 31
0.0
  0
ENDSEC
  0
SECTION
  2
OBJECTS
  0
DICTIONARY
  5
C
330
0
100
AcDbDictionary
281
     1
  3
ACAD_GROUP
350
D
  3
ACAD_LAYOUT
350
1A
  3
ACAD_MATERIAL
350
3B
  3
ACAD_MLEADERSTYLE
350
228
  3
ACAD_MLINESTYLE
350
17
  3
ACAD_PLOTSETTINGS
350
19
  3
ACAD_PLOTSTYLENAME
350
E
  3
ACAD_TABLESTYLE
350
227
  3
ACAD_VISUALSTYLE
350
2A
  0
DICTIONARY
  5
D
102
{ACAD_REACTORS
330
C
102
}
330
C
100
AcDbDictionary
281
     1
  0
DICTIONARY
  5
1A
102
{ACAD_REACTORS
330
C
102
}
330
C
100
AcDbDictionary
281
     1
  3
Layout1
350
1E
  3
Layout2
350
26
  3
Model
350
22
  0
DICTIONARY
  5
3B
102
{ACAD_REACTORS
330
C
102
}
330
C
100
AcDbDictionary
281
     1
  3
ByBlock
350
3D
  3
ByLayer
350
3C
  3
Global
350
3E
  0
DICTIONARY
  5
228
102
{ACAD_REACTORS
330
C
102
}
330
C
100
AcDbDictionary
281
     1
  0
DICTIONARY
  5
17
102
{ACAD_REACTORS
330
C
102
}
330
C
100
AcDbDictionary
281
     1
  3
Standard
350
18
  0
DICTIONARY
  5
19
102
{ACAD_REACTORS
330
C
102
}
330
C
100
AcDbDictionary
281
     1
  0
ACDBDICTIONARYWDFLT
  5
E
102
{ACAD_REACTORS
330
C
102
}
330
C
100
AcDbDictionary
281
     1
  3
Normal
350
F
100
AcDbDictionaryWithDefault
340
F
  0
DICTIONARY
  5
227
102
{ACAD_REACTORS
330
C
102
}
330
C
100
AcDbDictionary
281
     1
  0
DICTIONARY
  5
2A
102
{ACAD_REACTORS
330
C
102
}
330
C
100
AcDbDictionary
281
     1
  3
2dWireframe
350
2F
  3
3D Hidden
350
31
  3
3dWireframe
350
30
  3
Basic
350
32
  3
Brighten
350
36
  3
ColorChange
350
3A
  3
Conceptual
350
34
  3
Dim
350
35
  3
Facepattern
350
39
  3
Flat
350
2B
  3
FlatWithEdges
350
2C
  3
Gouraud
350
2D
  3
GouraudWithEdges
350
2E
  3
Linepattern
350
38
  3
Realistic
350
33
  3
Thicken
350
37
  0
LAYOUT
  5
1E
102
{ACAD_REACTORS
330
1A
102
}
330
1A
100
AcDbPlotSettings
  1

  2
none_device
  4

  6

 40
0.0
 41
0.0
 42
0.0
 43
0.0
 44
0.0
 45
0.0
 46
0.0
 47
0.0
 48
0.0
 49
0.0
140
0.0
141
0.0
142
1.0
143
1.0
 70
   688
 72
     0
 73
     0
 74
     5
  7

 75
    16
 76
     0
 77
     2
 78
   300
147
1.0
148
0.0
149
0.0
100
AcDbLayout
  1
Layout1
 70
     1
 71
     1
 10
0.0
 20
0.0
 11
420.0
 21
297.0
 12
0.0
 22
0.0
 32
0.0
 14
1.0000000000E+20
 24
1.0000000000E+20
 34
1.0000000000E+20
 15
-1.0000000000E+20
 25
-1.0000000000E+20
 35
-1.0000000000E+20
146
0.0
 13
0.0
 23
0.0
 33
0.0
 16
1.0
 26
0.0
 36
0.0
 17
0.0
 27
1.0
 37
0.0
 76
     0
330
1B
  0
LAYOUT
  5
26
102
{ACAD_REACTORS
330
1A
102
}
330
1A
100
AcDbPlotSettings
  1

  2
none_device
  4

  6

 40
0.0
 41
0.0
 42
0.0
 43
0.0
 44
0.0
 45
0.0
 46
0.0
 47
0.0
 48
0.0
 49
0.0
140
0.0
141
0.0
142
1.0
143
1.0
 70
   688
 72
     0
 73
     0
 74
     5
  7

 75
    16
 76
     0
 77
     2
 78
   300
147
1.0
148
0.0
149
0.0
100
AcDbLayout
  1
Layout2
 70
     1
 71
     2
 10
0.0
 20
0.0
 11
0.0
 21
0.0
 12
0.0
 22
0.0
 32
0.0
 14
0.0
 24
0.0
 34
0.0
 15
0.0
 25
0.0
 35
0.0
146
0.0
 13
0.0
 23
0.0
 33
0.0
 16
1.0
 26
0.0
 36
0.0
 17
0.0
 27
1.0
 37
0.0
 76
     0
330
23
  0
LAYOUT
  5
22
102
{ACAD_REACTORS
330
1A
102
}
330
1A
100
AcDbPlotSettings
  1

  2
none_device
  4

  6

 40
0.0
 41
0.0
 42
0.0
 43
0.0
 44
0.0
 45
0.0
 46
0.0
 47
0.0
 48
0.0
 49
0.0
140
0.0
141
0.0
142
1.0
143
1.0
 70
  1712
 72
     0
 73
     0
 74
     0
  7

 75
     0
 76
     0
 77
     2
 78
   300
147
1.0
148
0.0
149
0.0
100
AcDbLayout
  1
Model
 70
     1
 71
     0
 10
0.0
 20
0.0
 11
420.0
 21
297.0
 12
0.0
 22
0.0
 32
0.0
 14
0.0
 24
0.0
 34
0.0
 15
420.0
 25
297.0
 35
0.0
146
0.0
 13
0.0
 23
0.0
 33
0.0
 16
1.0
 26
0.0
 36
0.0
 17
0.0
 27
1.0
 37
0.0
 76
     0
330
1F
331
29
  0
MATERIAL
  5
3D
102
{ACAD_REACTORS
330
3B
102
}
330
3B
100
AcDbMaterial
  1
ByBlock
 72
     1
 94
      127
  0
MATERIAL
  5
3C
102
{ACAD_REACTORS
330
3B
102
}
330
3B
100
AcDbMaterial
  1
ByLayer
 72
     1
 94
      127
  0
MATERIAL
  5
3E
102
{ACAD_REACTORS
330
3B
102
}
330
3B
100
AcDbMaterial
  1
Global
 72
     1
 94
      127
  0
MLINESTYLE
  5
18
102
{ACAD_REACTORS
330
17
102
}
330
17
100
AcDbMlineStyle
  2
Standard
 70
     0
  3

 62
   256
 51
90.0
 52
90.0
 71
     2
 49
0.5
 62
   256
  6
BYLAYER
 49
-0.5
 62
   256
  6
BYLAYER
  0
ACDBPLACEHOLDER
  5
F
102
{ACAD_REACTORS
330
E
102
}
330
E
  0
VISUALSTYLE
  5
2F
102
{ACAD_REACTORS
330
2A
102
}
330
2A
100
AcDbVisualStyle
  2
2dWireframe
 70
     4
 71
     0
 72
     2
 73
     0
 90
        0
 40
-0.6
 41
-30.0
 62
     5
 63
     7
421
 16777215
 74
     1
 91
        4
 64
     7
 65
   257
 75
     1
175
     1
 42
1.0
 92
        0
 66
   257
 43
1.0
 76
     1
 77
     6
 78
     2
 67
     7
 79
     5
170
     0
171
     0
290
     0
174
     0
 93
        1
 44
0.0
173
     0
291
     0
 45
0.0
  0
VISUALSTYLE
  5
31
102
{ACAD_REACTORS
330
2A
102
}
330
2A
100
AcDbVisualStyle
  2
3D Hidden
 70
     6
 71
     1
 72
     2
 73
     2
 90
        0
 40
-0.6
 41
-30.0
 62
     5
 63
     7
421
 16777215
 74
     2
 91
        2
 64
     7
 65
   257
 75
     2
175
     1
 42
40.0
 92
        0
 66
   257
 43
1.0
 76
     1
 77
     6
 78
     2
 67
     7
 79
     3
170
     0
171
     0
290
     0
174
     0
 93
        1
 44
0.0
173
     0
291
     0
 45
0.0
  0
VISUALSTYLE
  5
30
102
{ACAD_REACTORS
330
2A
102
}
330
2A
100
AcDbVisualStyle
  2
3dWireframe
 70
     5
 71
     0
 72
     2
 73
     0
 90
        0
 40
-0.6
 41
-30.0
 62
     5
 63
     7
421
 16777215
 74
     1
 91
        4
 64
     7
 65
   257
 75
     1
175
     1
 42
1.0
 92
        0
 66
   257
 43
1.0
 76
     1
 77
     6
 78
     2
 67
     7
 79
     5
170
     0
171
     0
290
     0
174
     0
 93
        1
 44
0.0
173
     0
291
     0
 45
0.0
  0
VISUALSTYLE
  5
32
102
{ACAD_REACTORS
330
2A
102
}
330
2A
100
AcDbVisualStyle
  2
Basic
 70
     7
 71
     1
 72
     0
 73
     1
 90
        0
 40
-0.6
 41
-30.0
 62
     5
 63
     7
421
 16777215
 74
     0
 91
        4
 64
     7
 65
   257
 75
     1
175
     1
 42
1.0
 92
        8
 66
     7
 43
1.0
 76
     1
 77
     6
 78
     2
 67
     7
 79
     5
170
     0
171
     0
290
     0
174
     0
 93
        1
 44
0.0
173
     0
291
     1
 45
0.0
  0
VISUALSTYLE
  5
36
102
{ACAD_REACTORS
330
2A
102
}
330
2A
100
AcDbVisualStyle
  2
Brighten
 70
    12
 71
     2
 72
     2
 73
     0
 90
        0
 40
-0.6
 41
-30.0
 62
     5
 63
     7
421
 16777215
 74
     1
 91
        4
 64
     7
 65
   257
 75
     1
175
     1
 42
1.0
 92
        8
 66
     7
 43
1.0
 76
     1
 77
     6
 78
     2
 67
     7
 79
     5
170
     0
171
     0
290
     0
174
     0
 93
        1
 44
50.0
173
     0
291
     1
 45
0.0
  0
VISUALSTYLE
  5
3A
102
{ACAD_REACTORS
330
2A
102
}
330
2A
100
AcDbVisualStyle
  2
ColorChange
 70
    16
 71
     2
 72
     2
 73
     3
 90
        0
 40
-0.6
 41
-30.0
 62
     5
 63
     8
421
  8421504
 74
     1
 91
        4
 64
     7
 65
   257
 75
     1
175
     1
 42
1.0
 92
        8
 66
     8
424
  8421504
 43
1.0
 76
     1
 77
     6
 78
     2
 67
     7
 79
     5
170
     0
171
     0
290
     0
174
     0
 93
        1
 44
0.0
173
     0
291
     1
 45
0.0
  0
VISUALSTYLE
  5
34
102
{ACAD_REACTORS
330
2A
102
}
330
2A
100
AcDbVisualStyle
  2
Conceptual
 70
     9
 71
     3
 72
     2
 73
     0
 90
        0
 40
-0.6
 41
-30.0
 62
     5
 63
     7
421
 16777215
 74
     2
 91
        2
 64
     7
 65
   257
 75
     1
175
     1
 42
40.0
 92
        8
 66
     7
 43
1.0
 76
     1
 77
     6
 78
     2
 67
     7
 79
     3
170
     0
171
     0
290
     0
174
     0
 93
        1
 44
0.0
173
     0
291
     0
 45
0.0
  0
VISUALSTYLE
  5
35
102
{ACAD_REACTORS
330
2A
102
}
330
2A
100
AcDbVisualStyle
  2
Dim
 70
    11
 71
     2
 72
     2
 73
     0
 90
        0
 40
-0.6
 41
-30.0
 62
     5
 63
     7
421
 16777215
 74
     1
 91
        4
 64
     7
 65
   257
 75
     1
175
     1
 42
1.0
 92
        8
 66
     7
 43
1.0
 76
     1
 77
     6
 78
     2
 67
     7
 79
     5
170
     0
171
     0
290
     0
174
     0
 93
        1
 44
-50.0
173
     0
291
     1
 45
0.0
  0
VISUALSTYLE
  5
39
102
{ACAD_REACTORS
330
2A
102
}
330
2A
100
AcDbVisualStyle
  2
Facepattern
 70
    15
 71
     2
 72
     2
 73
     0
 90
        0
 40
-0.6
 41
-30.0
 62
     5
 63
     7
421
 16777215
 74
     1
 91
        4
 64
     7
 65
   257
 75
     1
175
     1
 42
1.0
 92
        8
 66
     7
 43
1.0
 76
     1
 77
     6
 78
     2
 67
     7
 79
     5
170
     0
171
     0
290
     0
174
     0
 93
        1
 44
0.0
173
     0
291
     1
 45
0.0
  0
VISUALSTYLE
  5
2B
102
{ACAD_REACTORS
330
2A
102
}
330
2A
100
AcDbVisualStyle
  2
Flat
 70
     0
 71
     2
 72
     1
 73
     1
 90
        2
 40
-0.6
 41
30.0
 62
     5
 63
     7
421
 16777215
 74
     0
 91
        4
 64
     7
 65
   257
 75
     1
175
     1
 42
1.0
 92
        8
 66
     7
 43
1.0
 76
     1
 77
     6
 78
     2
 67
     7
 79
     5
170
     0
171
     0
290
     0
174
     0
 93
       13
 44
0.0
173
     0
291
     1
 45
0.0
  0
VISUALSTYLE
  5
2C
102
{ACAD_REACTORS
330
2A
102
}
330
2A
100
AcDbVisualStyle
  2
FlatWithEdges
 70
     1
 71
     2
 72
     1
 73
     1
 90
        2
 40
-0.6
 41
30.0
 62
     5
 63
     7
421
 16777215
 74
     1
 91
        4
 64
     7
 65
   257
 75
     1
175
     1
 42
1.0
 92
        0
 66
   257
 43
1.0
 76
     1
 77
     6
 78
     2
 67
     7
 79
     5
170
     0
171
     0
290
     0
174
     0
 93
       13
 44
0.0
173
     0
291
     1
 45
0.0
  0
VISUALSTYLE
  5
2D
102
{ACAD_REACTORS
330
2A
102
}
330
2A
100
AcDbVisualStyle
  2
Gouraud
 70
     2
 71
     2
 72
     2
 73
     1
 90
        2
 40
-0.6
 41
30.0
 62
     5
 63
     7
421
 16777215
 74
     0
 91
        4
 64
     7
 65
   257
 75
     1
175
     1
 42
1.0
 92
        0
 66
     7
 43
1.0
 76
     1
 77
     6
 78
     2
 67
     7
 79
     5
170
     0
171
     0
290
     0
174
     0
 93
       13
 44
0.0
173
     0
291
     1
 45
0.0
  0
VISUALSTYLE
  5
2E
102
{ACAD_REACTORS
330
2A
102
}
330
2A
100
AcDbVisualStyle
  2
GouraudWithEdges
 70
     3
 71
     2
 72
     2
 73
     1
 90
        2
 40
-0.6
 41
30.0
 62
     5
 63
     7
421
 16777215
 74
     1
 91
        4
 64
     7
 65
   257
 75
     1
175
     1
 42
1.0
 92
        0
 66
   257
 43
1.0
 76
     1
 77
     6
 78
     2
 67
     7
 79
     5
170
     0
171
     0
290
     0
174
     0
 93
       13
 44
0.0
173
     0
291
     1
 45
0.0
  0
VISUALSTYLE
  5
38
102
{ACAD_REACTORS
330
2A
102
}
330
2A
100
AcDbVisualStyle
  2
Linepattern
 70
    14
 71
     2
 72
     2
 73
     0
 90
        0
 40
-0.6
 41
-30.0
 62
     5
 63
     7
421
 16777215
 74
     1
 91
        4
 64
     7
 65
   257
 75
     7
175
     7
 42
1.0
 92
        8
 66
     7
 43
1.0
 76
     1
 77
     6
 78
     2
 67
     7
 79
     5
170
     0
171
     0
290
     0
174
     0
 93
        1
 44
0.0
173
     0
291
     1
 45
0.0
  0
VISUALSTYLE
  5
33
102
{ACAD_REACTORS
330
2A
102
}
330
2A
100
AcDbVisualStyle
  2
Realistic
 70
     8
 71
     2
 72
     2
 73
     0
 90
        0
 40
-0.6
 41
-30.0
 62
     5
 63
     7
421
 16777215
 74
     1
 91
        0
 64
     7
 65
   257
 75
     1
175
     1
 42
1.0
 92
        8
 66
     8
424
  7895160
 43
1.0
 76
     1
 77
     6
 78
     2
 67
     7
 79
     5
170
     0
171
     0
290
     0
174
     0
 93
       13
 44
0.0
173
     0
291
     0
 45
0.0
  0
VISUALSTYLE
  5
37
102
{ACAD_REACTORS
330
2A
102
}
330
2A
100
AcDbVisualStyle
  2
Thicken
 70
    13
 71
     2
 72
     2
 73
     0
 90
        0
 40
-0.6
 41
-30.0
 62
     5
 63
     7
421
 16777215
 74
     1
 91
        4
 64
     7
 65
   257
 75
     1
175
     1
 42
1.0
 92
       12
 66
     7
 43
1.0
 76
     1
 77
     6
 78
     2
 67
     7
 79
     5
170
     0
171
     0
290
     0
174
     0
 93
        1
 44
0.0
173
     0
291
     1
 45
0.0
  0
ENDSEC
  0
EOF
