  0
SECTION
  2
HEADER
  9
$ACADVER
  1
AC1015
  9
$ACADMAINTVER
 70
     6
  9
$DWGCODEPAGE
  3
ANSI_1252
  9
$INSBASE
 10
0.0
 20
0.0
 30
0.0
  9
$EXTMIN
 10
0.0
 20
0.0
 30
0.0
  9
$EXTMAX
 10
420.0
 20
297.0
 30
0.0
  9
$LIMMIN
 10
0.0
 20
0.0
  9
$LIMMAX
 10
420.0
 20
297.0
  9
$ORTHOMODE
 70
     0
  9
$REGENMODE
 70
     1
  9
$FILLMODE
 70
     1
  9
$QTEXTMODE
 70
     0
  9
$MIRRTEXT
 70
     1
  9
$LTSCALE
 40
1.0
  9
$ATTMODE
 70
     1
  9
$TEXTSIZE
 40
3.5
  9
$TRACEWID
 40
1.0
  9
$TEXTSTYLE
  7
Standard
  9
$CLAYER
  8
0
  9
$CELTYPE
  6
ByLayer
  9
$CECOLOR
 62
   256
  9
$CELTSCALE
 40
1.0
  9
$DISPSILH
 70
     0
  9
$DIMSCALE
 40
1.0
  9
$DIMASZ
 40
3.302
  9
$DIMEXO
 40
1.0
  9
$DIMDLI
 40
3.75
  9
$DIMRND
 40
0.0
  9
$DIMDLE
 40
0.0
  9
$DIMEXE
 40
1.0
  9
$DIMTP
 40
0.0
  9
$DIMTM
 40
0.0
  9
$DIMTXT
 40
3.5
  9
$DIMCEN
 40
2.5
  9
$DIMTSZ
 40
0.0
  9
$DIMTOL
 70
     0
  9
$DIMLIM
 70
     0
  9
$DIMTIH
 70
     1
  9
$DIMTOH
 70
     1
  9
$DIMSE1
 70
     0
  9
$DIMSE2
 70
     0
  9
$DIMTAD
 70
     1
  9
$DIMZIN
 70
     0
  9
$DIMBLK
  1

  9
$DIMASO
 70
     1
  9
$DIMSHO
 70
     1
  9
$DIMPOST
  1

  9
$DIMAPOST
  1

  9
$DIMALT
 70
     0
  9
$DIMALTD
 70
     3
  9
$DIMALTF
 40
0.0393700787
  9
$DIMLFAC
 40
5.0
  9
$DIMTOFL
 70
     1
  9
$DIMTVP
 40
0.0
  9
$DIMTIX
 70
     0
  9
$DIMSOXD
 70
     0
  9
$DIMSAH
 70
     0
  9
$DIMBLK1
  1

  9
$DIMBLK2
  1

  9
$DIMSTYLE
  2
ISO-25
  9
$DIMCLRD
 70
     0
  9
$DIMCLRE
 70
     0
  9
$DIMCLRT
 70
     0
  9
$DIMTFAC
 40
1.0
  9
$DIMGAP
 40
1.524
  9
$DIMJUST
 70
     0
  9
$DIMSD1
 70
     0
  9
$DIMSD2
 70
     0
  9
$DIMTOLJ
 70
     0
  9
$DIMTZIN
 70
     0
  9
$DIMALTZ
 70
     0
  9
$DIMALTTZ
 70
     0
  9
$DIMUPT
 70
     0
  9
$DIMDEC
 70
     1
  9
$DIMTDEC
 70
     1
  9
$DIMALTU
 70
     2
  9
$DIMALTTD
 70
     3
  9
$DIMTXSTY
  7
Standard
  9
$DIMAUNIT
 70
     0
  9
$DIMADEC
 70
     1
  9
$DIMALTRND
 40
0.0
  9
$DIMAZIN
 70
     0
  9
$DIMDSEP
 70
    44
  9
$DIMATFIT
 70
     3
  9
$DIMFRAC
 70
     0
  9
$DIMLDRBLK
  1

  9
$DIMLUNIT
 70
     2
  9
$DIMLWD
 70
    -2
  9
$DIMLWE
 70
    -2
  9
$DIMTMOVE
 70
     0
  9
$LUNITS
 70
     2
  9
$LUPREC
 70
     1
  9
$SKETCHINC
 40
1.0
  9
$FILLETRAD
 40
10.0
  9
$AUNITS
 70
     0
  9
$AUPREC
 70
     1
  9
$MENU
  1
.
  9
$ELEVATION
 40
0.0
  9
$PELEVATION
 40
0.0
  9
$THICKNESS
 40
0.0
  9
$LIMCHECK
 70
     0
  9
$CHAMFERA
 40
10.0
  9
$CHAMFERB
 40
10.0
  9
$CHAMFERC
 40
20.0
  9
$CHAMFERD
 40
0.0
  9
$SKPOLY
 70
     0
  9
$TDCREATE
 40
2456126.604858947
  9
$TDUCREATE
 40
2456126.56319228
  9
$TDUPDATE
 40
2456126.604860023
  9
$TDUUPDATE
 40
2456126.563193357
  9
$TDINDWG
 40
0.0000000116
  9
$TDUSRTIMER
 40
0.0000000116
  9
$USRTIMER
 70
     1
  9
$ANGBASE
 50
0.0
  9
$ANGDIR
 70
     0
  9
$PDMODE
 70
     0
  9
$PDSIZE
 40
-1.0
  9
$PLINEWID
 40
0.0
  9
$SPLFRAME
 70
     0
  9
$SPLINETYPE
 70
     6
  9
$SPLINESEGS
 70
     8
  9
$HANDSEED
  5
287
  9
$SURFTAB1
 70
     6
  9
$SURFTAB2
 70
     6
  9
$SURFTYPE
 70
     6
  9
$SURFU
 70
     6
  9
$SURFV
 70
     6
  9
$UCSBASE
  2

  9
$UCSNAME
  2

  9
$UCSORG
 10
0.0
 20
0.0
 30
0.0
  9
$UCSXDIR
 10
1.0
 20
0.0
 30
0.0
  9
$UCSYDIR
 10
0.0
 20
1.0
 30
0.0
  9
$UCSORTHOREF
  2

  9
$UCSORTHOVIEW
 70
     0
  9
$UCSORGTOP
 10
0.0
 20
0.0
 30
0.0
  9
$UCSORGBOTTOM
 10
0.0
 20
0.0
 30
0.0
  9
$UCSORGLEFT
 10
0.0
 20
0.0
 30
0.0
  9
$UCSORGRIGHT
 10
0.0
 20
0.0
 30
0.0
  9
$UCSORGFRONT
 10
0.0
 20
0.0
 30
0.0
  9
$UCSORGBACK
 10
0.0
 20
0.0
 30
0.0
  9
$PUCSBASE
  2

  9
$PUCSNAME
  2

  9
$PUCSORG
 10
0.0
 20
0.0
 30
0.0
  9
$PUCSXDIR
 10
1.0
 20
0.0
 30
0.0
  9
$PUCSYDIR
 10
0.0
 20
1.0
 30
0.0
  9
$PUCSORTHOREF
  2

  9
$PUCSORTHOVIEW
 70
     0
  9
$PUCSORGTOP
 10
0.0
 20
0.0
 30
0.0
  9
$PUCSORGBOTTOM
 10
0.0
 20
0.0
 30
0.0
  9
$PUCSORGLEFT
 10
0.0
 20
0.0
 30
0.0
  9
$PUCSORGRIGHT
 10
0.0
 20
0.0
 30
0.0
  9
$PUCSORGFRONT
 10
0.0
 20
0.0
 30
0.0
  9
$PUCSORGBACK
 10
0.0
 20
0.0
 30
0.0
  9
$USERI1
 70
     0
  9
$USERI2
 70
     0
  9
$USERI3
 70
     0
  9
$USERI4
 70
     0
  9
$USERI5
 70
     0
  9
$USERR1
 40
0.0
  9
$USERR2
 40
0.0
  9
$USERR3
 40
0.0
  9
$USERR4
 40
0.0
  9
$USERR5
 40
0.0
  9
$WORLDVIEW
 70
     1
  9
$SHADEDGE
 70
     3
  9
$SHADEDIF
 70
    70
  9
$TILEMODE
 70
     1
  9
$MAXACTVP
 70
    64
  9
$PINSBASE
 10
0.0
 20
0.0
 30
0.0
  9
$PLIMCHECK
 70
     0
  9
$PEXTMIN
 10
1.0000000000E+20
 20
1.0000000000E+20
 30
1.0000000000E+20
  9
$PEXTMAX
 10
-1.0000000000E+20
 20
-1.0000000000E+20
 30
-1.0000000000E+20
  9
$PLIMMIN
 10
0.0
 20
0.0
  9
$PLIMMAX
 10
420.0
 20
297.0
  9
$UNITMODE
 70
     0
  9
$VISRETAIN
 70
     1
  9
$PLINEGEN
 70
     0
  9
$PSLTSCALE
 70
     1
  9
$TREEDEPTH
 70
  3020
  9
$CMLSTYLE
  2
Standard
  9
$CMLJUST
 70
     0
  9
$CMLSCALE
 40
20.0
  9
$PROXYGRAPHICS
 70
     1
  9
$MEASUREMENT
 70
     1
  9
$CELWEIGHT
370
    -1
  9
$ENDCAPS
280
     0
  9
$JOINSTYLE
280
     0
  9
$LWDISPLAY
290
     1
  9
$INSUNITS
 70
     4
  9
$HYPERLINKBASE
  1

  9
$STYLESHEET
  1

  9
$XEDIT
290
     1
  9
$CEPSNTYPE
380
     0
  9
$PSTYLEMODE
290
     1
  9
$FINGERPRINTGUID
  2
{1B02E30B-2DD4-482F-BFEA-5923EF2CE5BD}
  9
$VERSIONGUID
  2
{FAEB1C32-E019-11D5-929B-00C0DF256EC4}
  9
$EXTNAMES
290
     1
  9
$PSVPSCALE
 40
0.0
  9
$OLESTARTUP
290
     0
  0
ENDSEC
  0
SECTION
  2
CLASSES
  0
CLASS
  1
ACDBDICTIONARYWDFLT
  2
AcDbDictionaryWithDefault
  3
ObjectDBX Classes
 90
        0
280
     0
281
     0
  0
CLASS
  1
VISUALSTYLE
  2
AcDbVisualStyle
  3
ObjectDBX Classes
 90
     4095
280
     0
281
     0
  0
CLASS
  1
MATERIAL
  2
AcDbMaterial
  3
ObjectDBX Classes
 90
     1153
280
     0
281
     0
  0
CLASS
  1
ACDBPLACEHOLDER
  2
AcDbPlaceHolder
  3
ObjectDBX Classes
 90
        0
280
     0
281
     0
  0
CLASS
  1
LAYOUT
  2
AcDbLayout
  3
ObjectDBX Classes
 90
        0
280
     0
281
     0
  0
ENDSEC
  0
SECTION
  2
TABLES
  0
TABLE
  2
VPORT
  5
8
330
0
100
AcDbSymbolTable
 70
     1
  0
VPORT
  5
29
330
8
100
AcDbSymbolTableRecord
100
AcDbViewportTableRecord
  2
*Active
 70
     0
 10
0.0
 20
0.0
 11
1.0
 21
1.0
 12
210.0
 22
148.5
 13
0.0
 23
0.0
 14
10.0
 24
10.0
 15
10.0
 25
10.0
 16
0.0
 26
0.0
 36
1.0
 17
0.0
 27
0.0
 37
0.0
 40
297.0
 41
1.4141414141
 42
50.0
 43
0.0
 44
0.0
 50
0.0
 51
0.0
 71
     0
 72
  2000
 73
     1
 74
     3
 75
     0
 76
     0
 77
     0
 78
     0
281
     0
 65
     1
110
0.0
120
0.0
130
0.0
111
1.0
121
0.0
131
0.0
112
0.0
122
1.0
132
0.0
 79
     0
146
0.0
  0
ENDTAB
  0
TABLE
  2
LTYPE
  5
5
330
0
100
AcDbSymbolTable
 70
     6
  0
LTYPE
  5
14
330
5
100
AcDbSymbolTableRecord
100
AcDbLinetypeTableRecord
  2
ByBlock
 70
     0
  3

 72
    65
 73
     0
 40
0.0
  0
LTYPE
  5
15
330
5
100
AcDbSymbolTableRecord
100
AcDbLinetypeTableRecord
  2
ByLayer
 70
     0
  3

 72
    65
 73
     0
 40
0.0
  0
LTYPE
  5
16
330
5
100
AcDbSymbolTableRecord
100
AcDbLinetypeTableRecord
  2
Continuous
 70
     0
  3
Solid line
 72
    65
 73
     0
 40
0.0
  0
LTYPE
  5
3F
330
5
100
AcDbSymbolTableRecord
100
AcDbLinetypeTableRecord
  2
HIDDEN
 70
     0
  3
Hidden __ __ __ __ __ __ __ __ __ __ __ __ __ __
 72
    65
 73
     2
 40
1.905
 49
1.27
 74
     0
 49
-0.635
 74
     0
  0
LTYPE
  5
40
330
5
100
AcDbSymbolTableRecord
100
AcDbLinetypeTableRecord
  2
PHANTOM
 70
     0
  3
Phantom ______  __  __  ______  __  __  ______
 72
    65
 73
     6
 40
12.7
 49
6.35
 74
     0
 49
-1.27
 74
     0
 49
1.27
 74
     0
 49
-1.27
 74
     0
 49
1.27
 74
     0
 49
-1.27
 74
     0
  0
LTYPE
  5
41
330
5
100
AcDbSymbolTableRecord
100
AcDbLinetypeTableRecord
  2
CENTER
 70
     0
  3
Center ____ _ ____ _ ____ _ ____ _ ____ _ ____
 72
    65
 73
     4
 40
10.16
 49
6.35
 74
     0
 49
-1.27
 74
     0
 49
1.27
 74
     0
 49
-1.27
 74
     0
  0
LTYPE
  5
42
330
5
100
AcDbSymbolTableRecord
100
AcDbLinetypeTableRecord
  2
CENTERX2
 70
     0
  3
Center (2x) ________  __  ________  __  _____
 72
    65
 73
     4
 40
20.32
 49
12.7
 74
     0
 49
-2.54
 74
     0
 49
2.54
 74
     0
 49
-2.54
 74
     0
  0
LTYPE
  5
43
330
5
100
AcDbSymbolTableRecord
100
AcDbLinetypeTableRecord
  2
DOT2
 70
     0
  3
Dot (.5x) ........................................
 72
    65
 73
     2
 40
0.635
 49
0.0
 74
     0
 49
-0.635
 74
     0
  0
ENDTAB
  0
TABLE
  2
LAYER
  5
2
330
0
100
AcDbSymbolTable
 70
     4
  0
LAYER
  5
10
330
2
100
AcDbSymbolTableRecord
100
AcDbLayerTableRecord
  2
0
 70
     0
 62
     7
  6
Continuous
370
    -3
390
F
  0
LAYER
  5
44
330
2
100
AcDbSymbolTableRecord
100
AcDbLayerTableRecord
  2
FORMAT
 70
     0
 62
     7
  6
Continuous
370
    -3
390
F
  0
LAYER
  5
45
330
2
100
AcDbSymbolTableRecord
100
AcDbLayerTableRecord
  2
SLD-0
 70
     0
 62
     1
  6
Continuous
370
    -3
390
F
  0
LAYER
  5
46
330
2
100
AcDbSymbolTableRecord
100
AcDbLayerTableRecord
  2
WATERMARK
 70
     0
 62
    20
  6
Continuous
370
    -3
390
F
  0
ENDTAB
  0
TABLE
  2
STYLE
  5
3
330
0
100
AcDbSymbolTable
 70
     1
  0
STYLE
  5
11
330
3
100
AcDbSymbolTableRecord
100
AcDbTextStyleTableRecord
  2
Standard
 70
     0
 40
0.0
 41
1.0
 50
0.0
 71
     0
 42
3.5
  3
txt
  4

  0
ENDTAB
  0
TABLE
  2
VIEW
  5
6
330
0
100
AcDbSymbolTable
 70
     0
  0
ENDTAB
  0
TABLE
  2
UCS
  5
7
330
0
100
AcDbSymbolTable
 70
     0
  0
ENDTAB
  0
TABLE
  2
APPID
  5
9
330
0
100
AcDbSymbolTable
 70
     1
  0
APPID
  5
12
330
9
100
AcDbSymbolTableRecord
100
AcDbRegAppTableRecord
  2
ACAD
 70
     0
  0
ENDTAB
  0
TABLE
  2
DIMSTYLE
  5
A
330
0
100
AcDbSymbolTable
 70
     1
100
AcDbDimStyleTable
  0
DIMSTYLE
105
27
330
A
100
AcDbSymbolTableRecord
100
AcDbDimStyleTableRecord
  2
ISO-25
 70
     0
 41
2.5
 42
0.625
 43
3.75
 44
1.25
 73
     0
 74
     0
 77
     1
 78
     8
140
2.5
141
2.5
143
0.0393700787
147
0.625
171
     3
172
     1
178
     0
271
     2
272
     2
274
     3
278
    44
283
     0
284
     8
340
11
  0
ENDTAB
  0
TABLE
  2
BLOCK_RECORD
  5
1
330
0
100
AcDbSymbolTable
 70
     1
  0
BLOCK_RECORD
  5
1F
330
1
100
AcDbSymbolTableRecord
100
AcDbBlockTableRecord
  2
*Model_Space
340
22
  0
BLOCK_RECORD
  5
1B
330
1
100
AcDbSymbolTableRecord
100
AcDbBlockTableRecord
  2
*Paper_Space
340
1E
  0
BLOCK_RECORD
  5
23
330
1
100
AcDbSymbolTableRecord
100
AcDbBlockTableRecord
  2
*Paper_Space0
340
26
  0
ENDTAB
  0
ENDSEC
  0
SECTION
  2
BLOCKS
  0
BLOCK
  5
20
330
1F
100
AcDbEntity
  8
0
100
AcDbBlockBegin
  2
*Model_Space
 70
     0
 10
0.0
 20
0.0
 30
0.0
  3
*Model_Space
  1

  0
ENDBLK
  5
21
330
1F
100
AcDbEntity
  8
0
100
AcDbBlockEnd
  0
BLOCK
  5
1C
330
1B
100
AcDbEntity
 67
     1
  8
0
100
AcDbBlockBegin
  2
*Paper_Space
 70
     0
 10
0.0
 20
0.0
 30
0.0
  3
*Paper_Space
  1

  0
ENDBLK
  5
1D
330
1B
100
AcDbEntity
 67
     1
  8
0
100
AcDbBlockEnd
  0
BLOCK
  5
24
330
23
100
AcDbEntity
  8
0
100
AcDbBlockBegin
  2
*Paper_Space0
 70
     0
 10
0.0
 20
0.0
 30
0.0
  3
*Paper_Space0
  1

  0
ENDBLK
  5
25
330
23
100
AcDbEntity
  8
0
100
AcDbBlockEnd
  0
ENDSEC
  0
SECTION
  2
ENTITIES
  0
LINE
  5
47
330
1F
100
AcDbEntity
  8
0
  6
Continuous
 62
     7
370
    15
100
AcDbLine
 10
123.6795850839
 20
130.6405152497
 30
0.0
 11
123.6595877255
 21
130.6405152497
 31
0.0
  0
LINE
  5
48
330
1F
100
AcDbEntity
  8
0
  6
Continuous
 62
     7
370
    15
100
AcDbLine
 10
119.9595876778
 20
117.9405155894
 30
0.0
 11
120.359582528
 21
118.340515655
 31
0.0
  0
LINE
  5
49
330
1F
100
AcDbEntity
  8
0
  6
Continuous
 62
     7
370
    15
100
AcDbLine
 10
120.359582528
 20
121.9405155
 30
0.0
 11
119.9595876778
 21
122.3405155656
 31
0.0
  0
LINE
  5
4A
330
1F
100
AcDbEntity
  8
0
  6
Continuous
 62
     7
370
    15
100
AcDbLine
 10
119.9595876778
 20
122.3405155656
 30
0.0
 11
119.5595868672
 21
121.9405155
 31
0.0
  0
LINE
  5
4B
330
1F
100
AcDbEntity
  8
0
  6
Continuous
 62
     7
370
    15
100
AcDbLine
 10
119.5595868672
 20
118.340515655
 30
0.0
 11
119.9595876778
 21
117.9405155894
 31
0.0
  0
LINE
  5
4C
330
1F
100
AcDbEntity
  8
0
  6
Continuous
 62
     7
370
    15
100
AcDbLine
 10
119.1595860566
 20
117.9405155894
 30
0.0
 11
119.5595868672
 21
118.340515655
 31
0.0
  0
LINE
  5
4D
330
1F
100
AcDbEntity
  8
0
  6
Continuous
 62
     7
370
    15
100
AcDbLine
 10
119.5595868672
 20
121.9405155
 30
0.0
 11
119.1595860566
 21
122.3405155656
 31
0.0
  0
LINE
  5
4E
330
1F
100
AcDbEntity
  8
0
  6
Continuous
 62
     7
370
    15
100
AcDbLine
 10
119.1595860566
 20
122.3405155656
 30
0.0
 11
118.759585246
 21
121.9405155
 31
0.0
  0
LINE
  5
4F
330
1F
100
AcDbEntity
  8
0
  6
Continuous
 62
     7
370
    15
100
AcDbLine
 10
118.759585246
 20
118.340515655
 30
0.0
 11
119.1595860566
 21
117.9405155894
 31
0.0
  0
LINE
  5
50
330
1F
100
AcDbEntity
  8
0
  6
Continuous
 62
     7
370
    15
100
AcDbLine
 10
118.3595844354
 20
122.3405155656
 30
0.0
 11
117.9595836247
 21
121.9405155
 31
0.0
  0
LINE
  5
51
330
1F
100
AcDbEntity
  8
0
  6
Continuous
 62
     7
370
    15
100
AcDbLine
 10
117.9595836247
 20
118.340515655
 30
0.0
 11
118.3595844354
 21
117.9405155894
 31
0.0
  0
LINE
  5
52
330
1F
100
AcDbEntity
  8
0
  6
Continuous
 62
     7
370
    15
100
AcDbLine
 10
118.3595844354
 20
117.9405155894
 30
0.0
 11
118.759585246
 21
118.340515655
 31
0.0
  0
LINE
  5
53
330
1F
100
AcDbEntity
  8
0
  6
Continuous
 62
     7
370
    15
100
AcDbLine
 10
118.759585246
 20
121.9405155
 30
0.0
 11
118.3595844354
 21
122.3405155656
 31
0.0
  0
LINE
  5
54
330
1F
100
AcDbEntity
  8
0
  6
Continuous
 62
     7
370
    15
100
AcDbLine
 10
117.5595828141
 20
122.3405155656
 30
0.0
 11
117.1595879639
 21
121.9405155
 31
0.0
  0
LINE
  5
55
330
1F
100
AcDbEntity
  8
0
  6
Continuous
 62
     7
370
    15
100
AcDbLine
 10
117.1595879639
 20
118.340515655
 30
0.0
 11
117.5595828141
 21
117.9405155894
 31
0.0
  0
LINE
  5
56
330
1F
100
AcDbEntity
  8
0
  6
Continuous
 62
     7
370
    15
100
AcDbLine
 10
117.5595828141
 20
117.9405155894
 30
0.0
 11
117.9595836247
 21
118.340515655
 31
0.0
  0
LINE
  5
57
330
1F
100
AcDbEntity
  8
0
  6
Continuous
 62
     7
370
    15
100
AcDbLine
 10
117.9595836247
 20
121.9405155
 30
0.0
 11
117.5595828141
 21
122.3405155656
 31
0.0
  0
LINE
  5
58
330
1F
100
AcDbEntity
  8
0
  6
Continuous
 62
     7
370
    15
100
AcDbLine
 10
120.359582528
 20
117.9405155894
 30
0.0
 11
123.6395844067
 21
117.9405155894
 31
0.0
  0
LINE
  5
59
330
1F
100
AcDbEntity
  8
0
  6
Continuous
 62
     7
370
    15
100
AcDbLine
 10
123.6375876511
 20
122.3405155656
 30
0.0
 11
120.359582528
 21
122.3405155656
 31
0.0
  0
LINE
  5
5A
330
1F
100
AcDbEntity
  8
0
  6
Continuous
 62
     7
370
    15
100
AcDbLine
 10
277.7195879067
 20
119.0476666507
 30
0.0
 11
277.7795859422
 21
119.1846865532
 31
0.0
  0
LINE
  5
5B
330
1F
100
AcDbEntity
  8
0
  6
Continuous
 62
     7
370
    15
100
AcDbLine
 10
277.7795859422
 20
123.756344181
 30
0.0
 11
277.7195879067
 21
123.8933640835
 31
0.0
  0
ARC
  5
5C
330
1F
100
AcDbEntity
  8
0
  6
Continuous
 62
     7
370
    15
100
AcDbCircle
 10
280.5795853682
 20
120.4905154639
 30
0.0
 40
0.0999999999999659
100
AcDbArc
 50
270.0
 51
0.0
  0
ARC
  5
5D
330
1F
100
AcDbEntity
  8
0
  6
Continuous
 62
     7
370
    15
100
AcDbCircle
 10
280.5795853682
 20
122.4505154639
 30
0.0
 40
0.0999999999999659
100
AcDbArc
 50
0.0
 51
90.0
  0
LINE
  5
5E
330
1F
100
AcDbEntity
  8
0
  6
Continuous
 62
     7
370
    15
100
AcDbLine
 10
277.7795859422
 20
120.3905153391
 30
0.0
 11
280.5795856561
 21
120.3905153391
 31
0.0
  0
LINE
  5
5F
330
1F
100
AcDbEntity
  8
0
  6
Continuous
 62
     7
370
    15
100
AcDbLine
 10
280.5795856561
 20
122.5505153951
 30
0.0
 11
277.7795859422
 21
122.5505153951
 31
0.0
  0
LINE
  5
60
330
1F
100
AcDbEntity
  8
0
  6
Continuous
 62
     7
370
    15
100
AcDbLine
 10
277.7195879067
 20
114.9705154193
 30
0.0
 11
279.7195859994
 21
115.7705153641
 31
0.0
  0
LINE
  5
61
330
1F
100
AcDbEntity
  8
0
  6
Continuous
 62
     7
370
    15
100
AcDbLine
 10
278.1838544453
 20
127.7848075447
 30
0.0
 11
277.7195879067
 21
127.9705147562
 31
0.0
  0
LINE
  5
62
330
1F
100
AcDbEntity
  8
0
  6
Continuous
 62
     7
370
    15
100
AcDbLine
 10
279.7195859994
 20
127.1705161151
 30
0.0
 11
279.1122981156
 21
127.4134288845
 31
0.0
  0
LINE
  5
63
330
1F
100
AcDbEntity
  8
0
  6
Continuous
 62
     7
370
    15
100
AcDbLine
 10
279.7195859994
 20
115.7705153641
 30
0.0
 11
283.6016603555
 21
117.5174481538
 31
0.0
  0
LINE
  5
64
330
1F
100
AcDbEntity
  8
0
  6
Continuous
 62
     7
370
    15
100
AcDbLine
 10
279.8107751454
 20
127.1294783172
 30
0.0
 11
279.7195859994
 21
127.1705161151
 31
0.0
  0
ARC
  5
65
330
1F
100
AcDbEntity
  8
0
  6
Continuous
 62
     7
370
    15
100
AcDbCircle
 10
283.5195853682
 20
117.6998325859
 30
0.0
 40
0.2000000000000455
100
AcDbArc
 50
294.227745318
 51
0.0
  0
LINE
  5
66
330
1F
100
AcDbEntity
  8
0
  6
Continuous
 62
     7
370
    15
100
AcDbLine
 10
279.1135676946
 20
127.4150754628
 30
0.0
 11
278.184080943
 21
127.7868728456
 31
0.0
  0
LINE
  5
67
330
1F
100
AcDbEntity
  8
0
  6
Continuous
 62
     7
370
    15
100
AcDbLine
 10
259.7395845498
 20
89.1405160842
 30
0.0
 11
259.7395845498
 21
89.9405147252
 31
0.0
  0
LINE
  5
68
330
1F
100
AcDbEntity
  8
0
  6
Continuous
 62
     7
370
    15
100
AcDbLine
 10
248.3395852889
 20
89.9405147252
 30
0.0
 11
248.3395852889
 21
89.1405160842
 31
0.0
  0
ARC
  5
69
330
1F
100
AcDbEntity
  8
0
  6
Continuous
 62
     7
370
    15
100
AcDbCircle
 10
259.3395853682
 20
89.1405154639
 30
0.0
 40
0.4000000000000057
100
AcDbArc
 50
270.0
 51
0.0
  0
ARC
  5
6A
330
1F
100
AcDbEntity
  8
0
  6
Continuous
 62
     7
370
    15
100
AcDbCircle
 10
248.7395853682
 20
89.1405154639
 30
0.0
 40
0.4000000000000057
100
AcDbArc
 50
180.0
 51
270.0
  0
LINE
  5
6B
330
1F
100
AcDbEntity
  8
0
  6
Continuous
 62
     7
370
    15
100
AcDbLine
 10
144.9395843591
 20
89.1405160842
 30
0.0
 11
144.9395843591
 21
89.9405147252
 31
0.0
  0
LINE
  5
6C
330
1F
100
AcDbEntity
  8
0
  6
Continuous
 62
     7
370
    15
100
AcDbLine
 10
133.5395880784
 20
89.9405147252
 30
0.0
 11
133.5395880784
 21
89.1405160842
 31
0.0
  0
ARC
  5
6D
330
1F
100
AcDbEntity
  8
0
  6
Continuous
 62
     7
370
    15
100
AcDbCircle
 10
144.5395853682
 20
89.1405154639
 30
0.0
 40
0.4000000000000057
100
AcDbArc
 50
270.0
 51
0.0
  0
ARC
  5
6E
330
1F
100
AcDbEntity
  8
0
  6
Continuous
 62
     7
370
    15
100
AcDbCircle
 10
133.9395853682
 20
89.1405154639
 30
0.0
 40
0.4000000000000341
100
AcDbArc
 50
180.0
 51
270.0
  0
LINE
  5
6F
330
1F
100
AcDbEntity
  8
0
  6
Continuous
 62
     7
370
    15
100
AcDbLine
 10
259.6995838727
 20
89.9405147252
 30
0.0
 11
259.6995838727
 21
95.7405160484
 31
0.0
  0
LINE
  5
70
330
1F
100
AcDbEntity
  8
0
  6
Continuous
 62
     7
370
    15
100
AcDbLine
 10
248.379585966
 20
95.7405160484
 30
0.0
 11
248.379585966
 21
89.9405147252
 31
0.0
  0
LINE
  5
71
330
1F
100
AcDbEntity
  8
0
  6
Continuous
 62
     7
370
    15
100
AcDbLine
 10
144.899583682
 20
89.9405147252
 30
0.0
 11
144.899583682
 21
95.7405160484
 31
0.0
  0
LINE
  5
72
330
1F
100
AcDbEntity
  8
0
  6
Continuous
 62
     7
370
    15
100
AcDbLine
 10
133.579582795
 20
95.7405160484
 30
0.0
 11
133.579582795
 21
89.9405147252
 31
0.0
  0
ARC
  5
73
330
1F
100
AcDbEntity
  8
0
  6
Continuous
 62
     7
370
    15
100
AcDbCircle
 10
260.7195853682
 20
108.0405154639
 30
0.0
 40
0.3000000000000114
100
AcDbArc
 50
90.0
 51
180.0
  0
ARC
  5
74
330
1F
100
AcDbEntity
  8
0
  6
Continuous
 62
     7
370
    15
100
AcDbCircle
 10
247.3595853682
 20
108.0405154639
 30
0.0
 40
0.2999999999999972
100
AcDbArc
 50
0.0
 51
90.0
  0
ARC
  5
75
330
1F
100
AcDbEntity
  8
0
  6
Continuous
 62
     7
370
    15
100
AcDbCircle
 10
259.4795853682
 20
96.9470286531
 30
0.0
 40
0.9400000000000002
100
AcDbArc
 50
350.5402980318
 51
0.0
  0
ARC
  5
76
330
1F
100
AcDbEntity
  8
0
  6
Continuous
 62
     7
370
    15
100
AcDbCircle
 10
248.5995853682
 20
96.9470286531
 30
0.0
 40
0.9400000000000002
100
AcDbArc
 50
180.0
 51
189.4597019682
  0
LINE
  5
77
330
1F
100
AcDbEntity
  8
0
  6
Continuous
 62
     7
370
    15
100
AcDbLine
 10
260.4195841397
 20
96.9470287976
 30
0.0
 11
260.4195841397
 21
108.0405156431
 31
0.0
  0
LINE
  5
78
330
1F
100
AcDbEntity
  8
0
  6
Continuous
 62
     7
370
    15
100
AcDbLine
 10
247.659585699
 20
108.0405156431
 30
0.0
 11
247.659585699
 21
96.9470287976
 31
0.0
  0
LINE
  5
79
330
1F
100
AcDbEntity
  8
0
  6
Continuous
 62
     7
370
    15
100
AcDbLine
 10
247.672367915
 20
96.7925365386
 30
0.0
 11
247.8476562346
 21
95.7405160484
 31
0.0
  0
LINE
  5
7A
330
1F
100
AcDbEntity
  8
0
  6
Continuous
 62
     7
370
    15
100
AcDbLine
 10
260.2315136041
 20
95.7405160484
 30
0.0
 11
260.4068049039
 21
96.7925365386
 31
0.0
  0
ARC
  5
7B
330
1F
100
AcDbEntity
  8
0
  6
Continuous
 62
     7
370
    15
100
AcDbCircle
 10
145.9195853682
 20
108.0405154639
 30
0.0
 40
0.3000000000000114
100
AcDbArc
 50
90.0
 51
180.0
  0
ARC
  5
7C
330
1F
100
AcDbEntity
  8
0
  6
Continuous
 62
     7
370
    15
100
AcDbCircle
 10
132.5595853682
 20
108.0405154639
 30
0.0
 40
0.2999999999999972
100
AcDbArc
 50
0.0
 51
90.0
  0
LINE
  5
7D
330
1F
100
AcDbEntity
  8
0
  6
Continuous
 62
     7
370
    15
100
AcDbLine
 10
145.619583949
 20
96.9470287976
 30
0.0
 11
145.619583949
 21
108.0405156431
 31
0.0
  0
LINE
  5
7E
330
1F
100
AcDbEntity
  8
0
  6
Continuous
 62
     7
370
    15
100
AcDbLine
 10
132.859582528
 20
108.0405156431
 30
0.0
 11
132.859582528
 21
96.9470287976
 31
0.0
  0
ARC
  5
7F
330
1F
100
AcDbEntity
  8
0
  6
Continuous
 62
     7
370
    15
100
AcDbCircle
 10
144.6795853682
 20
96.9470286531
 30
0.0
 40
0.9400000000000002
100
AcDbArc
 50
350.5402980318
 51
0.0
  0
ARC
  5
80
330
1F
100
AcDbEntity
  8
0
  6
Continuous
 62
     7
370
    15
100
AcDbCircle
 10
133.7995853682
 20
96.9470286531
 30
0.0
 40
0.9399999999999977
100
AcDbArc
 50
180.0
 51
189.4597019682
  0
LINE
  5
81
330
1F
100
AcDbEntity
  8
0
  6
Continuous
 62
     7
370
    15
100
AcDbLine
 10
132.8723677243
 20
96.7925365386
 30
0.0
 11
133.0476530637
 21
95.7405160484
 31
0.0
  0
LINE
  5
82
330
1F
100
AcDbEntity
  8
0
  6
Continuous
 62
     7
370
    15
100
AcDbLine
 10
145.4315134133
 20
95.7405160484
 30
0.0
 11
145.6068047131
 21
96.7925365386
 31
0.0
  0
LINE
  5
83
330
1F
100
AcDbEntity
  8
0
  6
Continuous
 62
     7
370
    15
100
AcDbLine
 10
123.6395844067
 20
133.7405155716
 30
0.0
 11
123.6395844067
 21
150.7405157504
 31
0.0
  0
LINE
  5
84
330
1F
100
AcDbEntity
  8
0
  6
Continuous
 62
     7
370
    15
100
AcDbLine
 10
123.6395844067
 20
151.7405147967
 30
0.0
 11
123.6795850839
 21
151.7405147967
 31
0.0
  0
LINE
  5
85
330
1F
100
AcDbEntity
  8
0
  6
Continuous
 62
     7
370
    15
100
AcDbLine
 10
123.6395844067
 20
150.7405157504
 30
0.0
 11
123.6395844067
 21
151.7405147967
 31
0.0
  0
LINE
  5
86
330
1F
100
AcDbEntity
  8
0
  6
Continuous
 62
     7
370
    15
100
AcDbLine
 10
123.6395844067
 20
132.7405150351
 30
0.0
 11
123.6795850839
 21
132.7405150351
 31
0.0
  0
LINE
  5
87
330
1F
100
AcDbEntity
  8
0
  6
Continuous
 62
     7
370
    15
100
AcDbLine
 10
123.6395844067
 20
132.7405150351
 30
0.0
 11
123.6395844067
 21
133.7405155716
 31
0.0
  0
LINE
  5
88
330
1F
100
AcDbEntity
  8
0
  6
Continuous
 62
     7
370
    15
100
AcDbLine
 10
123.6795850839
 20
128.340515059
 30
0.0
 11
123.6395844067
 21
128.340515059
 31
0.0
  0
LINE
  5
89
330
1F
100
AcDbEntity
  8
0
  6
Continuous
 62
     7
370
    15
100
AcDbLine
 10
123.6795850839
 20
120.7405153033
 30
0.0
 11
123.6395844067
 21
120.7405153033
 31
0.0
  0
LINE
  5
8A
330
1F
100
AcDbEntity
  8
0
  6
Continuous
 62
     7
370
    15
100
AcDbLine
 10
123.6395844067
 20
128.340515059
 30
0.0
 11
123.6395844067
 21
120.7405153033
 31
0.0
  0
LINE
  5
8B
330
1F
100
AcDbEntity
  8
0
  6
Continuous
 62
     7
370
    15
100
AcDbLine
 10
123.6395844067
 20
110.7405154337
 30
0.0
 11
123.6395844067
 21
117.9405155894
 31
0.0
  0
LINE
  5
8C
330
1F
100
AcDbEntity
  8
0
  6
Continuous
 62
     7
370
    15
100
AcDbLine
 10
123.6395844067
 20
117.9405155894
 30
0.0
 11
123.6795850839
 21
117.9405155894
 31
0.0
  0
LINE
  5
8D
330
1F
100
AcDbEntity
  8
0
  6
Continuous
 62
     7
370
    15
100
AcDbLine
 10
123.6395844067
 20
110.7405154337
 30
0.0
 11
123.6795850839
 21
110.7405154337
 31
0.0
  0
LINE
  5
8E
330
1F
100
AcDbEntity
  8
0
  6
Continuous
 62
     7
370
    15
100
AcDbLine
 10
123.6595877255
 20
128.7405158696
 30
0.0
 11
123.6595877255
 21
130.6405152497
 31
0.0
  0
LINE
  5
8F
330
1F
100
AcDbEntity
  8
0
  6
Continuous
 62
     7
370
    15
100
AcDbLine
 10
123.6595877255
 20
128.340515059
 30
0.0
 11
123.6595877255
 21
128.7405158696
 31
0.0
  0
LINE
  5
90
330
1F
100
AcDbEntity
  8
0
  6
Continuous
 62
     7
370
    15
100
AcDbLine
 10
123.6575850095
 20
129.7725390014
 30
0.0
 11
123.6595877255
 21
129.7725390014
 31
0.0
  0
LINE
  5
91
330
1F
100
AcDbEntity
  8
0
  6
Continuous
 62
     7
370
    15
100
AcDbLine
 10
123.6575850095
 20
129.8238213477
 30
0.0
 11
123.6575850095
 21
129.7725390014
 31
0.0
  0
LINE
  5
92
330
1F
100
AcDbEntity
  8
0
  6
Continuous
 62
     7
370
    15
100
AcDbLine
 10
123.6575850095
 20
129.8238213477
 30
0.0
 11
123.6595877255
 21
129.8238213477
 31
0.0
  0
LINE
  5
93
330
1F
100
AcDbEntity
  8
0
  6
Continuous
 62
     7
370
    15
100
AcDbLine
 10
123.6575850095
 20
129.3238203344
 30
0.0
 11
123.6595877255
 21
129.3238203344
 31
0.0
  0
LINE
  5
94
330
1F
100
AcDbEntity
  8
0
  6
Continuous
 62
     7
370
    15
100
AcDbLine
 10
123.6575850095
 20
129.7725390014
 30
0.0
 11
123.6575850095
 21
129.3238203344
 31
0.0
  0
LINE
  5
95
330
1F
100
AcDbEntity
  8
0
  6
Continuous
 62
     7
370
    15
100
AcDbLine
 10
123.6575850095
 20
128.5432110843
 30
0.0
 11
123.6595877255
 21
128.5432110843
 31
0.0
  0
LINE
  5
96
330
1F
100
AcDbEntity
  8
0
  6
Continuous
 62
     7
370
    15
100
AcDbLine
 10
123.6575850095
 20
128.678527039
 30
0.0
 11
123.6595877255
 21
128.678527039
 31
0.0
  0
SPLINE
  5
97
330
1F
100
AcDbEntity
  8
0
  6
Continuous
 62
     7
370
    15
100
AcDbSpline
210
0.0
220
0.0
230
1.0
 70
    24
 71
     3
 72
    10
 73
     6
 74
     0
 42
0.00000001
 43
0.00000001
 12
1.0
 22
0.0
 32
0.0
 13
1.0
 23
0.0
 33
0.0
 40
0.0
 40
0.0
 40
0.0
 40
0.0
 40
0.5601118958683927
 40
0.7802846130752471
 40
1.0
 40
1.0
 40
1.0
 40
1.0
 10
123.6575850094661
 20
128.8398857531153
 30
0.0
 10
123.657585009466
 20
128.8166737051351
 30
0.0
 10
123.6575850094661
 20
128.784337302337
 30
0.0
 10
123.6575850094661
 20
128.7241572714618
 30
0.0
 10
123.6575850094661
 20
128.6937265707215
 30
0.0
 10
123.6575850094661
 20
128.6785270390116
 30
0.0
  0
LINE
  5
98
330
1F
100
AcDbEntity
  8
0
  6
Continuous
 62
     7
370
    15
100
AcDbLine
 10
123.6575850095
 20
128.8398857531
 30
0.0
 11
123.6595877255
 21
128.8398857531
 31
0.0
  0
SPLINE
  5
99
330
1F
100
AcDbEntity
  8
0
  6
Continuous
 62
     7
370
    15
100
AcDbSpline
210
0.0
220
0.0
230
1.0
 70
    24
 71
     3
 72
    10
 73
     6
 74
     0
 42
0.00000001
 43
0.00000001
 12
1.0
 22
0.0
 32
0.0
 13
1.0
 23
0.0
 33
0.0
 40
0.0
 40
0.0
 40
0.0
 40
0.0
 40
0.5601118958683927
 40
0.7802846130752471
 40
1.0
 40
1.0
 40
1.0
 40
1.0
 10
123.6595877255305
 20
128.8398857531153
 30
0.0
 10
123.6595877255305
 20
128.8166737051351
 30
0.0
 10
123.6595877255306
 20
128.784337302337
 30
0.0
 10
123.6595877255305
 20
128.7241572714618
 30
0.0
 10
123.6595877255305
 20
128.6937265707215
 30
0.0
 10
123.6595877255305
 20
128.6785270390116
 30
0.0
  0
LINE
  5
9A
330
1F
100
AcDbEntity
  8
0
  6
Continuous
 62
     7
370
    15
100
AcDbLine
 10
123.6575850095
 20
128.9534683642
 30
0.0
 11
123.6595877255
 21
128.9534683642
 31
0.0
  0
LINE
  5
9B
330
1F
100
AcDbEntity
  8
0
  6
Continuous
 62
     7
370
    15
100
AcDbLine
 10
123.6575850095
 20
128.9842169103
 30
0.0
 11
123.6595877255
 21
128.9842169103
 31
0.0
  0
LINE
  5
9C
330
1F
100
AcDbEntity
  8
0
  6
Continuous
 62
     7
370
    15
100
AcDbLine
 10
123.6575850095
 20
128.9842169103
 30
0.0
 11
123.6575850095
 21
128.9534683642
 31
0.0
  0
LINE
  5
9D
330
1F
100
AcDbEntity
  8
0
  6
Continuous
 62
     7
370
    15
100
AcDbLine
 10
123.6575850095
 20
129.0688525257
 30
0.0
 11
123.6595877255
 21
129.0688525257
 31
0.0
  0
LINE
  5
9E
330
1F
100
AcDbEntity
  8
0
  6
Continuous
 62
     7
370
    15
100
AcDbLine
 10
123.6575850095
 20
128.8896660623
 30
0.0
 11
123.6595877255
 21
128.8896660623
 31
0.0
  0
LINE
  5
9F
330
1F
100
AcDbEntity
  8
0
  6
Continuous
 62
     7
370
    15
100
AcDbLine
 10
119.9595876778
 20
117.9405155894
 30
0.0
 11
119.9595876778
 21
122.3405155656
 31
0.0
  0
LINE
  5
A0
330
1F
100
AcDbEntity
  8
0
  6
Continuous
 62
     7
370
    15
100
AcDbLine
 10
119.5595868672
 20
118.340515655
 30
0.0
 11
119.5595868672
 21
121.9405155
 31
0.0
  0
LINE
  5
A1
330
1F
100
AcDbEntity
  8
0
  6
Continuous
 62
     7
370
    15
100
AcDbLine
 10
119.1595860566
 20
117.9405155894
 30
0.0
 11
119.1595860566
 21
122.3405155656
 31
0.0
  0
LINE
  5
A2
330
1F
100
AcDbEntity
  8
0
  6
Continuous
 62
     7
370
    15
100
AcDbLine
 10
118.759585246
 20
118.340515655
 30
0.0
 11
118.759585246
 21
121.9405155
 31
0.0
  0
LINE
  5
A3
330
1F
100
AcDbEntity
  8
0
  6
Continuous
 62
     7
370
    15
100
AcDbLine
 10
118.3595844354
 20
117.9405155894
 30
0.0
 11
118.3595844354
 21
122.3405155656
 31
0.0
  0
LINE
  5
A4
330
1F
100
AcDbEntity
  8
0
  6
Continuous
 62
     7
370
    15
100
AcDbLine
 10
117.9595836247
 20
118.340515655
 30
0.0
 11
117.9595836247
 21
121.9405155
 31
0.0
  0
LINE
  5
A5
330
1F
100
AcDbEntity
  8
0
  6
Continuous
 62
     7
370
    15
100
AcDbLine
 10
117.5595828141
 20
117.9405155894
 30
0.0
 11
117.5595828141
 21
122.3405155656
 31
0.0
  0
LINE
  5
A6
330
1F
100
AcDbEntity
  8
0
  6
Continuous
 62
     7
370
    15
100
AcDbLine
 10
117.1595879639
 20
118.340515655
 30
0.0
 11
117.1595879639
 21
121.9405155
 31
0.0
  0
LINE
  5
A7
330
1F
100
AcDbEntity
  8
0
  6
Continuous
 62
     7
370
    15
100
AcDbLine
 10
120.359582528
 20
120.1405155775
 30
0.0
 11
120.359582528
 21
117.9405155894
 31
0.0
  0
LINE
  5
A8
330
1F
100
AcDbEntity
  8
0
  6
Continuous
 62
     7
370
    15
100
AcDbLine
 10
120.359582528
 20
122.3405155656
 30
0.0
 11
120.359582528
 21
120.1405155775
 31
0.0
  0
LINE
  5
A9
330
1F
100
AcDbEntity
  8
0
  6
Continuous
 62
     7
370
    15
100
AcDbLine
 10
277.7795859422
 20
121.4705157396
 30
0.0
 11
277.7795859422
 21
123.756344181
 31
0.0
  0
LINE
  5
AA
330
1F
100
AcDbEntity
  8
0
  6
Continuous
 62
     7
370
    15
100
AcDbLine
 10
277.7795859422
 20
119.1846865532
 30
0.0
 11
277.7795859422
 21
121.4705157396
 31
0.0
  0
SPLINE
  5
AB
330
1F
100
AcDbEntity
  8
0
  6
Continuous
 62
     7
370
    15
100
AcDbSpline
210
0.0
220
0.0
230
1.0
 70
    24
 71
     3
 72
    13
 73
     9
 74
     0
 42
0.00000001
 43
0.00000001
 12
1.0
 22
0.0
 32
0.0
 13
1.0
 23
0.0
 33
0.0
 40
0.0
 40
0.0
 40
0.0
 40
0.0
 40
0.2394568626494331
 40
0.3683605163393253
 40
0.4999998362066703
 40
0.6316391560740153
 40
0.760542921500871
 40
1.0
 40
1.0
 40
1.0
 40
1.0
 10
280.679584368597
 20
120.4905155417524
 30
0.0
 10
280.6795843685969
 20
120.5036064923381
 30
0.0
 10
280.6795843685969
 20
120.5237445216423
 30
0.0
 10
280.679584368597
 20
120.645947605201
 30
0.0
 10
280.679584368597
 20
120.772428162955
 30
0.0
 10
280.679584368597
 20
120.929430777714
 30
0.0
 10
280.679584368597
 20
121.1575906286775
 30
0.0
 10
280.6795843685969
 20
121.3472351812761
 30
0.0
 10
280.679584368597
 20
121.4705157396398
 30
0.0
  0
LINE
  5
AC
330
1F
100
AcDbEntity
  8
0
  6
Continuous
 62
     7
370
    15
100
AcDbLine
 10
277.7195879067
 20
114.9705154193
 30
0.0
 11
277.7195879067
 21
115.5980586377
 31
0.0
  0
LINE
  5
AD
330
1F
100
AcDbEntity
  8
0
  6
Continuous
 62
     7
370
    15
100
AcDbLine
 10
277.7195879067
 20
126.5896733222
 30
0.0
 11
277.7195879067
 21
127.9705147562
 31
0.0
  0
LINE
  5
AE
330
1F
100
AcDbEntity
  8
0
  6
Continuous
 62
     7
370
    15
100
AcDbLine
 10
279.7195859994
 20
126.2104715523
 30
0.0
 11
279.7195859994
 21
127.1705161151
 31
0.0
  0
LINE
  5
AF
330
1F
100
AcDbEntity
  8
0
  6
Continuous
 62
     7
370
    15
100
AcDbLine
 10
279.7195859994
 20
115.7705153641
 30
0.0
 11
279.7195859994
 21
116.7305599269
 31
0.0
  0
SPLINE
  5
B0
330
1F
100
AcDbEntity
  8
0
  6
Continuous
 62
     7
370
    15
100
AcDbSpline
210
0.0
220
0.0
230
1.0
 70
     8
 71
     3
 72
    16
 73
    12
 74
     0
 42
0.00000001
 43
0.00000001
 12
1.0
 22
0.0
 32
0.0
 13
1.0
 23
0.0
 33
0.0
 40
0.0
 40
0.0
 40
0.0
 40
0.0
 40
0.0000604862897704
 40
0.1251214430213333
 40
0.2500910857965261
 40
0.3750578489536553
 40
0.500022713890483
 40
0.6249868339953201
 40
0.7499524858838272
 40
0.8749155412135153
 40
0.9999999999999999
 40
0.9999999999999999
 40
0.9999999999999999
 40
0.9999999999999999
 10
278.1838544453486
 20
127.7848075446688
 30
0.0
 10
278.1838484823049
 20
127.7848100293385
 30
0.0
 10
278.1715133788767
 20
127.789949796824
 30
0.0
 10
278.2130395551282
 20
127.7708977981973
 30
0.0
 10
278.3063928435174
 20
127.725860980001
 30
0.0
 10
278.4601003107511
 20
127.6563622389164
 30
0.0
 10
278.6405020474425
 20
127.5806635706083
 30
0.0
 10
278.8242000433645
 20
127.5102741226116
 30
0.0
 10
278.9803224744022
 20
127.4556839484807
 30
0.0
 10
279.0905495736611
 20
127.4201556928161
 30
0.0
 10
279.1050462554842
 20
127.4156718795792
 30
0.0
 10
279.1122981156215
 20
127.4134288844667
 30
0.0
  0
LINE
  5
B1
330
1F
100
AcDbEntity
  8
0
  6
Continuous
 62
     7
370
    15
100
AcDbLine
 10
279.7195859994
 20
125.843596023
 30
0.0
 11
279.7195859994
 21
122.5505153951
 31
0.0
  0
LINE
  5
B2
330
1F
100
AcDbEntity
  8
0
  6
Continuous
 62
     7
370
    15
100
AcDbLine
 10
279.7195859994
 20
120.4160171864
 30
0.0
 11
279.7195859994
 21
117.0974354562
 31
0.0
  0
SPLINE
  5
B3
330
1F
100
AcDbEntity
  8
0
  6
Continuous
 62
     7
370
    15
100
AcDbSpline
210
0.0
220
0.0
230
1.0
 70
     8
 71
     3
 72
    12
 73
     8
 74
     0
 42
0.00000001
 43
0.00000001
 12
1.0
 22
0.0
 32
0.0
 13
1.0
 23
0.0
 33
0.0
 40
0.0
 40
0.0
 40
0.0
 40
0.0
 40
0.0304722178186966
 40
0.0888125988379122
 40
0.3925542446839015
 40
0.6962728606113309
 40
1.0
 40
1.0
 40
1.0
 40
1.0
 10
279.8109301174983
 20
116.9272884097896
 30
0.0
 10
279.8109782337628
 20
116.9251678240508
 30
0.0
 10
279.8111184707
 20
116.9189872850546
 30
0.0
 10
279.8103468431297
 20
116.8913783617298
 30
0.0
 10
279.8005642443275
 20
116.8433868478583
 30
0.0
 10
279.769838384457
 20
116.7815406465332
 30
0.0
 10
279.7380773985861
 20
116.7512545935321
 30
0.0
 10
279.7221966828212
 20
116.7361113545499
 30
0.0
  0
SPLINE
  5
B4
330
1F
100
AcDbEntity
  8
0
  6
Continuous
 62
     7
370
    15
100
AcDbSpline
210
0.0
220
0.0
230
1.0
 70
     8
 71
     3
 72
    10
 73
     6
 74
     0
 42
0.00000001
 43
0.00000001
 12
1.0
 22
0.0
 32
0.0
 13
1.0
 23
0.0
 33
0.0
 40
0.0
 40
0.0
 40
0.0
 40
0.0
 40
0.2116694782874092
 40
0.487947855293545
 40
1.0
 40
1.0
 40
1.0
 40
1.0
 10
279.7221966828212
 20
116.7361113545499
 30
0.0
 10
279.7217639318677
 20
116.7357088484542
 30
0.0
 10
279.7207663392938
 20
116.73478097738
 30
0.0
 10
279.7197482055215
 20
116.7327917947024
 30
0.0
 10
279.71964987135
 20
116.7314387703064
 30
0.0
 10
279.71958599938
 20
116.7305599269472
 30
0.0
  0
SPLINE
  5
B5
330
1F
100
AcDbEntity
  8
0
  6
Continuous
 62
     7
370
    15
100
AcDbSpline
210
0.0
220
0.0
230
1.0
 70
     8
 71
     3
 72
    12
 73
     8
 74
     0
 42
0.00000001
 43
0.00000001
 12
1.0
 22
0.0
 32
0.0
 13
1.0
 23
0.0
 33
0.0
 40
0.0
 40
0.0
 40
0.0
 40
0.0
 40
0.0304753385881276
 40
0.0888172015231825
 40
0.3925549585233311
 40
0.6962759250564163
 40
1.0
 40
1.0
 40
1.0
 40
1.0
 10
279.8109301174983
 20
126.0137419519029
 30
0.0
 10
279.81097823441
 20
126.0158627890525
 30
0.0
 10
279.8111184661395
 20
126.0220437481241
 30
0.0
 10
279.8103469220165
 20
126.0496527737467
 30
0.0
 10
279.8005638720169
 20
126.0976442082323
 30
0.0
 10
279.7698388324461
 20
126.1594906728443
 30
0.0
 10
279.7380774535391
 20
126.1897764257365
 30
0.0
 10
279.7221966828212
 20
126.2049193796717
 30
0.0
  0
SPLINE
  5
B6
330
1F
100
AcDbEntity
  8
0
  6
Continuous
 62
     7
370
    15
100
AcDbSpline
210
0.0
220
0.0
230
1.0
 70
     8
 71
     3
 72
    11
 73
     7
 74
     0
 42
0.00000001
 43
0.00000001
 12
1.0
 22
0.0
 32
0.0
 13
1.0
 23
0.0
 33
0.0
 40
0.0
 40
0.0
 40
0.0
 40
0.0
 40
0.370537618276855
 40
0.744358022160848
 40
0.9444798242996421
 40
1.0
 40
1.0
 40
1.0
 40
1.0
 10
279.7195859993801
 20
126.2104715523325
 30
0.0
 10
279.7196202167553
 20
126.2098400996206
 30
0.0
 10
279.7196889546555
 20
126.2085715998286
 30
0.0
 10
279.7204408407024
 20
126.2067429425015
 30
0.0
 10
279.7215179900784
 20
126.2054892254806
 30
0.0
 10
279.7220755847381
 20
126.2050210563668
 30
0.0
 10
279.7221966828212
 20
126.2049193796717
 30
0.0
  0
SPLINE
  5
B7
330
1F
100
AcDbEntity
  8
0
  6
Continuous
 62
     7
370
    15
100
AcDbSpline
210
0.0
220
0.0
230
1.0
 70
     8
 71
     3
 72
    12
 73
     8
 74
     0
 42
0.00000001
 43
0.00000001
 12
1.0
 22
0.0
 32
0.0
 13
1.0
 23
0.0
 33
0.0
 40
0.0
 40
0.0
 40
0.0
 40
0.0
 40
0.2239102194547591
 40
0.4477885824969153
 40
0.6716991590903125
 40
0.8955850132902579
 40
1.0
 40
1.0
 40
1.0
 40
1.0
 10
279.853338822256
 20
127.1100770053469
 30
0.0
 10
279.848258469394
 20
127.1123716479496
 30
0.0
 10
279.8380984864678
 20
127.116960606689
 30
0.0
 10
279.8250045619271
 20
127.1229348199508
 30
0.0
 10
279.8154733633101
 20
127.1273033841264
 30
0.0
 10
279.8112482842641
 20
127.1292594423049
 30
0.0
 10
279.8108893145434
 20
127.1294255023713
 30
0.0
 10
279.8107751454219
 20
127.1294783172212
 30
0.0
  0
LINE
  5
B8
330
1F
100
AcDbEntity
  8
0
  6
Continuous
 62
     7
370
    15
100
AcDbLine
 10
279.8533388223
 20
127.1100770053
 30
0.0
 11
283.3320864285
 21
125.5338306841
 31
0.0
  0
LINE
  5
B9
330
1F
100
AcDbEntity
  8
0
  6
Continuous
 62
     7
370
    15
100
AcDbLine
 10
283.3320864285
 20
125.5338306841
 30
0.0
 11
283.6016603555
 21
125.4121820745
 31
0.0
  0
LINE
  5
BA
330
1F
100
AcDbEntity
  8
0
  6
Continuous
 62
     7
370
    15
100
AcDbLine
 10
283.7195881451
 20
124.584048551
 30
0.0
 11
283.7195881451
 21
118.3569821832
 31
0.0
  0
LINE
  5
BB
330
1F
100
AcDbEntity
  8
0
  6
Continuous
 62
     7
370
    15
100
AcDbLine
 10
283.7195881451
 20
125.2292449889
 30
0.0
 11
283.7195881451
 21
124.584048551
 31
0.0
  0
SPLINE
  5
BC
330
1F
100
AcDbEntity
  8
0
  6
Continuous
 62
     7
370
    15
100
AcDbSpline
210
0.0
220
0.0
230
1.0
 70
     8
 71
     3
 72
    11
 73
     7
 74
     0
 42
0.00000001
 43
0.00000001
 12
1.0
 22
0.0
 32
0.0
 13
1.0
 23
0.0
 33
0.0
 40
0.0
 40
0.0
 40
0.0
 40
0.0
 40
0.2933086258802272
 40
0.5865956208155599
 40
0.8804989503315899
 40
1.0
 40
1.0
 40
1.0
 40
1.0
 10
283.6016603554592
 20
125.4121820745073
 30
0.0
 10
283.621270767269
 20
125.4009034050582
 30
0.0
 10
283.6604901446589
 20
125.37834689794
 30
0.0
 10
283.7007071245051
 20
125.3222572213035
 30
0.0
 10
283.7179018245392
 20
125.2699660493071
 30
0.0
 10
283.7192099972211
 20
125.2383764579938
 30
0.0
 10
283.7195881451473
 20
125.2292449888788
 30
0.0
  0
LINE
  5
BD
330
1F
100
AcDbEntity
  8
0
  6
Continuous
 62
     7
370
    15
100
AcDbLine
 10
283.7195881451
 20
118.3569821832
 30
0.0
 11
283.7195881451
 21
117.6998324064
 31
0.0
  0
SPLINE
  5
BE
330
1F
100
AcDbEntity
  8
0
  6
Continuous
 62
     7
370
    15
100
AcDbSpline
210
0.0
220
0.0
230
1.0
 70
     8
 71
     3
 72
    16
 73
    12
 74
     0
 42
0.00000001
 43
0.00000001
 12
1.0
 22
0.0
 32
0.0
 13
1.0
 23
0.0
 33
0.0
 40
0.0
 40
0.0
 40
0.0
 40
0.0
 40
0.000008646373079
 40
0.125068644100875
 40
0.2501192539089416
 40
0.3751528864365136
 40
0.500177941641528
 40
0.6252038612396523
 40
0.7502242297457471
 40
0.8753393516383233
 40
1.0
 40
1.0
 40
1.0
 40
1.0
 10
278.1845816220149
 20
127.786670189818
 30
0.0
 10
278.1845816219962
 20
127.7866706865524
 30
0.0
 10
278.1845813505379
 20
127.7938558842337
 30
0.0
 10
278.2081311391975
 20
127.7717671531557
 30
0.0
 10
278.3087788583621
 20
127.7279169903599
 30
0.0
 10
278.4606701907804
 20
127.6580397539736
 30
0.0
 10
278.6417117288001
 20
127.5823873748915
 30
0.0
 10
278.8253348063443
 20
127.5119657927267
 30
0.0
 10
278.9814948107308
 20
127.4573975381316
 30
0.0
 10
279.0914114295714
 20
127.4219724715074
 30
0.0
 10
279.1058413441799
 20
127.4175128251999
 30
0.0
 10
279.1130431736812
 20
127.4152870592676
 30
0.0
  0
SPLINE
  5
BF
330
1F
100
AcDbEntity
  8
0
  6
Continuous
 62
     7
370
    15
100
AcDbSpline
210
0.0
220
0.0
230
1.0
 70
     8
 71
     3
 72
    12
 73
     8
 74
     0
 42
0.00000001
 43
0.00000001
 12
1.0
 22
0.0
 32
0.0
 13
1.0
 23
0.0
 33
0.0
 40
0.0
 40
0.0
 40
0.0
 40
0.0
 40
0.1840797367543684
 40
0.4011031546568742
 40
0.6181301283596426
 40
0.8351557354081358
 40
1.0
 40
1.0
 40
1.0
 40
1.0
 10
263.4760864819392
 20
169.9605132755838
 30
0.0
 10
263.4861091272363
 20
169.8931318151116
 30
0.0
 10
263.5079481124364
 20
169.7463100256125
 30
0.0
 10
263.5416663208907
 20
169.5397678448784
 30
0.0
 10
263.5771659953621
 20
169.3721846783456
 30
0.0
 10
263.6098423063077
 20
169.2757723168162
 30
0.0
 10
263.6306191199955
 20
169.265116285892
 30
0.0
 10
263.6395879830226
 20
169.2605163273416
 30
0.0
  0
LINE
  5
C0
330
1F
100
AcDbEntity
  8
0
  6
Continuous
 62
     7
370
    15
100
AcDbLine
 10
130.6395836915
 20
169.2605163273
 30
0.0
 11
130.6395836915
 21
169.9605132756
 31
0.0
  0
LINE
  5
C1
330
1F
100
AcDbEntity
  8
0
  6
Continuous
 62
     7
370
    15
100
AcDbLine
 10
124.1395839299
 20
171.6605152306
 30
0.0
 11
130.6395836915
 21
171.6605152306
 31
0.0
  0
LINE
  5
C2
330
1F
100
AcDbEntity
  8
0
  6
Continuous
 62
     7
370
    15
100
AcDbLine
 10
259.6395858373
 20
175.6447042641
 30
0.0
 11
124.1395839299
 21
209.2261637864
 31
0.0
  0
ARC
  5
C3
330
1F
100
AcDbEntity
  8
0
  6
Continuous
 62
     7
370
    15
100
AcDbCircle
 10
259.1584731604
 20
173.7034310382
 30
0.0
 40
2.000000000000017
100
AcDbArc
 50
28.590234854
 51
76.0806356206
  0
LINE
  5
C4
330
1F
100
AcDbEntity
  8
0
  6
Continuous
 62
     7
370
    15
100
AcDbLine
 10
130.6395836915
 20
171.6605152306
 30
0.0
 11
130.6395836915
 21
169.9605132756
 31
0.0
  0
LINE
  5
C5
330
1F
100
AcDbEntity
  8
0
  6
Continuous
 62
     7
370
    15
100
AcDbLine
 10
263.4760864819
 20
169.9605132756
 30
0.0
 11
260.9146007146
 21
174.6605183301
 31
0.0
  0
SPLINE
  5
C6
330
1F
100
AcDbEntity
  8
0
  6
Continuous
 62
     7
370
    15
100
AcDbSpline
210
0.0
220
0.0
230
1.0
 70
     8
 71
     3
 72
    12
 73
     8
 74
     0
 42
0.00000001
 43
0.00000001
 12
1.0
 22
0.0
 32
0.0
 13
1.0
 23
0.0
 33
0.0
 40
0.0
 40
0.0
 40
0.0
 40
0.0
 40
0.2274198064429085
 40
0.4548320528032507
 40
0.6821779858038158
 40
0.9095214780358098
 40
0.9999999999999999
 40
0.9999999999999999
 40
0.9999999999999999
 40
0.9999999999999999
 10
263.4760864819393
 20
169.9605132755838
 30
0.0
 10
263.4884862361351
 20
169.924786699897
 30
0.0
 10
263.5132853323236
 20
169.8533347361767
 30
0.0
 10
263.5504801321634
 20
169.7596047113775
 30
0.0
 10
263.5876425284505
 20
169.6916753065759
 30
0.0
 10
263.6174296265108
 20
169.6632693150604
 30
0.0
 10
263.6346777388059
 20
169.6611270144987
 30
0.0
 10
263.6395879830226
 20
169.6605171379648
 30
0.0
  0
LINE
  5
C7
330
1F
100
AcDbEntity
  8
0
  6
Continuous
 62
     7
370
    15
100
AcDbLine
 10
263.639587983
 20
169.660517138
 30
0.0
 11
263.639587983
 21
169.2605163273
 31
0.0
  0
SPLINE
  5
C8
330
1F
100
AcDbEntity
  8
0
  6
Continuous
 62
     7
370
    15
100
AcDbSpline
210
0.0
220
0.0
230
1.0
 70
     8
 71
     3
 72
    11
 73
     7
 74
     0
 42
0.00000001
 43
0.00000001
 12
1.0
 22
0.0
 32
0.0
 13
1.0
 23
0.0
 33
0.0
 40
0.0
 40
0.0
 40
0.0
 40
0.0
 40
0.2499990778894089
 40
0.4999999378604647
 40
0.7500026859537279
 40
0.9999999999999999
 40
0.9999999999999999
 40
0.9999999999999999
 40
0.9999999999999999
 10
123.4395869816646
 20
209.3005146202646
 30
0.0
 10
123.4501075865382
 20
209.2943204143409
 30
0.0
 10
123.47114887128
 20
209.2819319583392
 30
0.0
 10
123.6330249912103
 20
209.26333654252
 30
0.0
 10
123.8644078069345
 20
209.2447568543645
 30
0.0
 10
124.0478592201717
 20
209.2323614307978
 30
0.0
 10
124.1395839299068
 20
209.2261637863718
 30
0.0
  0
LINE
  5
C9
330
1F
100
AcDbEntity
  8
0
  6
Continuous
 62
     7
370
    15
100
AcDbLine
 10
123.8395877923
 20
209.3005146203
 30
0.0
 11
123.4395869817
 21
209.3005146203
 31
0.0
  0
SPLINE
  5
CA
330
1F
100
AcDbEntity
  8
0
  6
Continuous
 62
     7
370
    15
100
AcDbSpline
210
0.0
220
0.0
230
1.0
 70
     8
 71
     3
 72
    11
 73
     7
 74
     0
 42
0.00000001
 43
0.00000001
 12
1.0
 22
0.0
 32
0.0
 13
1.0
 23
0.0
 33
0.0
 40
0.0
 40
0.0
 40
0.0
 40
0.0
 40
0.2499978895659226
 40
0.4999982754018704
 40
0.7500001386442497
 40
1.0
 40
1.0
 40
1.0
 40
1.0
 10
123.8395877922877
 20
209.3005146202646
 30
0.0
 10
123.8440970357457
 20
209.2943204073514
 30
0.0
 10
123.853115567687
 20
209.2819319196747
 30
0.0
 10
123.9224850295111
 20
209.2633365834501
 30
0.0
 10
124.0216514373483
 20
209.2447566978285
 30
0.0
 10
124.1002732039815
 20
209.2323614069814
 30
0.0
 10
124.1395839299068
 20
209.2261637863718
 30
0.0
  0
LINE
  5
CB
330
1F
100
AcDbEntity
  8
0
  6
Continuous
 62
     7
370
    15
100
AcDbLine
 10
124.1395839299
 20
171.6605152306
 30
0.0
 11
123.4395869817
 21
171.6605152306
 31
0.0
  0
LINE
  5
CC
330
1F
100
AcDbEntity
  8
0
  6
Continuous
 62
     7
370
    15
100
AcDbLine
 10
123.4395869817
 20
171.6605152306
 30
0.0
 11
123.4395869817
 21
209.3005146203
 31
0.0
  0
LINE
  5
CD
330
1F
100
AcDbEntity
  8
0
  6
Continuous
 62
     7
370
    15
100
AcDbLine
 10
264.1395875062
 20
172.51477496
 30
0.0
 11
264.1395875062
 21
171.5003396687
 31
0.0
  0
LINE
  5
CE
330
1F
100
AcDbEntity
  8
0
  6
Continuous
 62
     7
370
    15
100
AcDbLine
 10
263.8995834435
 20
172.51477496
 30
0.0
 11
263.8995834435
 21
171.5003396687
 31
0.0
  0
LINE
  5
CF
330
1F
100
AcDbEntity
  8
0
  6
Continuous
 62
     7
370
    15
100
AcDbLine
 10
264.1395875062
 20
171.5003396687
 30
0.0
 11
264.1395875062
 21
170.4004611191
 31
0.0
  0
LINE
  5
D0
330
1F
100
AcDbEntity
  8
0
  6
Continuous
 62
     7
370
    15
100
AcDbLine
 10
263.8995834435
 20
171.5003396687
 30
0.0
 11
263.8995834435
 21
170.4004611191
 31
0.0
  0
ARC
  5
D1
330
1F
100
AcDbEntity
  8
0
  6
Continuous
 62
     7
370
    15
100
AcDbCircle
 10
263.5995998141
 20
170.4775293376
 30
0.0
 40
0.299983629690613
100
AcDbArc
 50
269.9976109904
 51
359.9978353106
  0
ARC
  5
D2
330
1F
100
AcDbEntity
  8
0
  6
Continuous
 62
     7
370
    15
100
AcDbCircle
 10
263.5996056854
 20
170.400466581
 30
0.0
 40
0.2999777581533367
100
AcDbArc
 50
269.9964895108
 51
359.9989567901
  0
ARC
  5
D3
330
1F
100
AcDbEntity
  8
0
  6
Continuous
 62
     7
370
    15
100
AcDbCircle
 10
263.5996048342
 20
170.4004972359
 30
0.0
 40
0.5399826731457709
100
AcDbArc
 50
269.9981401264
 51
359.9961677687
  0
LINE
  5
D4
330
1F
100
AcDbEntity
  8
0
  6
Continuous
 62
     7
370
    15
100
AcDbLine
 10
263.5995873059
 20
170.1004888234
 30
0.0
 11
263.3997984971
 21
170.1004888234
 31
0.0
  0
LINE
  5
D5
330
1F
100
AcDbEntity
  8
0
  6
Continuous
 62
     7
370
    15
100
AcDbLine
 10
263.5995873059
 20
170.1775457081
 30
0.0
 11
263.3578070248
 21
170.1775457081
 31
0.0
  0
LINE
  5
D6
330
1F
100
AcDbEntity
  8
0
  6
Continuous
 62
     7
370
    15
100
AcDbLine
 10
263.5995873059
 20
169.860514563
 30
0.0
 11
263.5115333642
 21
169.860514563
 31
0.0
  0
LINE
  5
D7
330
1F
100
AcDbEntity
  8
0
  6
Continuous
 62
     7
370
    15
100
AcDbLine
 10
264.1395875062
 20
172.562756699
 30
0.0
 11
263.8995834435
 21
172.562756699
 31
0.0
  0
LINE
  5
D8
330
1F
100
AcDbEntity
  8
0
  6
Continuous
 62
     7
370
    15
100
AcDbLine
 10
264.1395875062
 20
172.562756699
 30
0.0
 11
264.1395875062
 21
172.51477496
 31
0.0
  0
LINE
  5
D9
330
1F
100
AcDbEntity
  8
0
  6
Continuous
 62
     7
370
    15
100
AcDbLine
 10
263.8995834435
 20
172.562756699
 30
0.0
 11
263.8995834435
 21
172.51477496
 31
0.0
  0
LINE
  5
DA
330
1F
100
AcDbEntity
  8
0
  6
Continuous
 62
     7
370
    15
100
AcDbLine
 10
263.5995873059
 20
169.6419681725
 30
0.0
 11
263.5995873059
 21
169.860514563
 31
0.0
  0
ARC
  5
DB
330
1F
100
AcDbEntity
  8
0
  6
Continuous
 62
     7
370
    15
100
AcDbCircle
 10
263.1929267058
 20
169.2653078419
 30
0.0
 40
0.6491712767792097
100
AcDbArc
 50
5.0426360982
 51
51.2127503507
  0
ARC
  5
DC
330
1F
100
AcDbEntity
  8
0
  6
Continuous
 62
     7
370
    15
100
AcDbCircle
 10
263.2996592569
 20
169.6131476546
 30
0.0
 40
0.5399261512817518
100
AcDbArc
 50
0.0008099554
 51
30.4223151827
  0
LINE
  5
DD
330
1F
100
AcDbEntity
  8
0
  6
Continuous
 62
     7
370
    15
100
AcDbLine
 10
263.8395854081
 20
169.6131552872
 30
0.0
 11
263.8395854081
 21
169.3223680672
 31
0.0
  0
LINE
  5
DE
330
1F
100
AcDbEntity
  8
0
  6
Continuous
 62
     7
370
    15
100
AcDbLine
 10
263.8395854081
 20
169.3223680672
 30
0.0
 11
263.8395854081
 21
169.2605163273
 31
0.0
  0
LINE
  5
DF
330
1F
100
AcDbEntity
  8
0
  6
Continuous
 62
     7
370
    15
100
AcDbLine
 10
264.1395875062
 20
170.4004611191
 30
0.0
 11
264.1395875062
 21
170.203402203
 31
0.0
  0
ARC
  5
E0
330
1F
100
AcDbEntity
  8
0
  6
Continuous
 62
     7
370
    15
100
AcDbCircle
 10
263.5996449172
 20
170.2034170737
 30
0.0
 40
0.5399425891894085
100
AcDbArc
 50
295.2406361569
 51
359.9984220029
  0
LINE
  5
E1
330
1F
100
AcDbEntity
  8
0
  6
Continuous
 62
     7
370
    15
100
AcDbLine
 10
130.441583022
 20
162.1905173478
 30
0.0
 11
130.441583022
 21
161.7005165038
 31
0.0
  0
LINE
  5
E2
330
1F
100
AcDbEntity
  8
0
  6
Continuous
 62
     7
370
    15
100
AcDbLine
 10
123.6815877999
 20
161.7005165038
 30
0.0
 11
123.8410004224
 21
161.7005165038
 31
0.0
  0
LINE
  5
E3
330
1F
100
AcDbEntity
  8
0
  6
Continuous
 62
     7
370
    15
100
AcDbLine
 10
123.6815877999
 20
161.7005165038
 30
0.0
 11
123.6815877999
 21
162.1905173478
 31
0.0
  0
ARC
  5
E4
330
1F
100
AcDbEntity
  8
0
  6
Continuous
 62
     7
370
    15
100
AcDbCircle
 10
124.0615853682
 20
170.8105154639
 30
0.0
 40
0.3800000000000239
100
AcDbArc
 50
90.0
 51
180.0
  0
LINE
  5
E5
330
1F
100
AcDbEntity
  8
0
  6
Continuous
 62
     7
370
    15
100
AcDbLine
 10
130.0615855302
 20
171.1905147252
 30
0.0
 11
124.0615852918
 21
171.1905147252
 31
0.0
  0
ARC
  5
E6
330
1F
100
AcDbEntity
  8
0
  6
Continuous
 62
     7
370
    15
100
AcDbCircle
 10
130.0615853682
 20
170.8105154639
 30
0.0
 40
0.3799999999999955
100
AcDbArc
 50
0.0
 51
90.0
  0
LINE
  5
E7
330
1F
100
AcDbEntity
  8
0
  6
Continuous
 62
     7
370
    15
100
AcDbLine
 10
130.441583022
 20
162.1905173478
 30
0.0
 11
130.441583022
 21
170.8105172333
 31
0.0
  0
LINE
  5
E8
330
1F
100
AcDbEntity
  8
0
  6
Continuous
 62
     7
370
    15
100
AcDbLine
 10
123.6815877999
 20
170.8105172333
 30
0.0
 11
123.6815877999
 21
162.1905173478
 31
0.0
  0
LINE
  5
E9
330
1F
100
AcDbEntity
  8
0
  6
Continuous
 62
     7
370
    15
100
AcDbLine
 10
268.9895936097
 20
98.5805149493
 30
0.0
 11
260.4195841397
 21
98.5805149493
 31
0.0
  0
LINE
  5
EA
330
1F
100
AcDbEntity
  8
0
  6
Continuous
 62
     7
370
    15
100
AcDbLine
 10
247.659585699
 20
98.5805149493
 30
0.0
 11
243.7981703128
 21
98.5805149493
 31
0.0
  0
SPLINE
  5
EB
330
1F
100
AcDbEntity
  8
0
  6
Continuous
 62
     7
370
    15
100
AcDbSpline
210
0.0
220
0.0
230
1.0
 70
     8
 71
     3
 72
    11
 73
     7
 74
     0
 42
0.00000001
 43
0.00000001
 12
1.0
 22
0.0
 32
0.0
 13
1.0
 23
0.0
 33
0.0
 40
0.0
 40
0.0
 40
0.0
 40
0.0
 40
0.2499984323294349
 40
0.4999998000135092
 40
0.7500011676975836
 40
1.0
 40
1.0
 40
1.0
 40
1.0
 10
272.5840278710231
 20
98.99051592918259
 30
0.0
 10
272.5643746712646
 20
98.9367906019265
 30
0.0
 10
272.5250680409897
 20
98.8293393165988
 30
0.0
 10
272.4661000880728
 20
98.69381659518467
 30
0.0
 10
272.4071320632819
 20
98.59900559612647
 30
0.0
 10
272.3678254824205
 20
98.58667847739436
 30
0.0
 10
272.3481722916468
 20
98.58051494928225
 30
0.0
  0
LINE
  5
EC
330
1F
100
AcDbEntity
  8
0
  6
Continuous
 62
     7
370
    15
100
AcDbLine
 10
272.3481722916
 20
98.5805149493
 30
0.0
 11
268.9895936097
 21
98.5805149493
 31
0.0
  0
LINE
  5
ED
330
1F
100
AcDbEntity
  8
0
  6
Continuous
 62
     7
370
    15
100
AcDbLine
 10
272.584027871
 20
107.5805153069
 30
0.0
 11
260.4195841397
 21
107.5805153069
 31
0.0
  0
LINE
  5
EE
330
1F
100
AcDbEntity
  8
0
  6
Continuous
 62
     7
370
    15
100
AcDbLine
 10
247.659585699
 20
107.5805153069
 30
0.0
 11
243.7981703128
 21
107.5805153069
 31
0.0
  0
LINE
  5
EF
330
1F
100
AcDbEntity
  8
0
  6
Continuous
 62
     7
370
    15
100
AcDbLine
 10
272.584027871
 20
98.9905159292
 30
0.0
 11
272.584027871
 21
107.5805153069
 31
0.0
  0
SPLINE
  5
F0
330
1F
100
AcDbEntity
  8
0
  6
Continuous
 62
     7
370
    15
100
AcDbSpline
210
0.0
220
0.0
230
1.0
 70
     8
 71
     3
 72
    10
 73
     6
 74
     0
 42
0.00000001
 43
0.00000001
 12
1.0
 22
0.0
 32
0.0
 13
1.0
 23
0.0
 33
0.0
 40
0.0
 40
0.0
 40
0.0
 40
0.0
 40
0.0728959238318059
 40
0.5393535233627433
 40
1.0
 40
1.0
 40
1.0
 40
1.0
 10
272.5126632298335
 20
98.80563722225052
 30
0.0
 10
272.5169694017407
 20
98.80838455614114
 30
0.0
 10
272.5488305658258
 20
98.82871195081361
 30
0.0
 10
272.5859016513555
 20
98.89451516468725
 30
0.0
 10
272.5940990464634
 20
98.95864967351447
 30
0.0
 10
272.5981720532283
 20
98.99051592918259
 30
0.0
  0
LINE
  5
F1
330
1F
100
AcDbEntity
  8
0
  6
Continuous
 62
     7
370
    15
100
AcDbLine
 10
272.5981720532
 20
98.9905159292
 30
0.0
 11
272.7581688012
 21
98.9905159292
 31
0.0
  0
SPLINE
  5
F2
330
1F
100
AcDbEntity
  8
0
  6
Continuous
 62
     7
370
    15
100
AcDbSpline
210
0.0
220
0.0
230
1.0
 70
     8
 71
     3
 72
    12
 73
     8
 74
     0
 42
0.00000001
 43
0.00000001
 12
1.0
 22
0.0
 32
0.0
 13
1.0
 23
0.0
 33
0.0
 40
0.0
 40
0.0
 40
0.0
 40
0.0
 40
0.2286711443263561
 40
0.4574122495541389
 40
0.6861574125082014
 40
0.9149008198086254
 40
1.0
 40
1.0
 40
1.0
 40
1.0
 10
272.3481722916468
 20
98.58051494928225
 30
0.0
 10
272.3972672709981
 20
98.58566217919356
 30
0.0
 10
272.4954722500873
 20
98.59595821378791
 30
0.0
 10
272.6241019820465
 20
98.67588231863292
 30
0.0
 10
272.716939175644
 20
98.79215370088438
 30
0.0
 10
272.7546909646601
 20
98.90525520210933
 30
0.0
 10
272.7574269359387
 20
98.97232876863886
 30
0.0
 10
272.7581688011988
 20
98.99051592918259
 30
0.0
  0
LINE
  5
F3
330
1F
100
AcDbEntity
  8
0
  6
Continuous
 62
     7
370
    15
100
AcDbLine
 10
276.5181728448
 20
103.4205156681
 30
0.0
 11
276.5181728448
 21
107.1705154446
 31
0.0
  0
LINE
  5
F4
330
1F
100
AcDbEntity
  8
0
  6
Continuous
 62
     7
370
    15
100
AcDbLine
 10
276.6781695927
 20
103.4205156681
 30
0.0
 11
276.6781695927
 21
107.1705154446
 31
0.0
  0
LINE
  5
F5
330
1F
100
AcDbEntity
  8
0
  6
Continuous
 62
     7
370
    15
100
AcDbLine
 10
276.6781695927
 20
102.4205151317
 30
0.0
 11
276.5181728448
 21
102.4205151317
 31
0.0
  0
LINE
  5
F6
330
1F
100
AcDbEntity
  8
0
  6
Continuous
 62
     7
370
    15
100
AcDbLine
 10
276.5181728448
 20
102.4205151317
 30
0.0
 11
276.5181728448
 21
103.4205156681
 31
0.0
  0
LINE
  5
F7
330
1F
100
AcDbEntity
  8
0
  6
Continuous
 62
     7
370
    15
100
AcDbLine
 10
276.6781695927
 20
102.4205151317
 30
0.0
 11
276.6781695927
 21
103.4205156681
 31
0.0
  0
LINE
  5
F8
330
1F
100
AcDbEntity
  8
0
  6
Continuous
 62
     7
370
    15
100
AcDbLine
 10
272.7581688012
 20
107.1705154446
 30
0.0
 11
272.5981720532
 21
107.1705154446
 31
0.0
  0
ARC
  5
F9
330
1F
100
AcDbEntity
  8
0
  6
Continuous
 62
     7
370
    15
100
AcDbCircle
 10
273.0081711546
 20
107.1705154639
 30
0.0
 40
0.4099999999999966
100
AcDbArc
 50
90.0
 51
180.0
  0
ARC
  5
FA
330
1F
100
AcDbEntity
  8
0
  6
Continuous
 62
     7
370
    15
100
AcDbCircle
 10
273.0081711546
 20
107.1705154639
 30
0.0
 40
0.25
100
AcDbArc
 50
90.0
 51
180.0
  0
LINE
  5
FB
330
1F
100
AcDbEntity
  8
0
  6
Continuous
 62
     7
370
    15
100
AcDbLine
 10
273.0081685628
 20
107.4205155787
 30
0.0
 11
276.2681730832
 21
107.4205155787
 31
0.0
  0
LINE
  5
FC
330
1F
100
AcDbEntity
  8
0
  6
Continuous
 62
     7
370
    15
100
AcDbLine
 10
273.0081685628
 20
107.5805153069
 30
0.0
 11
276.2681730832
 21
107.5805153069
 31
0.0
  0
ARC
  5
FD
330
1F
100
AcDbEntity
  8
0
  6
Continuous
 62
     7
370
    15
100
AcDbCircle
 10
276.2681711546
 20
107.1705154639
 30
0.0
 40
0.2500000000000142
100
AcDbArc
 50
0.0
 51
90.0
  0
ARC
  5
FE
330
1F
100
AcDbEntity
  8
0
  6
Continuous
 62
     7
370
    15
100
AcDbCircle
 10
276.2681711546
 20
107.1705154639
 30
0.0
 40
0.4100000000000108
100
AcDbArc
 50
0.0
 51
90.0
  0
LINE
  5
FF
330
1F
100
AcDbEntity
  8
0
  6
Continuous
 62
     7
370
    15
100
AcDbLine
 10
272.7581688012
 20
98.9905159292
 30
0.0
 11
272.7581688012
 21
107.1705154446
 31
0.0
  0
LINE
  5
100
330
1F
100
AcDbEntity
  8
0
  6
Continuous
 62
     7
370
    15
100
AcDbLine
 10
272.5981720532
 20
98.9905159292
 30
0.0
 11
272.5981720532
 21
107.1705154446
 31
0.0
  0
LINE
  5
101
330
1F
100
AcDbEntity
  8
0
  6
Continuous
 62
     7
370
    15
100
AcDbLine
 10
265.2395852651
 20
156.4848955092
 30
0.0
 11
265.1995845879
 21
156.4848955092
 31
0.0
  0
LINE
  5
102
330
1F
100
AcDbEntity
  8
0
  6
Continuous
 62
     7
370
    15
100
AcDbLine
 10
273.8650091733
 20
144.6661974606
 30
0.0
 11
269.9250467862
 21
156.7921693739
 31
0.0
  0
ARC
  5
103
330
1F
100
AcDbEntity
  8
0
  6
Continuous
 62
     7
370
    15
100
AcDbCircle
 10
272.4105368598
 20
153.0258938498
 30
0.0
 40
4.600000000000013
100
AcDbArc
 50
18.0
 51
108.0
  0
ARC
  5
104
330
1F
100
AcDbEntity
  8
0
  6
Continuous
 62
     7
370
    15
100
AcDbCircle
 10
272.4105368598
 20
153.0258938498
 30
0.0
 40
4.900000000000026
100
AcDbArc
 50
18.0
 51
108.0
  0
LINE
  5
105
330
1F
100
AcDbEntity
  8
0
  6
Continuous
 62
     7
370
    15
100
AcDbLine
 10
270.0855561341
 20
157.1071888623
 30
0.0
 11
270.989061221
 21
157.4007536587
 31
0.0
  0
LINE
  5
106
330
1F
100
AcDbEntity
  8
0
  6
Continuous
 62
     7
370
    15
100
AcDbLine
 10
269.9928470696
 20
157.3925043759
 30
0.0
 11
270.8963521565
 21
157.6860721526
 31
0.0
  0
ARC
  5
107
330
1F
100
AcDbEntity
  8
0
  6
Continuous
 62
     7
370
    15
100
AcDbCircle
 10
270.1628092438
 20
156.869423551
 30
0.0
 40
0.25000000000001
100
AcDbArc
 50
108.0
 51
198.0
  0
ARC
  5
108
330
1F
100
AcDbEntity
  8
0
  6
Continuous
 62
     7
370
    15
100
AcDbCircle
 10
270.1628092438
 20
156.869423551
 30
0.0
 40
0.5500000000000327
100
AcDbArc
 50
108.0
 51
198.0
  0
LINE
  5
109
330
1F
100
AcDbEntity
  8
0
  6
Continuous
 62
     7
370
    15
100
AcDbLine
 10
274.1740294541
 20
143.7151427683
 30
0.0
 11
273.8887139405
 21
143.6224366841
 31
0.0
  0
LWPOLYLINE
  5
10A
330
1F
100
AcDbEntity
  8
0
  6
Continuous
 62
     7
370
    15
100
AcDbPolyline
 90
        9
 70
   128
 43
0.0
 10
273.8650091733
 20
144.6661974606
 10
273.9252992715
 20
144.4806571421
 10
273.9832647885
 20
144.3022455391
 10
274.0366943921
 20
144.1378201661
 10
274.083519801
 20
143.9936991152
 10
274.121952876
 20
143.8754226384
 10
274.1505035008
 20
143.7875355897
 10
274.1680928315
 20
143.7334175524
 10
274.1740294541
 20
143.7151427683
  0
LINE
  5
10B
330
1F
100
AcDbEntity
  8
0
  6
Continuous
 62
     7
370
    15
100
AcDbLine
 10
277.0707138623
 20
154.5400764165
 30
0.0
 11
277.503336295
 21
153.2085980591
 31
0.0
  0
LINE
  5
10C
330
1F
100
AcDbEntity
  8
0
  6
Continuous
 62
     7
370
    15
100
AcDbLine
 10
276.7853983487
 20
154.4473733124
 30
0.0
 11
277.2180207814
 21
153.1158919749
 31
0.0
  0
LINE
  5
10D
330
1F
100
AcDbEntity
  8
0
  6
Continuous
 62
     7
370
    15
100
AcDbLine
 10
278.1213708962
 20
151.3064856944
 30
0.0
 11
277.8360553826
 21
151.2137796101
 31
0.0
  0
LWPOLYLINE
  5
10E
330
1F
100
AcDbEntity
  8
0
  6
Continuous
 62
     7
370
    15
100
AcDbPolyline
 90
        9
 70
   128
 43
0.0
 10
277.503336295
 20
153.2085980591
 10
277.6239105309
 20
152.8375144419
 10
277.7398475255
 20
152.480691236
 10
277.8467007722
 20
152.1518404898
 10
277.94035159
 20
151.8636013684
 10
278.0172117795
 20
151.6270484147
 10
278.0743249501
 20
151.4512743172
 10
278.109497651
 20
151.3430322823
 10
278.1213708962
 20
151.3064856944
  0
LWPOLYLINE
  5
10F
330
1F
100
AcDbEntity
  8
0
  6
Continuous
 62
     7
370
    15
100
AcDbPolyline
 90
        9
 70
   128
 43
0.0
 10
277.8360553826
 20
151.2137796101
 10
277.8241821374
 20
151.2503291783
 10
277.7890094365
 20
151.358568233
 10
277.7318962659
 20
151.5343423304
 10
277.6550360764
 20
151.7708952841
 10
277.5613792981
 20
152.0591344056
 10
277.4545320119
 20
152.3879851517
 10
277.3385950173
 20
152.7448083577
 10
277.2180207814
 20
153.1158919749
  0
LINE
  5
110
330
1F
100
AcDbEntity
  8
0
  6
Continuous
 62
     7
370
    15
100
AcDbLine
 10
243.6946191634
 20
98.340515357
 30
0.0
 11
145.619583949
 21
98.340515357
 31
0.0
  0
LINE
  5
111
330
1F
100
AcDbEntity
  8
0
  6
Continuous
 62
     7
370
    15
100
AcDbLine
 10
243.7981703128
 20
98.340515357
 30
0.0
 11
243.7981703128
 21
98.830516201
 31
0.0
  0
LINE
  5
112
330
1F
100
AcDbEntity
  8
0
  6
Continuous
 62
     7
370
    15
100
AcDbLine
 10
243.7981703128
 20
98.340515357
 30
0.0
 11
243.6946191634
 21
98.340515357
 31
0.0
  0
LINE
  5
113
330
1F
100
AcDbEntity
  8
0
  6
Continuous
 62
     7
370
    15
100
AcDbLine
 10
243.7981703128
 20
98.830516201
 30
0.0
 11
243.7981703128
 21
108.5805154708
 31
0.0
  0
LINE
  5
114
330
1F
100
AcDbEntity
  8
0
  6
Continuous
 62
     7
370
    15
100
AcDbLine
 10
169.4981702412
 20
107.5805153069
 30
0.0
 11
159.4981708373
 21
107.5805153069
 31
0.0
  0
ARC
  5
115
330
1F
100
AcDbEntity
  8
0
  6
Continuous
 62
     7
370
    15
100
AcDbCircle
 10
159.4981711546
 20
106.0805154639
 30
0.0
 40
1.5
100
AcDbArc
 50
90.0
 51
270.0
  0
LINE
  5
116
330
1F
100
AcDbEntity
  8
0
  6
Continuous
 62
     7
370
    15
100
AcDbLine
 10
159.4981708373
 20
104.5805151877
 30
0.0
 11
169.4981702412
 21
104.5805151877
 31
0.0
  0
ARC
  5
117
330
1F
100
AcDbEntity
  8
0
  6
Continuous
 62
     7
370
    15
100
AcDbCircle
 10
169.4981711546
 20
106.0805154639
 30
0.0
 40
1.5
100
AcDbArc
 50
270.0
 51
90.0
  0
LINE
  5
118
330
1F
100
AcDbEntity
  8
0
  6
Continuous
 62
     7
370
    15
100
AcDbLine
 10
197.4981711055
 20
107.5805153069
 30
0.0
 11
187.4981709565
 21
107.5805153069
 31
0.0
  0
ARC
  5
119
330
1F
100
AcDbEntity
  8
0
  6
Continuous
 62
     7
370
    15
100
AcDbCircle
 10
187.4981711546
 20
106.0805154639
 30
0.0
 40
1.5
100
AcDbArc
 50
90.0
 51
270.0
  0
LINE
  5
11A
330
1F
100
AcDbEntity
  8
0
  6
Continuous
 62
     7
370
    15
100
AcDbLine
 10
187.4981709565
 20
104.5805151877
 30
0.0
 11
197.4981711055
 21
104.5805151877
 31
0.0
  0
ARC
  5
11B
330
1F
100
AcDbEntity
  8
0
  6
Continuous
 62
     7
370
    15
100
AcDbCircle
 10
197.4981711546
 20
106.0805154639
 30
0.0
 40
1.5
100
AcDbArc
 50
270.0
 51
90.0
  0
LINE
  5
11C
330
1F
100
AcDbEntity
  8
0
  6
Continuous
 62
     7
370
    15
100
AcDbLine
 10
225.4981704797
 20
107.5805153069
 30
0.0
 11
215.4981710757
 21
107.5805153069
 31
0.0
  0
ARC
  5
11D
330
1F
100
AcDbEntity
  8
0
  6
Continuous
 62
     7
370
    15
100
AcDbCircle
 10
215.4981711546
 20
106.0805154639
 30
0.0
 40
1.5
100
AcDbArc
 50
90.0
 51
270.0
  0
LINE
  5
11E
330
1F
100
AcDbEntity
  8
0
  6
Continuous
 62
     7
370
    15
100
AcDbLine
 10
215.4981710757
 20
104.5805151877
 30
0.0
 11
225.4981704797
 21
104.5805151877
 31
0.0
  0
ARC
  5
11F
330
1F
100
AcDbEntity
  8
0
  6
Continuous
 62
     7
370
    15
100
AcDbCircle
 10
225.4981711546
 20
106.0805154639
 30
0.0
 40
1.5
100
AcDbArc
 50
270.0
 51
90.0
  0
LINE
  5
120
330
1F
100
AcDbEntity
  8
0
  6
Continuous
 62
     7
370
    15
100
AcDbLine
 10
183.498171791
 20
103.5805153963
 30
0.0
 11
173.498172387
 21
103.5805153963
 31
0.0
  0
ARC
  5
121
330
1F
100
AcDbEntity
  8
0
  6
Continuous
 62
     7
370
    15
100
AcDbCircle
 10
173.4981711546
 20
102.0805154639
 30
0.0
 40
1.5
100
AcDbArc
 50
90.0
 51
270.0
  0
LINE
  5
122
330
1F
100
AcDbEntity
  8
0
  6
Continuous
 62
     7
370
    15
100
AcDbLine
 10
173.498172387
 20
100.5805152771
 30
0.0
 11
183.498171791
 21
100.5805152771
 31
0.0
  0
ARC
  5
123
330
1F
100
AcDbEntity
  8
0
  6
Continuous
 62
     7
370
    15
100
AcDbCircle
 10
183.4981711546
 20
102.0805154639
 30
0.0
 40
1.5
100
AcDbArc
 50
270.0
 51
90.0
  0
LINE
  5
124
330
1F
100
AcDbEntity
  8
0
  6
Continuous
 62
     7
370
    15
100
AcDbLine
 10
211.4981711651
 20
103.5805153963
 30
0.0
 11
201.4981711092
 21
103.5805153963
 31
0.0
  0
ARC
  5
125
330
1F
100
AcDbEntity
  8
0
  6
Continuous
 62
     7
370
    15
100
AcDbCircle
 10
201.4981711546
 20
102.0805154639
 30
0.0
 40
1.500000000000014
100
AcDbArc
 50
90.0
 51
270.0
  0
LINE
  5
126
330
1F
100
AcDbEntity
  8
0
  6
Continuous
 62
     7
370
    15
100
AcDbLine
 10
201.4981711092
 20
100.5805152771
 30
0.0
 11
211.4981711651
 21
100.5805152771
 31
0.0
  0
ARC
  5
127
330
1F
100
AcDbEntity
  8
0
  6
Continuous
 62
     7
370
    15
100
AcDbCircle
 10
211.4981711546
 20
102.0805154639
 30
0.0
 40
1.5
100
AcDbArc
 50
270.0
 51
90.0
  0
LINE
  5
128
330
1F
100
AcDbEntity
  8
0
  6
Continuous
 62
     7
370
    15
100
AcDbLine
 10
239.4981720294
 20
103.5805153963
 30
0.0
 11
229.4981726254
 21
103.5805153963
 31
0.0
  0
ARC
  5
129
330
1F
100
AcDbEntity
  8
0
  6
Continuous
 62
     7
370
    15
100
AcDbCircle
 10
229.4981711546
 20
102.0805154639
 30
0.0
 40
1.5
100
AcDbArc
 50
90.0
 51
270.0
  0
LINE
  5
12A
330
1F
100
AcDbEntity
  8
0
  6
Continuous
 62
     7
370
    15
100
AcDbLine
 10
229.4981726254
 20
100.5805152771
 30
0.0
 11
239.4981720294
 21
100.5805152771
 31
0.0
  0
ARC
  5
12B
330
1F
100
AcDbEntity
  8
0
  6
Continuous
 62
     7
370
    15
100
AcDbCircle
 10
239.4981711546
 20
102.0805154639
 30
0.0
 40
1.5
100
AcDbArc
 50
270.0
 51
90.0
  0
LINE
  5
12C
330
1F
100
AcDbEntity
  8
0
  6
Continuous
 62
     7
370
    15
100
AcDbLine
 10
225.4981704797
 20
103.5805153963
 30
0.0
 11
215.4981710757
 21
103.5805153963
 31
0.0
  0
ARC
  5
12D
330
1F
100
AcDbEntity
  8
0
  6
Continuous
 62
     7
370
    15
100
AcDbCircle
 10
215.4981711546
 20
102.0805154639
 30
0.0
 40
1.500000000000014
100
AcDbArc
 50
90.0
 51
270.0
  0
LINE
  5
12E
330
1F
100
AcDbEntity
  8
0
  6
Continuous
 62
     7
370
    15
100
AcDbLine
 10
215.4981710757
 20
100.5805152771
 30
0.0
 11
225.4981704797
 21
100.5805152771
 31
0.0
  0
ARC
  5
12F
330
1F
100
AcDbEntity
  8
0
  6
Continuous
 62
     7
370
    15
100
AcDbCircle
 10
225.4981711546
 20
102.0805154639
 30
0.0
 40
1.500000000000014
100
AcDbArc
 50
270.0
 51
90.0
  0
LINE
  5
130
330
1F
100
AcDbEntity
  8
0
  6
Continuous
 62
     7
370
    15
100
AcDbLine
 10
197.4981711055
 20
103.5805153963
 30
0.0
 11
187.4981709565
 21
103.5805153963
 31
0.0
  0
ARC
  5
131
330
1F
100
AcDbEntity
  8
0
  6
Continuous
 62
     7
370
    15
100
AcDbCircle
 10
187.4981711546
 20
102.0805154639
 30
0.0
 40
1.5
100
AcDbArc
 50
90.0
 51
270.0
  0
LINE
  5
132
330
1F
100
AcDbEntity
  8
0
  6
Continuous
 62
     7
370
    15
100
AcDbLine
 10
187.4981709565
 20
100.5805152771
 30
0.0
 11
197.4981711055
 21
100.5805152771
 31
0.0
  0
ARC
  5
133
330
1F
100
AcDbEntity
  8
0
  6
Continuous
 62
     7
370
    15
100
AcDbCircle
 10
197.4981711546
 20
102.0805154639
 30
0.0
 40
1.5
100
AcDbArc
 50
270.0
 51
90.0
  0
LINE
  5
134
330
1F
100
AcDbEntity
  8
0
  6
Continuous
 62
     7
370
    15
100
AcDbLine
 10
169.4981702412
 20
103.5805153963
 30
0.0
 11
159.4981708373
 21
103.5805153963
 31
0.0
  0
ARC
  5
135
330
1F
100
AcDbEntity
  8
0
  6
Continuous
 62
     7
370
    15
100
AcDbCircle
 10
159.4981711546
 20
102.0805154639
 30
0.0
 40
1.5
100
AcDbArc
 50
90.0
 51
270.0
  0
LINE
  5
136
330
1F
100
AcDbEntity
  8
0
  6
Continuous
 62
     7
370
    15
100
AcDbLine
 10
159.4981708373
 20
100.5805152771
 30
0.0
 11
169.4981702412
 21
100.5805152771
 31
0.0
  0
ARC
  5
137
330
1F
100
AcDbEntity
  8
0
  6
Continuous
 62
     7
370
    15
100
AcDbCircle
 10
169.4981711546
 20
102.0805154639
 30
0.0
 40
1.5
100
AcDbArc
 50
270.0
 51
90.0
  0
LINE
  5
138
330
1F
100
AcDbEntity
  8
0
  6
Continuous
 62
     7
370
    15
100
AcDbLine
 10
211.4981711651
 20
107.5805153069
 30
0.0
 11
201.4981711092
 21
107.5805153069
 31
0.0
  0
ARC
  5
139
330
1F
100
AcDbEntity
  8
0
  6
Continuous
 62
     7
370
    15
100
AcDbCircle
 10
201.4981711546
 20
106.0805154639
 30
0.0
 40
1.5
100
AcDbArc
 50
90.0
 51
270.0
  0
LINE
  5
13A
330
1F
100
AcDbEntity
  8
0
  6
Continuous
 62
     7
370
    15
100
AcDbLine
 10
201.4981711092
 20
104.5805151877
 30
0.0
 11
211.4981711651
 21
104.5805151877
 31
0.0
  0
ARC
  5
13B
330
1F
100
AcDbEntity
  8
0
  6
Continuous
 62
     7
370
    15
100
AcDbCircle
 10
211.4981711546
 20
106.0805154639
 30
0.0
 40
1.5
100
AcDbArc
 50
270.0
 51
90.0
  0
LINE
  5
13C
330
1F
100
AcDbEntity
  8
0
  6
Continuous
 62
     7
370
    15
100
AcDbLine
 10
183.498171791
 20
107.5805153069
 30
0.0
 11
173.498172387
 21
107.5805153069
 31
0.0
  0
ARC
  5
13D
330
1F
100
AcDbEntity
  8
0
  6
Continuous
 62
     7
370
    15
100
AcDbCircle
 10
173.4981711546
 20
106.0805154639
 30
0.0
 40
1.5
100
AcDbArc
 50
90.0
 51
270.0
  0
LINE
  5
13E
330
1F
100
AcDbEntity
  8
0
  6
Continuous
 62
     7
370
    15
100
AcDbLine
 10
173.498172387
 20
104.5805151877
 30
0.0
 11
183.498171791
 21
104.5805151877
 31
0.0
  0
ARC
  5
13F
330
1F
100
AcDbEntity
  8
0
  6
Continuous
 62
     7
370
    15
100
AcDbCircle
 10
183.4981711546
 20
106.0805154639
 30
0.0
 40
1.5
100
AcDbArc
 50
270.0
 51
90.0
  0
LINE
  5
140
330
1F
100
AcDbEntity
  8
0
  6
Continuous
 62
     7
370
    15
100
AcDbLine
 10
239.4981720294
 20
107.5805153069
 30
0.0
 11
229.4981726254
 21
107.5805153069
 31
0.0
  0
ARC
  5
141
330
1F
100
AcDbEntity
  8
0
  6
Continuous
 62
     7
370
    15
100
AcDbCircle
 10
229.4981711546
 20
106.0805154639
 30
0.0
 40
1.500000000000014
100
AcDbArc
 50
90.0
 51
270.0
  0
LINE
  5
142
330
1F
100
AcDbEntity
  8
0
  6
Continuous
 62
     7
370
    15
100
AcDbLine
 10
229.4981726254
 20
104.5805151877
 30
0.0
 11
239.4981720294
 21
104.5805151877
 31
0.0
  0
ARC
  5
143
330
1F
100
AcDbEntity
  8
0
  6
Continuous
 62
     7
370
    15
100
AcDbCircle
 10
239.4981711546
 20
106.0805154639
 30
0.0
 40
1.500000000000014
100
AcDbArc
 50
270.0
 51
90.0
  0
SPLINE
  5
144
330
1F
100
AcDbEntity
  8
0
  6
Continuous
 62
     7
370
    15
100
AcDbSpline
210
0.0
220
0.0
230
1.0
 70
     8
 71
     3
 72
     9
 73
     5
 74
     0
 42
0.00000001
 43
0.00000001
 12
1.0
 22
0.0
 32
0.0
 13
1.0
 23
0.0
 33
0.0
 40
0.0
 40
0.0
 40
0.0
 40
0.0
 40
0.6141707441516002
 40
1.0
 40
1.0
 40
1.0
 40
1.0
 10
244.0411009634837
 20
98.43699739547593
 30
0.0
 10
243.9971433027636
 20
98.47505151201393
 30
0.0
 10
243.9255709246606
 20
98.53701167032555
 30
0.0
 10
243.8336399661025
 20
98.55527220336018
 30
0.0
 10
243.7981703127727
 20
98.5623176512323
 30
0.0
  0
LINE
  5
145
330
1F
100
AcDbEntity
  8
0
  6
Continuous
 62
     7
370
    15
100
AcDbLine
 10
243.8713946189
 20
98.267292541
 30
0.0
 11
244.0411009635
 21
98.4369973955
 31
0.0
  0
SPLINE
  5
146
330
1F
100
AcDbEntity
  8
0
  6
Continuous
 62
     7
370
    15
100
AcDbSpline
210
0.0
220
0.0
230
1.0
 70
     8
 71
     3
 72
    10
 73
     6
 74
     0
 42
0.00000001
 43
0.00000001
 12
1.0
 22
0.0
 32
0.0
 13
1.0
 23
0.0
 33
0.0
 40
0.0
 40
0.0
 40
0.0
 40
0.0
 40
0.2774367350669755
 40
0.7623455040786076
 40
1.0
 40
1.0
 40
1.0
 40
1.0
 10
243.8713946188792
 20
98.26729254098757
 30
0.0
 10
243.8577525422625
 20
98.27923555276297
 30
0.0
 10
243.8202666059729
 20
98.31205276901927
 30
0.0
 10
243.7572088410336
 20
98.33691114762071
 30
0.0
 10
243.7101101477345
 20
98.33962331290955
 30
0.0
 10
243.6946191634044
 20
98.340515356978
 30
0.0
  0
LINE
  5
147
330
1F
100
AcDbEntity
  8
0
  6
Continuous
 62
     7
370
    15
100
AcDbLine
 10
244.0411009635
 20
98.4369973955
 30
0.0
 11
245.3820892419
 21
97.096007627
 31
0.0
  0
LINE
  5
148
330
1F
100
AcDbEntity
  8
0
  6
Continuous
 62
     7
370
    15
100
AcDbLine
 10
245.3820892419
 20
97.096007627
 30
0.0
 11
245.2123858775
 21
96.9263012824
 31
0.0
  0
LINE
  5
149
330
1F
100
AcDbEntity
  8
0
  6
Continuous
 62
     7
370
    15
100
AcDbLine
 10
243.8713946189
 20
98.267292541
 30
0.0
 11
245.2123858775
 21
96.9263012824
 31
0.0
  0
SPLINE
  5
14A
330
1F
100
AcDbEntity
  8
0
  6
Continuous
 62
     7
370
    15
100
AcDbSpline
210
0.0
220
0.0
230
1.0
 70
     8
 71
     3
 72
    12
 73
     8
 74
     0
 42
0.00000001
 43
0.00000001
 12
1.0
 22
0.0
 32
0.0
 13
1.0
 23
0.0
 33
0.0
 40
0.0
 40
0.0
 40
0.0
 40
0.0
 40
0.2354074352951821
 40
0.5036249124504334
 40
0.7396701895110716
 40
0.942423965673218
 40
1.0
 40
1.0
 40
1.0
 40
1.0
 10
265.6095870579585
 20
108.9905155194007
 30
0.0
 10
265.5628435583725
 20
108.9621751204099
 30
0.0
 10
265.46284165802
 20
108.9015443636005
 30
0.0
 10
265.3289421929733
 20
108.8194418494797
 30
0.0
 10
265.2336976288422
 20
108.7684716858132
 30
0.0
 10
265.2018081584356
 20
108.7481344984763
 30
0.0
 10
265.199987299541
 20
108.7430534463818
 30
0.0
 10
265.1995845879421
 20
108.741929691752
 30
0.0
  0
SPLINE
  5
14B
330
1F
100
AcDbEntity
  8
0
  6
Continuous
 62
     7
370
    15
100
AcDbSpline
210
0.0
220
0.0
230
1.0
 70
     8
 71
     3
 72
    12
 73
     8
 74
     0
 42
0.00000001
 43
0.00000001
 12
1.0
 22
0.0
 32
0.0
 13
1.0
 23
0.0
 33
0.0
 40
0.0
 40
0.0
 40
0.0
 40
0.0
 40
0.1538925031379738
 40
0.2930166708457334
 40
0.5279200360107364
 40
0.7279788254438685
 40
1.0
 40
1.0
 40
1.0
 40
1.0
 10
265.199584587942
 20
133.4791015204988
 30
0.0
 10
265.202255786211
 20
133.4738967727973
 30
0.0
 10
265.2073418404891
 20
133.4639867524064
 30
0.0
 10
265.2530055353743
 20
133.4385554213669
 30
0.0
 10
265.3356836122245
 20
133.3982153772649
 30
0.0
 10
265.4619308954898
 20
133.3210655730536
 30
0.0
 10
265.5556083705671
 20
133.2636181454936
 30
0.0
 10
265.6095870579585
 20
133.2305158791147
 30
0.0
  0
LINE
  5
14C
330
1F
100
AcDbEntity
  8
0
  6
Continuous
 62
     7
370
    15
100
AcDbLine
 10
265.3609999265
 20
108.5805154708
 30
0.0
 11
276.6195841874
 21
108.5805154708
 31
0.0
  0
SPLINE
  5
14D
330
1F
100
AcDbEntity
  8
0
  6
Continuous
 62
     7
370
    15
100
AcDbSpline
210
0.0
220
0.0
230
1.0
 70
     8
 71
     3
 72
    11
 73
     7
 74
     0
 42
0.00000001
 43
0.00000001
 12
1.0
 22
0.0
 32
0.0
 13
1.0
 23
0.0
 33
0.0
 40
0.0
 40
0.0
 40
0.0
 40
0.0
 40
0.2499988158868076
 40
0.4999975074405245
 40
0.7499983867532316
 40
0.9999999999999999
 40
0.9999999999999999
 40
0.9999999999999999
 40
0.9999999999999999
 10
265.3609999264583
 20
108.5805154708229
 30
0.0
 10
265.3817138031393
 20
108.5866783754101
 30
0.0
 10
265.4231415461998
 20
108.5990041815196
 30
0.0
 10
265.485296372536
 20
108.6938170260673
 30
0.0
 10
265.5474352363925
 20
108.8293403449987
 30
0.0
 10
265.5888697638298
 20
108.9367904086928
 30
0.0
 10
265.6095870579585
 20
108.9905155194007
 30
0.0
  0
SPLINE
  5
14E
330
1F
100
AcDbEntity
  8
0
  6
Continuous
 62
     7
370
    15
100
AcDbSpline
210
0.0
220
0.0
230
1.0
 70
     8
 71
     3
 72
    11
 73
     7
 74
     0
 42
0.00000001
 43
0.00000001
 12
1.0
 22
0.0
 32
0.0
 13
1.0
 23
0.0
 33
0.0
 40
0.0
 40
0.0
 40
0.0
 40
0.0
 40
0.2500000465046255
 40
0.5000028130818231
 40
0.7499995621688947
 40
1.0
 40
1.0
 40
1.0
 40
1.0
 10
276.7095872010097
 20
108.9905155194007
 30
0.0
 10
276.7020869131459
 20
108.9367902101437
 30
0.0
 10
276.6870862558132
 20
108.8293390070829
 30
0.0
 10
276.6645860706769
 20
108.6938182873675
 30
0.0
 10
276.6420846981498
 20
108.5990035160653
 30
0.0
 10
276.6270843945376
 20
108.5866781828805
 30
0.0
 10
276.6195841873989
 20
108.5805154708229
 30
0.0
  0
SPLINE
  5
14F
330
1F
100
AcDbEntity
  8
0
  6
Continuous
 62
     7
370
    15
100
AcDbSpline
210
0.0
220
0.0
230
1.0
 70
     8
 71
     3
 72
    11
 73
     7
 74
     0
 42
0.00000001
 43
0.00000001
 12
1.0
 22
0.0
 32
0.0
 13
1.0
 23
0.0
 33
0.0
 40
0.0
 40
0.0
 40
0.0
 40
0.0
 40
0.2499927507964318
 40
0.4999987283287656
 40
0.7499953346743604
 40
1.0
 40
1.0
 40
1.0
 40
1.0
 10
265.3609999264583
 20
108.7405155715547
 30
0.0
 10
265.3817141787388
 20
108.7442737490389
 30
0.0
 10
265.4231437792593
 20
108.7517903028469
 30
0.0
 10
265.4852942266459
 20
108.8095995908419
 30
0.0
 10
265.5474365956205
 20
108.8922396595762
 30
0.0
 10
265.5888700145723
 20
108.9577565474605
 30
0.0
 10
265.6095870579585
 20
108.9905155194007
 30
0.0
  0
LINE
  5
150
330
1F
100
AcDbEntity
  8
0
  6
Continuous
 62
     7
370
    15
100
AcDbLine
 10
265.3609999265
 20
108.7405155716
 30
0.0
 11
265.3609999265
 21
108.5805154708
 31
0.0
  0
SPLINE
  5
151
330
1F
100
AcDbEntity
  8
0
  6
Continuous
 62
     7
370
    15
100
AcDbSpline
210
0.0
220
0.0
230
1.0
 70
     8
 71
     3
 72
    12
 73
     8
 74
     0
 42
0.00000001
 43
0.00000001
 12
1.0
 22
0.0
 32
0.0
 13
1.0
 23
0.0
 33
0.0
 40
0.0
 40
0.0
 40
0.0
 40
0.0
 40
0.3486720710652639
 40
0.5713398999709387
 40
0.757563012824062
 40
0.9447314268291787
 40
1.0
 40
1.0
 40
1.0
 40
1.0
 10
265.6095870579585
 20
108.9905155194007
 30
0.0
 10
265.5705724397509
 20
108.9513228003068
 30
0.0
 10
265.506642432406
 20
108.8871009538646
 30
0.0
 10
265.4294444324831
 20
108.8118167876898
 30
0.0
 10
265.3803359421216
 20
108.768174019588
 30
0.0
 10
265.3610820069709
 20
108.7484249693778
 30
0.0
 10
265.3598647870687
 20
108.7431355299175
 30
0.0
 10
265.3595872963771
 20
108.741929691752
 30
0.0
  0
LINE
  5
152
330
1F
100
AcDbEntity
  8
0
  6
Continuous
 62
     7
370
    15
100
AcDbLine
 10
265.1995845879
 20
108.7419296918
 30
0.0
 11
265.3595872964
 21
108.7419296918
 31
0.0
  0
SPLINE
  5
153
330
1F
100
AcDbEntity
  8
0
  6
Continuous
 62
     7
370
    15
100
AcDbSpline
210
0.0
220
0.0
230
1.0
 70
     8
 71
     3
 72
    11
 73
     7
 74
     0
 42
0.00000001
 43
0.00000001
 12
1.0
 22
0.0
 32
0.0
 13
1.0
 23
0.0
 33
0.0
 40
0.0
 40
0.0
 40
0.0
 40
0.0
 40
0.2499999458418035
 40
0.4999967967373635
 40
0.7499992103858492
 40
1.0
 40
1.0
 40
1.0
 40
1.0
 10
276.6511388863429
 20
133.6405153688989
 30
0.0
 10
276.656007851779
 20
133.6343527415559
 30
0.0
 10
276.6657457223745
 20
133.6220275631619
 30
0.0
 10
276.6803658191328
 20
133.5272135730168
 30
0.0
 10
276.6949699298444
 20
133.3916921965138
 30
0.0
 10
276.7047147878386
 20
133.2842412019124
 30
0.0
 10
276.7095872010097
 20
133.2305158791147
 30
0.0
  0
SPLINE
  5
154
330
1F
100
AcDbEntity
  8
0
  6
Continuous
 62
     7
370
    15
100
AcDbSpline
210
0.0
220
0.0
230
1.0
 70
     8
 71
     3
 72
    12
 73
     8
 74
     0
 42
0.00000001
 43
0.00000001
 12
1.0
 22
0.0
 32
0.0
 13
1.0
 23
0.0
 33
0.0
 40
0.0
 40
0.0
 40
0.0
 40
0.0
 40
0.2301704996249833
 40
0.4604224809316599
 40
0.6906786965334145
 40
0.9209287339332438
 40
1.0
 40
1.0
 40
1.0
 40
1.0
 10
265.6095870579585
 20
133.2305158791147
 30
0.0
 10
265.5905080248453
 20
133.279931301828
 30
0.0
 10
265.5523432045314
 20
133.3787796405986
 30
0.0
 10
265.4950847966819
 20
133.5080066809516
 30
0.0
 10
265.4378638841557
 20
133.6007934113049
 30
0.0
 10
265.3930394522833
 20
133.6373581629656
 30
0.0
 10
265.3675227234166
 20
133.6398726061636
 30
0.0
 10
265.3609999264583
 20
133.6405153688989
 30
0.0
  0
SPLINE
  5
155
330
1F
100
AcDbEntity
  8
0
  6
Continuous
 62
     7
370
    15
100
AcDbSpline
210
0.0
220
0.0
230
1.0
 70
     8
 71
     3
 72
    13
 73
     9
 74
     0
 42
0.00000001
 43
0.00000001
 12
1.0
 22
0.0
 32
0.0
 13
1.0
 23
0.0
 33
0.0
 40
0.0
 40
0.0
 40
0.0
 40
0.0
 40
0.1407608311192791
 40
0.2700129567421802
 40
0.388812304110438
 40
0.498544965405417
 40
0.7066229800113015
 40
1.0
 40
1.0
 40
1.0
 40
1.0
 10
265.3595872963771
 20
133.4791015204988
 30
0.0
 10
265.3612257571863
 20
133.473887502842
 30
0.0
 10
265.3643687170857
 20
133.463885769314
 30
0.0
 10
265.3867805776798
 20
133.443484519683
 30
0.0
 10
265.4155934905688
 20
133.4198764869683
 30
0.0
 10
265.4574217489551
 20
133.3834159854793
 30
0.0
 10
265.5209559250715
 20
133.3196144412598
 30
0.0
 10
265.5768728040546
 20
133.2634026638093
 30
0.0
 10
265.6095870579585
 20
133.2305158791147
 30
0.0
  0
LWPOLYLINE
  5
156
330
1F
100
AcDbEntity
  8
0
  6
Continuous
 62
     7
370
    15
100
AcDbPolyline
 90
        2
 70
   128
 43
0.0
 10
265.609587058
 20
133.2305158791
 10
265.609587058
 20
133.2305158791
  0
LINE
  5
157
330
1F
100
AcDbEntity
  8
0
  6
Continuous
 62
     7
370
    15
100
AcDbLine
 10
265.1995845879
 20
133.4791015205
 30
0.0
 11
265.3595872964
 21
133.4791015205
 31
0.0
  0
SPLINE
  5
158
330
1F
100
AcDbEntity
  8
0
  6
Continuous
 62
     7
370
    15
100
AcDbSpline
210
0.0
220
0.0
230
1.0
 70
     8
 71
     3
 72
    11
 73
     7
 74
     0
 42
0.00000001
 43
0.00000001
 12
1.0
 22
0.0
 32
0.0
 13
1.0
 23
0.0
 33
0.0
 40
0.0
 40
0.0
 40
0.0
 40
0.0
 40
0.2543085685332112
 40
0.5087845042886097
 40
0.7632586019649832
 40
1.0
 40
1.0
 40
1.0
 40
1.0
 10
265.6095870579585
 20
133.2305158791147
 30
0.0
 10
265.5885107838898
 20
133.263842704129
 30
0.0
 10
265.5463443648965
 20
133.3305182874263
 30
0.0
 10
265.4830892444721
 20
133.4141078930986
 30
0.0
 10
265.4212843095175
 20
133.4701367140346
 30
0.0
 10
265.3806052207383
 20
133.4771402737904
 30
0.0
 10
265.3609999264583
 20
133.4805156406961
 30
0.0
  0
LINE
  5
159
330
1F
100
AcDbEntity
  8
0
  6
Continuous
 62
     7
370
    15
100
AcDbLine
 10
265.3609999265
 20
133.4805156407
 30
0.0
 11
265.3609999265
 21
133.6405153689
 31
0.0
  0
LINE
  5
15A
330
1F
100
AcDbEntity
  8
0
  6
Continuous
 62
     7
370
    15
100
AcDbLine
 10
276.709587201
 20
133.2305158791
 30
0.0
 11
277.1195837106
 21
133.2305158791
 31
0.0
  0
LINE
  5
15B
330
1F
100
AcDbEntity
  8
0
  6
Continuous
 62
     7
370
    15
100
AcDbLine
 10
277.1195837106
 20
133.2305158791
 30
0.0
 11
277.1195837106
 21
108.9905155194
 31
0.0
  0
LINE
  5
15C
330
1F
100
AcDbEntity
  8
0
  6
Continuous
 62
     7
370
    15
100
AcDbLine
 10
277.1195837106
 20
108.9905155194
 30
0.0
 11
276.709587201
 21
108.9905155194
 31
0.0
  0
SPLINE
  5
15D
330
1F
100
AcDbEntity
  8
0
  6
Continuous
 62
     7
370
    15
100
AcDbSpline
210
0.0
220
0.0
230
1.0
 70
     8
 71
     3
 72
    12
 73
     8
 74
     0
 42
0.00000001
 43
0.00000001
 12
1.0
 22
0.0
 32
0.0
 13
1.0
 23
0.0
 33
0.0
 40
0.0
 40
0.0
 40
0.0
 40
0.0
 40
0.2196131596443793
 40
0.4392518522300304
 40
0.6588871513089735
 40
0.8785282823312918
 40
0.9999999999999999
 40
0.9999999999999999
 40
0.9999999999999999
 40
0.9999999999999999
 10
277.1195837105616
 20
133.2305158791147
 30
0.0
 10
277.1148412766792
 20
133.2776675376589
 30
0.0
 10
277.1053558575433
 20
133.3719763367528
 30
0.0
 10
277.0314654510585
 20
133.4969185291816
 30
0.0
 10
276.9231632218477
 20
133.5897940383996
 30
0.0
 10
276.8085264440797
 20
133.634867053201
 30
0.0
 10
276.735568006844
 20
133.6390321576989
 30
0.0
 10
276.7095872010097
 20
133.6405153688989
 30
0.0
  0
SPLINE
  5
15E
330
1F
100
AcDbEntity
  8
0
  6
Continuous
 62
     7
370
    15
100
AcDbSpline
210
0.0
220
0.0
230
1.0
 70
     8
 71
     3
 72
    12
 73
     8
 74
     0
 42
0.00000001
 43
0.00000001
 12
1.0
 22
0.0
 32
0.0
 13
1.0
 23
0.0
 33
0.0
 40
0.0
 40
0.0
 40
0.0
 40
0.0
 40
0.1986332071264874
 40
0.4263136618604753
 40
0.6540216221374543
 40
0.881723101983052
 40
1.0
 40
1.0
 40
1.0
 40
1.0
 10
276.9595869625911
 20
133.2305158791147
 30
0.0
 10
276.9572113794464
 20
133.2564913619037
 30
0.0
 10
276.952112818314
 20
133.3122408679735
 30
0.0
 10
276.9094430634357
 20
133.3891379013821
 30
0.0
 10
276.8417155673804
 20
133.4488839641866
 30
0.0
 10
276.7701384869824
 20
133.4771390327476
 30
0.0
 10
276.7250136671112
 20
133.4796553926069
 30
0.0
 10
276.7095872010097
 20
133.4805156406961
 30
0.0
  0
LINE
  5
15F
330
1F
100
AcDbEntity
  8
0
  6
Continuous
 62
     7
370
    15
100
AcDbLine
 10
276.709587201
 20
133.4805156407
 30
0.0
 11
276.709587201
 21
133.6405153689
 31
0.0
  0
LINE
  5
160
330
1F
100
AcDbEntity
  8
0
  6
Continuous
 62
     7
370
    15
100
AcDbLine
 10
276.709587201
 20
108.7405155716
 30
0.0
 11
276.709587201
 21
108.5805154708
 31
0.0
  0
SPLINE
  5
161
330
1F
100
AcDbEntity
  8
0
  6
Continuous
 62
     7
370
    15
100
AcDbSpline
210
0.0
220
0.0
230
1.0
 70
     8
 71
     3
 72
    11
 73
     7
 74
     0
 42
0.00000001
 43
0.00000001
 12
1.0
 22
0.0
 32
0.0
 13
1.0
 23
0.0
 33
0.0
 40
0.0
 40
0.0
 40
0.0
 40
0.0
 40
0.2499962816149644
 40
0.4999977934355359
 40
0.7499989880927003
 40
1.0
 40
1.0
 40
1.0
 40
1.0
 10
276.7095872010097
 20
108.5805154708229
 30
0.0
 10
276.7633113901556
 20
108.5866785976019
 30
0.0
 10
276.8707608924186
 20
108.5990049800995
 30
0.0
 10
277.0062834584069
 20
108.6938163462263
 30
0.0
 10
277.1010952514138
 20
108.8293400844932
 30
0.0
 10
277.1134208923473
 20
108.9367903875225
 30
0.0
 10
277.1195837105616
 20
108.9905155194007
 30
0.0
  0
SPLINE
  5
162
330
1F
100
AcDbEntity
  8
0
  6
Continuous
 62
     7
370
    15
100
AcDbSpline
210
0.0
220
0.0
230
1.0
 70
     8
 71
     3
 72
    11
 73
     7
 74
     0
 42
0.00000001
 43
0.00000001
 12
1.0
 22
0.0
 32
0.0
 13
1.0
 23
0.0
 33
0.0
 40
0.0
 40
0.0
 40
0.0
 40
0.0
 40
0.2500005312525339
 40
0.4999980075679868
 40
0.7499982453469368
 40
1.0
 40
1.0
 40
1.0
 40
1.0
 10
276.7095872010097
 20
108.7405155715547
 30
0.0
 10
276.7423467683459
 20
108.744273278242
 30
0.0
 10
276.8078655027056
 20
108.7517886456985
 30
0.0
 10
276.8905002112893
 20
108.809601905511
 30
0.0
 10
276.9483111812776
 20
108.8922380342951
 30
0.0
 10
276.9558283612182
 20
108.9577562914438
 30
0.0
 10
276.9595869625911
 20
108.9905155194007
 30
0.0
  0
LINE
  5
163
330
1F
100
AcDbEntity
  8
0
  6
Continuous
 62
     7
370
    15
100
AcDbLine
 10
276.709587201
 20
108.5805154708
 30
0.0
 11
276.6195841874
 21
108.5805154708
 31
0.0
  0
LINE
  5
164
330
1F
100
AcDbEntity
  8
0
  6
Continuous
 62
     7
370
    15
100
AcDbLine
 10
279.1956015672
 20
140.0147850928
 30
0.0
 11
275.3055223073
 21
141.4306576666
 31
0.0
  0
LINE
  5
165
330
1F
100
AcDbEntity
  8
0
  6
Continuous
 62
     7
370
    15
100
AcDbLine
 10
279.2503245915
 20
140.1651378092
 30
0.0
 11
275.3602453317
 21
141.5810103831
 31
0.0
  0
LINE
  5
166
330
1F
100
AcDbEntity
  8
0
  6
Continuous
 62
     7
370
    15
100
AcDbLine
 10
265.6395860757
 20
133.6405153689
 30
0.0
 11
277.3683973397
 21
133.6405153689
 31
0.0
  0
LINE
  5
167
330
1F
100
AcDbEntity
  8
0
  6
Continuous
 62
     7
370
    15
100
AcDbLine
 10
265.6395860757
 20
133.8005150971
 30
0.0
 11
277.3683973397
 21
133.8005150971
 31
0.0
  0
LINE
  5
168
330
1F
100
AcDbEntity
  8
0
  6
Continuous
 62
     7
370
    15
100
AcDbLine
 10
273.9900060738
 20
142.7929188428
 30
0.0
 11
269.1251822556
 21
157.7653046069
 31
0.0
  0
LINE
  5
169
330
1F
100
AcDbEntity
  8
0
  6
Continuous
 62
     7
370
    15
100
AcDbLine
 10
274.142176732
 20
142.8423608956
 30
0.0
 11
269.2773529137
 21
157.8147466597
 31
0.0
  0
LINE
  5
16A
330
1F
100
AcDbEntity
  8
0
  6
Continuous
 62
     7
370
    15
100
AcDbLine
 10
265.6395860757
 20
157.9380507884
 30
0.0
 11
268.8874193276
 21
157.9380507884
 31
0.0
  0
LINE
  5
16B
330
1F
100
AcDbEntity
  8
0
  6
Continuous
 62
     7
370
    15
100
AcDbLine
 10
265.6395860757
 20
158.0980505166
 30
0.0
 11
268.8874193276
 21
158.0980505166
 31
0.0
  0
ARC
  5
16C
330
1F
100
AcDbEntity
  8
0
  6
Continuous
 62
     7
370
    15
100
AcDbCircle
 10
276.0442871263
 20
143.4603944649
 30
0.0
 40
2.000000000000069
100
AcDbArc
 50
198.0
 51
250.0
  0
ARC
  5
16D
330
1F
100
AcDbEntity
  8
0
  6
Continuous
 62
     7
370
    15
100
AcDbCircle
 10
276.0442871263
 20
143.4603944649
 30
0.0
 40
2.160000000000033
100
AcDbArc
 50
198.0
 51
250.0
  0
LINE
  5
16E
330
1F
100
AcDbEntity
  8
0
  6
Continuous
 62
     7
370
    15
100
AcDbLine
 10
277.5599130238
 20
133.8898192463
 30
0.0
 11
280.0436504926
 21
136.8498246488
 31
0.0
  0
LINE
  5
16F
330
1F
100
AcDbEntity
  8
0
  6
Continuous
 62
     7
370
    15
100
AcDbLine
 10
277.6824780549
 20
133.7869729218
 30
0.0
 11
280.1662155236
 21
136.7469798145
 31
0.0
  0
ARC
  5
170
330
1F
100
AcDbEntity
  8
0
  6
Continuous
 62
     7
370
    15
100
AcDbCircle
 10
278.5115618822
 20
138.1354003606
 30
0.0
 40
1.999999999999986
100
AcDbArc
 50
320.0
 51
70.0
  0
ARC
  5
171
330
1F
100
AcDbEntity
  8
0
  6
Continuous
 62
     7
370
    15
100
AcDbCircle
 10
278.5115618822
 20
138.1354003606
 30
0.0
 40
2.159999999999988
100
AcDbArc
 50
320.0
 51
70.0
  0
ARC
  5
172
330
1F
100
AcDbEntity
  8
0
  6
Continuous
 62
     7
370
    15
100
AcDbCircle
 10
268.8874175314
 20
157.6880503693
 30
0.0
 40
0.2499999999999716
100
AcDbArc
 50
18.0
 51
90.0
  0
ARC
  5
173
330
1F
100
AcDbEntity
  8
0
  6
Continuous
 62
     7
370
    15
100
AcDbCircle
 10
268.8874175314
 20
157.6880503693
 30
0.0
 40
0.4099999999999682
100
AcDbArc
 50
18.0
 51
90.0
  0
ARC
  5
174
330
1F
100
AcDbEntity
  8
0
  6
Continuous
 62
     7
370
    15
100
AcDbCircle
 10
277.3683992283
 20
134.0505154639
 30
0.0
 40
0.2500000000000284
100
AcDbArc
 50
270.0
 51
320.0
  0
ARC
  5
175
330
1F
100
AcDbEntity
  8
0
  6
Continuous
 62
     7
370
    15
100
AcDbCircle
 10
277.3683992283
 20
134.0505154639
 30
0.0
 40
0.4100000000000448
100
AcDbArc
 50
270.0
 51
320.0
  0
LINE
  5
176
330
1F
100
AcDbEntity
  8
0
  6
Continuous
 62
     7
370
    15
100
AcDbLine
 10
265.2395852651
 20
133.6405153689
 30
0.0
 11
265.2395852651
 21
133.8005150971
 31
0.0
  0
LINE
  5
177
330
1F
100
AcDbEntity
  8
0
  6
Continuous
 62
     7
370
    15
100
AcDbLine
 10
265.2395852651
 20
133.8005150971
 30
0.0
 11
265.6395860757
 21
133.8005150971
 31
0.0
  0
LINE
  5
178
330
1F
100
AcDbEntity
  8
0
  6
Continuous
 62
     7
370
    15
100
AcDbLine
 10
265.6395860757
 20
133.6405153689
 30
0.0
 11
265.2395852651
 21
133.6405153689
 31
0.0
  0
LINE
  5
179
330
1F
100
AcDbEntity
  8
0
  6
Continuous
 62
     7
370
    15
100
AcDbLine
 10
265.2395852651
 20
157.9380507884
 30
0.0
 11
265.2395852651
 21
158.0980505166
 31
0.0
  0
LINE
  5
17A
330
1F
100
AcDbEntity
  8
0
  6
Continuous
 62
     7
370
    15
100
AcDbLine
 10
265.6395860757
 20
157.9380507884
 30
0.0
 11
265.2395852651
 21
157.9380507884
 31
0.0
  0
LINE
  5
17B
330
1F
100
AcDbEntity
  8
0
  6
Continuous
 62
     7
370
    15
100
AcDbLine
 10
265.2395852651
 20
158.0980505166
 30
0.0
 11
265.6395860757
 21
158.0980505166
 31
0.0
  0
ARC
  5
17C
330
1F
100
AcDbEntity
  8
0
  6
Continuous
 62
     7
370
    15
100
AcDbCircle
 10
269.4364540555
 20
158.1340945629
 30
0.0
 40
0.4099999999999999
100
AcDbArc
 50
115.984098214
 51
188.708230903
  0
ARC
  5
17D
330
1F
100
AcDbEntity
  8
0
  6
Continuous
 62
     7
370
    15
100
AcDbCircle
 10
269.4364540555
 20
158.1340945629
 30
0.0
 40
0.2500000000000237
100
AcDbArc
 50
117.5760822276
 51
198.0
  0
LINE
  5
17E
330
1F
100
AcDbEntity
  8
0
  6
Continuous
 62
     7
370
    15
100
AcDbLine
 10
269.198692664
 20
158.0568398652
 30
0.0
 11
269.2773529137
 21
157.8147466597
 31
0.0
  0
LINE
  5
17F
330
1F
100
AcDbEntity
  8
0
  6
Continuous
 62
     7
370
    15
100
AcDbLine
 10
130.441583022
 20
168.7705125031
 30
0.0
 11
130.441583022
 21
162.1905173478
 31
0.0
  0
LINE
  5
180
330
1F
100
AcDbEntity
  8
0
  6
Continuous
 62
     7
370
    15
100
AcDbLine
 10
264.2375835027
 20
162.1905173478
 30
0.0
 11
264.2375835027
 21
168.7705125031
 31
0.0
  0
LINE
  5
181
330
1F
100
AcDbEntity
  8
0
  6
Continuous
 62
     7
370
    15
100
AcDbLine
 10
264.2375835027
 20
162.1905173478
 30
0.0
 11
264.2375835027
 21
161.7005165038
 31
0.0
  0
LINE
  5
182
330
1F
100
AcDbEntity
  8
0
  6
Continuous
 62
     7
370
    15
100
AcDbLine
 10
272.04491578
 20
168.7405134854
 30
0.0
 11
272.04491578
 21
168.7705125031
 31
0.0
  0
LINE
  5
183
330
1F
100
AcDbEntity
  8
0
  6
Continuous
 62
     7
370
    15
100
AcDbLine
 10
272.1049138154
 20
168.7405134854
 30
0.0
 11
272.04491578
 21
168.7405134854
 31
0.0
  0
LINE
  5
184
330
1F
100
AcDbEntity
  8
0
  6
Continuous
 62
     7
370
    15
100
AcDbLine
 10
272.1049138154
 20
169.0005149064
 30
0.0
 11
272.1049138154
 21
168.7405134854
 31
0.0
  0
ARC
  5
185
330
1F
100
AcDbEntity
  8
0
  6
Continuous
 62
     7
370
    15
100
AcDbCircle
 10
272.115771434
 20
164.6005154639
 30
0.0
 40
4.400013393073623
100
AcDbArc
 50
293.4904921589
 51
90.1413679219
  0
LINE
  5
186
330
1F
100
AcDbEntity
  8
0
  6
Continuous
 62
     7
370
    15
100
AcDbLine
 10
268.5535856332
 20
158.253690165
 30
0.0
 11
273.8696046914
 21
160.5651463685
 31
0.0
  0
ARC
  5
187
330
1F
100
AcDbEntity
  8
0
  6
Continuous
 62
     7
370
    15
100
AcDbCircle
 10
268.3940848601
 20
158.6205154639
 30
0.0
 40
0.4000000000000341
100
AcDbArc
 50
270.0
 51
293.4998700858
  0
LINE
  5
188
330
1F
100
AcDbEntity
  8
0
  6
Continuous
 62
     7
370
    15
100
AcDbLine
 10
265.4375859345
 20
158.2205142197
 30
0.0
 11
268.3940836038
 21
158.2205142197
 31
0.0
  0
LINE
  5
189
330
1F
100
AcDbEntity
  8
0
  6
Continuous
 62
     7
370
    15
100
AcDbLine
 10
264.3295832719
 20
161.7405142006
 30
0.0
 11
265.0375851239
 21
161.7405142006
 31
0.0
  0
LINE
  5
18A
330
1F
100
AcDbEntity
  8
0
  6
Continuous
 62
     7
370
    15
100
AcDbLine
 10
264.3295832719
 20
168.7705125031
 30
0.0
 11
264.3295832719
 21
161.7405142006
 31
0.0
  0
ARC
  5
18B
330
1F
100
AcDbEntity
  8
0
  6
Continuous
 62
     7
370
    15
100
AcDbCircle
 10
269.615771434
 20
162.1005154639
 30
0.0
 40
0.5199999999999945
100
AcDbArc
 50
100.4998591652
 51
259.5001408348
  0
ARC
  5
18C
330
1F
100
AcDbEntity
  8
0
  6
Continuous
 62
     7
370
    15
100
AcDbCircle
 10
269.515771434
 20
162.6616036512
 30
0.0
 40
0.0500702202186624
100
AcDbArc
 50
276.0057764949
 51
100.1054407084
  0
ARC
  5
18D
330
1F
100
AcDbEntity
  8
0
  6
Continuous
 62
     7
370
    15
100
AcDbCircle
 10
269.615771434
 20
162.1005154639
 30
0.0
 40
0.6200000000000131
100
AcDbArc
 50
100.1054407084
 51
259.8945592916
  0
ARC
  5
18E
330
1F
100
AcDbEntity
  8
0
  6
Continuous
 62
     7
370
    15
100
AcDbCircle
 10
269.515771434
 20
161.5394272767
 30
0.0
 40
0.0500702202186624
100
AcDbArc
 50
259.8945592916
 51
83.9942235051
  0
ARC
  5
18F
330
1F
100
AcDbEntity
  8
0
  6
Continuous
 62
     7
370
    15
100
AcDbCircle
 10
269.715771434
 20
162.6616036512
 30
0.0
 40
0.0500702202186649
100
AcDbArc
 50
79.8945592916
 51
255.7948950782
  0
ARC
  5
190
330
1F
100
AcDbEntity
  8
0
  6
Continuous
 62
     7
370
    15
100
AcDbCircle
 10
269.615771434
 20
162.1005154639
 30
0.0
 40
0.5199999999999839
100
AcDbArc
 50
279.7110222516
 51
80.2889777484
  0
ARC
  5
191
330
1F
100
AcDbEntity
  8
0
  6
Continuous
 62
     7
370
    15
100
AcDbCircle
 10
269.715771434
 20
161.5394272767
 30
0.0
 40
0.0500702202186525
100
AcDbArc
 50
104.2051049219
 51
280.1054407084
  0
ARC
  5
192
330
1F
100
AcDbEntity
  8
0
  6
Continuous
 62
     7
370
    15
100
AcDbCircle
 10
269.615771434
 20
162.1005154639
 30
0.0
 40
0.6200000000000231
100
AcDbArc
 50
280.1054407084
 51
79.8945592916
  0
ARC
  5
193
330
1F
100
AcDbEntity
  8
0
  6
Continuous
 62
     7
370
    15
100
AcDbCircle
 10
265.4375853682
 20
158.6205154639
 30
0.0
 40
0.4000000000000341
100
AcDbArc
 50
180.0
 51
270.0
  0
LINE
  5
194
330
1F
100
AcDbEntity
  8
0
  6
Continuous
 62
     7
370
    15
100
AcDbLine
 10
265.0375851239
 20
161.7405142006
 30
0.0
 11
265.0375851239
 21
158.6205150303
 31
0.0
  0
LINE
  5
195
330
1F
100
AcDbEntity
  8
0
  6
Continuous
 62
     7
370
    15
100
AcDbLine
 10
130.441583022
 20
169.2605163273
 30
0.0
 11
264.2375835027
 21
169.2605163273
 31
0.0
  0
LINE
  5
196
330
1F
100
AcDbEntity
  8
0
  6
Continuous
 62
     7
370
    15
100
AcDbLine
 10
264.2375835027
 20
169.2605163273
 30
0.0
 11
264.2375835027
 21
168.7705125031
 31
0.0
  0
LINE
  5
197
330
1F
100
AcDbEntity
  8
0
  6
Continuous
 62
     7
370
    15
100
AcDbLine
 10
272.04491578
 20
169.1919411835
 30
0.0
 11
272.04491578
 21
168.7705125031
 31
0.0
  0
LINE
  5
198
330
1F
100
AcDbEntity
  8
0
  6
Continuous
 62
     7
370
    15
100
AcDbLine
 10
264.3295832719
 20
168.7705125031
 30
0.0
 11
264.3295832719
 21
169.2605163273
 31
0.0
  0
LINE
  5
199
330
1F
100
AcDbEntity
  8
0
  6
Continuous
 62
     7
370
    15
100
AcDbLine
 10
264.3295832719
 20
169.2605163273
 30
0.0
 11
272.04491578
 21
169.2605163273
 31
0.0
  0
ARC
  5
19A
330
1F
100
AcDbEntity
  8
0
  6
Continuous
 62
     7
370
    15
100
AcDbCircle
 10
129.9495853682
 20
170.8105154639
 30
0.0
 40
0.490000000000014
100
AcDbArc
 50
9.5328350403
 51
90.0
  0
LINE
  5
19B
330
1F
100
AcDbEntity
  8
0
  6
Continuous
 62
     7
370
    15
100
AcDbLine
 10
123.4395869817
 20
161.7005165038
 30
0.0
 11
123.6795850839
 21
161.7005165038
 31
0.0
  0
LINE
  5
19C
330
1F
100
AcDbEntity
  8
0
  6
Continuous
 62
     7
370
    15
100
AcDbLine
 10
123.4395869817
 20
170.8105172333
 30
0.0
 11
123.4395869817
 21
161.7005165038
 31
0.0
  0
LINE
  5
19D
330
1F
100
AcDbEntity
  8
0
  6
Continuous
 62
     7
370
    15
100
AcDbLine
 10
123.6795850839
 20
170.8105172333
 30
0.0
 11
123.6795850839
 21
161.7005165038
 31
0.0
  0
LWPOLYLINE
  5
19E
330
1F
100
AcDbEntity
  8
0
  6
Continuous
 62
     7
370
    15
100
AcDbPolyline
 90
        3
 70
   128
 43
0.0
 10
123.6853548135
 20
170.8639289555
 10
123.6843892182
 20
170.8592857537
 10
123.6795850839
 20
170.8105172333
  0
ARC
  5
19F
330
1F
100
AcDbEntity
  8
0
  6
Continuous
 62
     7
370
    15
100
AcDbCircle
 10
123.9295853682
 20
170.8105154639
 30
0.0
 40
0.4900000000000091
100
AcDbArc
 50
90.0
 51
180.0
  0
LINE
  5
1A0
330
1F
100
AcDbEntity
  8
0
  6
Continuous
 62
     7
370
    15
100
AcDbLine
 10
129.9495824422
 20
171.3005150971
 30
0.0
 11
123.9295848454
 21
171.3005150971
 31
0.0
  0
LINE
  5
1A1
330
1F
100
AcDbEntity
  8
0
  6
Continuous
 62
     7
370
    15
100
AcDbLine
 10
269.2440219964
 20
158.5320945201
 30
0.0
 11
269.339723214
 21
158.3119984088
 31
0.0
  0
LINE
  5
1A2
330
1F
100
AcDbEntity
  8
0
  6
Continuous
 62
     7
370
    15
100
AcDbLine
 10
269.339723214
 20
158.3119984088
 30
0.0
 11
273.9739426221
 21
160.3270168719
 31
0.0
  0
LINE
  5
1A3
330
1F
100
AcDbEntity
  8
0
  6
Continuous
 62
     7
370
    15
100
AcDbLine
 10
269.2440219964
 20
158.5320945201
 30
0.0
 11
273.8782414044
 21
160.547110003
 31
0.0
  0
ARC
  5
1A4
330
1F
100
AcDbEntity
  8
0
  6
Continuous
 62
     7
370
    15
100
AcDbCircle
 10
272.115771434
 20
164.6005154639
 30
0.0
 40
4.660000000000019
100
AcDbArc
 50
293.5
 51
90.0
  0
ARC
  5
1A5
330
1F
100
AcDbEntity
  8
0
  6
Continuous
 62
     7
370
    15
100
AcDbCircle
 10
272.115771434
 20
164.6005154639
 30
0.0
 40
4.420000000000016
100
AcDbArc
 50
293.5
 51
90.0
  0
LINE
  5
1A6
330
1F
100
AcDbEntity
  8
0
  6
Continuous
 62
     7
370
    15
100
AcDbLine
 10
272.1157737817
 20
169.2605163273
 30
0.0
 11
272.04491578
 21
169.2605163273
 31
0.0
  0
LINE
  5
1A7
330
1F
100
AcDbEntity
  8
0
  6
Continuous
 62
     7
370
    15
100
AcDbLine
 10
272.04491578
 20
169.1919411835
 30
0.0
 11
272.04491578
 21
169.2605163273
 31
0.0
  0
LINE
  5
1A8
330
1F
100
AcDbEntity
  8
0
  6
Continuous
 62
     7
370
    15
100
AcDbLine
 10
272.1157737817
 20
169.0205182252
 30
0.0
 11
272.04491578
 21
169.0205182252
 31
0.0
  0
LINE
  5
1A9
330
1F
100
AcDbEntity
  8
0
  6
Continuous
 62
     7
370
    15
100
AcDbLine
 10
264.3295832719
 20
169.2605163273
 30
0.0
 11
264.2375835027
 21
169.2518021283
 31
0.0
  0
LWPOLYLINE
  5
1AA
330
1F
100
AcDbEntity
  8
0
  6
Continuous
 62
     7
370
    15
100
AcDbPolyline
 90
        3
 70
   128
 43
0.0
 10
264.3295832719
 20
169.0205182252
 10
264.2808147515
 20
169.0157140908
 10
264.2375835027
 20
169.0029706177
  0
LINE
  5
1AB
330
1F
100
AcDbEntity
  8
0
  6
Continuous
 62
     7
370
    15
100
AcDbLine
 10
265.0375851239
 20
161.7305155215
 30
0.0
 11
264.3295832719
 21
161.7305155215
 31
0.0
  0
LINE
  5
1AC
330
1F
100
AcDbEntity
  8
0
  6
Continuous
 62
     7
370
    15
100
AcDbLine
 10
264.3295832719
 20
161.7305155215
 30
0.0
 11
264.3295832719
 21
161.7405142006
 31
0.0
  0
LINE
  5
1AD
330
1F
100
AcDbEntity
  8
0
  6
Continuous
 62
     7
370
    15
100
AcDbLine
 10
269.7051592912
 20
162.7105380711
 30
0.0
 11
269.7238393868
 21
162.7107466874
 31
0.0
  0
ARC
  5
1AE
330
1F
100
AcDbEntity
  8
0
  6
Continuous
 62
     7
370
    15
100
AcDbCircle
 10
269.6150516037
 20
162.1003648747
 30
0.0
 40
0.6200000000000236
100
AcDbArc
 50
281.8512231414
 51
79.8945592916
  0
ARC
  5
1AF
330
1F
100
AcDbEntity
  8
0
  6
Continuous
 62
     7
370
    15
100
AcDbCircle
 10
269.6150516037
 20
162.1003648747
 30
0.0
 40
0.52000000000004
100
AcDbArc
 50
99.7110222516
 51
260.2889777484
  0
ARC
  5
1B0
330
1F
100
AcDbEntity
  8
0
  6
Continuous
 62
     7
370
    15
100
AcDbCircle
 10
269.5150516037
 20
162.6614530619
 30
0.0
 40
0.0500702202186649
100
AcDbArc
 50
284.2051049218
 51
100.1054407084
  0
ARC
  5
1B1
330
1F
100
AcDbEntity
  8
0
  6
Continuous
 62
     7
370
    15
100
AcDbCircle
 10
269.5150516037
 20
161.5392766874
 30
0.0
 40
0.0500702202186486
100
AcDbArc
 50
282.2344485675
 51
75.7948950782
  0
LINE
  5
1B2
330
1F
100
AcDbEntity
  8
0
  6
Continuous
 62
     7
370
    15
100
AcDbLine
 10
265.0381692494
 20
108.5805154708
 30
0.0
 11
123.8410004224
 21
108.5805154708
 31
0.0
  0
SPLINE
  5
1B3
330
1F
100
AcDbEntity
  8
0
  6
Continuous
 62
     7
370
    15
100
AcDbSpline
210
0.0
220
0.0
230
1.0
 70
     8
 71
     3
 72
    12
 73
     8
 74
     0
 42
0.00000001
 43
0.00000001
 12
1.0
 22
0.0
 32
0.0
 13
1.0
 23
0.0
 33
0.0
 40
0.0
 40
0.0
 40
0.0
 40
0.0
 40
0.2301666634974203
 40
0.4604205506964092
 40
0.6906733782239566
 40
0.9209293199601252
 40
0.9999999999999999
 40
0.9999999999999999
 40
0.9999999999999999
 40
0.9999999999999999
 10
123.8410004223689
 20
108.5805154708229
 30
0.0
 10
123.860077061266
 20
108.5857310233963
 30
0.0
 10
123.8982375683218
 20
108.5961641050231
 30
0.0
 10
123.9554966415542
 20
108.6771056683444
 30
0.0
 10
124.0127168841776
 20
108.7947130206236
 30
0.0
 10
124.0575478014873
 20
108.9075152819175
 30
0.0
 10
124.0830648386049
 20
108.9736181692116
 30
0.0
 10
124.0895875538692
 20
108.9905155194007
 30
0.0
  0
SPLINE
  5
1B4
330
1F
100
AcDbEntity
  8
0
  6
Continuous
 62
     7
370
    15
100
AcDbSpline
210
0.0
220
0.0
230
1.0
 70
     8
 71
     3
 72
    12
 73
     8
 74
     0
 42
0.00000001
 43
0.00000001
 12
1.0
 22
0.0
 32
0.0
 13
1.0
 23
0.0
 33
0.0
 40
0.0
 40
0.0
 40
0.0
 40
0.0
 40
0.2353724286334359
 40
0.5035735661906
 40
0.7398130049781796
 40
0.9425314232107945
 40
1.0
 40
1.0
 40
1.0
 40
1.0
 10
264.78958807839
 20
108.9905155194007
 30
0.0
 10
264.8179223890328
 20
108.9437745639431
 30
0.0
 10
264.8785429550813
 20
108.8437734305751
 30
0.0
 10
264.9607029986124
 20
108.709866888883
 30
0.0
 10
265.0118111893736
 20
108.6146202535992
 30
0.0
 10
265.0321124502286
 20
108.5827310094769
 30
0.0
 10
265.0370734851432
 20
108.5809162944336
 30
0.0
 10
265.0381692494258
 20
108.5805154708229
 30
0.0
  0
SPLINE
  5
1B5
330
1F
100
AcDbEntity
  8
0
  6
Continuous
 62
     7
370
    15
100
AcDbSpline
210
0.0
220
0.0
230
1.0
 70
     8
 71
     3
 72
    11
 73
     7
 74
     0
 42
0.00000001
 43
0.00000001
 12
1.0
 22
0.0
 32
0.0
 13
1.0
 23
0.0
 33
0.0
 40
0.0
 40
0.0
 40
0.0
 40
0.0
 40
0.254296593786244
 40
0.5087721191305761
 40
0.7632531893960246
 40
1.0
 40
1.0
 40
1.0
 40
1.0
 10
123.8410004223689
 20
108.7405155715547
 30
0.0
 10
123.8620745675938
 20
108.7444071282065
 30
0.0
 10
123.9042376865144
 20
108.752192979739
 30
0.0
 10
123.9674915059321
 20
108.8119872629944
 30
0.0
 10
124.0293046962366
 20
108.8951802403939
 30
0.0
 10
124.0699827867725
 20
108.9595112502863
 30
0.0
 10
124.0895875538692
 20
108.9905155194007
 30
0.0
  0
LINE
  5
1B6
330
1F
100
AcDbEntity
  8
0
  6
Continuous
 62
     7
370
    15
100
AcDbLine
 10
123.8410004224
 20
108.5805154708
 30
0.0
 11
123.8410004224
 21
108.7405155716
 31
0.0
  0
SPLINE
  5
1B7
330
1F
100
AcDbEntity
  8
0
  6
Continuous
 62
     7
370
    15
100
AcDbSpline
210
0.0
220
0.0
230
1.0
 70
     8
 71
     3
 72
    13
 73
     9
 74
     0
 42
0.00000001
 43
0.00000001
 12
1.0
 22
0.0
 32
0.0
 13
1.0
 23
0.0
 33
0.0
 40
0.0
 40
0.0
 40
0.0
 40
0.0
 40
0.2855787160602148
 40
0.4687827821264839
 40
0.5799067958809686
 40
0.7049805269670713
 40
0.844823720267889
 40
1.0
 40
1.0
 40
1.0
 40
1.0
 10
124.0895875538692
 20
108.9905155194007
 30
0.0
 10
124.0322566299772
 20
108.9566258896117
 30
0.0
 10
123.9381468504576
 20
108.9009954310226
 30
0.0
 10
123.836562103542
 20
108.8359228476909
 30
0.0
 10
123.7717310940416
 20
108.8004639558037
 30
0.0
 10
123.7244361763701
 20
108.776681082882
 30
0.0
 10
123.6874422556553
 20
108.7564262375484
 30
0.0
 10
123.6822933428313
 20
108.7469264515656
 30
0.0
 10
123.6795850838527
 20
108.741929691752
 30
0.0
  0
LINE
  5
1B8
330
1F
100
AcDbEntity
  8
0
  6
Continuous
 62
     7
370
    15
100
AcDbLine
 10
123.6795850839
 20
161.5391011653
 30
0.0
 11
123.6795850839
 21
108.7419296918
 31
0.0
  0
SPLINE
  5
1B9
330
1F
100
AcDbEntity
  8
0
  6
Continuous
 62
     7
370
    15
100
AcDbSpline
210
0.0
220
0.0
230
1.0
 70
     8
 71
     3
 72
    12
 73
     8
 74
     0
 42
0.00000001
 43
0.00000001
 12
1.0
 22
0.0
 32
0.0
 13
1.0
 23
0.0
 33
0.0
 40
0.0
 40
0.0
 40
0.0
 40
0.0
 40
0.1873992249514364
 40
0.3754389362425528
 40
0.5704396829123294
 40
0.779826260548715
 40
1.0
 40
1.0
 40
1.0
 40
1.0
 10
123.6795850838527
 20
161.5391011652551
 30
0.0
 10
123.6836524009679
 20
161.5345077145709
 30
0.0
 10
123.6918009363288
 20
161.5253051138718
 30
0.0
 10
123.7540473563217
 20
161.491002120201
 30
0.0
 10
123.8456512039028
 20
161.4399784327527
 30
0.0
 10
123.9602734695373
 20
161.3686357401144
 30
0.0
 10
124.0457672165719
 20
161.3169869391666
 30
0.0
 10
124.0895875538692
 20
161.2905140337549
 30
0.0
  0
SPLINE
  5
1BA
330
1F
100
AcDbEntity
  8
0
  6
Continuous
 62
     7
370
    15
100
AcDbSpline
210
0.0
220
0.0
230
1.0
 70
     8
 71
     3
 72
    13
 73
     9
 74
     0
 42
0.00000001
 43
0.00000001
 12
1.0
 22
0.0
 32
0.0
 13
1.0
 23
0.0
 33
0.0
 40
0.0
 40
0.0
 40
0.0
 40
0.0
 40
0.3066671053006455
 40
0.4984639679571623
 40
0.6088138612444514
 40
0.7281653123964407
 40
0.8581367734507791
 40
1.0
 40
1.0
 40
1.0
 40
1.0
 10
124.0895875538692
 20
108.9905155194007
 30
0.0
 10
124.0547456699274
 20
108.9567708558769
 30
0.0
 10
123.9981128474938
 20
108.9019214814682
 30
0.0
 10
123.9365687323698
 20
108.8371515674935
 30
0.0
 10
123.896387339116
 20
108.8009743716522
 30
0.0
 10
123.8672618402615
 20
108.7769561540338
 30
0.0
 10
123.8444722923957
 20
108.7565670340519
 30
0.0
 10
123.8412627607168
 20
108.7469490562103
 30
0.0
 10
123.8395877922877
 20
108.741929691752
 30
0.0
  0
LINE
  5
1BB
330
1F
100
AcDbEntity
  8
0
  6
Continuous
 62
     7
370
    15
100
AcDbLine
 10
123.6795850839
 20
108.7419296918
 30
0.0
 11
123.8395877923
 21
108.7419296918
 31
0.0
  0
SPLINE
  5
1BC
330
1F
100
AcDbEntity
  8
0
  6
Continuous
 62
     7
370
    15
100
AcDbSpline
210
0.0
220
0.0
230
1.0
 70
     8
 71
     3
 72
    12
 73
     8
 74
     0
 42
0.00000001
 43
0.00000001
 12
1.0
 22
0.0
 32
0.0
 13
1.0
 23
0.0
 33
0.0
 40
0.0
 40
0.0
 40
0.0
 40
0.0
 40
0.3486255646455231
 40
0.5715624194078882
 40
0.7575563265171096
 40
0.9445166253986249
 40
1.0
 40
1.0
 40
1.0
 40
1.0
 10
264.78958807839
 20
108.9905155194007
 30
0.0
 10
264.8287743553705
 20
108.951498269988
 30
0.0
 10
264.8930192230733
 20
108.8875305185248
 30
0.0
 10
264.9683578128821
 20
108.8103671809094
 30
0.0
 10
265.0120727554108
 20
108.761299171839
 30
0.0
 10
265.0318068177507
 20
108.7420170277613
 30
0.0
 10
265.0369843647963
 20
108.740795189863
 30
0.0
 10
265.0381692494258
 20
108.7405155715547
 30
0.0
  0
LINE
  5
1BD
330
1F
100
AcDbEntity
  8
0
  6
Continuous
 62
     7
370
    15
100
AcDbLine
 10
265.0381692494
 20
108.5805154708
 30
0.0
 11
265.0381692494
 21
108.7405155716
 31
0.0
  0
SPLINE
  5
1BE
330
1F
100
AcDbEntity
  8
0
  6
Continuous
 62
     7
370
    15
100
AcDbSpline
210
0.0
220
0.0
230
1.0
 70
     8
 71
     3
 72
    11
 73
     7
 74
     0
 42
0.00000001
 43
0.00000001
 12
1.0
 22
0.0
 32
0.0
 13
1.0
 23
0.0
 33
0.0
 40
0.0
 40
0.0
 40
0.0
 40
0.0
 40
0.2500010107317372
 40
0.5000019353332082
 40
0.7500028599346793
 40
1.0
 40
1.0
 40
1.0
 40
1.0
 10
265.199584587942
 20
108.741929691752
 30
0.0
 10
265.1934217695113
 20
108.762645153247
 30
0.0
 10
265.181096134773
 20
108.8040760690999
 30
0.0
 10
265.0862844941315
 20
108.8662225944783
 30
0.0
 10
264.9507612441251
 20
108.9283683069237
 30
0.0
 10
264.8433121958709
 20
108.9697998864416
 30
0.0
 10
264.78958807839
 20
108.9905155194007
 30
0.0
  0
SPLINE
  5
1BF
330
1F
100
AcDbEntity
  8
0
  6
Continuous
 62
     7
370
    15
100
AcDbSpline
210
0.0
220
0.0
230
1.0
 70
     8
 71
     3
 72
     9
 73
     5
 74
     0
 42
0.00000001
 43
0.00000001
 12
1.0
 22
0.0
 32
0.0
 13
1.0
 23
0.0
 33
0.0
 40
0.0
 40
0.0
 40
0.0
 40
0.0
 40
0.5509808850515255
 40
1.0
 40
1.0
 40
1.0
 40
1.0
 10
264.78958807839
 20
161.2905140337549
 30
0.0
 10
264.8396693926016
 20
161.3095937604826
 30
0.0
 10
264.9305642232034
 20
161.3442224150245
 30
0.0
 10
265.0044217034806
 20
161.3788483032268
 30
0.0
 10
265.037585123907
 20
161.3943959889017
 30
0.0
  0
LINE
  5
1C0
330
1F
100
AcDbEntity
  8
0
  6
Continuous
 62
     7
370
    15
100
AcDbLine
 10
265.1995845879
 20
108.7419296918
 30
0.0
 11
265.1995845879
 21
158.2990254578
 31
0.0
  0
LINE
  5
1C1
330
1F
100
AcDbEntity
  8
0
  6
Continuous
 62
     7
370
    15
100
AcDbLine
 10
265.1995845879
 20
108.7419296918
 30
0.0
 11
265.03958784
 21
108.7419296918
 31
0.0
  0
SPLINE
  5
1C2
330
1F
100
AcDbEntity
  8
0
  6
Continuous
 62
     7
370
    15
100
AcDbSpline
210
0.0
220
0.0
230
1.0
 70
     8
 71
     3
 72
    11
 73
     7
 74
     0
 42
0.00000001
 43
0.00000001
 12
1.0
 22
0.0
 32
0.0
 13
1.0
 23
0.0
 33
0.0
 40
0.0
 40
0.0
 40
0.0
 40
0.0
 40
0.2500023412457331
 40
0.4999997237652307
 40
0.7500091592510996
 40
1.0
 40
1.0
 40
1.0
 40
1.0
 10
265.0395878399714
 20
108.741929691752
 30
0.0
 10
265.0358292727518
 20
108.762644951846
 30
0.0
 10
265.0283122128626
 20
108.8040750611526
 30
0.0
 10
264.9705004396062
 20
108.8662247987418
 30
0.0
 10
264.8878617630916
 20
108.9283658579461
 30
0.0
 10
264.822345161115
 20
108.9697994792137
 30
0.0
 10
264.78958807839
 20
108.9905155194007
 30
0.0
  0
SPLINE
  5
1C3
330
1F
100
AcDbEntity
  8
0
  6
Continuous
 62
     7
370
    15
100
AcDbSpline
210
0.0
220
0.0
230
1.0
 70
     8
 71
     3
 72
    11
 73
     7
 74
     0
 42
0.00000001
 43
0.00000001
 12
1.0
 22
0.0
 32
0.0
 13
1.0
 23
0.0
 33
0.0
 40
0.0
 40
0.0
 40
0.0
 40
0.0
 40
0.2500032617873033
 40
0.5000032378320663
 40
0.7500026008919682
 40
1.0
 40
1.0
 40
1.0
 40
1.0
 10
124.0895875538692
 20
161.2905140337549
 30
0.0
 10
124.068870328783
 20
161.323273274947
 30
0.0
 10
124.027436150893
 20
161.388791326783
 30
0.0
 10
123.9652965437177
 20
161.4714305120164
 30
0.0
 10
123.9031423934944
 20
161.5292405267328
 30
0.0
 10
123.861714358502
 20
161.5367580357994
 30
0.0
 10
123.8410004223689
 20
161.5405167755686
 30
0.0
  0
LINE
  5
1C4
330
1F
100
AcDbEntity
  8
0
  6
Continuous
 62
     7
370
    15
100
AcDbLine
 10
123.8410004224
 20
161.5405167756
 30
0.0
 11
123.8410004224
 21
161.7005165038
 31
0.0
  0
SPLINE
  5
1C5
330
1F
100
AcDbEntity
  8
0
  6
Continuous
 62
     7
370
    15
100
AcDbSpline
210
0.0
220
0.0
230
1.0
 70
     8
 71
     3
 72
    11
 73
     7
 74
     0
 42
0.00000001
 43
0.00000001
 12
1.0
 22
0.0
 32
0.0
 13
1.0
 23
0.0
 33
0.0
 40
0.0
 40
0.0
 40
0.0
 40
0.0
 40
0.2500010530578914
 40
0.4999988758975557
 40
0.7500020910301904
 40
1.0
 40
1.0
 40
1.0
 40
1.0
 10
124.0895875538692
 20
161.2905140337549
 30
0.0
 10
124.0688703680449
 20
161.3442391172191
 30
0.0
 10
124.0274362640793
 20
161.4516885899755
 30
0.0
 10
123.9652955612302
 20
161.5872140307536
 30
0.0
 10
123.9031429993557
 20
161.6820281030408
 30
0.0
 10
123.8617144681471
 20
161.694353747129
 30
0.0
 10
123.8410004223689
 20
161.7005165037714
 30
0.0
  0
LWPOLYLINE
  5
1C6
330
1F
100
AcDbEntity
  8
0
  6
Continuous
 62
     7
370
    15
100
AcDbPolyline
 90
        2
 70
   128
 43
0.0
 10
124.0895875539
 20
161.2905140338
 10
124.0895875539
 20
161.2905140338
  0
SPLINE
  5
1C7
330
1F
100
AcDbEntity
  8
0
  6
Continuous
 62
     7
370
    15
100
AcDbSpline
210
0.0
220
0.0
230
1.0
 70
     8
 71
     3
 72
    12
 73
     8
 74
     0
 42
0.00000001
 43
0.00000001
 12
1.0
 22
0.0
 32
0.0
 13
1.0
 23
0.0
 33
0.0
 40
0.0
 40
0.0
 40
0.0
 40
0.0
 40
0.1739907478647577
 40
0.3320946391993672
 40
0.5068830886371931
 40
0.7762257013298205
 40
0.9999999999999999
 40
0.9999999999999999
 40
0.9999999999999999
 40
0.9999999999999999
 10
123.8395877922877
 20
161.5391011652551
 30
0.0
 10
123.8422386854168
 20
161.5343161406536
 30
0.0
 10
123.8472984222595
 20
161.5251830054835
 30
0.0
 10
123.8827212192763
 20
161.4930101011483
 30
0.0
 10
123.9383853383571
 20
161.4424098001217
 30
0.0
 10
124.0092505515565
 20
161.3701305738432
 30
0.0
 10
124.0645107275695
 20
161.3153659710802
 30
0.0
 10
124.0895875538692
 20
161.2905140337549
 30
0.0
  0
LINE
  5
1C8
330
1F
100
AcDbEntity
  8
0
  6
Continuous
 62
     7
370
    15
100
AcDbLine
 10
123.6795850839
 20
161.5391011653
 30
0.0
 11
123.8395877923
 21
161.5391011653
 31
0.0
  0
SPLINE
  5
1C9
330
1F
100
AcDbEntity
  8
0
  6
Continuous
 62
     7
370
    15
100
AcDbSpline
210
0.0
220
0.0
230
1.0
 70
     8
 71
     3
 72
    13
 73
     9
 74
     0
 42
0.00000001
 43
0.00000001
 12
1.0
 22
0.0
 32
0.0
 13
1.0
 23
0.0
 33
0.0
 40
0.0
 40
0.0
 40
0.0
 40
0.0
 40
0.147903019192713
 40
0.2849704737587219
 40
0.4118446813076017
 40
0.5293580020822989
 40
0.7073737972854504
 40
0.9999999999999999
 40
0.9999999999999999
 40
0.9999999999999999
 40
0.9999999999999999
 10
265.0381692494258
 20
161.7005165037714
 30
0.0
 10
265.0337453362301
 20
161.6980469357884
 30
0.0
 10
265.0252216113858
 20
161.6932887235361
 30
0.0
 10
265.0055360050696
 20
161.6582860703074
 30
0.0
 10
264.9811922282844
 20
161.6114104179488
 30
0.0
 10
264.9460698814167
 20
161.5464114436336
 30
0.0
 10
264.8802623726809
 20
161.4437956997696
 30
0.0
 10
264.8243513167906
 20
161.3492800505161
 30
0.0
 10
264.78958807839
 20
161.2905140337549
 30
0.0
  0
LINE
  5
1CA
330
1F
100
AcDbEntity
  8
0
  6
Continuous
 62
     7
370
    15
100
AcDbLine
 10
265.0375851239
 20
161.7005165038
 30
0.0
 11
123.8410004224
 21
161.7005165038
 31
0.0
  0
SPLINE
  5
1CB
330
1F
100
AcDbEntity
  8
0
  6
Continuous
 62
     7
370
    15
100
AcDbSpline
210
0.0
220
0.0
230
1.0
 70
     8
 71
     3
 72
    13
 73
     9
 74
     0
 42
0.00000001
 43
0.00000001
 12
1.0
 22
0.0
 32
0.0
 13
1.0
 23
0.0
 33
0.0
 40
0.0
 40
0.0
 40
0.0
 40
0.0
 40
0.1349072818924949
 40
0.2621650060509811
 40
0.3831941292052991
 40
0.4996540223070852
 40
0.6858327522876486
 40
1.0
 40
1.0
 40
1.0
 40
1.0
 10
265.0381692494258
 20
161.5405167755686
 30
0.0
 10
265.0337232309062
 20
161.5389853700377
 30
0.0
 10
265.0250832934933
 20
161.5360093932435
 30
0.0
 10
265.005241410995
 20
161.5144289380866
 30
0.0
 10
264.9807044954791
 20
161.4855932603172
 30
0.0
 10
264.9448161252502
 20
161.4452515538361
 30
0.0
 10
264.8792961912344
 20
161.3830797466784
 30
0.0
 10
264.8241895434501
 20
161.3262177084831
 30
0.0
 10
264.78958807839
 20
161.2905140337549
 30
0.0
  0
LWPOLYLINE
  5
1CC
330
1F
100
AcDbEntity
  8
0
  6
Continuous
 62
     7
370
    15
100
AcDbPolyline
 90
        2
 70
   128
 43
0.0
 10
264.7895880784
 20
161.2905140338
 10
264.7895880784
 20
161.2905140338
  0
SPLINE
  5
1CD
330
1F
100
AcDbEntity
  8
0
  6
Continuous
 62
     7
370
    15
100
AcDbSpline
210
0.0
220
0.0
230
1.0
 70
     8
 71
     3
 72
    11
 73
     7
 74
     0
 42
0.00000001
 43
0.00000001
 12
1.0
 22
0.0
 32
0.0
 13
1.0
 23
0.0
 33
0.0
 40
0.0
 40
0.0
 40
0.0
 40
0.0
 40
0.2542966052442655
 40
0.5087731049421572
 40
0.7632546902629684
 40
1.0
 40
1.0
 40
1.0
 40
1.0
 10
264.78958807839
 20
161.2905140337549
 30
0.0
 10
264.8229133102217
 20
161.3115894790425
 30
0.0
 10
264.8895873488138
 20
161.3537552788049
 30
0.0
 10
264.9731771284807
 20
161.4170075974825
 30
0.0
 10
265.029202759939
 20
161.4788219066428
 30
0.0
 10
265.0362104871375
 20
161.519497625921
 30
0.0
 10
265.0395878399714
 20
161.5391011652551
 30
0.0
  0
LINE
  5
1CE
330
1F
100
AcDbEntity
  8
0
  6
Continuous
 62
     7
370
    15
100
AcDbLine
 10
265.2395852651
 20
152.9391016183
 30
0.0
 11
265.1995845879
 21
152.9391016183
 31
0.0
  0
LINE
  5
1CF
330
1F
100
AcDbEntity
  8
0
  6
Continuous
 62
     7
370
    15
100
AcDbLine
 10
265.1995845879
 20
136.9391019759
 30
0.0
 11
265.2395852651
 21
136.9391019759
 31
0.0
  0
LINE
  5
1D0
330
1F
100
AcDbEntity
  8
0
  6
Continuous
 62
     7
370
    15
100
AcDbLine
 10
123.6795850839
 20
161.5005160985
 30
0.0
 11
123.8395877923
 21
161.5005160985
 31
0.0
  0
LINE
  5
1D1
330
1F
100
AcDbEntity
  8
0
  6
Continuous
 62
     7
370
    15
100
AcDbLine
 10
123.6795850839
 20
161.7005165038
 30
0.0
 11
123.6795850839
 21
161.5391011653
 31
0.0
  0
LINE
  5
1D2
330
1F
100
AcDbEntity
  8
0
  6
Continuous
 62
     7
370
    15
100
AcDbLine
 10
123.6795850839
 20
165.3005148587
 30
0.0
 11
123.6815877999
 21
165.3005148587
 31
0.0
  0
LWPOLYLINE
  5
1D3
330
1F
100
AcDbEntity
  8
0
  6
Continuous
 62
     7
370
    15
100
AcDbPolyline
 90
        6
 70
   128
 43
0.0
 10
131.6149064149
 20
176.5025939164
 10
131.6149123753
 20
176.5026892838
 10
131.6158362473
 20
176.5203739819
 10
131.6167899217
 20
176.5387560544
 10
131.6177555169
 20
176.5572156128
 10
131.6186853494
 20
176.5751148877
  0
LWPOLYLINE
  5
1D4
330
1F
100
AcDbEntity
  8
0
  6
Continuous
 62
     7
370
    15
100
AcDbPolyline
 90
        9
 70
   128
 43
0.0
 10
251.9655533875
 20
170.3044618783
 10
251.863206252
 20
170.2918495354
 10
251.7576523866
 20
170.2788378415
 10
251.6525038327
 20
170.2658857522
 10
251.5513785924
 20
170.2534224209
 10
251.4577516164
 20
170.2418829617
 10
251.374835595
 20
170.2316667256
 10
251.3054736699
 20
170.2231194195
 10
251.2520500268
 20
170.2165331063
  0
LINE
  5
1D5
330
1F
100
AcDbEntity
  8
0
  6
Continuous
 62
     7
370
    15
100
AcDbLine
 10
131.6189058865
 20
176.5793885407
 30
0.0
 11
131.6186853494
 21
176.5751148877
 31
0.0
  0
LINE
  5
1D6
330
1F
100
AcDbEntity
  8
0
  6
Continuous
 62
     7
370
    15
100
AcDbLine
 10
251.9655533875
 20
170.3044618783
 30
0.0
 11
251.9900091733
 21
170.3074719128
 31
0.0
  0
LINE
  5
1D7
330
1F
100
AcDbEntity
  8
0
  6
Continuous
 62
     7
370
    15
100
AcDbLine
 10
123.6395844067
 20
158.7405140814
 30
0.0
 11
123.6795850839
 21
158.7405140814
 31
0.0
  0
LINE
  5
1D8
330
1F
100
AcDbEntity
  8
0
  6
Continuous
 62
     7
370
    15
100
AcDbLine
 10
123.6395844067
 20
158.5405166564
 30
0.0
 11
123.6395844067
 21
158.7405140814
 31
0.0
  0
LINE
  5
1D9
330
1F
100
AcDbEntity
  8
0
  6
Continuous
 62
     7
370
    15
100
AcDbLine
 10
123.6395844067
 20
151.7405147967
 30
0.0
 11
123.6395844067
 21
158.5405166564
 31
0.0
  0
LINE
  5
1DA
330
1F
100
AcDbEntity
  8
0
  6
Continuous
 62
     7
370
    15
100
AcDbLine
 10
123.6375876511
 20
121.9405155
 30
0.0
 11
123.6395844067
 21
121.9405155
 31
0.0
  0
LINE
  5
1DB
330
1F
100
AcDbEntity
  8
0
  6
Continuous
 62
     7
370
    15
100
AcDbLine
 10
123.6375876511
 20
124.3405151484
 30
0.0
 11
123.6395844067
 21
124.3405151484
 31
0.0
  0
LINE
  5
1DC
330
1F
100
AcDbEntity
  8
0
  6
Continuous
 62
     7
370
    15
100
AcDbLine
 10
123.6375876511
 20
121.9405155
 30
0.0
 11
123.6375876511
 21
124.3405151484
 31
0.0
  0
LINE
  5
1DD
330
1F
100
AcDbEntity
  8
0
  6
Continuous
 62
     7
370
    15
100
AcDbLine
 10
123.6375876511
 20
126.4405156788
 30
0.0
 11
123.6395844067
 21
126.4405156788
 31
0.0
  0
LINE
  5
1DE
330
1F
100
AcDbEntity
  8
0
  6
Continuous
 62
     7
370
    15
100
AcDbLine
 10
123.6375876511
 20
124.3405151484
 30
0.0
 11
123.6375876511
 21
126.4405156788
 31
0.0
  0
LINE
  5
1DF
330
1F
100
AcDbEntity
  8
0
  6
Continuous
 62
     7
370
    15
100
AcDbLine
 10
277.1595843877
 20
110.9405154665
 30
0.0
 11
277.1595843877
 21
112.5405154494
 31
0.0
  0
LINE
  5
1E0
330
1F
100
AcDbEntity
  8
0
  6
Continuous
 62
     7
370
    15
100
AcDbLine
 10
277.1195837106
 20
112.7405154821
 30
0.0
 11
277.1595843877
 21
112.7405154821
 31
0.0
  0
LINE
  5
1E1
330
1F
100
AcDbEntity
  8
0
  6
Continuous
 62
     7
370
    15
100
AcDbLine
 10
277.1595843877
 20
112.5405154494
 30
0.0
 11
277.1595843877
 21
112.7405154821
 31
0.0
  0
LINE
  5
1E2
330
1F
100
AcDbEntity
  8
0
  6
Continuous
 62
     7
370
    15
100
AcDbLine
 10
277.1195837106
 20
110.7405154337
 30
0.0
 11
277.1595843877
 21
110.7405154337
 31
0.0
  0
LINE
  5
1E3
330
1F
100
AcDbEntity
  8
0
  6
Continuous
 62
     7
370
    15
100
AcDbLine
 10
277.1595843877
 20
110.7405154337
 30
0.0
 11
277.1595843877
 21
110.9405154665
 31
0.0
  0
LINE
  5
1E4
330
1F
100
AcDbEntity
  8
0
  6
Continuous
 62
     7
370
    15
100
AcDbLine
 10
277.1195837106
 20
127.0905147609
 30
0.0
 11
277.439583167
 21
127.0905147609
 31
0.0
  0
SPLINE
  5
1E5
330
1F
100
AcDbEntity
  8
0
  6
Continuous
 62
     7
370
    15
100
AcDbSpline
210
0.0
220
0.0
230
1.0
 70
    24
 71
     3
 72
    11
 73
     7
 74
     0
 42
0.00000001
 43
0.00000001
 12
1.0
 22
0.0
 32
0.0
 13
1.0
 23
0.0
 33
0.0
 40
0.0
 40
0.0
 40
0.0
 40
0.0
 40
0.2833541845222368
 40
0.5581127527814495
 40
0.7754837414013622
 40
1.0
 40
1.0
 40
1.0
 40
1.0
 10
277.4395831669673
 20
126.6916404780946
 30
0.0
 10
277.4395831669673
 20
126.7510504442928
 30
0.0
 10
277.4395831669673
 20
126.8680681613009
 30
0.0
 10
277.4395831669673
 20
126.9976871007843
 30
0.0
 10
277.4395831669673
 20
127.0764714556508
 30
0.0
 10
277.4395831669673
 20
127.0857834677548
 30
0.0
 10
277.4395831669673
 20
127.0905147609316
 30
0.0
  0
LINE
  5
1E6
330
1F
100
AcDbEntity
  8
0
  6
Continuous
 62
     7
370
    15
100
AcDbLine
 10
277.439583167
 20
115.4893121985
 30
0.0
 11
277.439583167
 21
126.6916404781
 31
0.0
  0
LINE
  5
1E7
330
1F
100
AcDbEntity
  8
0
  6
Continuous
 62
     7
370
    15
100
AcDbLine
 10
277.1195837106
 20
115.0905154017
 30
0.0
 11
277.439583167
 21
115.0905154017
 31
0.0
  0
SPLINE
  5
1E8
330
1F
100
AcDbEntity
  8
0
  6
Continuous
 62
     7
370
    15
100
AcDbSpline
210
0.0
220
0.0
230
1.0
 70
    24
 71
     3
 72
    11
 73
     7
 74
     0
 42
0.00000001
 43
0.00000001
 12
1.0
 22
0.0
 32
0.0
 13
1.0
 23
0.0
 33
0.0
 40
0.0
 40
0.0
 40
0.0
 40
0.0
 40
0.2832762378415304
 40
0.558000965715224
 40
0.7754015583322462
 40
1.0
 40
1.0
 40
1.0
 40
1.0
 10
277.4395831669673
 20
115.0905154016815
 30
0.0
 10
277.4395831669673
 20
115.0981721410508
 30
0.0
 10
277.4395831669673
 20
115.1132544790361
 30
0.0
 10
277.4395831669673
 20
115.2198427691913
 30
0.0
 10
277.4395831669673
 20
115.3499273064194
 30
0.0
 10
277.4395831669673
 20
115.4423488800186
 30
0.0
 10
277.4395831669673
 20
115.4893121984802
 30
0.0
  0
LINE
  5
1E9
330
1F
100
AcDbEntity
  8
0
  6
Continuous
 62
     7
370
    15
100
AcDbLine
 10
277.7195879067
 20
126.58297227
 30
0.0
 11
277.7195879067
 21
115.5980586377
 31
0.0
  0
SPLINE
  5
1EA
330
1F
100
AcDbEntity
  8
0
  6
Continuous
 62
     7
370
    15
100
AcDbSpline
210
0.0
220
0.0
230
1.0
 70
     8
 71
     3
 72
    11
 73
     7
 74
     0
 42
0.00000001
 43
0.00000001
 12
1.0
 22
0.0
 32
0.0
 13
1.0
 23
0.0
 33
0.0
 40
0.0
 40
0.0
 40
0.0
 40
0.0
 40
0.2371978402111143
 40
0.4978650807899696
 40
0.7485806898107152
 40
1.0
 40
1.0
 40
1.0
 40
1.0
 10
277.4395831669673
 20
127.0905147609316
 30
0.0
 10
277.4785803789189
 20
127.0619312365694
 30
0.0
 10
277.5604333589525
 20
127.0019360078896
 30
0.0
 10
277.6491582563696
 20
126.8772620577844
 30
0.0
 10
277.7086091046279
 20
126.734117368455
 30
0.0
 10
277.7159248885368
 20
126.6334010180524
 30
0.0
 10
277.7195879067287
 20
126.5829722699724
 30
0.0
  0
SPLINE
  5
1EB
330
1F
100
AcDbEntity
  8
0
  6
Continuous
 62
     7
370
    15
100
AcDbSpline
210
0.0
220
0.0
230
1.0
 70
    24
 71
     3
 72
    13
 73
     9
 74
     0
 42
0.00000001
 43
0.00000001
 12
1.0
 22
0.0
 32
0.0
 13
1.0
 23
0.0
 33
0.0
 40
0.0
 40
0.0
 40
0.0
 40
0.0
 40
0.1275336633709886
 40
0.2545879292581067
 40
0.4999422084954416
 40
0.7453297157673768
 40
0.872506843107269
 40
1.0
 40
1.0
 40
1.0
 40
1.0
 10
277.4395831669673
 20
127.0905147609316
 30
0.0
 10
277.4395831669673
 20
127.0890614833272
 30
0.0
 10
277.4395831669673
 20
127.0861603909711
 30
0.0
 10
277.4395831669673
 20
127.0540614599405
 30
0.0
 10
277.4395831669673
 20
126.9809071481837
 30
0.0
 10
277.4395831669673
 20
126.8713918726785
 30
0.0
 10
277.4395831669673
 20
126.771422333367
 30
0.0
 10
277.4395831669673
 20
126.7182564216854
 30
0.0
 10
277.4395831669673
 20
126.6916404780946
 30
0.0
  0
SPLINE
  5
1EC
330
1F
100
AcDbEntity
  8
0
  6
Continuous
 62
     7
370
    15
100
AcDbSpline
210
0.0
220
0.0
230
1.0
 70
     8
 71
     3
 72
    11
 73
     7
 74
     0
 42
0.00000001
 43
0.00000001
 12
1.0
 22
0.0
 32
0.0
 13
1.0
 23
0.0
 33
0.0
 40
0.0
 40
0.0
 40
0.0
 40
0.0
 40
0.251419272834664
 40
0.5021348446053411
 40
0.7627991540267743
 40
1.0
 40
1.0
 40
1.0
 40
1.0
 10
277.7195879067287
 20
115.5980586376987
 30
0.0
 10
277.715924845603
 20
115.5476299279256
 30
0.0
 10
277.7086089759467
 20
115.4469136540295
 30
0.0
 10
277.6491590033226
 20
115.3037689273488
 30
0.0
 10
277.5604317737711
 20
115.1790970815401
 30
0.0
 10
277.4785801981389
 20
115.1191001129334
 30
0.0
 10
277.4395831669673
 20
115.0905154016815
 30
0.0
  0
SPLINE
  5
1ED
330
1F
100
AcDbEntity
  8
0
  6
Continuous
 62
     7
370
    15
100
AcDbSpline
210
0.0
220
0.0
230
1.0
 70
    24
 71
     3
 72
    13
 73
     9
 74
     0
 42
0.00000001
 43
0.00000001
 12
1.0
 22
0.0
 32
0.0
 13
1.0
 23
0.0
 33
0.0
 40
0.0
 40
0.0
 40
0.0
 40
0.0
 40
0.1275872743422035
 40
0.2546759376553649
 40
0.5000486612429057
 40
0.7453995488189236
 40
0.8725416198788002
 40
0.9999999999999999
 40
0.9999999999999999
 40
0.9999999999999999
 40
0.9999999999999999
 10
277.4395831669673
 20
115.4893121984802
 30
0.0
 10
277.4395831669673
 20
115.4626778810125
 30
0.0
 10
277.4395831669673
 20
115.4095133329817
 30
0.0
 10
277.4395831669673
 20
115.3095644884614
 30
0.0
 10
277.4395831669673
 20
115.2000834395664
 30
0.0
 10
277.4395831669673
 20
115.1269332627729
 30
0.0
 10
277.4395831669673
 20
115.0948815271559
 30
0.0
 10
277.4395831669673
 20
115.0919719817544
 30
0.0
 10
277.4395831669673
 20
115.0905154016815
 30
0.0
  0
LINE
  5
1EE
330
1F
100
AcDbEntity
  8
0
  6
Continuous
 62
     7
370
    15
100
AcDbLine
 10
254.0395864095
 20
89.9405147252
 30
0.0
 11
248.3395852889
 21
89.9405147252
 31
0.0
  0
LINE
  5
1EF
330
1F
100
AcDbEntity
  8
0
  6
Continuous
 62
     7
370
    15
100
AcDbLine
 10
259.7395845498
 20
89.9405147252
 30
0.0
 11
254.0395864095
 21
89.9405147252
 31
0.0
  0
LINE
  5
1F0
330
1F
100
AcDbEntity
  8
0
  6
Continuous
 62
     7
370
    15
100
AcDbLine
 10
254.0395864095
 20
88.7405152735
 30
0.0
 11
248.7395860995
 21
88.7405152735
 31
0.0
  0
LINE
  5
1F1
330
1F
100
AcDbEntity
  8
0
  6
Continuous
 62
     7
370
    15
100
AcDbLine
 10
259.3395837392
 20
88.7405152735
 30
0.0
 11
254.0395864095
 21
88.7405152735
 31
0.0
  0
LINE
  5
1F2
330
1F
100
AcDbEntity
  8
0
  6
Continuous
 62
     7
370
    15
100
AcDbLine
 10
139.2395862187
 20
89.9405147252
 30
0.0
 11
133.5395880784
 21
89.9405147252
 31
0.0
  0
LINE
  5
1F3
330
1F
100
AcDbEntity
  8
0
  6
Continuous
 62
     7
370
    15
100
AcDbLine
 10
144.9395843591
 20
89.9405147252
 30
0.0
 11
139.2395862187
 21
89.9405147252
 31
0.0
  0
LINE
  5
1F4
330
1F
100
AcDbEntity
  8
0
  6
Continuous
 62
     7
370
    15
100
AcDbLine
 10
139.2395862187
 20
88.7405152735
 30
0.0
 11
133.9395829285
 21
88.7405152735
 31
0.0
  0
LINE
  5
1F5
330
1F
100
AcDbEntity
  8
0
  6
Continuous
 62
     7
370
    15
100
AcDbLine
 10
144.5395835484
 20
88.7405152735
 30
0.0
 11
139.2395862187
 21
88.7405152735
 31
0.0
  0
LINE
  5
1F6
330
1F
100
AcDbEntity
  8
0
  6
Continuous
 62
     7
370
    15
100
AcDbLine
 10
263.0395837869
 20
108.340515506
 30
0.0
 11
263.0395837869
 21
108.5805154708
 31
0.0
  0
LINE
  5
1F7
330
1F
100
AcDbEntity
  8
0
  6
Continuous
 62
     7
370
    15
100
AcDbLine
 10
245.0395860518
 20
108.340515506
 30
0.0
 11
245.0395860518
 21
108.5805154708
 31
0.0
  0
LINE
  5
1F8
330
1F
100
AcDbEntity
  8
0
  6
Continuous
 62
     7
370
    15
100
AcDbLine
 10
245.0395860518
 20
108.340515506
 30
0.0
 11
263.0395837869
 21
108.340515506
 31
0.0
  0
LINE
  5
1F9
330
1F
100
AcDbEntity
  8
0
  6
Continuous
 62
     7
370
    15
100
AcDbLine
 10
254.0395864095
 20
95.7405160484
 30
0.0
 11
247.8476562346
 21
95.7405160484
 31
0.0
  0
LINE
  5
1FA
330
1F
100
AcDbEntity
  8
0
  6
Continuous
 62
     7
370
    15
100
AcDbLine
 10
260.2315136041
 20
95.7405160484
 30
0.0
 11
254.0395864095
 21
95.7405160484
 31
0.0
  0
LINE
  5
1FB
330
1F
100
AcDbEntity
  8
0
  6
Continuous
 62
     7
370
    15
100
AcDbLine
 10
130.2395828809
 20
108.340515506
 30
0.0
 11
130.2395828809
 21
108.5805154708
 31
0.0
  0
LINE
  5
1FC
330
1F
100
AcDbEntity
  8
0
  6
Continuous
 62
     7
370
    15
100
AcDbLine
 10
148.2395835961
 20
108.340515506
 30
0.0
 11
148.2395835961
 21
108.5805154708
 31
0.0
  0
LINE
  5
1FD
330
1F
100
AcDbEntity
  8
0
  6
Continuous
 62
     7
370
    15
100
AcDbLine
 10
130.2395828809
 20
108.340515506
 30
0.0
 11
148.2395835961
 21
108.340515506
 31
0.0
  0
LINE
  5
1FE
330
1F
100
AcDbEntity
  8
0
  6
Continuous
 62
     7
370
    15
100
AcDbLine
 10
139.2395862187
 20
95.7405160484
 30
0.0
 11
133.0476530637
 21
95.7405160484
 31
0.0
  0
LINE
  5
1FF
330
1F
100
AcDbEntity
  8
0
  6
Continuous
 62
     7
370
    15
100
AcDbLine
 10
145.4315134133
 20
95.7405160484
 30
0.0
 11
139.2395862187
 21
95.7405160484
 31
0.0
  0
ARC
  5
200
330
1F
100
AcDbEntity
  8
0
  6
Continuous
 62
     7
370
    15
100
AcDbCircle
 10
265.4395853682
 20
134.0005154639
 30
0.0
 40
0.1999999999999886
100
AcDbArc
 50
180.0
 51
270.0
  0
ARC
  5
201
330
1F
100
AcDbEntity
  8
0
  6
Continuous
 62
     7
370
    15
100
AcDbCircle
 10
265.4395853682
 20
157.7380503693
 30
0.0
 40
0.2000000000000171
100
AcDbArc
 50
90.0
 51
180.0
  0
LINE
  5
202
330
1F
100
AcDbEntity
  8
0
  6
Continuous
 62
     7
370
    15
100
AcDbLine
 10
265.2395852651
 20
134.0005155024
 30
0.0
 11
265.2395852651
 21
157.7380503831
 31
0.0
  0
LINE
  5
203
330
1F
100
AcDbEntity
  8
0
  6
Continuous
 62
     8
370
    15
100
AcDbLine
 10
123.6395844067
 20
133.7405155716
 30
0.0
 11
123.6795850839
 21
133.7405155716
 31
0.0
  0
LINE
  5
204
330
1F
100
AcDbEntity
  8
0
  6
Continuous
 62
     8
370
    15
100
AcDbLine
 10
123.6395844067
 20
150.7405157504
 30
0.0
 11
123.6795850839
 21
150.7405157504
 31
0.0
  0
LINE
  5
205
330
1F
100
AcDbEntity
  8
0
  6
Continuous
 62
     8
370
    15
100
AcDbLine
 10
280.5795856561
 20
121.4705157396
 30
0.0
 11
280.5795856561
 21
122.5505153951
 31
0.0
  0
LINE
  5
206
330
1F
100
AcDbEntity
  8
0
  6
Continuous
 62
     8
370
    15
100
AcDbLine
 10
280.5795856561
 20
120.3905153391
 30
0.0
 11
280.5795856561
 21
121.4705157396
 31
0.0
  0
SPLINE
  5
207
330
1F
100
AcDbEntity
  8
0
  6
Continuous
 62
     8
370
    15
100
AcDbSpline
210
0.0
220
0.0
230
1.0
 70
     8
 71
     3
 72
     9
 73
     5
 74
     0
 42
0.00000001
 43
0.00000001
 12
1.0
 22
0.0
 32
0.0
 13
1.0
 23
0.0
 33
0.0
 40
0.0
 40
0.0
 40
0.0
 40
0.0
 40
0.5209753502055585
 40
1.0
 40
1.0
 40
1.0
 40
1.0
 10
279.5938619221553
 20
125.989529055079
 30
0.0
 10
279.5994817958205
 20
126.0382816515122
 30
0.0
 10
279.6102690118816
 20
126.1318611201261
 30
0.0
 10
279.6841805504848
 20
126.1850113040783
 30
0.0
 10
279.71958599938
 20
126.2104715523325
 30
0.0
  0
LINE
  5
208
330
1F
100
AcDbEntity
  8
0
  6
Continuous
 62
     8
370
    15
100
AcDbLine
 10
279.5938619222
 20
116.9515020517
 30
0.0
 11
279.5938619222
 21
120.3905153391
 31
0.0
  0
LINE
  5
209
330
1F
100
AcDbEntity
  8
0
  6
Continuous
 62
     8
370
    15
100
AcDbLine
 10
279.5938619222
 20
122.5505153951
 30
0.0
 11
279.5938619222
 21
125.9895290551
 31
0.0
  0
SPLINE
  5
20A
330
1F
100
AcDbEntity
  8
0
  6
Continuous
 62
     8
370
    15
100
AcDbSpline
210
0.0
220
0.0
230
1.0
 70
     8
 71
     3
 72
     9
 73
     5
 74
     0
 42
0.00000001
 43
0.00000001
 12
1.0
 22
0.0
 32
0.0
 13
1.0
 23
0.0
 33
0.0
 40
0.0
 40
0.0
 40
0.0
 40
0.0
 40
0.4790248582119397
 40
1.0
 40
1.0
 40
1.0
 40
1.0
 10
279.71958599938
 20
116.7305599269472
 30
0.0
 10
279.6841805504681
 20
116.756020192909
 30
0.0
 10
279.6102690439878
 20
116.8091703907022
 30
0.0
 10
279.5994818053396
 20
116.902749606469
 30
0.0
 10
279.5938619221553
 20
116.9515020516716
 30
0.0
  0
ARC
  5
20B
330
1F
100
AcDbEntity
  8
0
  6
Continuous
 62
     8
370
    15
100
AcDbCircle
 10
279.5572201863
 20
117.1101929256
 30
0.0
 40
0.1628662342732883
100
AcDbArc
 50
283.0017347415
 51
355.5073639954
  0
ARC
  5
20C
330
1F
100
AcDbEntity
  8
0
  6
Continuous
 62
     8
370
    15
100
AcDbCircle
 10
279.5572201433
 20
125.8308381116
 30
0.0
 40
0.1628663117763091
100
AcDbArc
 50
4.4927898857
 51
76.9982560284
  0
SPLINE
  5
20D
330
1F
100
AcDbEntity
  8
0
  6
Continuous
 62
     8
370
    15
100
AcDbSpline
210
0.0
220
0.0
230
1.0
 70
     8
 71
     3
 72
     9
 73
     5
 74
     0
 42
0.00000001
 43
0.00000001
 12
1.0
 22
0.0
 32
0.0
 13
1.0
 23
0.0
 33
0.0
 40
0.0
 40
0.0
 40
0.0
 40
0.0
 40
0.5315576201013094
 40
1.0
 40
1.0
 40
1.0
 40
1.0
 10
279.71958599938
 20
117.0974354562364
 30
0.0
 10
279.7237221408766
 20
117.0577513205187
 30
0.0
 10
279.731503313303
 20
116.9830950006449
 30
0.0
 10
279.785592466056
 20
116.9450910642159
 30
0.0
 10
279.8109301174983
 20
116.9272884097896
 30
0.0
  0
SPLINE
  5
20E
330
1F
100
AcDbEntity
  8
0
  6
Continuous
 62
     8
370
    15
100
AcDbSpline
210
0.0
220
0.0
230
1.0
 70
     8
 71
     3
 72
     9
 73
     5
 74
     0
 42
0.00000001
 43
0.00000001
 12
1.0
 22
0.0
 32
0.0
 13
1.0
 23
0.0
 33
0.0
 40
0.0
 40
0.0
 40
0.0
 40
0.0
 40
0.4684433024197358
 40
0.9999999999999999
 40
0.9999999999999999
 40
0.9999999999999999
 40
0.9999999999999999
 10
279.8109301174983
 20
126.0137419519029
 30
0.0
 10
279.7855924658836
 20
125.9959392535694
 30
0.0
 10
279.7315034192824
 20
125.9579352982529
 30
0.0
 10
279.7237221729719
 20
125.8832797041176
 30
0.0
 10
279.71958599938
 20
125.8435960230432
 30
0.0
  0
SPLINE
  5
20F
330
1F
100
AcDbEntity
  8
0
  6
Continuous
 62
     8
370
    15
100
AcDbSpline
210
0.0
220
0.0
230
1.0
 70
     8
 71
     3
 72
    11
 73
     7
 74
     0
 42
0.00000001
 43
0.00000001
 12
1.0
 22
0.0
 32
0.0
 13
1.0
 23
0.0
 33
0.0
 40
0.0
 40
0.0
 40
0.0
 40
0.0
 40
0.3658255002254321
 40
0.7252573565349012
 40
0.9820698241119247
 40
1.0
 40
1.0
 40
1.0
 40
1.0
 10
280.3091116989955
 20
125.9022171911798
 30
0.0
 10
280.2408995208067
 20
125.9358931696127
 30
0.0
 10
280.1056673294856
 20
126.0026565611254
 30
0.0
 10
279.9336624343853
 20
126.0391349863557
 30
0.0
 10
279.8443590006477
 20
126.0280408895332
 30
0.0
 10
279.812978089551
 20
126.0146179555827
 30
0.0
 10
279.8109301174983
 20
126.0137419519029
 30
0.0
  0
LINE
  5
210
330
1F
100
AcDbEntity
  8
0
  6
Continuous
 62
     8
370
    15
100
AcDbLine
 10
280.309111699
 20
125.9022171912
 30
0.0
 11
280.309111699
 21
122.5505153951
 31
0.0
  0
LINE
  5
211
330
1F
100
AcDbEntity
  8
0
  6
Continuous
 62
     8
370
    15
100
AcDbLine
 10
280.309111699
 20
120.3905153391
 30
0.0
 11
280.309111699
 21
117.0388131705
 31
0.0
  0
SPLINE
  5
212
330
1F
100
AcDbEntity
  8
0
  6
Continuous
 62
     8
370
    15
100
AcDbSpline
210
0.0
220
0.0
230
1.0
 70
     8
 71
     3
 72
    11
 73
     7
 74
     0
 42
0.00000001
 43
0.00000001
 12
1.0
 22
0.0
 32
0.0
 13
1.0
 23
0.0
 33
0.0
 40
0.0
 40
0.0
 40
0.0
 40
0.0
 40
0.2357937913316324
 40
0.274904047153853
 40
0.6342563914987903
 40
0.9999999999999999
 40
0.9999999999999999
 40
0.9999999999999999
 40
0.9999999999999999
 10
279.8109301174983
 20
116.9272884097896
 30
0.0
 10
279.8404895102903
 20
116.9186195530929
 30
0.0
 10
279.8749518117107
 20
116.908512824766
 30
0.0
 10
279.9715901024046
 20
116.9103227061157
 30
0.0
 10
280.1057482445165
 20
116.9382371947625
 30
0.0
 10
280.2409267098239
 20
117.0050914193013
 30
0.0
 10
280.3091116989955
 20
117.0388131705127
 30
0.0
  0
LINE
  5
213
330
1F
100
AcDbEntity
  8
0
  6
Continuous
 62
     8
370
    15
100
AcDbLine
 10
283.6016603555
 20
118.2063839701
 30
0.0
 11
280.3876944627
 21
116.8090111879
 31
0.0
  0
LINE
  5
214
330
1F
100
AcDbEntity
  8
0
  6
Continuous
 62
     8
370
    15
100
AcDbLine
 10
283.6016603555
 20
117.5174481538
 30
0.0
 11
283.6016603555
 21
118.2063839701
 31
0.0
  0
SPLINE
  5
215
330
1F
100
AcDbEntity
  8
0
  6
Continuous
 62
     8
370
    15
100
AcDbSpline
210
0.0
220
0.0
230
1.0
 70
     8
 71
     3
 72
    10
 73
     6
 74
     0
 42
0.00000001
 43
0.00000001
 12
1.0
 22
0.0
 32
0.0
 13
1.0
 23
0.0
 33
0.0
 40
0.0
 40
0.0
 40
0.0
 40
0.0
 40
0.3554428462657607
 40
0.7142318194393809
 40
1.0
 40
1.0
 40
1.0
 40
1.0
 10
280.3876944626674
 20
116.8090111878715
 30
0.0
 10
280.2965986170444
 20
116.7759658020152
 30
0.0
 10
280.113549352595
 20
116.7095639421601
 30
0.0
 10
279.8754583030944
 20
116.6839899022315
 30
0.0
 10
279.7692740790403
 20
116.7201011997706
 30
0.0
 10
279.7221966828212
 20
116.7361113545499
 30
0.0
  0
LINE
  5
216
330
1F
100
AcDbEntity
  8
0
  6
Continuous
 62
     8
370
    15
100
AcDbLine
 10
283.6016603555
 20
124.7346471366
 30
0.0
 11
283.6016603555
 21
125.4121820745
 31
0.0
  0
LINE
  5
217
330
1F
100
AcDbEntity
  8
0
  6
Continuous
 62
     8
370
    15
100
AcDbLine
 10
280.3876944627
 20
126.1320199189
 30
0.0
 11
283.6016603555
 21
124.7346471366
 31
0.0
  0
SPLINE
  5
218
330
1F
100
AcDbEntity
  8
0
  6
Continuous
 62
     8
370
    15
100
AcDbSpline
210
0.0
220
0.0
230
1.0
 70
     8
 71
     3
 72
    10
 73
     6
 74
     0
 42
0.00000001
 43
0.00000001
 12
1.0
 22
0.0
 32
0.0
 13
1.0
 23
0.0
 33
0.0
 40
0.0
 40
0.0
 40
0.0
 40
0.0
 40
0.2857682031705076
 40
0.6445570825628617
 40
1.0
 40
1.0
 40
1.0
 40
1.0
 10
279.7221966828212
 20
126.2049193796717
 30
0.0
 10
279.7692740713138
 20
126.2209296543437
 30
0.0
 10
279.8754582578146
 20
126.2570412154593
 30
0.0
 10
280.1135494304896
 20
126.2314677139952
 30
0.0
 10
280.2965986288232
 20
126.165065492414
 30
0.0
 10
280.3876944626674
 20
126.1320199188791
 30
0.0
  0
ARC
  5
219
330
1F
100
AcDbEntity
  8
0
  6
Continuous
 62
     8
370
    15
100
AcDbCircle
 10
279.5637095981
 20
116.6555794964
 30
0.0
 40
0.8381481616935351
100
AcDbArc
 50
10.5480672335
 51
27.2090610719
  0
ARC
  5
21A
330
1F
100
AcDbEntity
  8
0
  6
Continuous
 62
     8
370
    15
100
AcDbCircle
 10
279.5636969954
 20
126.2854546774
 30
0.0
 40
0.8381611129343892
100
AcDbArc
 50
332.7911010853
 51
349.4518843545
  0
LINE
  5
21B
330
1F
100
AcDbEntity
  8
0
  6
Continuous
 62
     8
370
    15
100
AcDbLine
 10
280.309111699
 20
117.0388131705
 30
0.0
 11
283.5230775918
 21
118.4067662177
 31
0.0
  0
ARC
  5
21C
330
1F
100
AcDbEntity
  8
0
  6
Continuous
 62
     8
370
    15
100
AcDbCircle
 10
282.5144477363
 20
117.8956177963
 30
0.0
 40
1.130755010586731
100
AcDbArc
 50
15.9519243328
 51
26.8747531786
  0
LINE
  5
21D
330
1F
100
AcDbEntity
  8
0
  6
Continuous
 62
     8
370
    15
100
AcDbLine
 10
283.5230775918
 20
124.5342645166
 30
0.0
 11
280.309111699
 21
125.9022171912
 31
0.0
  0
ARC
  5
21E
330
1F
100
AcDbEntity
  8
0
  6
Continuous
 62
     8
370
    15
100
AcDbCircle
 10
282.5144702831
 20
125.0454035181
 30
0.0
 40
1.13073064077994
100
AcDbArc
 50
333.1251561354
 51
344.0482387622
  0
LINE
  5
21F
330
1F
100
AcDbEntity
  8
0
  6
Continuous
 62
     8
370
    15
100
AcDbLine
 10
283.5230775918
 20
118.4067662177
 30
0.0
 11
283.5230775918
 21
124.5342645166
 31
0.0
  0
ARC
  5
220
330
1F
100
AcDbEntity
  8
0
  6
Continuous
 62
     8
370
    15
100
AcDbCircle
 10
283.5684141826
 20
118.1729903614
 30
0.0
 40
0.2381313868921227
100
AcDbArc
 50
50.5923071446
 51
100.9752401443
  0
ARC
  5
221
330
1F
100
AcDbEntity
  8
0
  6
Continuous
 62
     8
370
    15
100
AcDbCircle
 10
283.5526759332
 20
118.3662133388
 30
0.0
 40
0.1671672836405184
100
AcDbArc
 50
287.0392275137
 51
356.8344557615
  0
ARC
  5
222
330
1F
100
AcDbEntity
  8
0
  6
Continuous
 62
     8
370
    15
100
AcDbCircle
 10
283.5684141826
 20
124.7680403728
 30
0.0
 40
0.2381313868922796
100
AcDbArc
 50
259.0247598558
 51
309.4076928553
  0
ARC
  5
223
330
1F
100
AcDbEntity
  8
0
  6
Continuous
 62
     8
370
    15
100
AcDbCircle
 10
283.5526749355
 20
124.5748170095
 30
0.0
 40
0.1671683011123506
100
AcDbArc
 50
3.165657413
 51
72.9605217164
  0
LINE
  5
224
330
1F
100
AcDbEntity
  8
0
  6
Continuous
 62
     8
370
    15
100
AcDbLine
 10
130.6395836915
 20
169.9605132756
 30
0.0
 11
263.4760864819
 21
169.9605132756
 31
0.0
  0
LINE
  5
225
330
1F
100
AcDbEntity
  8
0
  6
Continuous
 62
     8
370
    15
100
AcDbLine
 10
124.1395839299
 20
209.2261637864
 30
0.0
 11
124.1395839299
 21
171.6605152306
 31
0.0
  0
LINE
  5
226
330
1F
100
AcDbEntity
  8
0
  6
Continuous
 62
     8
370
    15
100
AcDbLine
 10
264.1395875062
 20
172.51477496
 30
0.0
 11
263.8995834435
 21
172.51477496
 31
0.0
  0
LINE
  5
227
330
1F
100
AcDbEntity
  8
0
  6
Continuous
 62
     8
370
    15
100
AcDbLine
 10
264.1395875062
 20
171.5003396687
 30
0.0
 11
263.8995834435
 21
171.5003396687
 31
0.0
  0
LINE
  5
228
330
1F
100
AcDbEntity
  8
0
  6
Continuous
 62
     8
370
    15
100
AcDbLine
 10
263.8995834435
 20
170.4004611191
 30
0.0
 11
264.1395875062
 21
170.4004611191
 31
0.0
  0
LINE
  5
229
330
1F
100
AcDbEntity
  8
0
  6
Continuous
 62
     8
370
    15
100
AcDbLine
 10
263.5995873059
 20
170.1775457081
 30
0.0
 11
263.5995873059
 21
170.1004888234
 31
0.0
  0
LINE
  5
22A
330
1F
100
AcDbEntity
  8
0
  6
Continuous
 62
     8
370
    15
100
AcDbLine
 10
263.5995873059
 20
170.1004888234
 30
0.0
 11
263.5995873059
 21
169.860514563
 31
0.0
  0
LINE
  5
22B
330
1F
100
AcDbEntity
  8
0
  6
Continuous
 62
     8
370
    15
100
AcDbLine
 10
263.639587983
 20
169.3223680672
 30
0.0
 11
263.8395854081
 21
169.3223680672
 31
0.0
  0
LINE
  5
22C
330
1F
100
AcDbEntity
  8
0
  6
Continuous
 62
     8
370
    15
100
AcDbLine
 10
264.1023405637
 20
170.203402203
 30
0.0
 11
264.1395875062
 21
170.203402203
 31
0.0
  0
LINE
  5
22D
330
1F
100
AcDbEntity
  8
0
  6
Continuous
 62
     8
370
    15
100
AcDbLine
 10
123.6815877999
 20
162.1905173478
 30
0.0
 11
130.441583022
 21
162.1905173478
 31
0.0
  0
LINE
  5
22E
330
1F
100
AcDbEntity
  8
0
  6
Continuous
 62
     8
370
    15
100
AcDbLine
 10
272.584027871
 20
98.9905159292
 30
0.0
 11
260.4195841397
 21
98.9905159292
 31
0.0
  0
LINE
  5
22F
330
1F
100
AcDbEntity
  8
0
  6
Continuous
 62
     8
370
    15
100
AcDbLine
 10
247.659585699
 20
98.9905159292
 30
0.0
 11
243.7981703128
 21
98.9905159292
 31
0.0
  0
LINE
  5
230
330
1F
100
AcDbEntity
  8
0
  6
Continuous
 62
     8
370
    15
100
AcDbLine
 10
276.6781695927
 20
103.4205156681
 30
0.0
 11
276.5181728448
 21
103.4205156681
 31
0.0
  0
LINE
  5
231
330
1F
100
AcDbEntity
  8
0
  6
Continuous
 62
     8
370
    15
100
AcDbLine
 10
276.5181728448
 20
107.1705154446
 30
0.0
 11
276.6781695927
 21
107.1705154446
 31
0.0
  0
LINE
  5
232
330
1F
100
AcDbEntity
  8
0
  6
Continuous
 62
     8
370
    15
100
AcDbLine
 10
273.0081685628
 20
107.4205155787
 30
0.0
 11
273.0081685628
 21
107.5805153069
 31
0.0
  0
LINE
  5
233
330
1F
100
AcDbEntity
  8
0
  6
Continuous
 62
     8
370
    15
100
AcDbLine
 10
276.2681730832
 20
107.4205155787
 30
0.0
 11
276.2681730832
 21
107.5805153069
 31
0.0
  0
LINE
  5
234
330
1F
100
AcDbEntity
  8
0
  6
Continuous
 62
     8
370
    15
100
AcDbLine
 10
269.9250467862
 20
156.7921693739
 30
0.0
 11
269.6397253121
 21
156.6994632897
 31
0.0
  0
LINE
  5
235
330
1F
100
AcDbEntity
  8
0
  6
Continuous
 62
     8
370
    15
100
AcDbLine
 10
273.5796936597
 20
144.5734943566
 30
0.0
 11
273.8650091733
 21
144.6661974606
 31
0.0
  0
LINE
  5
236
330
1F
100
AcDbEntity
  8
0
  6
Continuous
 62
     8
370
    15
100
AcDbLine
 10
277.0707138623
 20
154.5400764165
 30
0.0
 11
276.7853983487
 21
154.4473733124
 31
0.0
  0
LINE
  5
237
330
1F
100
AcDbEntity
  8
0
  6
Continuous
 62
     8
370
    15
100
AcDbLine
 10
270.989061221
 20
157.4007536587
 30
0.0
 11
270.8963521565
 21
157.6860721526
 31
0.0
  0
LINE
  5
238
330
1F
100
AcDbEntity
  8
0
  6
Continuous
 62
     8
370
    15
100
AcDbLine
 10
269.9928470696
 20
157.3925043759
 30
0.0
 11
270.0855561341
 21
157.1071888623
 31
0.0
  0
LINE
  5
239
330
1F
100
AcDbEntity
  8
0
  6
Continuous
 62
     8
370
    15
100
AcDbLine
 10
277.2180207814
 20
153.1158919749
 30
0.0
 11
277.503336295
 21
153.2085980591
 31
0.0
  0
LINE
  5
23A
330
1F
100
AcDbEntity
  8
0
  6
Continuous
 62
     8
370
    15
100
AcDbLine
 10
243.7981703128
 20
98.830516201
 30
0.0
 11
145.619583949
 21
98.830516201
 31
0.0
  0
LINE
  5
23B
330
1F
100
AcDbEntity
  8
0
  6
Continuous
 62
     8
370
    15
100
AcDbLine
 10
265.609587058
 20
133.2305158791
 30
0.0
 11
265.609587058
 21
108.9905155194
 31
0.0
  0
LINE
  5
23C
330
1F
100
AcDbEntity
  8
0
  6
Continuous
 62
     8
370
    15
100
AcDbLine
 10
265.609587058
 20
108.9905155194
 30
0.0
 11
276.709587201
 21
108.9905155194
 31
0.0
  0
LINE
  5
23D
330
1F
100
AcDbEntity
  8
0
  6
Continuous
 62
     8
370
    15
100
AcDbLine
 10
276.709587201
 20
133.2305158791
 30
0.0
 11
265.609587058
 21
133.2305158791
 31
0.0
  0
LINE
  5
23E
330
1F
100
AcDbEntity
  8
0
  6
Continuous
 62
     8
370
    15
100
AcDbLine
 10
276.709587201
 20
133.2305158791
 30
0.0
 11
276.709587201
 21
108.9905155194
 31
0.0
  0
LINE
  5
23F
330
1F
100
AcDbEntity
  8
0
  6
Continuous
 62
     8
370
    15
100
AcDbLine
 10
279.1956015672
 20
140.0147850928
 30
0.0
 11
279.2503245915
 21
140.1651378092
 31
0.0
  0
LINE
  5
240
330
1F
100
AcDbEntity
  8
0
  6
Continuous
 62
     8
370
    15
100
AcDbLine
 10
275.3602453317
 20
141.5810103831
 30
0.0
 11
275.3055223073
 21
141.4306576666
 31
0.0
  0
LINE
  5
241
330
1F
100
AcDbEntity
  8
0
  6
Continuous
 62
     8
370
    15
100
AcDbLine
 10
277.3683973397
 20
133.6405153689
 30
0.0
 11
277.3683973397
 21
133.8005150971
 31
0.0
  0
LINE
  5
242
330
1F
100
AcDbEntity
  8
0
  6
Continuous
 62
     8
370
    15
100
AcDbLine
 10
265.6395860757
 20
133.8005150971
 30
0.0
 11
265.6395860757
 21
133.6405153689
 31
0.0
  0
LINE
  5
243
330
1F
100
AcDbEntity
  8
0
  6
Continuous
 62
     8
370
    15
100
AcDbLine
 10
273.9900060738
 20
142.7929188428
 30
0.0
 11
274.142176732
 21
142.8423608956
 31
0.0
  0
LINE
  5
244
330
1F
100
AcDbEntity
  8
0
  6
Continuous
 62
     8
370
    15
100
AcDbLine
 10
269.1251822556
 20
157.7653046069
 30
0.0
 11
269.2773529137
 21
157.8147466597
 31
0.0
  0
LINE
  5
245
330
1F
100
AcDbEntity
  8
0
  6
Continuous
 62
     8
370
    15
100
AcDbLine
 10
268.8874193276
 20
157.9380507884
 30
0.0
 11
268.8874193276
 21
158.0980505166
 31
0.0
  0
LINE
  5
246
330
1F
100
AcDbEntity
  8
0
  6
Continuous
 62
     8
370
    15
100
AcDbLine
 10
265.6395860757
 20
158.0980505166
 30
0.0
 11
265.6395860757
 21
157.9380507884
 31
0.0
  0
LINE
  5
247
330
1F
100
AcDbEntity
  8
0
  6
Continuous
 62
     8
370
    15
100
AcDbLine
 10
277.5599130238
 20
133.8898192463
 30
0.0
 11
277.6824780549
 21
133.7869729218
 31
0.0
  0
LINE
  5
248
330
1F
100
AcDbEntity
  8
0
  6
Continuous
 62
     8
370
    15
100
AcDbLine
 10
280.1662155236
 20
136.7469798145
 30
0.0
 11
280.0436504926
 21
136.8498246488
 31
0.0
  0
LINE
  5
249
330
1F
100
AcDbEntity
  8
0
  6
Continuous
 62
     8
370
    15
100
AcDbLine
 10
269.198692664
 20
158.0568398652
 30
0.0
 11
269.1144355382
 21
158.0294634518
 31
0.0
  0
LINE
  5
24A
330
1F
100
AcDbEntity
  8
0
  6
Continuous
 62
     8
370
    15
100
AcDbLine
 10
130.441583022
 20
168.7705125031
 30
0.0
 11
264.2375835027
 21
168.7705125031
 31
0.0
  0
LINE
  5
24B
330
1F
100
AcDbEntity
  8
0
  6
Continuous
 62
     8
370
    15
100
AcDbLine
 10
130.441583022
 20
162.1905173478
 30
0.0
 11
264.2375835027
 21
162.1905173478
 31
0.0
  0
LINE
  5
24C
330
1F
100
AcDbEntity
  8
0
  6
Continuous
 62
     8
370
    15
100
AcDbLine
 10
264.3295832719
 20
168.7705125031
 30
0.0
 11
272.04491578
 21
168.7705125031
 31
0.0
  0
LINE
  5
24D
330
1F
100
AcDbEntity
  8
0
  6
Continuous
 62
     8
370
    15
100
AcDbLine
 10
129.9495824422
 20
171.1905147252
 30
0.0
 11
129.9495824422
 21
171.3005150971
 31
0.0
  0
LINE
  5
24E
330
1F
100
AcDbEntity
  8
0
  6
Continuous
 62
     8
370
    15
100
AcDbLine
 10
123.6795850839
 20
170.8105172333
 30
0.0
 11
123.4395869817
 21
170.8105172333
 31
0.0
  0
LINE
  5
24F
330
1F
100
AcDbEntity
  8
0
  6
Continuous
 62
     8
370
    15
100
AcDbLine
 10
123.9295848454
 20
171.3005150971
 30
0.0
 11
123.9295848454
 21
171.1668516812
 31
0.0
  0
LINE
  5
250
330
1F
100
AcDbEntity
  8
0
  6
Continuous
 62
     8
370
    15
100
AcDbLine
 10
273.9739426221
 20
160.3270168719
 30
0.0
 11
273.8782414044
 21
160.547110003
 31
0.0
  0
LINE
  5
251
330
1F
100
AcDbEntity
  8
0
  6
Continuous
 62
     8
370
    15
100
AcDbLine
 10
272.1157737817
 20
169.0205182252
 30
0.0
 11
272.1157737817
 21
169.2605163273
 31
0.0
  0
LINE
  5
252
330
1F
100
AcDbEntity
  8
0
  6
Continuous
 62
     8
370
    15
100
AcDbLine
 10
124.0895875539
 20
108.9905155194
 30
0.0
 11
264.7895880784
 21
108.9905155194
 31
0.0
  0
LINE
  5
253
330
1F
100
AcDbEntity
  8
0
  6
Continuous
 62
     8
370
    15
100
AcDbLine
 10
124.0895875539
 20
161.2905140338
 30
0.0
 11
124.0895875539
 21
108.9905155194
 31
0.0
  0
LINE
  5
254
330
1F
100
AcDbEntity
  8
0
  6
Continuous
 62
     8
370
    15
100
AcDbLine
 10
264.7895880784
 20
161.2905140338
 30
0.0
 11
124.0895875539
 21
161.2905140338
 31
0.0
  0
LINE
  5
255
330
1F
100
AcDbEntity
  8
0
  6
Continuous
 62
     8
370
    15
100
AcDbLine
 10
264.7895880784
 20
108.9905155194
 30
0.0
 11
264.7895880784
 21
161.2905140338
 31
0.0
  0
LINE
  5
256
330
1F
100
AcDbEntity
  8
0
  6
Continuous
 62
     8
370
    15
100
AcDbLine
 10
123.6795850839
 20
165.1005174336
 30
0.0
 11
123.6815877999
 21
165.1005174336
 31
0.0
  0
LINE
  5
257
330
1F
100
AcDbEntity
  8
0
  6
Continuous
 62
     8
370
    15
100
AcDbLine
 10
131.6186853494
 20
176.5751148877
 30
0.0
 11
251.9655533875
 21
170.3044618783
 31
0.0
  0
LINE
  5
258
330
1F
100
AcDbEntity
  8
0
  6
Continuous
 62
     8
370
    15
100
AcDbLine
 10
123.6395844067
 20
158.5405166564
 30
0.0
 11
123.6795850839
 21
158.5405166564
 31
0.0
  0
LINE
  5
259
330
1F
100
AcDbEntity
  8
0
  6
Continuous
 62
     8
370
    15
100
AcDbLine
 10
277.1195837106
 20
110.9405154665
 30
0.0
 11
277.1595843877
 21
110.9405154665
 31
0.0
  0
LINE
  5
25A
330
1F
100
AcDbEntity
  8
0
  6
Continuous
 62
     8
370
    15
100
AcDbLine
 10
277.1195837106
 20
112.5405154494
 30
0.0
 11
277.1595843877
 21
112.5405154494
 31
0.0
  0
LINE
  5
25B
330
1F
100
AcDbEntity
  8
0
  6
Continuous
 62
     8
370
    15
100
AcDbLine
 10
277.1195837106
 20
126.6916404781
 30
0.0
 11
277.439583167
 21
126.6916404781
 31
0.0
  0
LINE
  5
25C
330
1F
100
AcDbEntity
  8
0
  6
Continuous
 62
     8
370
    15
100
AcDbLine
 10
277.1195837106
 20
115.4893121985
 30
0.0
 11
277.439583167
 21
115.4893121985
 31
0.0
  0
SPLINE
  5
25D
330
1F
100
AcDbEntity
  8
0
  6
Continuous
 62
     8
370
    15
100
AcDbSpline
210
0.0
220
0.0
230
1.0
 70
     8
 71
     3
 72
    11
 73
     7
 74
     0
 42
0.00000001
 43
0.00000001
 12
1.0
 22
0.0
 32
0.0
 13
1.0
 23
0.0
 33
0.0
 40
0.0
 40
0.0
 40
0.0
 40
0.0
 40
0.2371524618392051
 40
0.497802710161639
 40
0.7485381503766987
 40
1.0
 40
1.0
 40
1.0
 40
1.0
 10
277.4395831669673
 20
126.6916404780946
 30
0.0
 10
277.4785810838652
 20
126.6854976611129
 30
0.0
 10
277.5604409497585
 20
126.6726033781785
 30
0.0
 10
277.6491637259147
 20
126.6459987263405
 30
0.0
 10
277.7086103108763
 20
126.6153187469807
 30
0.0
 10
277.7159251812167
 20
126.5937648212883
 30
0.0
 10
277.7195879067287
 20
126.5829722699724
 30
0.0
  0
SPLINE
  5
25E
330
1F
100
AcDbEntity
  8
0
  6
Continuous
 62
     8
370
    15
100
AcDbSpline
210
0.0
220
0.0
230
1.0
 70
     8
 71
     3
 72
    11
 73
     7
 74
     0
 42
0.00000001
 43
0.00000001
 12
1.0
 22
0.0
 32
0.0
 13
1.0
 23
0.0
 33
0.0
 40
0.0
 40
0.0
 40
0.0
 40
0.0
 40
0.2371464767614069
 40
0.4977997518166983
 40
0.7485362619335595
 40
1.0
 40
1.0
 40
1.0
 40
1.0
 10
277.4395831669673
 20
115.4893121984802
 30
0.0
 10
277.478581350353
 20
115.4954589394981
 30
0.0
 10
277.5604433551181
 20
115.5083617082635
 30
0.0
 10
277.6491630275725
 20
115.5349854122056
 30
0.0
 10
277.7086105123647
 20
115.5656886529054
 30
0.0
 10
277.7159252444927
 20
115.58725823125
 30
0.0
 10
277.7195879067287
 20
115.5980586376987
 30
0.0
  0
LINE
  5
25F
330
1F
100
AcDbEntity
  8
0
  6
Continuous
 62
     8
370
    15
100
AcDbLine
 10
254.0395864095
 20
89.1405160842
 30
0.0
 11
248.3395852889
 21
89.1405160842
 31
0.0
  0
LINE
  5
260
330
1F
100
AcDbEntity
  8
0
  6
Continuous
 62
     8
370
    15
100
AcDbLine
 10
259.7395845498
 20
89.1405160842
 30
0.0
 11
254.0395864095
 21
89.1405160842
 31
0.0
  0
LINE
  5
261
330
1F
100
AcDbEntity
  8
0
  6
Continuous
 62
     8
370
    15
100
AcDbLine
 10
139.2395862187
 20
89.1405160842
 30
0.0
 11
133.5395880784
 21
89.1405160842
 31
0.0
  0
LINE
  5
262
330
1F
100
AcDbEntity
  8
0
  6
Continuous
 62
     8
370
    15
100
AcDbLine
 10
144.9395843591
 20
89.1405160842
 30
0.0
 11
139.2395862187
 21
89.1405160842
 31
0.0
  0
LINE
  5
263
330
1F
100
AcDbEntity
  8
0
  6
Continuous
 62
     8
370
    15
100
AcDbLine
 10
254.0395864095
 20
108.0405156431
 30
0.0
 11
247.659585699
 21
108.0405156431
 31
0.0
  0
LINE
  5
264
330
1F
100
AcDbEntity
  8
0
  6
Continuous
 62
     8
370
    15
100
AcDbLine
 10
260.4195841397
 20
108.0405156431
 30
0.0
 11
254.0395864095
 21
108.0405156431
 31
0.0
  0
LINE
  5
265
330
1F
100
AcDbEntity
  8
0
  6
Continuous
 62
     8
370
    15
100
AcDbLine
 10
254.0395864095
 20
96.7925365386
 30
0.0
 11
247.672367915
 21
96.7925365386
 31
0.0
  0
LINE
  5
266
330
1F
100
AcDbEntity
  8
0
  6
Continuous
 62
     8
370
    15
100
AcDbLine
 10
260.4068049039
 20
96.7925365386
 30
0.0
 11
254.0395864095
 21
96.7925365386
 31
0.0
  0
LINE
  5
267
330
1F
100
AcDbEntity
  8
0
  6
Continuous
 62
     8
370
    15
100
AcDbLine
 10
254.0395864095
 20
96.9470287976
 30
0.0
 11
247.659585699
 21
96.9470287976
 31
0.0
  0
LINE
  5
268
330
1F
100
AcDbEntity
  8
0
  6
Continuous
 62
     8
370
    15
100
AcDbLine
 10
260.4195841397
 20
96.9470287976
 30
0.0
 11
254.0395864095
 21
96.9470287976
 31
0.0
  0
LINE
  5
269
330
1F
100
AcDbEntity
  8
0
  6
Continuous
 62
     8
370
    15
100
AcDbLine
 10
139.2395862187
 20
108.0405156431
 30
0.0
 11
132.859582528
 21
108.0405156431
 31
0.0
  0
LINE
  5
26A
330
1F
100
AcDbEntity
  8
0
  6
Continuous
 62
     8
370
    15
100
AcDbLine
 10
145.619583949
 20
108.0405156431
 30
0.0
 11
139.2395862187
 21
108.0405156431
 31
0.0
  0
LINE
  5
26B
330
1F
100
AcDbEntity
  8
0
  6
Continuous
 62
     8
370
    15
100
AcDbLine
 10
139.2395862187
 20
96.9470287976
 30
0.0
 11
132.859582528
 21
96.9470287976
 31
0.0
  0
LINE
  5
26C
330
1F
100
AcDbEntity
  8
0
  6
Continuous
 62
     8
370
    15
100
AcDbLine
 10
145.619583949
 20
96.9470287976
 30
0.0
 11
139.2395862187
 21
96.9470287976
 31
0.0
  0
LINE
  5
26D
330
1F
100
AcDbEntity
  8
0
  6
Continuous
 62
     8
370
    15
100
AcDbLine
 10
139.2395862187
 20
96.7925365386
 30
0.0
 11
132.8723677243
 21
96.7925365386
 31
0.0
  0
LINE
  5
26E
330
1F
100
AcDbEntity
  8
0
  6
Continuous
 62
     8
370
    15
100
AcDbLine
 10
145.6068047131
 20
96.7925365386
 30
0.0
 11
139.2395862187
 21
96.7925365386
 31
0.0
  0
ARC
  5
26F
330
1F
100
AcDbEntity
  8
0
  6
Continuous
 62
     8
370
    15
100
AcDbCircle
 10
265.4395853682
 20
134.0005154639
 30
0.0
 40
0.0999999999999943
100
AcDbArc
 50
180.0
 51
270.0
  0
LINE
  5
270
330
1F
100
AcDbEntity
  8
0
  6
Continuous
 62
     8
370
    15
100
AcDbLine
 10
265.4395826901
 20
133.9005152998
 30
0.0
 11
265.4395826901
 21
133.8005150971
 31
0.0
  0
LINE
  5
271
330
1F
100
AcDbEntity
  8
0
  6
Continuous
 62
     8
370
    15
100
AcDbLine
 10
265.3395839776
 20
134.0005155024
 30
0.0
 11
265.2395852651
 21
134.0005155024
 31
0.0
  0
LINE
  5
272
330
1F
100
AcDbEntity
  8
0
  6
Continuous
 62
     8
370
    15
100
AcDbLine
 10
277.4833031739
 20
133.9540968952
 30
0.0
 11
279.9670466031
 21
136.9141037879
 31
0.0
  0
ARC
  5
273
330
1F
100
AcDbEntity
  8
0
  6
Continuous
 62
     8
370
    15
100
AcDbCircle
 10
277.3683992283
 20
134.0505154639
 30
0.0
 40
0.1499999999999935
100
AcDbArc
 50
270.0
 51
320.0
  0
LINE
  5
274
330
1F
100
AcDbEntity
  8
0
  6
Continuous
 62
     8
370
    15
100
AcDbLine
 10
265.4395826901
 20
133.9005152998
 30
0.0
 11
277.3683973397
 21
133.9005152998
 31
0.0
  0
LINE
  5
275
330
1F
100
AcDbEntity
  8
0
  6
Continuous
 62
     8
370
    15
100
AcDbLine
 10
265.3395839776
 20
157.7380503831
 30
0.0
 11
265.3395839776
 21
134.0005155024
 31
0.0
  0
ARC
  5
276
330
1F
100
AcDbEntity
  8
0
  6
Continuous
 62
     8
370
    15
100
AcDbCircle
 10
265.4395853682
 20
157.7380503693
 30
0.0
 40
0.0999999999999943
100
AcDbArc
 50
90.0
 51
180.0
  0
LINE
  5
277
330
1F
100
AcDbEntity
  8
0
  6
Continuous
 62
     8
370
    15
100
AcDbLine
 10
268.9237423982
 20
157.8380490956
 30
0.0
 11
265.4395826901
 21
157.8380490956
 31
0.0
  0
ARC
  5
278
330
1F
100
AcDbEntity
  8
0
  6
Continuous
 62
     8
370
    15
100
AcDbCircle
 10
268.9237446578
 20
157.7380503693
 30
0.0
 40
0.1000000000000163
100
AcDbArc
 50
18.0
 51
90.0
  0
LINE
  5
279
330
1F
100
AcDbEntity
  8
0
  6
Continuous
 62
     8
370
    15
100
AcDbLine
 10
273.8949009026
 20
142.7620168147
 30
0.0
 11
269.0188475694
 21
157.7689524111
 31
0.0
  0
ARC
  5
27A
330
1F
100
AcDbEntity
  8
0
  6
Continuous
 62
     8
370
    15
100
AcDbCircle
 10
276.0442871263
 20
143.4603944649
 30
0.0
 40
2.26000000000001
100
AcDbArc
 50
198.0
 51
250.0
  0
LINE
  5
27B
330
1F
100
AcDbEntity
  8
0
  6
Continuous
 62
     8
370
    15
100
AcDbLine
 10
279.161400422
 20
139.9208153901
 30
0.0
 11
275.2713211621
 21
141.3366879639
 31
0.0
  0
ARC
  5
27C
330
1F
100
AcDbEntity
  8
0
  6
Continuous
 62
     8
370
    15
100
AcDbCircle
 10
278.5115618822
 20
138.1354003606
 30
0.0
 40
1.900000000000011
100
AcDbArc
 50
320.0
 51
70.0
  0
LINE
  5
27D
330
1F
100
AcDbEntity
  8
0
  6
Continuous
 62
     8
370
    15
100
AcDbLine
 10
277.3683973397
 20
133.9005152998
 30
0.0
 11
277.3683973397
 21
133.8005150971
 31
0.0
  0
LWPOLYLINE
  5
27E
330
1F
100
AcDbEntity
  8
0
  6
Continuous
 62
     8
370
    15
100
AcDbPolyline
 90
        9
 70
   128
 43
0.0
 10
275.3055223073
 20
141.4306576666
 10
275.3048666562
 20
141.4288516459
 10
275.3029175843
 20
141.4235051093
 10
275.2997585381
 20
141.4148207125
 10
275.295508727
 20
141.4031352219
 10
275.2903231229
 20
141.3888956723
 10
275.2844103421
 20
141.3726504263
 10
275.2779968823
 20
141.3550223527
 10
275.2713211621
 20
141.3366879639
  0
LWPOLYLINE
  5
27F
330
1F
100
AcDbEntity
  8
0
  6
Continuous
 62
     8
370
    15
100
AcDbPolyline
 90
        9
 70
   128
 43
0.0
 10
273.9900060738
 20
142.7929188428
 10
273.9881762112
 20
142.7923227963
 10
273.9827641095
 20
142.7905644593
 10
273.9739783849
 20
142.7877093968
 10
273.9621468629
 20
142.7838678774
 10
273.9477344598
 20
142.7791829524
 10
273.9312954987
 20
142.7738423762
 10
273.9134558286
 20
142.7680458245
 10
273.8949009026
 20
142.7620168147
  0
LWPOLYLINE
  5
280
330
1F
100
AcDbEntity
  8
0
  6
Continuous
 62
     8
370
    15
100
AcDbPolyline
 90
        8
 70
   128
 43
0.0
 10
269.1114314641
 20
157.7990348754
 10
269.1067167367
 20
157.7975000558
 10
269.0979250516
 20
157.7946449933
 10
269.0860994901
 20
157.7908034739
 10
269.071687087
 20
157.7861215291
 10
269.0552481259
 20
157.7807779727
 10
269.0374024953
 20
157.774981421
 10
269.0188475694
 20
157.7689524111
  0
LWPOLYLINE
  5
281
330
1F
100
AcDbEntity
  8
0
  6
Continuous
 62
     8
370
    15
100
AcDbPolyline
 90
        9
 70
   128
 43
0.0
 10
279.161400422
 20
139.9208153901
 10
279.1680701817
 20
139.9391497788
 10
279.174489602
 20
139.9567778525
 10
279.1804023827
 20
139.9730230984
 10
279.1855820264
 20
139.9872626481
 10
279.189837798
 20
139.9989481387
 10
279.1929968442
 20
140.0076325354
 10
279.1949459161
 20
140.0129790721
 10
279.1956015672
 20
140.0147850928
  0
LWPOLYLINE
  5
282
330
1F
100
AcDbEntity
  8
0
  6
Continuous
 62
     8
370
    15
100
AcDbPolyline
 90
        9
 70
   128
 43
0.0
 10
279.9670466031
 20
136.9141037879
 10
279.9819894875
 20
136.9015644607
 10
279.9963601674
 20
136.889504951
 10
280.0096043195
 20
136.8783931551
 10
280.0212153043
 20
136.868652266
 10
280.0307401265
 20
136.860657793
 10
280.0378211583
 20
136.8547181902
 10
280.0421782578
 20
136.8510599551
 10
280.0436504926
 20
136.8498246488
  0
LINE
  5
283
330
1F
100
AcDbEntity
  8
0
  6
Continuous
 62
     8
370
    15
100
AcDbLine
 10
265.4395826901
 20
157.9380507884
 30
0.0
 11
265.4395826901
 21
157.8380490956
 31
0.0
  0
LINE
  5
284
330
1F
100
AcDbEntity
  8
0
  6
Continuous
 62
     8
370
    15
100
AcDbLine
 10
265.2395852651
 20
157.7380503831
 30
0.0
 11
265.3395839776
 21
157.7380503831
 31
0.0
  0
LINE
  5
285
330
1F
100
AcDbEntity
  8
0
  6
Continuous
 62
     8
370
    15
100
AcDbLine
 10
268.9237423982
 20
157.9353983817
 30
0.0
 11
268.9237423982
 21
157.8380490956
 31
0.0
  0
LWPOLYLINE
  5
286
330
1F
100
AcDbEntity
  8
0
  6
Continuous
 62
     8
370
    15
100
AcDbPolyline
 90
        9
 70
   128
 43
0.0
 10
277.4833031739
 20
133.9540968952
 10
277.4982520188
 20
133.941557568
 10
277.5126226987
 20
133.9294995484
 10
277.5258668507
 20
133.9183862624
 10
277.5374718751
 20
133.9086453733
 10
277.5470026578
 20
133.9006509003
 10
277.5540777291
 20
133.8947112975
 10
277.5584407891
 20
133.8910530624
 10
277.5599130238
 20
133.8898192463
  0
ENDSEC
  0
SECTION
  2
OBJECTS
  0
DICTIONARY
  5
C
330
0
100
AcDbDictionary
281
     1
  3
ACAD_GROUP
350
D
  3
ACAD_LAYOUT
350
1A
  3
ACAD_MLINESTYLE
350
17
  3
ACAD_PLOTSETTINGS
350
19
  3
ACAD_PLOTSTYLENAME
350
E
  0
DICTIONARY
  5
D
102
{ACAD_REACTORS
330
C
102
}
330
C
100
AcDbDictionary
281
     1
  0
DICTIONARY
  5
1A
102
{ACAD_REACTORS
330
C
102
}
330
C
100
AcDbDictionary
281
     1
  3
Layout1
350
1E
  3
Layout2
350
26
  3
Model
350
22
  0
DICTIONARY
  5
17
102
{ACAD_REACTORS
330
C
102
}
330
C
100
AcDbDictionary
281
     1
  3
Standard
350
18
  0
DICTIONARY
  5
19
102
{ACAD_REACTORS
330
C
102
}
330
C
100
AcDbDictionary
281
     1
  0
ACDBDICTIONARYWDFLT
  5
E
102
{ACAD_REACTORS
330
C
102
}
330
C
100
AcDbDictionary
281
     1
  3
Normal
350
F
100
AcDbDictionaryWithDefault
340
F
  0
LAYOUT
  5
1E
102
{ACAD_REACTORS
330
1A
102
}
330
1A
100
AcDbPlotSettings
  1

  2
none_device
  4

  6

 40
0.0
 41
0.0
 42
0.0
 43
0.0
 44
0.0
 45
0.0
 46
0.0
 47
0.0
 48
0.0
 49
0.0
140
0.0
141
0.0
142
1.0
143
1.0
 70
   688
 72
     0
 73
     0
 74
     5
  7

 75
    16
147
1.0
148
0.0
149
0.0
100
AcDbLayout
  1
Layout1
 70
     1
 71
     1
 10
0.0
 20
0.0
 11
420.0
 21
297.0
 12
0.0
 22
0.0
 32
0.0
 14
1.0000000000E+20
 24
1.0000000000E+20
 34
1.0000000000E+20
 15
-1.0000000000E+20
 25
-1.0000000000E+20
 35
-1.0000000000E+20
146
0.0
 13
0.0
 23
0.0
 33
0.0
 16
1.0
 26
0.0
 36
0.0
 17
0.0
 27
1.0
 37
0.0
 76
     0
330
1B
  0
LAYOUT
  5
26
102
{ACAD_REACTORS
330
1A
102
}
330
1A
100
AcDbPlotSettings
  1

  2
none_device
  4

  6

 40
0.0
 41
0.0
 42
0.0
 43
0.0
 44
0.0
 45
0.0
 46
0.0
 47
0.0
 48
0.0
 49
0.0
140
0.0
141
0.0
142
1.0
143
1.0
 70
   688
 72
     0
 73
     0
 74
     5
  7

 75
    16
147
1.0
148
0.0
149
0.0
100
AcDbLayout
  1
Layout2
 70
     1
 71
     2
 10
0.0
 20
0.0
 11
0.0
 21
0.0
 12
0.0
 22
0.0
 32
0.0
 14
0.0
 24
0.0
 34
0.0
 15
0.0
 25
0.0
 35
0.0
146
0.0
 13
0.0
 23
0.0
 33
0.0
 16
1.0
 26
0.0
 36
0.0
 17
0.0
 27
1.0
 37
0.0
 76
     0
330
23
  0
LAYOUT
  5
22
102
{ACAD_REACTORS
330
1A
102
}
330
1A
100
AcDbPlotSettings
  1

  2
none_device
  4

  6

 40
0.0
 41
0.0
 42
0.0
 43
0.0
 44
0.0
 45
0.0
 46
0.0
 47
0.0
 48
0.0
 49
0.0
140
0.0
141
0.0
142
1.0
143
1.0
 70
  1712
 72
     0
 73
     0
 74
     0
  7

 75
     0
147
1.0
148
0.0
149
0.0
100
AcDbLayout
  1
Model
 70
     1
 71
     0
 10
0.0
 20
0.0
 11
420.0
 21
297.0
 12
0.0
 22
0.0
 32
0.0
 14
0.0
 24
0.0
 34
0.0
 15
420.0
 25
297.0
 35
0.0
146
0.0
 13
0.0
 23
0.0
 33
0.0
 16
1.0
 26
0.0
 36
0.0
 17
0.0
 27
1.0
 37
0.0
 76
     0
330
1F
331
29
  0
MLINESTYLE
  5
18
102
{ACAD_REACTORS
330
17
102
}
330
17
100
AcDbMlineStyle
  2
Standard
 70
     0
  3

 62
   256
 51
90.0
 52
90.0
 71
     2
 49
0.5
 62
   256
  6
BYLAYER
 49
-0.5
 62
   256
  6
BYLAYER
  0
ACDBPLACEHOLDER
  5
F
102
{ACAD_REACTORS
330
E
102
}
330
E
  0
ENDSEC
  0
EOF
