  0
SECTION
  2
HEADER
  9
$ACADVER
  1
AC1015
  9
$ACADMAINTVER
 70
     6
  9
$DWGCODEPAGE
  3
ANSI_1252
  9
$INSBASE
 10
0.0
 20
0.0
 30
0.0
  9
$EXTMIN
 10
0.0
 20
0.0
 30
0.0
  9
$EXTMAX
 10
420.0
 20
297.0
 30
0.0
  9
$LIMMIN
 10
0.0
 20
0.0
  9
$LIMMAX
 10
420.0
 20
297.0
  9
$ORTHOMODE
 70
     0
  9
$REGENMODE
 70
     1
  9
$FILLMODE
 70
     1
  9
$QTEXTMODE
 70
     0
  9
$MIRRTEXT
 70
     1
  9
$LTSCALE
 40
1.0
  9
$ATTMODE
 70
     1
  9
$TEXTSIZE
 40
3.5
  9
$TRACEWID
 40
1.0
  9
$TEXTSTYLE
  7
Standard
  9
$CLAYER
  8
0
  9
$CELTYPE
  6
ByLayer
  9
$CECOLOR
 62
   256
  9
$CELTSCALE
 40
1.0
  9
$DISPSILH
 70
     0
  9
$DIMSCALE
 40
1.0
  9
$DIMASZ
 40
3.302
  9
$DIMEXO
 40
1.0
  9
$DIMDLI
 40
3.75
  9
$DIMRND
 40
0.0
  9
$DIMDLE
 40
0.0
  9
$DIMEXE
 40
1.0
  9
$DIMTP
 40
0.0
  9
$DIMTM
 40
0.0
  9
$DIMTXT
 40
3.5
  9
$DIMCEN
 40
2.5
  9
$DIMTSZ
 40
0.0
  9
$DIMTOL
 70
     0
  9
$DIMLIM
 70
     0
  9
$DIMTIH
 70
     1
  9
$DIMTOH
 70
     1
  9
$DIMSE1
 70
     0
  9
$DIMSE2
 70
     0
  9
$DIMTAD
 70
     1
  9
$DIMZIN
 70
     0
  9
$DIMBLK
  1

  9
$DIMASO
 70
     1
  9
$DIMSHO
 70
     1
  9
$DIMPOST
  1

  9
$DIMAPOST
  1

  9
$DIMALT
 70
     0
  9
$DIMALTD
 70
     3
  9
$DIMALTF
 40
0.0393700787
  9
$DIMLFAC
 40
5.0
  9
$DIMTOFL
 70
     1
  9
$DIMTVP
 40
0.0
  9
$DIMTIX
 70
     0
  9
$DIMSOXD
 70
     0
  9
$DIMSAH
 70
     0
  9
$DIMBLK1
  1

  9
$DIMBLK2
  1

  9
$DIMSTYLE
  2
ISO-25
  9
$DIMCLRD
 70
     0
  9
$DIMCLRE
 70
     0
  9
$DIMCLRT
 70
     0
  9
$DIMTFAC
 40
1.0
  9
$DIMGAP
 40
1.524
  9
$DIMJUST
 70
     0
  9
$DIMSD1
 70
     0
  9
$DIMSD2
 70
     0
  9
$DIMTOLJ
 70
     0
  9
$DIMTZIN
 70
     0
  9
$DIMALTZ
 70
     0
  9
$DIMALTTZ
 70
     0
  9
$DIMUPT
 70
     0
  9
$DIMDEC
 70
     1
  9
$DIMTDEC
 70
     1
  9
$DIMALTU
 70
     2
  9
$DIMALTTD
 70
     3
  9
$DIMTXSTY
  7
Standard
  9
$DIMAUNIT
 70
     0
  9
$DIMADEC
 70
     1
  9
$DIMALTRND
 40
0.0
  9
$DIMAZIN
 70
     0
  9
$DIMDSEP
 70
    44
  9
$DIMATFIT
 70
     3
  9
$DIMFRAC
 70
     0
  9
$DIMLDRBLK
  1

  9
$DIMLUNIT
 70
     2
  9
$DIMLWD
 70
    -2
  9
$DIMLWE
 70
    -2
  9
$DIMTMOVE
 70
     0
  9
$LUNITS
 70
     2
  9
$LUPREC
 70
     1
  9
$SKETCHINC
 40
1.0
  9
$FILLETRAD
 40
10.0
  9
$AUNITS
 70
     0
  9
$AUPREC
 70
     1
  9
$MENU
  1
.
  9
$ELEVATION
 40
0.0
  9
$PELEVATION
 40
0.0
  9
$THICKNESS
 40
0.0
  9
$LIMCHECK
 70
     0
  9
$CHAMFERA
 40
10.0
  9
$CHAMFERB
 40
10.0
  9
$CHAMFERC
 40
20.0
  9
$CHAMFERD
 40
0.0
  9
$SKPOLY
 70
     0
  9
$TDCREATE
 40
2456126.611042141
  9
$TDUCREATE
 40
2456126.569375474
  9
$TDUPDATE
 40
2456126.611044132
  9
$TDUUPDATE
 40
2456126.569377465
  9
$TDINDWG
 40
0.0000000116
  9
$TDUSRTIMER
 40
0.0000000116
  9
$USRTIMER
 70
     1
  9
$ANGBASE
 50
0.0
  9
$ANGDIR
 70
     0
  9
$PDMODE
 70
     0
  9
$PDSIZE
 40
-1.0
  9
$PLINEWID
 40
0.0
  9
$SPLFRAME
 70
     0
  9
$SPLINETYPE
 70
     6
  9
$SPLINESEGS
 70
     8
  9
$HANDSEED
  5
3E3
  9
$SURFTAB1
 70
     6
  9
$SURFTAB2
 70
     6
  9
$SURFTYPE
 70
     6
  9
$SURFU
 70
     6
  9
$SURFV
 70
     6
  9
$UCSBASE
  2

  9
$UCSNAME
  2

  9
$UCSORG
 10
0.0
 20
0.0
 30
0.0
  9
$UCSXDIR
 10
1.0
 20
0.0
 30
0.0
  9
$UCSYDIR
 10
0.0
 20
1.0
 30
0.0
  9
$UCSORTHOREF
  2

  9
$UCSORTHOVIEW
 70
     0
  9
$UCSORGTOP
 10
0.0
 20
0.0
 30
0.0
  9
$UCSORGBOTTOM
 10
0.0
 20
0.0
 30
0.0
  9
$UCSORGLEFT
 10
0.0
 20
0.0
 30
0.0
  9
$UCSORGRIGHT
 10
0.0
 20
0.0
 30
0.0
  9
$UCSORGFRONT
 10
0.0
 20
0.0
 30
0.0
  9
$UCSORGBACK
 10
0.0
 20
0.0
 30
0.0
  9
$PUCSBASE
  2

  9
$PUCSNAME
  2

  9
$PUCSORG
 10
0.0
 20
0.0
 30
0.0
  9
$PUCSXDIR
 10
1.0
 20
0.0
 30
0.0
  9
$PUCSYDIR
 10
0.0
 20
1.0
 30
0.0
  9
$PUCSORTHOREF
  2

  9
$PUCSORTHOVIEW
 70
     0
  9
$PUCSORGTOP
 10
0.0
 20
0.0
 30
0.0
  9
$PUCSORGBOTTOM
 10
0.0
 20
0.0
 30
0.0
  9
$PUCSORGLEFT
 10
0.0
 20
0.0
 30
0.0
  9
$PUCSORGRIGHT
 10
0.0
 20
0.0
 30
0.0
  9
$PUCSORGFRONT
 10
0.0
 20
0.0
 30
0.0
  9
$PUCSORGBACK
 10
0.0
 20
0.0
 30
0.0
  9
$USERI1
 70
     0
  9
$USERI2
 70
     0
  9
$USERI3
 70
     0
  9
$USERI4
 70
     0
  9
$USERI5
 70
     0
  9
$USERR1
 40
0.0
  9
$USERR2
 40
0.0
  9
$USERR3
 40
0.0
  9
$USERR4
 40
0.0
  9
$USERR5
 40
0.0
  9
$WORLDVIEW
 70
     1
  9
$SHADEDGE
 70
     3
  9
$SHADEDIF
 70
    70
  9
$TILEMODE
 70
     1
  9
$MAXACTVP
 70
    64
  9
$PINSBASE
 10
0.0
 20
0.0
 30
0.0
  9
$PLIMCHECK
 70
     0
  9
$PEXTMIN
 10
1.0000000000E+20
 20
1.0000000000E+20
 30
1.0000000000E+20
  9
$PEXTMAX
 10
-1.0000000000E+20
 20
-1.0000000000E+20
 30
-1.0000000000E+20
  9
$PLIMMIN
 10
0.0
 20
0.0
  9
$PLIMMAX
 10
420.0
 20
297.0
  9
$UNITMODE
 70
     0
  9
$VISRETAIN
 70
     1
  9
$PLINEGEN
 70
     0
  9
$PSLTSCALE
 70
     1
  9
$TREEDEPTH
 70
  3020
  9
$CMLSTYLE
  2
Standard
  9
$CMLJUST
 70
     0
  9
$CMLSCALE
 40
20.0
  9
$PROXYGRAPHICS
 70
     1
  9
$MEASUREMENT
 70
     1
  9
$CELWEIGHT
370
    -1
  9
$ENDCAPS
280
     0
  9
$JOINSTYLE
280
     0
  9
$LWDISPLAY
290
     1
  9
$INSUNITS
 70
     4
  9
$HYPERLINKBASE
  1

  9
$STYLESHEET
  1

  9
$XEDIT
290
     1
  9
$CEPSNTYPE
380
     0
  9
$PSTYLEMODE
290
     1
  9
$FINGERPRINTGUID
  2
{39FC5D2F-E7C8-4C22-902B-A8F9EBC6E71D}
  9
$VERSIONGUID
  2
{FAEB1C32-E019-11D5-929B-00C0DF256EC4}
  9
$EXTNAMES
290
     1
  9
$PSVPSCALE
 40
0.0
  9
$OLESTARTUP
290
     0
  0
ENDSEC
  0
SECTION
  2
CLASSES
  0
CLASS
  1
ACDBDICTIONARYWDFLT
  2
AcDbDictionaryWithDefault
  3
ObjectDBX Classes
 90
        0
280
     0
281
     0
  0
CLASS
  1
VISUALSTYLE
  2
AcDbVisualStyle
  3
ObjectDBX Classes
 90
     4095
280
     0
281
     0
  0
CLASS
  1
MATERIAL
  2
AcDbMaterial
  3
ObjectDBX Classes
 90
     1153
280
     0
281
     0
  0
CLASS
  1
ACDBPLACEHOLDER
  2
AcDbPlaceHolder
  3
ObjectDBX Classes
 90
        0
280
     0
281
     0
  0
CLASS
  1
LAYOUT
  2
AcDbLayout
  3
ObjectDBX Classes
 90
        0
280
     0
281
     0
  0
ENDSEC
  0
SECTION
  2
TABLES
  0
TABLE
  2
VPORT
  5
8
330
0
100
AcDbSymbolTable
 70
     1
  0
VPORT
  5
29
330
8
100
AcDbSymbolTableRecord
100
AcDbViewportTableRecord
  2
*Active
 70
     0
 10
0.0
 20
0.0
 11
1.0
 21
1.0
 12
210.0
 22
148.5
 13
0.0
 23
0.0
 14
10.0
 24
10.0
 15
10.0
 25
10.0
 16
0.0
 26
0.0
 36
1.0
 17
0.0
 27
0.0
 37
0.0
 40
297.0
 41
1.4141414141
 42
50.0
 43
0.0
 44
0.0
 50
0.0
 51
0.0
 71
     0
 72
  2000
 73
     1
 74
     3
 75
     0
 76
     0
 77
     0
 78
     0
281
     0
 65
     1
110
0.0
120
0.0
130
0.0
111
1.0
121
0.0
131
0.0
112
0.0
122
1.0
132
0.0
 79
     0
146
0.0
  0
ENDTAB
  0
TABLE
  2
LTYPE
  5
5
330
0
100
AcDbSymbolTable
 70
     6
  0
LTYPE
  5
14
330
5
100
AcDbSymbolTableRecord
100
AcDbLinetypeTableRecord
  2
ByBlock
 70
     0
  3

 72
    65
 73
     0
 40
0.0
  0
LTYPE
  5
15
330
5
100
AcDbSymbolTableRecord
100
AcDbLinetypeTableRecord
  2
ByLayer
 70
     0
  3

 72
    65
 73
     0
 40
0.0
  0
LTYPE
  5
16
330
5
100
AcDbSymbolTableRecord
100
AcDbLinetypeTableRecord
  2
Continuous
 70
     0
  3
Solid line
 72
    65
 73
     0
 40
0.0
  0
LTYPE
  5
3F
330
5
100
AcDbSymbolTableRecord
100
AcDbLinetypeTableRecord
  2
HIDDEN
 70
     0
  3
Hidden __ __ __ __ __ __ __ __ __ __ __ __ __ __
 72
    65
 73
     2
 40
1.905
 49
1.27
 74
     0
 49
-0.635
 74
     0
  0
LTYPE
  5
40
330
5
100
AcDbSymbolTableRecord
100
AcDbLinetypeTableRecord
  2
PHANTOM
 70
     0
  3
Phantom ______  __  __  ______  __  __  ______
 72
    65
 73
     6
 40
12.7
 49
6.35
 74
     0
 49
-1.27
 74
     0
 49
1.27
 74
     0
 49
-1.27
 74
     0
 49
1.27
 74
     0
 49
-1.27
 74
     0
  0
LTYPE
  5
41
330
5
100
AcDbSymbolTableRecord
100
AcDbLinetypeTableRecord
  2
CENTER
 70
     0
  3
Center ____ _ ____ _ ____ _ ____ _ ____ _ ____
 72
    65
 73
     4
 40
10.16
 49
6.35
 74
     0
 49
-1.27
 74
     0
 49
1.27
 74
     0
 49
-1.27
 74
     0
  0
LTYPE
  5
42
330
5
100
AcDbSymbolTableRecord
100
AcDbLinetypeTableRecord
  2
CENTERX2
 70
     0
  3
Center (2x) ________  __  ________  __  _____
 72
    65
 73
     4
 40
20.32
 49
12.7
 74
     0
 49
-2.54
 74
     0
 49
2.54
 74
     0
 49
-2.54
 74
     0
  0
LTYPE
  5
43
330
5
100
AcDbSymbolTableRecord
100
AcDbLinetypeTableRecord
  2
DOT2
 70
     0
  3
Dot (.5x) ........................................
 72
    65
 73
     2
 40
0.635
 49
0.0
 74
     0
 49
-0.635
 74
     0
  0
ENDTAB
  0
TABLE
  2
LAYER
  5
2
330
0
100
AcDbSymbolTable
 70
     4
  0
LAYER
  5
10
330
2
100
AcDbSymbolTableRecord
100
AcDbLayerTableRecord
  2
0
 70
     0
 62
     7
  6
Continuous
370
    -3
390
F
  0
LAYER
  5
44
330
2
100
AcDbSymbolTableRecord
100
AcDbLayerTableRecord
  2
FORMAT
 70
     0
 62
     7
  6
Continuous
370
    -3
390
F
  0
LAYER
  5
45
330
2
100
AcDbSymbolTableRecord
100
AcDbLayerTableRecord
  2
SLD-0
 70
     0
 62
     1
  6
Continuous
370
    -3
390
F
  0
LAYER
  5
46
330
2
100
AcDbSymbolTableRecord
100
AcDbLayerTableRecord
  2
WATERMARK
 70
     0
 62
    20
  6
Continuous
370
    -3
390
F
  0
ENDTAB
  0
TABLE
  2
STYLE
  5
3
330
0
100
AcDbSymbolTable
 70
     1
  0
STYLE
  5
11
330
3
100
AcDbSymbolTableRecord
100
AcDbTextStyleTableRecord
  2
Standard
 70
     0
 40
0.0
 41
1.0
 50
0.0
 71
     0
 42
3.5
  3
txt
  4

  0
ENDTAB
  0
TABLE
  2
VIEW
  5
6
330
0
100
AcDbSymbolTable
 70
     0
  0
ENDTAB
  0
TABLE
  2
UCS
  5
7
330
0
100
AcDbSymbolTable
 70
     0
  0
ENDTAB
  0
TABLE
  2
APPID
  5
9
330
0
100
AcDbSymbolTable
 70
     1
  0
APPID
  5
12
330
9
100
AcDbSymbolTableRecord
100
AcDbRegAppTableRecord
  2
ACAD
 70
     0
  0
ENDTAB
  0
TABLE
  2
DIMSTYLE
  5
A
330
0
100
AcDbSymbolTable
 70
     1
100
AcDbDimStyleTable
  0
DIMSTYLE
105
27
330
A
100
AcDbSymbolTableRecord
100
AcDbDimStyleTableRecord
  2
ISO-25
 70
     0
 41
2.5
 42
0.625
 43
3.75
 44
1.25
 73
     0
 74
     0
 77
     1
 78
     8
140
2.5
141
2.5
143
0.0393700787
147
0.625
171
     3
172
     1
178
     0
271
     2
272
     2
274
     3
278
    44
283
     0
284
     8
340
11
  0
ENDTAB
  0
TABLE
  2
BLOCK_RECORD
  5
1
330
0
100
AcDbSymbolTable
 70
     1
  0
BLOCK_RECORD
  5
1F
330
1
100
AcDbSymbolTableRecord
100
AcDbBlockTableRecord
  2
*Model_Space
340
22
  0
BLOCK_RECORD
  5
1B
330
1
100
AcDbSymbolTableRecord
100
AcDbBlockTableRecord
  2
*Paper_Space
340
1E
  0
BLOCK_RECORD
  5
23
330
1
100
AcDbSymbolTableRecord
100
AcDbBlockTableRecord
  2
*Paper_Space0
340
26
  0
ENDTAB
  0
ENDSEC
  0
SECTION
  2
BLOCKS
  0
BLOCK
  5
20
330
1F
100
AcDbEntity
  8
0
100
AcDbBlockBegin
  2
*Model_Space
 70
     0
 10
0.0
 20
0.0
 30
0.0
  3
*Model_Space
  1

  0
ENDBLK
  5
21
330
1F
100
AcDbEntity
  8
0
100
AcDbBlockEnd
  0
BLOCK
  5
1C
330
1B
100
AcDbEntity
 67
     1
  8
0
100
AcDbBlockBegin
  2
*Paper_Space
 70
     0
 10
0.0
 20
0.0
 30
0.0
  3
*Paper_Space
  1

  0
ENDBLK
  5
1D
330
1B
100
AcDbEntity
 67
     1
  8
0
100
AcDbBlockEnd
  0
BLOCK
  5
24
330
23
100
AcDbEntity
  8
0
100
AcDbBlockBegin
  2
*Paper_Space0
 70
     0
 10
0.0
 20
0.0
 30
0.0
  3
*Paper_Space0
  1

  0
ENDBLK
  5
25
330
23
100
AcDbEntity
  8
0
100
AcDbBlockEnd
  0
ENDSEC
  0
SECTION
  2
ENTITIES
  0
LINE
  5
47
330
1F
100
AcDbEntity
  8
0
  6
Continuous
 62
     7
370
    15
100
AcDbLine
 10
135.5048009004
 20
62.1807248171
 30
0.0
 11
135.7248016442
 21
62.0407254275
 31
0.0
  0
LINE
  5
48
330
1F
100
AcDbEntity
  8
0
  6
Continuous
 62
     7
370
    15
100
AcDbLine
 10
142.7943655099
 20
62.0407254275
 30
0.0
 11
143.0143662537
 21
62.1807248171
 31
0.0
  0
LINE
  5
49
330
1F
100
AcDbEntity
  8
0
  6
Continuous
 62
     7
370
    15
100
AcDbLine
 10
143.0143662537
 20
62.1807248171
 30
0.0
 11
143.0143662537
 21
62.3807222422
 31
0.0
  0
LINE
  5
4A
330
1F
100
AcDbEntity
  8
0
  6
Continuous
 62
     7
370
    15
100
AcDbLine
 10
135.5048009004
 20
62.3807222422
 30
0.0
 11
135.5048009004
 21
62.1807248171
 31
0.0
  0
LINE
  5
4B
330
1F
100
AcDbEntity
  8
0
  6
Continuous
 62
     7
370
    15
100
AcDbLine
 10
135.5048009004
 20
61.7007226523
 30
0.0
 11
135.7248016442
 21
61.5607232626
 31
0.0
  0
LINE
  5
4C
330
1F
100
AcDbEntity
  8
0
  6
Continuous
 62
     7
370
    15
100
AcDbLine
 10
142.7943655099
 20
61.5607232626
 30
0.0
 11
143.0143662537
 21
61.7007226523
 31
0.0
  0
LINE
  5
4D
330
1F
100
AcDbEntity
  8
0
  6
Continuous
 62
     7
370
    15
100
AcDbLine
 10
143.0143662537
 20
61.7007226523
 30
0.0
 11
143.0143662537
 21
61.9007260378
 31
0.0
  0
LINE
  5
4E
330
1F
100
AcDbEntity
  8
0
  6
Continuous
 62
     7
370
    15
100
AcDbLine
 10
135.5048009004
 20
61.9007260378
 30
0.0
 11
135.5048009004
 21
61.7007226523
 31
0.0
  0
LINE
  5
4F
330
1F
100
AcDbEntity
  8
0
  6
Continuous
 62
     7
370
    15
100
AcDbLine
 10
143.0143662537
 20
61.420723873
 30
0.0
 11
142.7943655099
 21
61.5607232626
 31
0.0
  0
LINE
  5
50
330
1F
100
AcDbEntity
  8
0
  6
Continuous
 62
     7
370
    15
100
AcDbLine
 10
135.7248016442
 20
61.5607232626
 30
0.0
 11
135.5048009004
 21
61.420723873
 31
0.0
  0
LINE
  5
51
330
1F
100
AcDbEntity
  8
0
  6
Continuous
 62
     7
370
    15
100
AcDbLine
 10
143.0143662537
 20
61.9007260378
 30
0.0
 11
142.7943655099
 21
62.0407254275
 31
0.0
  0
LINE
  5
52
330
1F
100
AcDbEntity
  8
0
  6
Continuous
 62
     7
370
    15
100
AcDbLine
 10
135.7248016442
 20
62.0407254275
 30
0.0
 11
135.5048009004
 21
61.9007260378
 31
0.0
  0
LINE
  5
53
330
1F
100
AcDbEntity
  8
0
  6
Continuous
 62
     7
370
    15
100
AcDbLine
 10
143.0143662537
 20
61.4007265146
 30
0.0
 11
143.0143662537
 21
61.420723873
 31
0.0
  0
LINE
  5
54
330
1F
100
AcDbEntity
  8
0
  6
Continuous
 62
     7
370
    15
100
AcDbLine
 10
135.5048009004
 20
61.420723873
 30
0.0
 11
135.5048009004
 21
61.4007265146
 31
0.0
  0
LINE
  5
55
330
1F
100
AcDbEntity
  8
0
  6
Continuous
 62
     7
370
    15
100
AcDbLine
 10
135.5048009004
 20
62.6607269819
 30
0.0
 11
135.7248016442
 21
62.5207216318
 31
0.0
  0
LINE
  5
56
330
1F
100
AcDbEntity
  8
0
  6
Continuous
 62
     7
370
    15
100
AcDbLine
 10
142.7943655099
 20
62.5207216318
 30
0.0
 11
143.0143662537
 21
62.6607269819
 31
0.0
  0
LINE
  5
57
330
1F
100
AcDbEntity
  8
0
  6
Continuous
 62
     7
370
    15
100
AcDbLine
 10
143.0143662537
 20
62.3807222422
 30
0.0
 11
142.7943655099
 21
62.5207216318
 31
0.0
  0
LINE
  5
58
330
1F
100
AcDbEntity
  8
0
  6
Continuous
 62
     7
370
    15
100
AcDbLine
 10
135.7248016442
 20
62.5207216318
 30
0.0
 11
135.5048009004
 21
62.3807222422
 31
0.0
  0
LINE
  5
59
330
1F
100
AcDbEntity
  8
0
  6
Continuous
 62
     7
370
    15
100
AcDbLine
 10
143.0143662537
 20
62.860724407
 30
0.0
 11
142.7943655099
 21
63.0007237967
 31
0.0
  0
LINE
  5
5A
330
1F
100
AcDbEntity
  8
0
  6
Continuous
 62
     7
370
    15
100
AcDbLine
 10
135.7248016442
 20
63.0007237967
 30
0.0
 11
135.5048009004
 21
62.860724407
 31
0.0
  0
LINE
  5
5B
330
1F
100
AcDbEntity
  8
0
  6
Continuous
 62
     7
370
    15
100
AcDbLine
 10
143.0143662537
 20
62.6607269819
 30
0.0
 11
143.0143662537
 21
62.860724407
 31
0.0
  0
LINE
  5
5C
330
1F
100
AcDbEntity
  8
0
  6
Continuous
 62
     7
370
    15
100
AcDbLine
 10
135.5048009004
 20
62.860724407
 30
0.0
 11
135.5048009004
 21
62.6607269819
 31
0.0
  0
LINE
  5
5D
330
1F
100
AcDbEntity
  8
0
  6
Continuous
 62
     7
370
    15
100
AcDbLine
 10
135.5048009004
 20
63.1407231863
 30
0.0
 11
135.7248016442
 21
63.0007237967
 31
0.0
  0
LINE
  5
5E
330
1F
100
AcDbEntity
  8
0
  6
Continuous
 62
     7
370
    15
100
AcDbLine
 10
142.7943655099
 20
63.0007237967
 30
0.0
 11
143.0143662537
 21
63.1407231863
 31
0.0
  0
LINE
  5
5F
330
1F
100
AcDbEntity
  8
0
  6
Continuous
 62
     7
370
    15
100
AcDbLine
 10
143.0143662537
 20
63.3407265719
 30
0.0
 11
142.8257950391
 21
63.4607226427
 31
0.0
  0
LINE
  5
60
330
1F
100
AcDbEntity
  8
0
  6
Continuous
 62
     7
370
    15
100
AcDbLine
 10
135.693372115
 20
63.4607226427
 30
0.0
 11
135.5048009004
 21
63.3407265719
 31
0.0
  0
LINE
  5
61
330
1F
100
AcDbEntity
  8
0
  6
Continuous
 62
     7
370
    15
100
AcDbLine
 10
143.0143662537
 20
63.1407231863
 30
0.0
 11
143.0143662537
 21
63.3407265719
 31
0.0
  0
LINE
  5
62
330
1F
100
AcDbEntity
  8
0
  6
Continuous
 62
     7
370
    15
100
AcDbLine
 10
135.5048009004
 20
63.3407265719
 30
0.0
 11
135.5048009004
 21
63.1407231863
 31
0.0
  0
ARC
  5
63
330
1F
100
AcDbEntity
  8
0
  6
Continuous
 62
     7
370
    15
100
AcDbCircle
 10
134.3595853682
 20
66.8607244305
 30
0.0
 40
0.4000000000000057
100
AcDbArc
 50
0.0
 51
90.0
  0
ARC
  5
64
330
1F
100
AcDbEntity
  8
0
  6
Continuous
 62
     7
370
    15
100
AcDbCircle
 10
144.1595853682
 20
66.8607244305
 30
0.0
 40
0.4000000000000057
100
AcDbArc
 50
90.0
 51
180.0
  0
LINE
  5
65
330
1F
100
AcDbEntity
  8
0
  6
Continuous
 62
     7
370
    15
100
AcDbLine
 10
143.759585246
 20
65.7531888064
 30
0.0
 11
143.759585246
 21
66.8607265528
 31
0.0
  0
LINE
  5
66
330
1F
100
AcDbEntity
  8
0
  6
Continuous
 62
     7
370
    15
100
AcDbLine
 10
143.759585246
 20
63.4607226427
 30
0.0
 11
143.759585246
 21
64.5682603892
 31
0.0
  0
LINE
  5
67
330
1F
100
AcDbEntity
  8
0
  6
Continuous
 62
     7
370
    15
100
AcDbLine
 10
134.7595878686
 20
66.8607265528
 30
0.0
 11
134.7595878686
 21
63.4607226427
 31
0.0
  0
ARC
  5
68
330
1F
100
AcDbEntity
  8
0
  6
Continuous
 62
     7
370
    15
100
AcDbCircle
 10
143.9500643359
 20
59.7007244305
 30
0.0
 40
1.200000000000031
100
AcDbArc
 50
23.9758866994
 51
90.0
  0
LINE
  5
69
330
1F
100
AcDbEntity
  8
0
  6
Continuous
 62
     7
370
    15
100
AcDbLine
 10
143.9500638093
 20
60.9007269915
 30
0.0
 11
142.1353109921
 21
60.9007269915
 31
0.0
  0
ARC
  5
6A
330
1F
100
AcDbEntity
  8
0
  6
Continuous
 62
     7
370
    15
100
AcDbCircle
 10
134.5691064004
 20
59.7007244305
 30
0.0
 40
1.200000000000045
100
AcDbArc
 50
90.0
 51
156.0241133006
  0
LINE
  5
6B
330
1F
100
AcDbEntity
  8
0
  6
Continuous
 62
     7
370
    15
100
AcDbLine
 10
136.3812573995
 20
60.9007269915
 30
0.0
 11
134.5691093053
 21
60.9007269915
 31
0.0
  0
ARC
  5
6C
330
1F
100
AcDbEntity
  8
0
  6
Continuous
 62
     7
370
    15
100
AcDbCircle
 10
138.4940461959
 20
57.9552075523
 30
0.0
 40
5.495576977535648
100
AcDbArc
 50
156.0241133006
 51
170.8429095805
  0
ARC
  5
6D
330
1F
100
AcDbEntity
  8
0
  6
Continuous
 62
     7
370
    15
100
AcDbCircle
 10
140.0251245405
 20
57.9552075523
 30
0.0
 40
5.495576977535648
100
AcDbArc
 50
9.1570904195
 51
23.9758866994
  0
SPLINE
  5
6E
330
1F
100
AcDbEntity
  8
0
  6
Continuous
 62
     7
370
    15
100
AcDbSpline
210
0.0
220
0.0
230
1.0
 70
     8
 71
     3
 72
    11
 73
     7
 74
     0
 42
0.00000001
 43
0.00000001
 12
1.0
 22
0.0
 32
0.0
 13
1.0
 23
0.0
 33
0.0
 40
0.0
 40
0.0
 40
0.0
 40
0.0
 40
0.2518680041407196
 40
0.5102112478565204
 40
0.7629180547802338
 40
1.0
 40
1.0
 40
1.0
 40
1.0
 10
137.2859903420313
 20
60.44946618634614
 30
0.0
 10
137.2281700747286
 20
60.51824475404288
 30
0.0
 10
137.1110430468927
 20
60.65757010809109
 30
0.0
 10
136.8808933189586
 20
60.8003133399237
 30
0.0
 10
136.6299802552916
 20
60.88677404903636
 30
0.0
 10
136.4559365855891
 20
60.89615590670206
 30
0.0
 10
136.3716908539637
 20
60.90069718915372
 30
0.0
  0
SPLINE
  5
6F
330
1F
100
AcDbEntity
  8
0
  6
Continuous
 62
     7
370
    15
100
AcDbSpline
210
0.0
220
0.0
230
1.0
 70
     8
 71
     3
 72
    11
 73
     7
 74
     0
 42
0.00000001
 43
0.00000001
 12
1.0
 22
0.0
 32
0.0
 13
1.0
 23
0.0
 33
0.0
 40
0.0
 40
0.0
 40
0.0
 40
0.0
 40
0.2358975958767707
 40
0.4882817056819387
 40
0.7469290741556807
 40
1.0
 40
1.0
 40
1.0
 40
1.0
 10
142.1462901676997
 20
60.90069718915375
 30
0.0
 10
142.0625089049232
 20
60.8961901015029
 30
0.0
 10
141.8890910379856
 20
60.88686093289636
 30
0.0
 10
141.6389492466758
 20
60.80045698182202
 30
0.0
 10
141.4085156282984
 20
60.65798744847564
 30
0.0
 10
141.2912009126518
 20
60.51846646442816
 30
0.0
 10
141.2331827725276
 20
60.44946618634614
 30
0.0
  0
SPLINE
  5
70
330
1F
100
AcDbEntity
  8
0
  6
Continuous
 62
     7
370
    15
100
AcDbSpline
210
0.0
220
0.0
230
1.0
 70
     8
 71
     3
 72
     9
 73
     5
 74
     0
 42
0.00000001
 43
0.00000001
 12
1.0
 22
0.0
 32
0.0
 13
1.0
 23
0.0
 33
0.0
 40
0.0
 40
0.0
 40
0.0
 40
0.0
 40
0.5056664711118168
 40
1.0
 40
1.0
 40
1.0
 40
1.0
 10
137.4478825177058
 20
60.14581628400239
 30
0.0
 10
137.4253997082365
 20
60.20046665040202
 30
0.0
 10
137.3809379715905
 20
60.30854256510429
 30
0.0
 10
137.3174075034621
 20
60.40283194338569
 30
0.0
 10
137.2860022629603
 20
60.4494423444882
 30
0.0
  0
SPLINE
  5
71
330
1F
100
AcDbEntity
  8
0
  6
Continuous
 62
     7
370
    15
100
AcDbSpline
210
0.0
220
0.0
230
1.0
 70
     8
 71
     3
 72
     9
 73
     5
 74
     0
 42
0.00000001
 43
0.00000001
 12
1.0
 22
0.0
 32
0.0
 13
1.0
 23
0.0
 33
0.0
 40
0.0
 40
0.0
 40
0.0
 40
0.0
 40
0.4944273674819856
 40
1.0
 40
1.0
 40
1.0
 40
1.0
 10
141.2331648911341
 20
60.4494423444882
 30
0.0
 10
141.2017936809877
 20
60.40280095237688
 30
0.0
 10
141.1383440982792
 20
60.30846678890025
 30
0.0
 10
141.0938309760347
 20
60.20041467390647
 30
0.0
 10
141.07132635964
 20
60.14578648168001
 30
0.0
  0
LINE
  5
72
330
1F
100
AcDbEntity
  8
0
  6
Continuous
 62
     7
370
    15
100
AcDbLine
 10
137.748182639
 20
59.4339639719
 30
0.0
 11
137.4471434201
 21
60.1478607233
 31
0.0
  0
LINE
  5
73
330
1F
100
AcDbEntity
  8
0
  6
Continuous
 62
     7
370
    15
100
AcDbLine
 10
141.072023734
 20
60.1478607233
 30
0.0
 11
140.7709904755
 21
59.4339639719
 31
0.0
  0
SPLINE
  5
74
330
1F
100
AcDbEntity
  8
0
  6
Continuous
 62
     7
370
    15
100
AcDbSpline
210
0.0
220
0.0
230
1.0
 70
     8
 71
     3
 72
    12
 73
     8
 74
     0
 42
0.00000001
 43
0.00000001
 12
1.0
 22
0.0
 32
0.0
 13
1.0
 23
0.0
 33
0.0
 40
0.0
 40
0.0
 40
0.0
 40
0.0
 40
0.1686203432253439
 40
0.2391959268487081
 40
0.3194939833735712
 40
0.5716203626963129
 40
0.9999999999999999
 40
0.9999999999999999
 40
0.9999999999999999
 40
0.9999999999999999
 10
140.7729574288233
 20
59.43833895284089
 30
0.0
 10
140.7707007822585
 20
59.43401209273794
 30
0.0
 10
140.767499622444
 20
59.42787423716916
 30
0.0
 10
140.7566843755464
 20
59.41818247089412
 30
0.0
 10
140.7343074741703
 20
59.40262632865853
 30
0.0
 10
140.6758583729487
 20
59.37835504064034
 30
0.0
 10
140.6198769499258
 20
59.3672521292895
 30
0.0
 10
140.5846365536555
 20
59.36026282864959
 30
0.0
  0
SPLINE
  5
75
330
1F
100
AcDbEntity
  8
0
  6
Continuous
 62
     7
370
    15
100
AcDbSpline
210
0.0
220
0.0
230
1.0
 70
     8
 71
     3
 72
    12
 73
     8
 74
     0
 42
0.00000001
 43
0.00000001
 12
1.0
 22
0.0
 32
0.0
 13
1.0
 23
0.0
 33
0.0
 40
0.0
 40
0.0
 40
0.0
 40
0.0
 40
0.4274855773294806
 40
0.6833407280786475
 40
0.763290871760339
 40
0.8330376601753768
 40
1.0
 40
1.0
 40
1.0
 40
1.0
 10
137.9376360024317
 20
59.35969062405974
 30
0.0
 10
137.9020800812762
 20
59.36662199169063
 30
0.0
 10
137.845243522715
 20
59.37770186445038
 30
0.0
 10
137.7860592505773
 20
59.40219645798614
 30
0.0
 10
137.7627189760056
 20
59.41779813298045
 30
0.0
 10
137.7519085917136
 20
59.42774002901263
 30
0.0
 10
137.7485703255298
 20
59.43395513762978
 30
0.0
 10
137.7462156857356
 20
59.43833895284089
 30
0.0
  0
SPLINE
  5
76
330
1F
100
AcDbEntity
  8
0
  6
Continuous
 62
     7
370
    15
100
AcDbSpline
210
0.0
220
0.0
230
1.0
 70
     8
 71
     3
 72
    11
 73
     7
 74
     0
 42
0.00000001
 43
0.00000001
 12
1.0
 22
0.0
 32
0.0
 13
1.0
 23
0.0
 33
0.0
 40
0.0
 40
0.0
 40
0.0
 40
0.0
 40
0.2362795911683026
 40
0.4994284144658303
 40
0.7629756902155427
 40
1.0
 40
1.0
 40
1.0
 40
1.0
 10
140.597761496435
 20
59.36283178883942
 30
0.0
 10
140.3921951717172
 20
59.3336958365073
 30
0.0
 10
139.9576859400323
 20
59.27211065090057
 30
0.0
 10
139.2675620259609
 20
59.2658046704716
 30
0.0
 10
138.5767289149523
 20
59.27212655892436
 30
0.0
 10
138.1408991732691
 20
59.33194049303037
 30
0.0
 10
137.9345306004389
 20
59.36026282864959
 30
0.0
  0
ARC
  5
77
330
1F
100
AcDbEntity
  8
0
  6
Continuous
 62
     7
370
    15
100
AcDbCircle
 10
133.7595853682
 20
58.7183846081
 30
0.0
 40
0.700000000000001
100
AcDbArc
 50
170.8429095805
 51
180.0
  0
LINE
  5
78
330
1F
100
AcDbEntity
  8
0
  6
Continuous
 62
     7
370
    15
100
AcDbLine
 10
145.459587201
 20
56.9007248457
 30
0.0
 11
145.459587201
 21
58.7183863695
 31
0.0
  0
LINE
  5
79
330
1F
100
AcDbEntity
  8
0
  6
Continuous
 62
     7
370
    15
100
AcDbLine
 10
133.0595859135
 20
58.7183863695
 30
0.0
 11
133.0595859135
 21
56.9007248457
 31
0.0
  0
ARC
  5
7A
330
1F
100
AcDbEntity
  8
0
  6
Continuous
 62
     7
370
    15
100
AcDbCircle
 10
144.7595853682
 20
58.7183846081
 30
0.0
 40
0.6999999999999602
100
AcDbArc
 50
0.0
 51
9.1570904195
  0
ARC
  5
7B
330
1F
100
AcDbEntity
  8
0
  6
Continuous
 62
     7
370
    15
100
AcDbCircle
 10
139.2595853682
 20
43.9007244305
 30
0.0
 40
10.00000000000001
100
AcDbArc
 50
120.6638297424
 51
59.3361702576
  0
LINE
  5
7C
330
1F
100
AcDbEntity
  8
0
  6
Continuous
 62
     7
370
    15
100
AcDbLine
 10
247.911695465
 20
58.1133753832
 30
0.0
 11
248.3447083081
 21
57.8633756216
 31
0.0
  0
LINE
  5
7D
330
1F
100
AcDbEntity
  8
0
  6
Continuous
 62
     7
370
    15
100
AcDbLine
 10
259.7744651879
 20
57.8633756216
 30
0.0
 11
260.2074750508
 21
58.1133753832
 31
0.0
  0
LINE
  5
7E
330
1F
100
AcDbEntity
  8
0
  6
Continuous
 62
     7
370
    15
100
AcDbLine
 10
260.2074750508
 20
58.1133753832
 30
0.0
 11
259.2139013852
 21
60.1973206576
 31
0.0
  0
LINE
  5
7F
330
1F
100
AcDbEntity
  8
0
  6
Continuous
 62
     7
370
    15
100
AcDbLine
 10
248.9052691306
 20
60.1973206576
 30
0.0
 11
247.911695465
 21
58.1133753832
 31
0.0
  0
ARC
  5
80
330
1F
100
AcDbEntity
  8
0
  6
Continuous
 62
     7
370
    15
100
AcDbCircle
 10
249.6846919631
 20
59.7473215598
 30
0.0
 40
0.8999999999999914
100
AcDbArc
 50
90.0
 51
150.0
  0
ARC
  5
81
330
1F
100
AcDbEntity
  8
0
  6
Continuous
 62
     7
370
    15
100
AcDbCircle
 10
258.4344787733
 20
59.7473215598
 30
0.0
 40
0.8999999999999844
100
AcDbArc
 50
30.0
 51
90.0
  0
LINE
  5
82
330
1F
100
AcDbEntity
  8
0
  6
Continuous
 62
     7
370
    15
100
AcDbLine
 10
258.4344812478
 20
60.6473238047
 30
0.0
 11
249.6846922482
 21
60.6473238047
 31
0.0
  0
ARC
  5
83
330
1F
100
AcDbEntity
  8
0
  6
Continuous
 62
     7
370
    15
100
AcDbCircle
 10
249.1595853682
 20
66.8607244305
 30
0.0
 40
0.3999999999999915
100
AcDbArc
 50
0.0
 51
90.0
  0
ARC
  5
84
330
1F
100
AcDbEntity
  8
0
  6
Continuous
 62
     7
370
    15
100
AcDbCircle
 10
258.9595853682
 20
66.8607244305
 30
0.0
 40
0.3999999999999915
100
AcDbArc
 50
90.0
 51
180.0
  0
LINE
  5
85
330
1F
100
AcDbEntity
  8
0
  6
Continuous
 62
     7
370
    15
100
AcDbLine
 10
258.5595854367
 20
63.4607226427
 30
0.0
 11
258.5595854367
 21
66.8607265528
 31
0.0
  0
LINE
  5
86
330
1F
100
AcDbEntity
  8
0
  6
Continuous
 62
     7
370
    15
100
AcDbLine
 10
249.5595850791
 20
64.5682603892
 30
0.0
 11
249.5595850791
 21
63.4607226427
 31
0.0
  0
LINE
  5
87
330
1F
100
AcDbEntity
  8
0
  6
Continuous
 62
     7
370
    15
100
AcDbLine
 10
249.5595850791
 20
66.8607265528
 30
0.0
 11
249.5595850791
 21
65.7531888064
 31
0.0
  0
LINE
  5
88
330
1F
100
AcDbEntity
  8
0
  6
Continuous
 62
     7
370
    15
100
AcDbLine
 10
250.3048010911
 20
62.8007263716
 30
0.0
 11
250.524801835
 21
62.6607269819
 31
0.0
  0
LINE
  5
89
330
1F
100
AcDbEntity
  8
0
  6
Continuous
 62
     7
370
    15
100
AcDbLine
 10
257.5943657006
 20
62.6607269819
 30
0.0
 11
257.8143664445
 21
62.8007263716
 31
0.0
  0
LINE
  5
8A
330
1F
100
AcDbEntity
  8
0
  6
Continuous
 62
     7
370
    15
100
AcDbLine
 10
257.8143664445
 20
62.8007263716
 30
0.0
 11
257.8143664445
 21
63.0007237967
 31
0.0
  0
LINE
  5
8B
330
1F
100
AcDbEntity
  8
0
  6
Continuous
 62
     7
370
    15
100
AcDbLine
 10
250.3048010911
 20
63.0007237967
 30
0.0
 11
250.3048010911
 21
62.8007263716
 31
0.0
  0
LINE
  5
8C
330
1F
100
AcDbEntity
  8
0
  6
Continuous
 62
     7
370
    15
100
AcDbLine
 10
257.8143664445
 20
62.5007242735
 30
0.0
 11
257.8143664445
 21
62.5207216318
 31
0.0
  0
LINE
  5
8D
330
1F
100
AcDbEntity
  8
0
  6
Continuous
 62
     7
370
    15
100
AcDbLine
 10
250.3048010911
 20
62.5207216318
 30
0.0
 11
250.3048010911
 21
62.5007242735
 31
0.0
  0
LINE
  5
8E
330
1F
100
AcDbEntity
  8
0
  6
Continuous
 62
     7
370
    15
100
AcDbLine
 10
257.8143664445
 20
63.0007237967
 30
0.0
 11
257.5943657006
 21
63.1407231863
 31
0.0
  0
LINE
  5
8F
330
1F
100
AcDbEntity
  8
0
  6
Continuous
 62
     7
370
    15
100
AcDbLine
 10
250.524801835
 20
63.1407231863
 30
0.0
 11
250.3048010911
 21
63.0007237967
 31
0.0
  0
LINE
  5
90
330
1F
100
AcDbEntity
  8
0
  6
Continuous
 62
     7
370
    15
100
AcDbLine
 10
257.8143664445
 20
62.5207216318
 30
0.0
 11
257.5943657006
 21
62.6607269819
 31
0.0
  0
LINE
  5
91
330
1F
100
AcDbEntity
  8
0
  6
Continuous
 62
     7
370
    15
100
AcDbLine
 10
250.524801835
 20
62.6607269819
 30
0.0
 11
250.3048010911
 21
62.5207216318
 31
0.0
  0
LINE
  5
92
330
1F
100
AcDbEntity
  8
0
  6
Continuous
 62
     7
370
    15
100
AcDbLine
 10
257.8143664445
 20
63.280722576
 30
0.0
 11
257.8143664445
 21
63.4607226427
 31
0.0
  0
LINE
  5
93
330
1F
100
AcDbEntity
  8
0
  6
Continuous
 62
     7
370
    15
100
AcDbLine
 10
250.3048010911
 20
63.4607226427
 30
0.0
 11
250.3048010911
 21
63.280722576
 31
0.0
  0
LINE
  5
94
330
1F
100
AcDbEntity
  8
0
  6
Continuous
 62
     7
370
    15
100
AcDbLine
 10
250.3048010911
 20
63.280722576
 30
0.0
 11
250.524801835
 21
63.1407231863
 31
0.0
  0
LINE
  5
95
330
1F
100
AcDbEntity
  8
0
  6
Continuous
 62
     7
370
    15
100
AcDbLine
 10
257.5943657006
 20
63.1407231863
 30
0.0
 11
257.8143664445
 21
63.280722576
 31
0.0
  0
ARC
  5
96
330
1F
100
AcDbEntity
  8
0
  6
Continuous
 62
     7
370
    15
100
AcDbCircle
 10
249.5595853682
 20
57.6360635116
 30
0.0
 40
0.8999999999999926
100
AcDbArc
 50
165.3705108213
 51
180.0
  0
LINE
  5
97
330
1F
100
AcDbEntity
  8
0
  6
Continuous
 62
     7
370
    15
100
AcDbLine
 10
259.4407387818
 20
57.8192920263
 30
0.0
 11
259.4304092969
 21
57.8633756216
 31
0.0
  0
LINE
  5
98
330
1F
100
AcDbEntity
  8
0
  6
Continuous
 62
     7
370
    15
100
AcDbLine
 10
248.6595847453
 20
57.6360613878
 30
0.0
 11
248.6595847453
 21
55.9007257994
 31
0.0
  0
ARC
  5
99
330
1F
100
AcDbEntity
  8
0
  6
Continuous
 62
     7
370
    15
100
AcDbCircle
 10
259.8323597386
 20
57.9007244305
 30
0.0
 40
0.4000000000000128
100
AcDbArc
 50
191.7466976833
 51
270.0
  0
ARC
  5
9A
330
1F
100
AcDbEntity
  8
0
  6
Continuous
 62
     7
370
    15
100
AcDbCircle
 10
260.7195853682
 20
43.9007244305
 30
0.0
 40
9.900334136849843
100
AcDbArc
 50
270.0
 51
50.0
  0
ARC
  5
9B
330
1F
100
AcDbEntity
  8
0
  6
Continuous
 62
     7
370
    15
100
AcDbCircle
 10
260.7195853682
 20
43.9007244305
 30
0.0
 40
9.900334136849851
100
AcDbArc
 50
137.9624456096
 51
270.0
  0
LINE
  5
9C
330
1F
100
AcDbEntity
  8
0
  6
Continuous
 62
     7
370
    15
100
AcDbLine
 10
123.6795850839
 20
173.0607242163
 30
0.0
 11
123.6595877255
 21
173.0607242163
 31
0.0
  0
LINE
  5
9D
330
1F
100
AcDbEntity
  8
0
  6
Continuous
 62
     7
370
    15
100
AcDbLine
 10
119.9595876778
 20
164.7607245322
 30
0.0
 11
119.5595868672
 21
164.3607244666
 31
0.0
  0
LINE
  5
9E
330
1F
100
AcDbEntity
  8
0
  6
Continuous
 62
     7
370
    15
100
AcDbLine
 10
119.5595868672
 20
160.7607246216
 30
0.0
 11
119.9595876778
 21
160.360724556
 31
0.0
  0
LINE
  5
9F
330
1F
100
AcDbEntity
  8
0
  6
Continuous
 62
     7
370
    15
100
AcDbLine
 10
119.9595876778
 20
160.360724556
 30
0.0
 11
120.359582528
 21
160.7607246216
 31
0.0
  0
LINE
  5
A0
330
1F
100
AcDbEntity
  8
0
  6
Continuous
 62
     7
370
    15
100
AcDbLine
 10
120.359582528
 20
164.3607244666
 30
0.0
 11
119.9595876778
 21
164.7607245322
 31
0.0
  0
LINE
  5
A1
330
1F
100
AcDbEntity
  8
0
  6
Continuous
 62
     7
370
    15
100
AcDbLine
 10
119.1595860566
 20
164.7607245322
 30
0.0
 11
118.759585246
 21
164.3607244666
 31
0.0
  0
LINE
  5
A2
330
1F
100
AcDbEntity
  8
0
  6
Continuous
 62
     7
370
    15
100
AcDbLine
 10
118.759585246
 20
160.7607246216
 30
0.0
 11
119.1595860566
 21
160.360724556
 31
0.0
  0
LINE
  5
A3
330
1F
100
AcDbEntity
  8
0
  6
Continuous
 62
     7
370
    15
100
AcDbLine
 10
119.1595860566
 20
160.360724556
 30
0.0
 11
119.5595868672
 21
160.7607246216
 31
0.0
  0
LINE
  5
A4
330
1F
100
AcDbEntity
  8
0
  6
Continuous
 62
     7
370
    15
100
AcDbLine
 10
119.5595868672
 20
164.3607244666
 30
0.0
 11
119.1595860566
 21
164.7607245322
 31
0.0
  0
LINE
  5
A5
330
1F
100
AcDbEntity
  8
0
  6
Continuous
 62
     7
370
    15
100
AcDbLine
 10
118.3595844354
 20
164.7607245322
 30
0.0
 11
117.9595836247
 21
164.3607244666
 31
0.0
  0
LINE
  5
A6
330
1F
100
AcDbEntity
  8
0
  6
Continuous
 62
     7
370
    15
100
AcDbLine
 10
117.9595836247
 20
160.7607246216
 30
0.0
 11
118.3595844354
 21
160.360724556
 31
0.0
  0
LINE
  5
A7
330
1F
100
AcDbEntity
  8
0
  6
Continuous
 62
     7
370
    15
100
AcDbLine
 10
118.3595844354
 20
160.360724556
 30
0.0
 11
118.759585246
 21
160.7607246216
 31
0.0
  0
LINE
  5
A8
330
1F
100
AcDbEntity
  8
0
  6
Continuous
 62
     7
370
    15
100
AcDbLine
 10
118.759585246
 20
164.3607244666
 30
0.0
 11
118.3595844354
 21
164.7607245322
 31
0.0
  0
LINE
  5
A9
330
1F
100
AcDbEntity
  8
0
  6
Continuous
 62
     7
370
    15
100
AcDbLine
 10
117.5595828141
 20
164.7607245322
 30
0.0
 11
117.1595879639
 21
164.3607244666
 31
0.0
  0
LINE
  5
AA
330
1F
100
AcDbEntity
  8
0
  6
Continuous
 62
     7
370
    15
100
AcDbLine
 10
117.1595879639
 20
160.7607246216
 30
0.0
 11
117.5595828141
 21
160.360724556
 31
0.0
  0
LINE
  5
AB
330
1F
100
AcDbEntity
  8
0
  6
Continuous
 62
     7
370
    15
100
AcDbLine
 10
117.5595828141
 20
160.360724556
 30
0.0
 11
117.9595836247
 21
160.7607246216
 31
0.0
  0
LINE
  5
AC
330
1F
100
AcDbEntity
  8
0
  6
Continuous
 62
     7
370
    15
100
AcDbLine
 10
117.9595836247
 20
164.3607244666
 30
0.0
 11
117.5595828141
 21
164.7607245322
 31
0.0
  0
LINE
  5
AD
330
1F
100
AcDbEntity
  8
0
  6
Continuous
 62
     7
370
    15
100
AcDbLine
 10
120.359582528
 20
160.360724556
 30
0.0
 11
123.6395844067
 21
160.360724556
 31
0.0
  0
LINE
  5
AE
330
1F
100
AcDbEntity
  8
0
  6
Continuous
 62
     7
370
    15
100
AcDbLine
 10
123.6375876511
 20
164.7607245322
 30
0.0
 11
120.359582528
 21
164.7607245322
 31
0.0
  0
LINE
  5
AF
330
1F
100
AcDbEntity
  8
0
  6
Continuous
 62
     7
370
    15
100
AcDbLine
 10
277.7195879067
 20
161.4678756173
 30
0.0
 11
277.7795859422
 21
161.6048955198
 31
0.0
  0
LINE
  5
B0
330
1F
100
AcDbEntity
  8
0
  6
Continuous
 62
     7
370
    15
100
AcDbLine
 10
277.7795859422
 20
166.1765531476
 30
0.0
 11
277.7195879067
 21
166.3135730501
 31
0.0
  0
ARC
  5
B1
330
1F
100
AcDbEntity
  8
0
  6
Continuous
 62
     7
370
    15
100
AcDbCircle
 10
280.5795853682
 20
162.9107244305
 30
0.0
 40
0.0999999999999659
100
AcDbArc
 50
270.0
 51
0.0
  0
ARC
  5
B2
330
1F
100
AcDbEntity
  8
0
  6
Continuous
 62
     7
370
    15
100
AcDbCircle
 10
280.5795853682
 20
164.8707244305
 30
0.0
 40
0.0999999999999659
100
AcDbArc
 50
0.0
 51
90.0
  0
LINE
  5
B3
330
1F
100
AcDbEntity
  8
0
  6
Continuous
 62
     7
370
    15
100
AcDbLine
 10
277.7795859422
 20
162.8107243057
 30
0.0
 11
280.5795856561
 21
162.8107243057
 31
0.0
  0
LINE
  5
B4
330
1F
100
AcDbEntity
  8
0
  6
Continuous
 62
     7
370
    15
100
AcDbLine
 10
280.5795856561
 20
164.9707243617
 30
0.0
 11
277.7795859422
 21
164.9707243617
 31
0.0
  0
LINE
  5
B5
330
1F
100
AcDbEntity
  8
0
  6
Continuous
 62
     7
370
    15
100
AcDbLine
 10
277.7195879067
 20
157.3907243859
 30
0.0
 11
279.7195859994
 21
158.1907243307
 31
0.0
  0
LINE
  5
B6
330
1F
100
AcDbEntity
  8
0
  6
Continuous
 62
     7
370
    15
100
AcDbLine
 10
278.1838544453
 20
170.2050165113
 30
0.0
 11
277.7195879067
 21
170.3907237228
 31
0.0
  0
LINE
  5
B7
330
1F
100
AcDbEntity
  8
0
  6
Continuous
 62
     7
370
    15
100
AcDbLine
 10
279.7195859994
 20
169.5907250817
 30
0.0
 11
279.1122981156
 21
169.8336378511
 31
0.0
  0
LINE
  5
B8
330
1F
100
AcDbEntity
  8
0
  6
Continuous
 62
     7
370
    15
100
AcDbLine
 10
279.7195859994
 20
158.1907243307
 30
0.0
 11
283.6016603555
 21
159.9376571204
 31
0.0
  0
LINE
  5
B9
330
1F
100
AcDbEntity
  8
0
  6
Continuous
 62
     7
370
    15
100
AcDbLine
 10
279.8107751454
 20
169.5496872838
 30
0.0
 11
279.7195859994
 21
169.5907250817
 31
0.0
  0
ARC
  5
BA
330
1F
100
AcDbEntity
  8
0
  6
Continuous
 62
     7
370
    15
100
AcDbCircle
 10
283.5195853682
 20
160.1200415525
 30
0.0
 40
0.2000000000000071
100
AcDbArc
 50
294.227745318
 51
0.0
  0
LINE
  5
BB
330
1F
100
AcDbEntity
  8
0
  6
Continuous
 62
     7
370
    15
100
AcDbLine
 10
279.1135676946
 20
169.8352844294
 30
0.0
 11
278.184080943
 21
170.2070818122
 31
0.0
  0
LINE
  5
BC
330
1F
100
AcDbEntity
  8
0
  6
Continuous
 62
     7
370
    15
100
AcDbLine
 10
251.559586152
 20
150.6607242699
 30
0.0
 11
251.559586152
 21
76.0607273157
 31
0.0
  0
LINE
  5
BD
330
1F
100
AcDbEntity
  8
0
  6
Continuous
 62
     7
370
    15
100
AcDbLine
 10
251.5767403687
 20
150.6607242699
 30
0.0
 11
251.8595882501
 21
150.6607242699
 31
0.0
  0
LINE
  5
BE
330
1F
100
AcDbEntity
  8
0
  6
Continuous
 62
     7
370
    15
100
AcDbLine
 10
251.8595882501
 20
150.6607242699
 30
0.0
 11
251.8595882501
 21
76.0607273157
 31
0.0
  0
LINE
  5
BF
330
1F
100
AcDbEntity
  8
0
  6
Continuous
 62
     7
370
    15
100
AcDbLine
 10
259.2595883454
 20
150.6607242699
 30
0.0
 11
259.2595883454
 21
76.0607273157
 31
0.0
  0
LINE
  5
C0
330
1F
100
AcDbEntity
  8
0
  6
Continuous
 62
     7
370
    15
100
AcDbLine
 10
259.2595883454
 20
150.6607242699
 30
0.0
 11
259.5424302663
 21
150.6607242699
 31
0.0
  0
LINE
  5
C1
330
1F
100
AcDbEntity
  8
0
  6
Continuous
 62
     7
370
    15
100
AcDbLine
 10
259.559584483
 20
150.6607242699
 30
0.0
 11
259.559584483
 21
76.0607273157
 31
0.0
  0
LINE
  5
C2
330
1F
100
AcDbEntity
  8
0
  6
Continuous
 62
     7
370
    15
100
AcDbLine
 10
251.8595882501
 20
150.6607242699
 30
0.0
 11
259.2595883454
 21
150.6607242699
 31
0.0
  0
LINE
  5
C3
330
1F
100
AcDbEntity
  8
0
  6
Continuous
 62
     7
370
    15
100
AcDbLine
 10
134.0595849599
 20
150.6607242699
 30
0.0
 11
134.0595849599
 21
76.0607273157
 31
0.0
  0
LINE
  5
C4
330
1F
100
AcDbEntity
  8
0
  6
Continuous
 62
     7
370
    15
100
AcDbLine
 10
134.0595849599
 20
150.6607242699
 30
0.0
 11
141.4595850552
 21
150.6607242699
 31
0.0
  0
LINE
  5
C5
330
1F
100
AcDbEntity
  8
0
  6
Continuous
 62
     7
370
    15
100
AcDbLine
 10
141.4595850552
 20
150.6607242699
 30
0.0
 11
141.4595850552
 21
76.0607273157
 31
0.0
  0
LINE
  5
C6
330
1F
100
AcDbEntity
  8
0
  6
Continuous
 62
     7
370
    15
100
AcDbLine
 10
141.4595850552
 20
150.6607242699
 30
0.0
 11
141.7424269761
 21
150.6607242699
 31
0.0
  0
LINE
  5
C7
330
1F
100
AcDbEntity
  8
0
  6
Continuous
 62
     7
370
    15
100
AcDbLine
 10
141.7595871533
 20
150.6607242699
 30
0.0
 11
141.7595871533
 21
76.0607273157
 31
0.0
  0
LINE
  5
C8
330
1F
100
AcDbEntity
  8
0
  6
Continuous
 62
     7
370
    15
100
AcDbLine
 10
133.7595828618
 20
150.6607242699
 30
0.0
 11
133.7595828618
 21
76.0607273157
 31
0.0
  0
LINE
  5
C9
330
1F
100
AcDbEntity
  8
0
  6
Continuous
 62
     7
370
    15
100
AcDbLine
 10
133.776743039
 20
150.6607242699
 30
0.0
 11
134.0595849599
 21
150.6607242699
 31
0.0
  0
LINE
  5
CA
330
1F
100
AcDbEntity
  8
0
  6
Continuous
 62
     7
370
    15
100
AcDbLine
 10
244.0595843638
 20
150.6607242699
 30
0.0
 11
247.1995868529
 21
150.6607242699
 31
0.0
  0
LINE
  5
CB
330
1F
100
AcDbEntity
  8
0
  6
Continuous
 62
     7
370
    15
100
AcDbLine
 10
243.5595848407
 20
150.6607242699
 30
0.0
 11
243.5595848407
 21
151.0007244374
 31
0.0
  0
LINE
  5
CC
330
1F
100
AcDbEntity
  8
0
  6
Continuous
 62
     7
370
    15
100
AcDbLine
 10
243.5595848407
 20
150.6607242699
 30
0.0
 11
244.0595843638
 21
150.6607242699
 31
0.0
  0
LINE
  5
CD
330
1F
100
AcDbEntity
  8
0
  6
Continuous
 62
     7
370
    15
100
AcDbLine
 10
248.3995863046
 20
150.6607242699
 30
0.0
 11
251.5767403687
 21
150.6607242699
 31
0.0
  0
LINE
  5
CE
330
1F
100
AcDbEntity
  8
0
  6
Continuous
 62
     7
370
    15
100
AcDbLine
 10
259.5424302663
 20
150.6607242699
 30
0.0
 11
262.7195843304
 21
150.6607242699
 31
0.0
  0
LINE
  5
CF
330
1F
100
AcDbEntity
  8
0
  6
Continuous
 62
     7
370
    15
100
AcDbLine
 10
247.6995863761
 20
150.6607242699
 30
0.0
 11
247.6995863761
 21
151.0007244374
 31
0.0
  0
LINE
  5
D0
330
1F
100
AcDbEntity
  8
0
  6
Continuous
 62
     7
370
    15
100
AcDbLine
 10
247.1995868529
 20
150.6607242699
 30
0.0
 11
247.6995863761
 21
150.6607242699
 31
0.0
  0
LINE
  5
D1
330
1F
100
AcDbEntity
  8
0
  6
Continuous
 62
     7
370
    15
100
AcDbLine
 10
247.8995867814
 20
150.6607242699
 30
0.0
 11
247.8995867814
 21
151.0007244374
 31
0.0
  0
LINE
  5
D2
330
1F
100
AcDbEntity
  8
0
  6
Continuous
 62
     7
370
    15
100
AcDbLine
 10
247.8995867814
 20
150.6607242699
 30
0.0
 11
248.3995863046
 21
150.6607242699
 31
0.0
  0
LINE
  5
D3
330
1F
100
AcDbEntity
  8
0
  6
Continuous
 62
     7
370
    15
100
AcDbLine
 10
263.9195867623
 20
150.6607242699
 30
0.0
 11
267.0595832909
 21
150.6607242699
 31
0.0
  0
LINE
  5
D4
330
1F
100
AcDbEntity
  8
0
  6
Continuous
 62
     7
370
    15
100
AcDbLine
 10
263.2195838536
 20
150.6607242699
 30
0.0
 11
263.2195838536
 21
151.0007244374
 31
0.0
  0
LINE
  5
D5
330
1F
100
AcDbEntity
  8
0
  6
Continuous
 62
     7
370
    15
100
AcDbLine
 10
262.7195843304
 20
150.6607242699
 30
0.0
 11
263.2195838536
 21
150.6607242699
 31
0.0
  0
LINE
  5
D6
330
1F
100
AcDbEntity
  8
0
  6
Continuous
 62
     7
370
    15
100
AcDbLine
 10
263.4195872392
 20
150.6607242699
 30
0.0
 11
263.4195872392
 21
151.0007244374
 31
0.0
  0
LINE
  5
D7
330
1F
100
AcDbEntity
  8
0
  6
Continuous
 62
     7
370
    15
100
AcDbLine
 10
263.4195872392
 20
150.6607242699
 30
0.0
 11
263.9195867623
 21
150.6607242699
 31
0.0
  0
LINE
  5
D8
330
1F
100
AcDbEntity
  8
0
  6
Continuous
 62
     7
370
    15
100
AcDbLine
 10
267.5595828141
 20
150.6607242699
 30
0.0
 11
267.5595828141
 21
151.0007244374
 31
0.0
  0
LINE
  5
D9
330
1F
100
AcDbEntity
  8
0
  6
Continuous
 62
     7
370
    15
100
AcDbLine
 10
267.0595832909
 20
150.6607242699
 30
0.0
 11
267.5595828141
 21
150.6607242699
 31
0.0
  0
LINE
  5
DA
330
1F
100
AcDbEntity
  8
0
  6
Continuous
 62
     7
370
    15
100
AcDbLine
 10
247.6995863761
 20
150.6607242699
 30
0.0
 11
247.8995867814
 21
150.6607242699
 31
0.0
  0
LINE
  5
DB
330
1F
100
AcDbEntity
  8
0
  6
Continuous
 62
     7
370
    15
100
AcDbLine
 10
263.2195838536
 20
150.6607242699
 30
0.0
 11
263.4195872392
 21
150.6607242699
 31
0.0
  0
LINE
  5
DC
330
1F
100
AcDbEntity
  8
0
  6
Continuous
 62
     7
370
    15
100
AcDbLine
 10
125.7595845307
 20
150.6607242699
 30
0.0
 11
125.7595845307
 21
151.0007244374
 31
0.0
  0
LINE
  5
DD
330
1F
100
AcDbEntity
  8
0
  6
Continuous
 62
     7
370
    15
100
AcDbLine
 10
125.7595845307
 20
150.6607242699
 30
0.0
 11
126.2595840539
 21
150.6607242699
 31
0.0
  0
LINE
  5
DE
330
1F
100
AcDbEntity
  8
0
  6
Continuous
 62
     7
370
    15
100
AcDbLine
 10
126.2595840539
 20
150.6607242699
 30
0.0
 11
129.399586543
 21
150.6607242699
 31
0.0
  0
LINE
  5
DF
330
1F
100
AcDbEntity
  8
0
  6
Continuous
 62
     7
370
    15
100
AcDbLine
 10
130.5995830144
 20
150.6607242699
 30
0.0
 11
133.776743039
 21
150.6607242699
 31
0.0
  0
LINE
  5
E0
330
1F
100
AcDbEntity
  8
0
  6
Continuous
 62
     7
370
    15
100
AcDbLine
 10
141.7424269761
 20
150.6607242699
 30
0.0
 11
144.9195870007
 21
150.6607242699
 31
0.0
  0
LINE
  5
E1
330
1F
100
AcDbEntity
  8
0
  6
Continuous
 62
     7
370
    15
100
AcDbLine
 10
129.8995860661
 20
150.6607242699
 30
0.0
 11
129.8995860661
 21
151.0007244374
 31
0.0
  0
LINE
  5
E2
330
1F
100
AcDbEntity
  8
0
  6
Continuous
 62
     7
370
    15
100
AcDbLine
 10
129.399586543
 20
150.6607242699
 30
0.0
 11
129.8995860661
 21
150.6607242699
 31
0.0
  0
LINE
  5
E3
330
1F
100
AcDbEntity
  8
0
  6
Continuous
 62
     7
370
    15
100
AcDbLine
 10
130.0995834912
 20
150.6607242699
 30
0.0
 11
130.0995834912
 21
151.0007244374
 31
0.0
  0
LINE
  5
E4
330
1F
100
AcDbEntity
  8
0
  6
Continuous
 62
     7
370
    15
100
AcDbLine
 10
130.0995834912
 20
150.6607242699
 30
0.0
 11
130.5995830144
 21
150.6607242699
 31
0.0
  0
LINE
  5
E5
330
1F
100
AcDbEntity
  8
0
  6
Continuous
 62
     7
370
    15
100
AcDbLine
 10
145.4195865239
 20
150.6607242699
 30
0.0
 11
145.4195865239
 21
151.0007244374
 31
0.0
  0
LINE
  5
E6
330
1F
100
AcDbEntity
  8
0
  6
Continuous
 62
     7
370
    15
100
AcDbLine
 10
144.9195870007
 20
150.6607242699
 30
0.0
 11
145.4195865239
 21
150.6607242699
 31
0.0
  0
LINE
  5
E7
330
1F
100
AcDbEntity
  8
0
  6
Continuous
 62
     7
370
    15
100
AcDbLine
 10
145.619583949
 20
150.6607242699
 30
0.0
 11
145.619583949
 21
151.0007244374
 31
0.0
  0
LINE
  5
E8
330
1F
100
AcDbEntity
  8
0
  6
Continuous
 62
     7
370
    15
100
AcDbLine
 10
145.619583949
 20
150.6607242699
 30
0.0
 11
146.1195834721
 21
150.6607242699
 31
0.0
  0
LINE
  5
E9
330
1F
100
AcDbEntity
  8
0
  6
Continuous
 62
     7
370
    15
100
AcDbLine
 10
146.1195834721
 20
150.6607242699
 30
0.0
 11
149.2595859612
 21
150.6607242699
 31
0.0
  0
LINE
  5
EA
330
1F
100
AcDbEntity
  8
0
  6
Continuous
 62
     7
370
    15
100
AcDbLine
 10
149.7595854844
 20
150.6607242699
 30
0.0
 11
149.7595854844
 21
151.0007244374
 31
0.0
  0
LINE
  5
EB
330
1F
100
AcDbEntity
  8
0
  6
Continuous
 62
     7
370
    15
100
AcDbLine
 10
149.2595859612
 20
150.6607242699
 30
0.0
 11
149.7595854844
 21
150.6607242699
 31
0.0
  0
LINE
  5
EC
330
1F
100
AcDbEntity
  8
0
  6
Continuous
 62
     7
370
    15
100
AcDbLine
 10
129.8995860661
 20
150.6607242699
 30
0.0
 11
130.0995834912
 21
150.6607242699
 31
0.0
  0
LINE
  5
ED
330
1F
100
AcDbEntity
  8
0
  6
Continuous
 62
     7
370
    15
100
AcDbLine
 10
145.4195865239
 20
150.6607242699
 30
0.0
 11
145.619583949
 21
150.6607242699
 31
0.0
  0
LINE
  5
EE
330
1F
100
AcDbEntity
  8
0
  6
Continuous
 62
     7
370
    15
100
AcDbLine
 10
123.720998391
 20
75.6507248457
 30
0.0
 11
275.3981717671
 21
75.6507248457
 31
0.0
  0
LINE
  5
EF
330
1F
100
AcDbEntity
  8
0
  6
Continuous
 62
     7
370
    15
100
AcDbLine
 10
275.3981717671
 20
75.6507248457
 30
0.0
 11
275.3981717671
 21
68.8607246454
 31
0.0
  0
LINE
  5
F0
330
1F
100
AcDbEntity
  8
0
  6
Continuous
 62
     7
370
    15
100
AcDbLine
 10
123.720998391
 20
75.6507248457
 30
0.0
 11
123.720998391
 21
68.8607246454
 31
0.0
  0
LINE
  5
F1
330
1F
100
AcDbEntity
  8
0
  6
Continuous
 62
     7
370
    15
100
AcDbLine
 10
123.720998391
 20
68.8607246454
 30
0.0
 11
275.3981717671
 21
68.8607246454
 31
0.0
  0
SPLINE
  5
F2
330
1F
100
AcDbEntity
  8
0
  6
Continuous
 62
     7
370
    15
100
AcDbSpline
210
0.0
220
0.0
230
1.0
 70
     8
 71
     3
 72
    12
 73
     8
 74
     0
 42
0.00000001
 43
0.00000001
 12
1.0
 22
0.0
 32
0.0
 13
1.0
 23
0.0
 33
0.0
 40
0.0
 40
0.0
 40
0.0
 40
0.0
 40
0.2301704834906315
 40
0.4604248923665257
 40
0.6906747368706312
 40
0.920928614427255
 40
1.0
 40
1.0
 40
1.0
 40
1.0
 10
275.1495846356257
 20
76.06072731572539
 30
0.0
 10
275.1686637943607
 20
76.05551232753525
 30
0.0
 10
275.2068290685252
 20
76.04508044965188
 30
0.0
 10
275.2640852669807
 20
75.96412983264798
 30
0.0
 10
275.3213096938591
 20
75.84652960268414
 30
0.0
 10
275.3661318161047
 20
75.73372419966911
 30
0.0
 10
275.3916489422525
 20
75.66762219521284
 30
0.0
 10
275.3981717671259
 20
75.65072484570891
 30
0.0
  0
SPLINE
  5
F3
330
1F
100
AcDbEntity
  8
0
  6
Continuous
 62
     7
370
    15
100
AcDbSpline
210
0.0
220
0.0
230
1.0
 70
     8
 71
     3
 72
    12
 73
     8
 74
     0
 42
0.00000001
 43
0.00000001
 12
1.0
 22
0.0
 32
0.0
 13
1.0
 23
0.0
 33
0.0
 40
0.0
 40
0.0
 40
0.0
 40
0.0
 40
0.2301700724315068
 40
0.4604233573321157
 40
0.6906791455813062
 40
0.920928755640038
 40
0.9999999999999999
 40
0.9999999999999999
 40
0.9999999999999999
 40
0.9999999999999999
 10
123.7209983910426
 20
75.65072484570892
 30
0.0
 10
123.7400774726816
 20
75.70014021231147
 30
0.0
 10
123.7782425335441
 20
75.79898881045713
 30
0.0
 10
123.8355003566956
 20
75.92821694508413
 30
0.0
 10
123.8927215975681
 20
76.02100430183945
 30
0.0
 10
123.9375460309375
 20
76.05756733643888
 30
0.0
 10
123.9630627264358
 20
76.06008398777121
 30
0.0
 10
123.9695855225428
 20
76.06072731572542
 30
0.0
  0
LINE
  5
F4
330
1F
100
AcDbEntity
  8
0
  6
Continuous
 62
     7
370
    15
100
AcDbLine
 10
123.9695855225
 20
76.0607273157
 30
0.0
 11
275.1495846356
 21
76.0607273157
 31
0.0
  0
SPLINE
  5
F5
330
1F
100
AcDbEntity
  8
0
  6
Continuous
 62
     7
370
    15
100
AcDbSpline
210
0.0
220
0.0
230
1.0
 70
     8
 71
     3
 72
    12
 73
     8
 74
     0
 42
0.00000001
 43
0.00000001
 12
1.0
 22
0.0
 32
0.0
 13
1.0
 23
0.0
 33
0.0
 40
0.0
 40
0.0
 40
0.0
 40
0.0
 40
0.2301684789077983
 40
0.4604259137377877
 40
0.6906753223978913
 40
0.9209287641028789
 40
1.0
 40
1.0
 40
1.0
 40
1.0
 10
123.9695855225428
 20
76.06072731572542
 30
0.0
 10
123.9201697594006
 20
76.05551211638581
 30
0.0
 10
123.8213191348243
 20
76.0450797021271
 30
0.0
 10
123.6920970094992
 20
75.96413076664022
 30
0.0
 10
123.5993035442096
 20
75.84652950768839
 30
0.0
 10
123.5627432633611
 20
75.73372420649606
 30
0.0
 10
123.5602264212326
 20
75.66762219660271
 30
0.0
 10
123.5595830525263
 20
75.65072484570892
 30
0.0
  0
SPLINE
  5
F6
330
1F
100
AcDbEntity
  8
0
  6
Continuous
 62
     7
370
    15
100
AcDbSpline
210
0.0
220
0.0
230
1.0
 70
     8
 71
     3
 72
    10
 73
     6
 74
     0
 42
0.00000001
 43
0.00000001
 12
1.0
 22
0.0
 32
0.0
 13
1.0
 23
0.0
 33
0.0
 40
0.0
 40
0.0
 40
0.0
 40
0.0
 40
0.0101005052261225
 40
0.5229330553031137
 40
1.0
 40
1.0
 40
1.0
 40
1.0
 10
123.7919815625056
 20
75.82612939435394
 30
0.0
 10
123.7914417434895
 20
75.82576356587211
 30
0.0
 10
123.7634937150403
 20
75.80682354243383
 30
0.0
 10
123.7314294831882
 20
75.74394818531225
 30
0.0
 10
123.7234374157945
 20
75.68104167682542
 30
0.0
 10
123.7195857609614
 20
75.65072484570892
 30
0.0
  0
LINE
  5
F7
330
1F
100
AcDbEntity
  8
0
  6
Continuous
 62
     7
370
    15
100
AcDbLine
 10
123.5595830525
 20
75.6507248457
 30
0.0
 11
123.719585761
 21
75.6507248457
 31
0.0
  0
LINE
  5
F8
330
1F
100
AcDbEntity
  8
0
  6
Continuous
 62
     7
370
    15
100
AcDbLine
 10
275.5595871056
 20
75.6507248457
 30
0.0
 11
275.3995843972
 21
75.6507248457
 31
0.0
  0
SPLINE
  5
F9
330
1F
100
AcDbEntity
  8
0
  6
Continuous
 62
     7
370
    15
100
AcDbSpline
210
0.0
220
0.0
230
1.0
 70
     8
 71
     3
 72
     9
 73
     5
 74
     0
 42
0.00000001
 43
0.00000001
 12
1.0
 22
0.0
 32
0.0
 13
1.0
 23
0.0
 33
0.0
 40
0.0
 40
0.0
 40
0.0
 40
0.0
 40
0.5275192631962161
 40
1.0
 40
1.0
 40
1.0
 40
1.0
 10
275.3995843972071
 20
75.65072484570892
 30
0.0
 10
275.3962121882413
 20
75.68448716824436
 30
0.0
 10
275.3898196084797
 20
75.74848923393357
 30
0.0
 10
275.3490339529112
 20
75.79796621901323
 30
0.0
 10
275.3297635163172
 20
75.82134314137848
 30
0.0
  0
SPLINE
  5
FA
330
1F
100
AcDbEntity
  8
0
  6
Continuous
 62
     7
370
    15
100
AcDbSpline
210
0.0
220
0.0
230
1.0
 70
     8
 71
     3
 72
    12
 73
     8
 74
     0
 42
0.00000001
 43
0.00000001
 12
1.0
 22
0.0
 32
0.0
 13
1.0
 23
0.0
 33
0.0
 40
0.0
 40
0.0
 40
0.0
 40
0.0
 40
0.2301679770559124
 40
0.4604207352762212
 40
0.6906759968393854
 40
0.9209289365072371
 40
1.0
 40
1.0
 40
1.0
 40
1.0
 10
275.5595871056422
 20
75.65072484570892
 30
0.0
 10
275.5543713466648
 20
75.70014029511975
 30
0.0
 10
275.5439379075127
 20
75.79898939586239
 30
0.0
 10
275.4629977070514
 20
75.92821681013704
 30
0.0
 10
275.3453890217373
 20
76.02100506771484
 30
0.0
 10
275.2325841117175
 20
76.05756720016467
 30
0.0
 10
275.1664820099937
 20
76.06008396641538
 30
0.0
 10
275.1495846356257
 20
76.06072731572542
 30
0.0
  0
LINE
  5
FB
330
1F
100
AcDbEntity
  8
0
  6
Continuous
 62
     7
370
    15
100
AcDbLine
 10
123.5595830525
 20
75.6507248457
 30
0.0
 11
123.5595830525
 21
68.8607246454
 31
0.0
  0
LINE
  5
FC
330
1F
100
AcDbEntity
  8
0
  6
Continuous
 62
     7
370
    15
100
AcDbLine
 10
123.719585761
 20
75.6507248457
 30
0.0
 11
123.719585761
 21
68.8607246454
 31
0.0
  0
LINE
  5
FD
330
1F
100
AcDbEntity
  8
0
  6
Continuous
 62
     7
370
    15
100
AcDbLine
 10
123.5595830525
 20
68.8607246454
 30
0.0
 11
123.719585761
 21
68.8607246454
 31
0.0
  0
LINE
  5
FE
330
1F
100
AcDbEntity
  8
0
  6
Continuous
 62
     7
370
    15
100
AcDbLine
 10
275.3995843972
 20
75.6507248457
 30
0.0
 11
275.3995843972
 21
68.8607246454
 31
0.0
  0
LINE
  5
FF
330
1F
100
AcDbEntity
  8
0
  6
Continuous
 62
     7
370
    15
100
AcDbLine
 10
275.5595871056
 20
75.6507248457
 30
0.0
 11
275.5595871056
 21
68.8607246454
 31
0.0
  0
LINE
  5
100
330
1F
100
AcDbEntity
  8
0
  6
Continuous
 62
     7
370
    15
100
AcDbLine
 10
275.5595871056
 20
68.8607246454
 30
0.0
 11
275.3995843972
 21
68.8607246454
 31
0.0
  0
LINE
  5
101
330
1F
100
AcDbEntity
  8
0
  6
Continuous
 62
     7
370
    15
100
AcDbLine
 10
265.2581699933
 20
68.4507221754
 30
0.0
 11
265.2581699933
 21
67.9007262762
 31
0.0
  0
LINE
  5
102
330
1F
100
AcDbEntity
  8
0
  6
Continuous
 62
     7
370
    15
100
AcDbLine
 10
128.0609973515
 20
67.9007262762
 30
0.0
 11
265.2581699933
 21
67.9007262762
 31
0.0
  0
LINE
  5
103
330
1F
100
AcDbEntity
  8
0
  6
Continuous
 62
     7
370
    15
100
AcDbLine
 10
128.0609973515
 20
67.9007262762
 30
0.0
 11
128.0609973515
 21
68.4507221754
 31
0.0
  0
LINE
  5
104
330
1F
100
AcDbEntity
  8
0
  6
Continuous
 62
     7
370
    15
100
AcDbLine
 10
128.0609973515
 20
68.4507221754
 30
0.0
 11
265.2581699933
 21
68.4507221754
 31
0.0
  0
LINE
  5
105
330
1F
100
AcDbEntity
  8
0
  6
Continuous
 62
     7
370
    15
100
AcDbLine
 10
265.2581699933
 20
68.8607246454
 30
0.0
 11
265.2581699933
 21
68.4507221754
 31
0.0
  0
LINE
  5
106
330
1F
100
AcDbEntity
  8
0
  6
Continuous
 62
     7
370
    15
100
AcDbLine
 10
128.0609973515
 20
68.8607246454
 30
0.0
 11
128.0609973515
 21
68.4507221754
 31
0.0
  0
LINE
  5
107
330
1F
100
AcDbEntity
  8
0
  6
Continuous
 62
     7
370
    15
100
AcDbLine
 10
127.7595826234
 20
68.8607246454
 30
0.0
 11
127.7595826234
 21
68.2007224138
 31
0.0
  0
LINE
  5
108
330
1F
100
AcDbEntity
  8
0
  6
Continuous
 62
     7
370
    15
100
AcDbLine
 10
128.0595847215
 20
68.2007224138
 30
0.0
 11
127.7595826234
 21
68.2007224138
 31
0.0
  0
LINE
  5
109
330
1F
100
AcDbEntity
  8
0
  6
Continuous
 62
     7
370
    15
100
AcDbLine
 10
128.0595847215
 20
68.8607246454
 30
0.0
 11
128.0595847215
 21
68.2007224138
 31
0.0
  0
LINE
  5
10A
330
1F
100
AcDbEntity
  8
0
  6
Continuous
 62
     7
370
    15
100
AcDbLine
 10
265.5595847215
 20
68.2007224138
 30
0.0
 11
265.5595847215
 21
68.8607246454
 31
0.0
  0
LINE
  5
10B
330
1F
100
AcDbEntity
  8
0
  6
Continuous
 62
     7
370
    15
100
AcDbLine
 10
265.2595826234
 20
68.2007224138
 30
0.0
 11
265.5595847215
 21
68.2007224138
 31
0.0
  0
LINE
  5
10C
330
1F
100
AcDbEntity
  8
0
  6
Continuous
 62
     7
370
    15
100
AcDbLine
 10
265.2595826234
 20
68.8607246454
 30
0.0
 11
265.2595826234
 21
68.2007224138
 31
0.0
  0
ARC
  5
10D
330
1F
100
AcDbEntity
  8
0
  6
Continuous
 62
     7
370
    15
100
AcDbCircle
 10
265.0095853682
 20
68.4507244305
 30
0.0
 40
0.5500000000000034
100
AcDbArc
 50
296.8704145403
 51
332.9643082106
  0
LINE
  5
10E
330
1F
100
AcDbEntity
  8
0
  6
Continuous
 62
     7
370
    15
100
AcDbLine
 10
265.2581699933
 20
68.4241683062
 30
0.0
 11
265.2595826234
 21
68.4507221754
 31
0.0
  0
ARC
  5
10F
330
1F
100
AcDbEntity
  8
0
  6
Continuous
 62
     7
370
    15
100
AcDbCircle
 10
128.3095853682
 20
68.4507244305
 30
0.0
 40
0.5500000000000089
100
AcDbArc
 50
207.0356917894
 51
243.1295854597
  0
LINE
  5
110
330
1F
100
AcDbEntity
  8
0
  6
Continuous
 62
     7
370
    15
100
AcDbLine
 10
128.0595847215
 20
68.4507221754
 30
0.0
 11
128.0609973515
 21
68.4241683062
 31
0.0
  0
LINE
  5
111
330
1F
100
AcDbEntity
  8
0
  6
Continuous
 62
     7
370
    15
100
AcDbLine
 10
135.5048009004
 20
62.1807248171
 30
0.0
 11
143.0143662537
 21
62.1807248171
 31
0.0
  0
LINE
  5
112
330
1F
100
AcDbEntity
  8
0
  6
Continuous
 62
     7
370
    15
100
AcDbLine
 10
135.7248016442
 20
62.0407254275
 30
0.0
 11
142.7943655099
 21
62.0407254275
 31
0.0
  0
LINE
  5
113
330
1F
100
AcDbEntity
  8
0
  6
Continuous
 62
     7
370
    15
100
AcDbLine
 10
135.5048009004
 20
62.3807222422
 30
0.0
 11
143.0143662537
 21
62.3807222422
 31
0.0
  0
LINE
  5
114
330
1F
100
AcDbEntity
  8
0
  6
Continuous
 62
     7
370
    15
100
AcDbLine
 10
135.5048009004
 20
61.7007226523
 30
0.0
 11
143.0143662537
 21
61.7007226523
 31
0.0
  0
LINE
  5
115
330
1F
100
AcDbEntity
  8
0
  6
Continuous
 62
     7
370
    15
100
AcDbLine
 10
135.7248016442
 20
61.5607232626
 30
0.0
 11
142.7943655099
 21
61.5607232626
 31
0.0
  0
LINE
  5
116
330
1F
100
AcDbEntity
  8
0
  6
Continuous
 62
     7
370
    15
100
AcDbLine
 10
135.5048009004
 20
61.9007260378
 30
0.0
 11
143.0143662537
 21
61.9007260378
 31
0.0
  0
LINE
  5
117
330
1F
100
AcDbEntity
  8
0
  6
Continuous
 62
     7
370
    15
100
AcDbLine
 10
135.5048009004
 20
61.420723873
 30
0.0
 11
143.0143662537
 21
61.420723873
 31
0.0
  0
LINE
  5
118
330
1F
100
AcDbEntity
  8
0
  6
Continuous
 62
     7
370
    15
100
AcDbLine
 10
135.5048009004
 20
61.4007265146
 30
0.0
 11
143.0143662537
 21
61.4007265146
 31
0.0
  0
LINE
  5
119
330
1F
100
AcDbEntity
  8
0
  6
Continuous
 62
     7
370
    15
100
AcDbLine
 10
135.5048009004
 20
62.6607269819
 30
0.0
 11
143.0143662537
 21
62.6607269819
 31
0.0
  0
LINE
  5
11A
330
1F
100
AcDbEntity
  8
0
  6
Continuous
 62
     7
370
    15
100
AcDbLine
 10
135.7248016442
 20
62.5207216318
 30
0.0
 11
142.7943655099
 21
62.5207216318
 31
0.0
  0
LINE
  5
11B
330
1F
100
AcDbEntity
  8
0
  6
Continuous
 62
     7
370
    15
100
AcDbLine
 10
135.7248016442
 20
63.0007237967
 30
0.0
 11
142.7943655099
 21
63.0007237967
 31
0.0
  0
LINE
  5
11C
330
1F
100
AcDbEntity
  8
0
  6
Continuous
 62
     7
370
    15
100
AcDbLine
 10
135.5048009004
 20
62.860724407
 30
0.0
 11
143.0143662537
 21
62.860724407
 31
0.0
  0
LINE
  5
11D
330
1F
100
AcDbEntity
  8
0
  6
Continuous
 62
     7
370
    15
100
AcDbLine
 10
135.5048009004
 20
63.1407231863
 30
0.0
 11
143.0143662537
 21
63.1407231863
 31
0.0
  0
LINE
  5
11E
330
1F
100
AcDbEntity
  8
0
  6
Continuous
 62
     7
370
    15
100
AcDbLine
 10
135.5048009004
 20
63.3407265719
 30
0.0
 11
143.0143662537
 21
63.3407265719
 31
0.0
  0
LINE
  5
11F
330
1F
100
AcDbEntity
  8
0
  6
Continuous
 62
     7
370
    15
100
AcDbLine
 10
137.601275071
 20
61.4007265146
 30
0.0
 11
137.601275071
 21
59.7823531206
 31
0.0
  0
LINE
  5
120
330
1F
100
AcDbEntity
  8
0
  6
Continuous
 62
     7
370
    15
100
AcDbLine
 10
140.9178980435
 20
59.7823531206
 30
0.0
 11
140.9178980435
 21
61.4007265146
 31
0.0
  0
LINE
  5
121
330
1F
100
AcDbEntity
  8
0
  6
Continuous
 62
     7
370
    15
100
AcDbLine
 10
137.9986353959
 20
59.300723749
 30
0.0
 11
138.4461649503
 21
59.300723749
 31
0.0
  0
LINE
  5
122
330
1F
100
AcDbEntity
  8
0
  6
Continuous
 62
     7
370
    15
100
AcDbLine
 10
140.0807567681
 20
59.300723749
 30
0.0
 11
140.5205377187
 21
59.300723749
 31
0.0
  0
LINE
  5
123
330
1F
100
AcDbEntity
  8
0
  6
Continuous
 62
     7
370
    15
100
AcDbLine
 10
141.7595871533
 20
61.4007265146
 30
0.0
 11
141.7595871533
 21
60.8303935106
 31
0.0
  0
LINE
  5
124
330
1F
100
AcDbEntity
  8
0
  6
Continuous
 62
     7
370
    15
100
AcDbLine
 10
136.7595859612
 20
61.4007265146
 30
0.0
 11
136.7595859612
 21
60.8303219851
 31
0.0
  0
LINE
  5
125
330
1F
100
AcDbEntity
  8
0
  6
Continuous
 62
     7
370
    15
100
AcDbLine
 10
127.2595831002
 20
67.9007262762
 30
0.0
 11
127.2595831002
 21
67.2607273634
 31
0.0
  0
LINE
  5
126
330
1F
100
AcDbEntity
  8
0
  6
Continuous
 62
     7
370
    15
100
AcDbLine
 10
127.2595831002
 20
67.9007262762
 30
0.0
 11
128.0609973515
 21
67.9007262762
 31
0.0
  0
LINE
  5
127
330
1F
100
AcDbEntity
  8
0
  6
Continuous
 62
     7
370
    15
100
AcDbLine
 10
127.2595831002
 20
67.2607273634
 30
0.0
 11
145.2595838155
 21
67.2607273634
 31
0.0
  0
LINE
  5
128
330
1F
100
AcDbEntity
  8
0
  6
Continuous
 62
     7
370
    15
100
AcDbLine
 10
145.2595838155
 20
67.9007262762
 30
0.0
 11
145.2595838155
 21
67.2607273634
 31
0.0
  0
LINE
  5
129
330
1F
100
AcDbEntity
  8
0
  6
Continuous
 62
     7
370
    15
100
AcDbLine
 10
134.7595878686
 20
63.4607226427
 30
0.0
 11
143.759585246
 21
63.4607226427
 31
0.0
  0
SPLINE
  5
12A
330
1F
100
AcDbEntity
  8
0
  6
Continuous
 62
     7
370
    15
100
AcDbSpline
210
0.0
220
0.0
230
1.0
 70
     8
 71
     3
 72
    12
 73
     8
 74
     0
 42
0.00000001
 43
0.00000001
 12
1.0
 22
0.0
 32
0.0
 13
1.0
 23
0.0
 33
0.0
 40
0.0
 40
0.0
 40
0.0
 40
0.0
 40
0.2135382124581021
 40
0.4270298756034503
 40
0.6417152706592235
 40
0.8571994851397174
 40
1.0
 40
1.0
 40
1.0
 40
1.0
 10
143.7194057549342
 20
65.16072459775357
 30
0.0
 10
143.7203107720227
 20
65.22782228236373
 30
0.0
 10
143.7221206089148
 20
65.36200302492273
 30
0.0
 10
143.7348159268805
 20
65.54145586745649
 30
0.0
 10
143.7486152753617
 20
65.6761815175344
 30
0.0
 10
143.7585827143698
 20
65.75329433894724
 30
0.0
 10
143.7585878153332
 20
65.7532188812958
 30
0.0
 10
143.7585898484095
 20
65.7531888063565
 30
0.0
  0
SPLINE
  5
12B
330
1F
100
AcDbEntity
  8
0
  6
Continuous
 62
     7
370
    15
100
AcDbSpline
210
0.0
220
0.0
230
1.0
 70
     8
 71
     3
 72
    13
 73
     9
 74
     0
 42
0.00000001
 43
0.00000001
 12
1.0
 22
0.0
 32
0.0
 13
1.0
 23
0.0
 33
0.0
 40
0.0
 40
0.0
 40
0.0
 40
0.0
 40
0.0713240368947273
 40
0.2839733111223159
 40
0.497281765265628
 40
0.7122442275670295
 40
0.9273050704046408
 40
0.9999999999999999
 40
0.9999999999999999
 40
0.9999999999999999
 40
0.9999999999999999
 10
143.7585898484095
 20
64.5682603891507
 30
0.0
 10
143.7588670357602
 20
64.56616760970202
 30
0.0
 10
143.7599706442097
 20
64.55783530638082
 30
0.0
 10
143.7527181600547
 20
64.61229487782727
 30
0.0
 10
143.7397900444921
 20
64.72614747203845
 30
0.0
 10
143.726145077384
 20
64.89367353018322
 30
0.0
 10
143.7199435309127
 20
65.04781244377006
 30
0.0
 10
143.7195142124477
 20
65.13795271511304
 30
0.0
 10
143.7194057549342
 20
65.16072459775357
 30
0.0
  0
SPLINE
  5
12C
330
1F
100
AcDbEntity
  8
0
  6
Continuous
 62
     7
370
    15
100
AcDbSpline
210
0.0
220
0.0
230
1.0
 70
    24
 71
     3
 72
     9
 73
     5
 74
     0
 42
0.00000001
 43
0.00000001
 12
1.0
 22
0.0
 32
0.0
 13
1.0
 23
0.0
 33
0.0
 40
0.0
 40
0.0
 40
0.0
 40
0.0
 40
0.607909377250523
 40
1.0
 40
1.0
 40
1.0
 40
1.0
 10
139.2595835770472
 20
42.6007241781369
 30
0.0
 10
139.1005040465716
 20
42.6007241781369
 30
0.0
 10
138.8388210779767
 20
42.60072417813687
 30
0.0
 10
138.6019176009467
 20
42.6007241781369
 30
0.0
 10
138.5090299691065
 20
42.6007241781369
 30
0.0
  0
SPLINE
  5
12D
330
1F
100
AcDbEntity
  8
0
  6
Continuous
 62
     7
370
    15
100
AcDbSpline
210
0.0
220
0.0
230
1.0
 70
     8
 71
     3
 72
    10
 73
     6
 74
     0
 42
0.00000001
 43
0.00000001
 12
1.0
 22
0.0
 32
0.0
 13
1.0
 23
0.0
 33
0.0
 40
0.0
 40
0.0
 40
0.0
 40
0.0
 40
0.4341418443533062
 40
0.8831689194612599
 40
1.0
 40
1.0
 40
1.0
 40
1.0
 10
138.5090299691065
 20
42.6007241781369
 30
0.0
 10
138.4574085132346
 20
42.69013662547255
 30
0.0
 10
138.3523956793041
 20
42.87202716545829
 30
0.0
 10
138.2227921890288
 20
43.09650321832531
 30
0.0
 10
138.1489907356443
 20
43.22433226123701
 30
0.0
 10
138.1337531651362
 20
43.2507247503415
 30
0.0
  0
ARC
  5
12E
330
1F
100
AcDbEntity
  8
0
  6
Continuous
 62
     7
370
    15
100
AcDbCircle
 10
139.2595853682
 20
43.9007244305
 30
0.0
 40
1.300000000000005
100
AcDbArc
 50
210.0
 51
270.0
  0
SPLINE
  5
12F
330
1F
100
AcDbEntity
  8
0
  6
Continuous
 62
     7
370
    15
100
AcDbSpline
210
0.0
220
0.0
230
1.0
 70
     8
 71
     3
 72
     9
 73
     5
 74
     0
 42
0.00000001
 43
0.00000001
 12
1.0
 22
0.0
 32
0.0
 13
1.0
 23
0.0
 33
0.0
 40
0.0
 40
0.0
 40
0.0
 40
0.0
 40
0.6079108845096329
 40
1.0
 40
1.0
 40
1.0
 40
1.0
 10
140.3854199494227
 20
43.2507247503415
 30
0.0
 10
140.3058785571758
 20
43.11295783819513
 30
0.0
 10
140.1750347208936
 20
42.88633430560693
 30
0.0
 10
140.0565857124167
 20
42.68116775104377
 30
0.0
 10
140.0101431454524
 20
42.6007241781369
 30
0.0
  0
SPLINE
  5
130
330
1F
100
AcDbEntity
  8
0
  6
Continuous
 62
     7
370
    15
100
AcDbSpline
210
0.0
220
0.0
230
1.0
 70
    24
 71
     3
 72
    10
 73
     6
 74
     0
 42
0.00000001
 43
0.00000001
 12
1.0
 22
0.0
 32
0.0
 13
1.0
 23
0.0
 33
0.0
 40
0.0
 40
0.0
 40
0.0
 40
0.0
 40
0.4341438077827958
 40
0.8831701472139124
 40
1.0
 40
1.0
 40
1.0
 40
1.0
 10
140.0101431454524
 20
42.6007241781369
 30
0.0
 10
139.9068977848405
 20
42.60072417813693
 30
0.0
 10
139.6968677931737
 20
42.6007241781369
 30
0.0
 10
139.4376629063125
 20
42.60072417813696
 30
0.0
 10
139.2900587595628
 20
42.60072417813687
 30
0.0
 10
139.2595835770472
 20
42.60072417813687
 30
0.0
  0
ARC
  5
131
330
1F
100
AcDbEntity
  8
0
  6
Continuous
 62
     7
370
    15
100
AcDbCircle
 10
139.2595853682
 20
43.9007244305
 30
0.0
 40
1.299999999999969
100
AcDbArc
 50
270.0
 51
330.0
  0
CIRCLE
  5
132
330
1F
100
AcDbEntity
  8
0
  6
Continuous
 62
     7
370
    15
100
AcDbCircle
 10
139.2595853682
 20
43.9007244305
 30
0.0
 40
0.7040000000074755
  0
ARC
  5
133
330
1F
100
AcDbEntity
  8
0
  6
Continuous
 62
     7
370
    15
100
AcDbCircle
 10
139.2595853682
 20
43.9007244305
 30
0.0
 40
1.299999999999997
100
AcDbArc
 50
30.0
 51
90.0
  0
ARC
  5
134
330
1F
100
AcDbEntity
  8
0
  6
Continuous
 62
     7
370
    15
100
AcDbCircle
 10
139.2595853682
 20
43.9007244305
 30
0.0
 40
1.29999999999997
100
AcDbArc
 50
330.0
 51
30.0
  0
ARC
  5
135
330
1F
100
AcDbEntity
  8
0
  6
Continuous
 62
     7
370
    15
100
AcDbCircle
 10
139.2595853682
 20
43.9007244305
 30
0.0
 40
1.30000000000002
100
AcDbArc
 50
150.0
 51
210.0
  0
ARC
  5
136
330
1F
100
AcDbEntity
  8
0
  6
Continuous
 62
     7
370
    15
100
AcDbCircle
 10
139.2595853682
 20
43.9007244305
 30
0.0
 40
1.30000000000002
100
AcDbArc
 50
90.0
 51
150.0
  0
SPLINE
  5
137
330
1F
100
AcDbEntity
  8
0
  6
Continuous
 62
     7
370
    15
100
AcDbSpline
210
0.0
220
0.0
230
1.0
 70
     8
 71
     3
 72
     9
 73
     5
 74
     0
 42
0.00000001
 43
0.00000001
 12
1.0
 22
0.0
 32
0.0
 13
1.0
 23
0.0
 33
0.0
 40
0.0
 40
0.0
 40
0.0
 40
0.0
 40
0.6079072742419472
 40
1.0
 40
1.0
 40
1.0
 40
1.0
 10
140.3854199494227
 20
44.55072589475068
 30
0.0
 10
140.4649581416176
 20
44.41295841625129
 30
0.0
 10
140.595797490915
 20
44.18633260613716
 30
0.0
 10
140.7142517141337
 20
43.98116862653551
 30
0.0
 10
140.760696753393
 20
43.90072532254607
 30
0.0
  0
SPLINE
  5
138
330
1F
100
AcDbEntity
  8
0
  6
Continuous
 62
     7
370
    15
100
AcDbSpline
210
0.0
220
0.0
230
1.0
 70
     8
 71
     3
 72
    10
 73
     6
 74
     0
 42
0.00000001
 43
0.00000001
 12
1.0
 22
0.0
 32
0.0
 13
1.0
 23
0.0
 33
0.0
 40
0.0
 40
0.0
 40
0.0
 40
0.0
 40
0.4341418443533062
 40
0.8831689194612599
 40
1.0
 40
1.0
 40
1.0
 40
1.0
 10
140.760696753393
 20
43.90072532254607
 30
0.0
 10
140.7090752975211
 20
43.81131287521043
 30
0.0
 10
140.6040624635906
 20
43.62942233522471
 30
0.0
 10
140.4744589733153
 20
43.40494628235766
 30
0.0
 10
140.4006575199308
 20
43.27711723944605
 30
0.0
 10
140.3854199494227
 20
43.2507247503415
 30
0.0
  0
SPLINE
  5
139
330
1F
100
AcDbEntity
  8
0
  6
Continuous
 62
     7
370
    15
100
AcDbSpline
210
0.0
220
0.0
230
1.0
 70
     8
 71
     3
 72
    10
 73
     6
 74
     0
 42
0.00000001
 43
0.00000001
 12
1.0
 22
0.0
 32
0.0
 13
1.0
 23
0.0
 33
0.0
 40
0.0
 40
0.0
 40
0.0
 40
0.0
 40
0.4341418443533062
 40
0.8831689194612599
 40
1.0
 40
1.0
 40
1.0
 40
1.0
 10
137.7584763611658
 20
43.90072532254607
 30
0.0
 10
137.8100978170377
 20
43.99013776988173
 30
0.0
 10
137.9151106509683
 20
44.17202830986744
 30
0.0
 10
138.0447141412436
 20
44.39650436273454
 30
0.0
 10
138.1185155946281
 20
44.52433340564618
 30
0.0
 10
138.1337531651362
 20
44.55072589475068
 30
0.0
  0
SPLINE
  5
13A
330
1F
100
AcDbEntity
  8
0
  6
Continuous
 62
     7
370
    15
100
AcDbSpline
210
0.0
220
0.0
230
1.0
 70
     8
 71
     3
 72
     9
 73
     5
 74
     0
 42
0.00000001
 43
0.00000001
 12
1.0
 22
0.0
 32
0.0
 13
1.0
 23
0.0
 33
0.0
 40
0.0
 40
0.0
 40
0.0
 40
0.0
 40
0.6079108845096329
 40
1.0
 40
1.0
 40
1.0
 40
1.0
 10
138.1337531651362
 20
43.2507247503415
 30
0.0
 10
138.0542117728893
 20
43.3884916624879
 30
0.0
 10
137.9233679366071
 20
43.6151151950761
 30
0.0
 10
137.8049189281302
 20
43.82028174963923
 30
0.0
 10
137.7584763611658
 20
43.90072532254607
 30
0.0
  0
SPLINE
  5
13B
330
1F
100
AcDbEntity
  8
0
  6
Continuous
 62
     7
370
    15
100
AcDbSpline
210
0.0
220
0.0
230
1.0
 70
    24
 71
     3
 72
    10
 73
     6
 74
     0
 42
0.00000001
 43
0.00000001
 12
1.0
 22
0.0
 32
0.0
 13
1.0
 23
0.0
 33
0.0
 40
0.0
 40
0.0
 40
0.0
 40
0.0
 40
0.4341470521117738
 40
0.8831692741518761
 40
1.0
 40
1.0
 40
1.0
 40
1.0
 10
138.5090299691065
 20
45.20072646695527
 30
0.0
 10
138.6122753452516
 20
45.20072646695525
 30
0.0
 10
138.8223035913632
 20
45.20072646695522
 30
0.0
 10
139.0815061776488
 20
45.20072646695536
 30
0.0
 10
139.2291083912046
 20
45.20072646695527
 30
0.0
 10
139.2595835770472
 20
45.20072646695527
 30
0.0
  0
SPLINE
  5
13C
330
1F
100
AcDbEntity
  8
0
  6
Continuous
 62
     7
370
    15
100
AcDbSpline
210
0.0
220
0.0
230
1.0
 70
     8
 71
     3
 72
     9
 73
     5
 74
     0
 42
0.00000001
 43
0.00000001
 12
1.0
 22
0.0
 32
0.0
 13
1.0
 23
0.0
 33
0.0
 40
0.0
 40
0.0
 40
0.0
 40
0.0
 40
0.6079072742419472
 40
1.0
 40
1.0
 40
1.0
 40
1.0
 10
138.1337531651362
 20
44.55072589475068
 30
0.0
 10
138.2132913573311
 20
44.68849337325001
 30
0.0
 10
138.3441307066285
 20
44.91511918336419
 30
0.0
 10
138.4625849298472
 20
45.12028316296588
 30
0.0
 10
138.5090299691065
 20
45.20072646695527
 30
0.0
  0
SPLINE
  5
13D
330
1F
100
AcDbEntity
  8
0
  6
Continuous
 62
     7
370
    15
100
AcDbSpline
210
0.0
220
0.0
230
1.0
 70
     8
 71
     3
 72
    10
 73
     6
 74
     0
 42
0.00000001
 43
0.00000001
 12
1.0
 22
0.0
 32
0.0
 13
1.0
 23
0.0
 33
0.0
 40
0.0
 40
0.0
 40
0.0
 40
0.0
 40
0.4341418443533062
 40
0.8831689194612599
 40
1.0
 40
1.0
 40
1.0
 40
1.0
 10
140.0101431454524
 20
45.20072646695527
 30
0.0
 10
140.0617646013242
 20
45.11131401961957
 30
0.0
 10
140.1667774352548
 20
44.9294234796338
 30
0.0
 10
140.2963809255301
 20
44.70494742676692
 30
0.0
 10
140.3701823789146
 20
44.57711838385519
 30
0.0
 10
140.3854199494227
 20
44.55072589475068
 30
0.0
  0
SPLINE
  5
13E
330
1F
100
AcDbEntity
  8
0
  6
Continuous
 62
     7
370
    15
100
AcDbSpline
210
0.0
220
0.0
230
1.0
 70
    24
 71
     3
 72
     9
 73
     5
 74
     0
 42
0.00000001
 43
0.00000001
 12
1.0
 22
0.0
 32
0.0
 13
1.0
 23
0.0
 33
0.0
 40
0.0
 40
0.0
 40
0.0
 40
0.0
 40
0.6079051031068547
 40
1.0
 40
1.0
 40
1.0
 40
1.0
 10
139.2595835770472
 20
45.20072646695527
 30
0.0
 10
139.418662945442
 20
45.20072646695527
 30
0.0
 10
139.680347487292
 20
45.20072646695527
 30
0.0
 10
139.9172535049036
 20
45.20072646695525
 30
0.0
 10
140.0101431454524
 20
45.20072646695525
 30
0.0
  0
CIRCLE
  5
13F
330
1F
100
AcDbEntity
  8
0
  6
Continuous
 62
     7
370
    15
100
AcDbCircle
 10
139.2595853682
 20
43.9007244305
 30
0.0
 40
0.4800000000045586
  0
LINE
  5
140
330
1F
100
AcDbEntity
  8
0
  6
Continuous
 62
     7
370
    15
100
AcDbLine
 10
142.1173938359
 20
60.9002441939
 30
0.0
 11
142.14631997
 21
60.8968228872
 31
0.0
  0
SPLINE
  5
141
330
1F
100
AcDbEntity
  8
0
  6
Continuous
 62
     7
370
    15
100
AcDbSpline
210
0.0
220
0.0
230
1.0
 70
     8
 71
     3
 72
    12
 73
     8
 74
     0
 42
0.00000001
 43
0.00000001
 12
1.0
 22
0.0
 32
0.0
 13
1.0
 23
0.0
 33
0.0
 40
0.0
 40
0.0
 40
0.0
 40
0.0
 40
0.5020357295397815
 40
0.7518910281963181
 40
0.8766456032752518
 40
0.9428429311106942
 40
1.0
 40
1.0
 40
1.0
 40
1.0
 10
135.3512354935511
 20
60.18834419804963
 30
0.0
 10
135.1709006438741
 20
59.92988704078836
 30
0.0
 10
134.9008159714792
 20
59.54279981515201
 30
0.0
 10
134.6065180989543
 20
59.10735127011895
 30
0.0
 10
134.4503184707009
 20
58.92042877482856
 30
0.0
 10
134.3545815372058
 20
58.84279543249951
 30
0.0
 10
134.3068596947302
 20
58.83390221897294
 30
0.0
 10
134.2847474659785
 20
58.82978149014861
 30
0.0
  0
SPLINE
  5
142
330
1F
100
AcDbEntity
  8
0
  6
Continuous
 62
     7
370
    15
100
AcDbSpline
210
0.0
220
0.0
230
1.0
 70
     8
 71
     3
 72
    12
 73
     8
 74
     0
 42
0.00000001
 43
0.00000001
 12
1.0
 22
0.0
 32
0.0
 13
1.0
 23
0.0
 33
0.0
 40
0.0
 40
0.0
 40
0.0
 40
0.0
 40
0.0570668727691617
 40
0.1230025945968985
 40
0.2481151787115027
 40
0.4986018219174349
 40
1.0
 40
1.0
 40
1.0
 40
1.0
 10
144.2344256485804
 20
58.82978149014861
 30
0.0
 10
144.2123474152387
 20
58.83386888378597
 30
0.0
 10
144.1647597368998
 20
58.84267889909147
 30
0.0
 10
144.0690104073308
 20
58.92020320767858
 30
0.0
 10
143.912578192789
 20
59.10752828825888
 30
0.0
 10
143.6177660694519
 20
59.54266784893258
 30
0.0
 10
143.3478959249423
 20
59.93002987858567
 30
0.0
 10
143.1679316605433
 20
60.18834419804963
 30
0.0
  0
SPLINE
  5
143
330
1F
100
AcDbEntity
  8
0
  6
Continuous
 62
     7
370
    15
100
AcDbSpline
210
0.0
220
0.0
230
1.0
 70
     8
 71
     3
 72
    10
 73
     6
 74
     0
 42
0.00000001
 43
0.00000001
 12
1.0
 22
0.0
 32
0.0
 13
1.0
 23
0.0
 33
0.0
 40
0.0
 40
0.0
 40
0.0
 40
0.0
 40
0.4786481297541949
 40
0.9572339560829317
 40
1.0
 40
1.0
 40
1.0
 40
1.0
 10
137.1687658871516
 20
60.0386769350186
 30
0.0
 10
137.2199139046627
 20
60.11559724690596
 30
0.0
 10
137.3222032819828
 20
60.26942785831746
 30
0.0
 10
137.3337398591484
 20
60.41191995031362
 30
0.0
 10
137.2858588995131
 20
60.44357353339158
 30
0.0
 10
137.2819312657221
 20
60.44617004949004
 30
0.0
  0
SPLINE
  5
144
330
1F
100
AcDbEntity
  8
0
  6
Continuous
 62
     7
370
    15
100
AcDbSpline
210
0.0
220
0.0
230
1.0
 70
     8
 71
     3
 72
    13
 73
     9
 74
     0
 42
0.00000001
 43
0.00000001
 12
1.0
 22
0.0
 32
0.0
 13
1.0
 23
0.0
 33
0.0
 40
0.0
 40
0.0
 40
0.0
 40
0.0
 40
0.1112592370903668
 40
0.2316843573251441
 40
0.4894907440420979
 40
0.7549159900674075
 40
0.8826244540962321
 40
1.0
 40
1.0
 40
1.0
 40
1.0
 10
135.7285686577662
 20
59.90389891225251
 30
0.0
 10
135.7772789098866
 20
59.94055743806326
 30
0.0
 10
135.8787123167012
 20
60.01689453343675
 30
0.0
 10
136.1263983966451
 20
60.12275812296103
 30
0.0
 10
136.4674118611764
 20
60.20736504398244
 30
0.0
 10
136.8015293650841
 20
60.2040719351784
 30
0.0
 10
137.0337760992151
 20
60.13747799260572
 30
0.0
 10
137.125052044337
 20
60.07067175453276
 30
0.0
 10
137.1687658871516
 20
60.03867693501863
 30
0.0
  0
SPLINE
  5
145
330
1F
100
AcDbEntity
  8
0
  6
Continuous
 62
     7
370
    15
100
AcDbSpline
210
0.0
220
0.0
230
1.0
 70
     8
 71
     3
 72
     9
 73
     5
 74
     0
 42
0.00000001
 43
0.00000001
 12
1.0
 22
0.0
 32
0.0
 13
1.0
 23
0.0
 33
0.0
 40
0.0
 40
0.0
 40
0.0
 40
0.0
 40
0.5592802868752517
 40
0.9999999999999999
 40
0.9999999999999999
 40
0.9999999999999999
 40
0.9999999999999999
 10
135.7285686577662
 20
59.90389891225251
 30
0.0
 10
135.6475388069441
 20
59.96325004553984
 30
0.0
 10
135.5026564416549
 20
60.06937059847214
 30
0.0
 10
135.3975555349869
 20
60.15194988054459
 30
0.0
 10
135.3512354935511
 20
60.18834419804963
 30
0.0
  0
SPLINE
  5
146
330
1F
100
AcDbEntity
  8
0
  6
Continuous
 62
     7
370
    15
100
AcDbSpline
210
0.0
220
0.0
230
1.0
 70
     8
 71
     3
 72
    20
 73
    16
 74
     0
 42
0.00000001
 43
0.00000001
 12
1.0
 22
0.0
 32
0.0
 13
1.0
 23
0.0
 33
0.0
 40
0.0
 40
0.0
 40
0.0
 40
0.0
 40
0.0689437291379149
 40
0.1058311199460726
 40
0.1447500064428005
 40
0.2065427647126143
 40
0.2765541898142648
 40
0.3463474217000475
 40
0.4282161573363724
 40
0.5222835855828839
 40
0.604769334877655
 40
0.7051146026933377
 40
0.8006039649469464
 40
0.9131566734668296
 40
1.0
 40
1.0
 40
1.0
 40
1.0
 10
134.277577027212
 20
58.71838636952789
 30
0.0
 10
134.3073696703662
 20
58.72165259080922
 30
0.0
 10
134.3531024560826
 20
58.72666635871126
 30
0.0
 10
134.4190125027135
 20
58.75459814690353
 30
0.0
 10
134.4821807889003
 20
58.78829817962495
 30
0.0
 10
134.5611597575357
 20
58.84165552446174
 30
0.0
 10
134.6548196306977
 20
58.91548033336535
 30
0.0
 10
134.7582281468489
 20
59.00535160788875
 30
0.0
 10
134.8742358392196
 20
59.11102168095533
 30
0.0
 10
134.9983159738647
 20
59.22679221273175
 30
0.0
 10
135.1333786155807
 20
59.35417165614834
 30
0.0
 10
135.2717576774042
 20
59.4840466168347
 30
0.0
 10
135.4277709389672
 20
59.62928768468506
 30
0.0
 10
135.5793497646249
 20
59.76874679503408
 30
0.0
 10
135.6832965296068
 20
59.86289456057214
 30
0.0
 10
135.7285686577662
 20
59.90389891225251
 30
0.0
  0
LINE
  5
147
330
1F
100
AcDbEntity
  8
0
  6
Continuous
 62
     7
370
    15
100
AcDbLine
 10
137.1687658872
 20
60.038676935
 30
0.0
 11
137.1687658872
 21
56.9007248457
 31
0.0
  0
LINE
  5
148
330
1F
100
AcDbEntity
  8
0
  6
Continuous
 62
     7
370
    15
100
AcDbLine
 10
137.1687658872
 20
56.9007248457
 30
0.0
 11
134.2775770272
 21
56.9007248457
 31
0.0
  0
LINE
  5
149
330
1F
100
AcDbEntity
  8
0
  6
Continuous
 62
     7
370
    15
100
AcDbLine
 10
134.2775770272
 20
56.9007248457
 30
0.0
 11
134.2775770272
 21
58.7183863695
 31
0.0
  0
SPLINE
  5
14A
330
1F
100
AcDbEntity
  8
0
  6
Continuous
 62
     7
370
    15
100
AcDbSpline
210
0.0
220
0.0
230
1.0
 70
     8
 71
     3
 72
     9
 73
     5
 74
     0
 42
0.00000001
 43
0.00000001
 12
1.0
 22
0.0
 32
0.0
 13
1.0
 23
0.0
 33
0.0
 40
0.0
 40
0.0
 40
0.0
 40
0.0
 40
0.5592662057970543
 40
1.0
 40
1.0
 40
1.0
 40
1.0
 10
143.1679316605433
 20
60.18834419804963
 30
0.0
 10
143.1073686017619
 20
60.14095903952421
 30
0.0
 10
142.9990783847711
 20
60.05623166276833
 30
0.0
 10
142.8543785597117
 20
59.95049890968879
 30
0.0
 10
142.7906044567927
 20
59.90389891225251
 30
0.0
  0
SPLINE
  5
14B
330
1F
100
AcDbEntity
  8
0
  6
Continuous
 62
     7
370
    15
100
AcDbSpline
210
0.0
220
0.0
230
1.0
 70
     8
 71
     3
 72
    13
 73
     9
 74
     0
 42
0.00000001
 43
0.00000001
 12
1.0
 22
0.0
 32
0.0
 13
1.0
 23
0.0
 33
0.0
 40
0.0
 40
0.0
 40
0.0
 40
0.0
 40
0.1179818392316334
 40
0.2458207359438281
 40
0.5113479766917038
 40
0.7681340549135763
 40
0.8887011041676343
 40
1.0
 40
1.0
 40
1.0
 40
1.0
 10
141.3504012669428
 20
60.03867693501863
 30
0.0
 10
141.394357363696
 20
60.07081488408949
 30
0.0
 10
141.4859419679321
 20
60.13777581929591
 30
0.0
 10
141.7187151288915
 20
60.20421022229006
 30
0.0
 10
142.0525225577414
 20
60.20709153969531
 30
0.0
 10
142.3930610118951
 20
60.12257090733483
 30
0.0
 10
142.6403845803825
 20
60.01699938456845
 30
0.0
 10
142.7418835379137
 20
59.94058086851928
 30
0.0
 10
142.7906044567927
 20
59.90389891225251
 30
0.0
  0
SPLINE
  5
14C
330
1F
100
AcDbEntity
  8
0
  6
Continuous
 62
     7
370
    15
100
AcDbSpline
210
0.0
220
0.0
230
1.0
 70
     8
 71
     3
 72
    18
 73
    14
 74
     0
 42
0.00000001
 43
0.00000001
 12
1.0
 22
0.0
 32
0.0
 13
1.0
 23
0.0
 33
0.0
 40
0.0
 40
0.0
 40
0.0
 40
0.0
 40
0.1188428834141951
 40
0.2377882504439779
 40
0.3742383678955643
 40
0.4770299720385446
 40
0.5705560827582691
 40
0.6526665222651535
 40
0.7234921972554079
 40
0.7937330077216408
 40
0.855705977781388
 40
0.9311530148969327
 40
0.9999999999999999
 40
0.9999999999999999
 40
0.9999999999999999
 40
0.9999999999999999
 10
142.7906044567927
 20
59.90389891225248
 30
0.0
 10
142.8525786953779
 20
59.84784495813059
 30
0.0
 10
142.9765806157489
 20
59.73568871201648
 30
0.0
 10
143.167620441771
 20
59.55849326073129
 30
0.0
 10
143.3471283820699
 20
59.39055205959454
 30
0.0
 10
143.5095331045663
 20
59.23672011895498
 30
0.0
 10
143.6432942112482
 20
59.11203648766272
 30
0.0
 10
143.7597896919087
 20
59.00615512560725
 30
0.0
 10
143.8639755476032
 20
58.91585267276741
 30
0.0
 10
143.9583320094744
 20
58.84129978465582
 30
0.0
 10
144.0541795982206
 20
58.77708627342665
 30
0.0
 10
144.1494127015616
 20
58.72891009531611
 30
0.0
 10
144.2118157633864
 20
58.72178565341827
 30
0.0
 10
144.2415901268824
 20
58.71838636952789
 30
0.0
  0
LINE
  5
14D
330
1F
100
AcDbEntity
  8
0
  6
Continuous
 62
     7
370
    15
100
AcDbLine
 10
144.2415901269
 20
58.7183863695
 30
0.0
 11
144.2415901269
 21
56.9007248457
 31
0.0
  0
LINE
  5
14E
330
1F
100
AcDbEntity
  8
0
  6
Continuous
 62
     7
370
    15
100
AcDbLine
 10
144.2415901269
 20
56.9007248457
 30
0.0
 11
141.3504012669
 21
56.9007248457
 31
0.0
  0
LINE
  5
14F
330
1F
100
AcDbEntity
  8
0
  6
Continuous
 62
     7
370
    15
100
AcDbLine
 10
141.3504012669
 20
60.038676935
 30
0.0
 11
141.3504012669
 21
56.9007248457
 31
0.0
  0
ARC
  5
150
330
1F
100
AcDbEntity
  8
0
  6
Continuous
 62
     7
370
    15
100
AcDbCircle
 10
135.1460887
 20
58.7184091199
 30
0.0
 40
0.8685116730907178
100
AcDbArc
 50
172.632469826
 51
180.0015008419
  0
ARC
  5
151
330
1F
100
AcDbEntity
  8
0
  6
Continuous
 62
     7
370
    15
100
AcDbCircle
 10
143.3735700263
 20
58.7184868241
 30
0.0
 40
0.8680201063730509
100
AcDbArc
 50
359.9933692525
 51
7.3665538616
  0
LINE
  5
152
330
1F
100
AcDbEntity
  8
0
  6
Continuous
 62
     7
370
    15
100
AcDbLine
 10
137.1687658872
 20
60.038676935
 30
0.0
 11
137.2111686314
 21
59.9035889681
 31
0.0
  0
LINE
  5
153
330
1F
100
AcDbEntity
  8
0
  6
Continuous
 62
     7
370
    15
100
AcDbLine
 10
137.2111686314
 20
59.9035889681
 30
0.0
 11
137.4017366017
 21
59.1355711992
 31
0.0
  0
SPLINE
  5
154
330
1F
100
AcDbEntity
  8
0
  6
Continuous
 62
     7
370
    15
100
AcDbSpline
210
0.0
220
0.0
230
1.0
 70
     8
 71
     3
 72
    11
 73
     7
 74
     0
 42
0.00000001
 43
0.00000001
 12
1.0
 22
0.0
 32
0.0
 13
1.0
 23
0.0
 33
0.0
 40
0.0
 40
0.0
 40
0.0
 40
0.0
 40
0.2982476422028013
 40
0.5599694081888925
 40
0.7775458425783778
 40
1.0
 40
1.0
 40
1.0
 40
1.0
 10
137.4017366017207
 20
59.13557119923982
 30
0.0
 10
137.4223134507229
 20
59.07444088915004
 30
0.0
 10
137.4609471373903
 20
58.95966679299783
 30
0.0
 10
137.557752046547
 20
58.82188379328521
 30
0.0
 10
137.6752915114274
 20
58.72365128325752
 30
0.0
 10
137.7653080270424
 20
58.68958275244718
 30
0.0
 10
137.8108151997431
 20
58.67235966283235
 30
0.0
  0
LINE
  5
155
330
1F
100
AcDbEntity
  8
0
  6
Continuous
 62
     7
370
    15
100
AcDbLine
 10
137.8108151997
 20
58.6723596628
 30
0.0
 11
137.8108151997
 21
56.9007248457
 31
0.0
  0
LINE
  5
156
330
1F
100
AcDbEntity
  8
0
  6
Continuous
 62
     7
370
    15
100
AcDbLine
 10
137.8108151997
 20
56.9007248457
 30
0.0
 11
137.1687658872
 21
56.9007248457
 31
0.0
  0
SPLINE
  5
157
330
1F
100
AcDbEntity
  8
0
  6
Continuous
 62
     7
370
    15
100
AcDbSpline
210
0.0
220
0.0
230
1.0
 70
     8
 71
     3
 72
    11
 73
     7
 74
     0
 42
0.00000001
 43
0.00000001
 12
1.0
 22
0.0
 32
0.0
 13
1.0
 23
0.0
 33
0.0
 40
0.0
 40
0.0
 40
0.0
 40
0.0
 40
0.2107998402912706
 40
0.4408176470179961
 40
0.7025692984209126
 40
1.0
 40
1.0
 40
1.0
 40
1.0
 10
140.7083579148158
 20
58.67235966283235
 30
0.0
 10
140.7515407504185
 20
58.6884520857931
 30
0.0
 10
140.8418432665667
 20
58.72210402791301
 30
0.0
 10
140.9601500376296
 20
58.820163850623
 30
0.0
 10
141.0583210205661
 20
58.95998811847306
 30
0.0
 10
141.0969106029807
 20
59.07460575093174
 30
0.0
 10
141.1174365128382
 20
59.13557119923982
 30
0.0
  0
LINE
  5
158
330
1F
100
AcDbEntity
  8
0
  6
Continuous
 62
     7
370
    15
100
AcDbLine
 10
141.1174365128
 20
59.1355711992
 30
0.0
 11
141.3080044831
 21
59.9035889681
 31
0.0
  0
LINE
  5
159
330
1F
100
AcDbEntity
  8
0
  6
Continuous
 62
     7
370
    15
100
AcDbLine
 10
141.3080044831
 20
59.9035889681
 30
0.0
 11
141.3504012669
 21
60.038676935
 31
0.0
  0
LINE
  5
15A
330
1F
100
AcDbEntity
  8
0
  6
Continuous
 62
     7
370
    15
100
AcDbLine
 10
140.7083579148
 20
58.6723596628
 30
0.0
 11
140.7083579148
 21
56.9007248457
 31
0.0
  0
LINE
  5
15B
330
1F
100
AcDbEntity
  8
0
  6
Continuous
 62
     7
370
    15
100
AcDbLine
 10
141.3504012669
 20
56.9007248457
 30
0.0
 11
140.7083579148
 21
56.9007248457
 31
0.0
  0
SPLINE
  5
15C
330
1F
100
AcDbEntity
  8
0
  6
Continuous
 62
     7
370
    15
100
AcDbSpline
210
0.0
220
0.0
230
1.0
 70
     8
 71
     3
 72
    11
 73
     7
 74
     0
 42
0.00000001
 43
0.00000001
 12
1.0
 22
0.0
 32
0.0
 13
1.0
 23
0.0
 33
0.0
 40
0.0
 40
0.0
 40
0.0
 40
0.0
 40
0.2499037720333285
 40
0.4998596365819986
 40
0.7497387148652088
 40
0.9999999999999999
 40
0.9999999999999999
 40
0.9999999999999999
 40
0.9999999999999999
 10
137.8108151997431
 20
58.67235966283235
 30
0.0
 10
138.0514787792606
 20
58.64565409114716
 30
0.0
 10
138.5328561046901
 20
58.59223738099242
 30
0.0
 10
139.2591315416246
 20
58.60523405087614
 30
0.0
 10
139.9858019309843
 20
58.59089519371729
 30
0.0
 10
140.4673832455246
 20
58.64519100885496
 30
0.0
 10
140.7083579148158
 20
58.67235966283235
 30
0.0
  0
LINE
  5
15D
330
1F
100
AcDbEntity
  8
0
  6
Continuous
 62
     7
370
    15
100
AcDbLine
 10
140.7083579148
 20
56.9007248457
 30
0.0
 11
137.8108151997
 21
56.9007248457
 31
0.0
  0
LINE
  5
15E
330
1F
100
AcDbEntity
  8
0
  6
Continuous
 62
     7
370
    15
100
AcDbLine
 10
145.459587201
 20
56.9007248457
 30
0.0
 11
144.2415901269
 21
56.9007248457
 31
0.0
  0
LINE
  5
15F
330
1F
100
AcDbEntity
  8
0
  6
Continuous
 62
     7
370
    15
100
AcDbLine
 10
134.2775770272
 20
56.9007248457
 30
0.0
 11
133.0595859135
 21
56.9007248457
 31
0.0
  0
LINE
  5
160
330
1F
100
AcDbEntity
  8
0
  6
Continuous
 62
     7
370
    15
100
AcDbLine
 10
134.2775770272
 20
50.6212682303
 30
0.0
 11
134.2775770272
 21
56.920722204
 31
0.0
  0
LINE
  5
161
330
1F
100
AcDbEntity
  8
0
  6
Continuous
 62
     7
370
    15
100
AcDbLine
 10
134.2775770272
 20
56.920722204
 30
0.0
 11
137.1687658872
 21
56.920722204
 31
0.0
  0
LINE
  5
162
330
1F
100
AcDbEntity
  8
0
  6
Continuous
 62
     7
370
    15
100
AcDbLine
 10
137.1687658872
 20
56.920722204
 30
0.0
 11
137.1687658872
 21
43.7737078245
 31
0.0
  0
LWPOLYLINE
  5
163
330
1F
100
AcDbEntity
  8
0
  6
Continuous
 62
     7
370
    15
100
AcDbPolyline
 90
       14
 70
   128
 43
0.0
 10
137.1687658872
 20
43.7737078245
 10
136.9668849553
 20
44.2518562849
 10
136.7479988183
 20
44.7702736433
 10
136.5155526246
 20
45.3208059843
 10
136.2731941785
 20
45.8947987135
 10
136.0247381772
 20
46.4832634504
 10
135.7740768041
 20
47.0769257124
 10
135.5251558865
 20
47.6664752539
 10
135.2818795289
 20
48.2426495131
 10
135.0480743493
 20
48.7964005049
 10
134.8274119939
 20
49.3190259512
 10
134.6233554925
 20
49.802312332
 10
134.439111575
 20
50.2386779364
 10
134.2775770272
 20
50.6212682303
  0
LINE
  5
164
330
1F
100
AcDbEntity
  8
0
  6
Continuous
 62
     7
370
    15
100
AcDbLine
 10
141.3504012669
 20
43.7737078245
 30
0.0
 11
141.3504012669
 21
56.920722204
 31
0.0
  0
LINE
  5
165
330
1F
100
AcDbEntity
  8
0
  6
Continuous
 62
     7
370
    15
100
AcDbLine
 10
141.3504012669
 20
56.920722204
 30
0.0
 11
144.2415901269
 21
56.920722204
 31
0.0
  0
LINE
  5
166
330
1F
100
AcDbEntity
  8
0
  6
Continuous
 62
     7
370
    15
100
AcDbLine
 10
144.2415901269
 20
50.6212682303
 30
0.0
 11
144.2415901269
 21
56.920722204
 31
0.0
  0
LWPOLYLINE
  5
167
330
1F
100
AcDbEntity
  8
0
  6
Continuous
 62
     7
370
    15
100
AcDbPolyline
 90
       14
 70
   128
 43
0.0
 10
144.2415901269
 20
50.6212682303
 10
144.0800555791
 20
50.2386779364
 10
143.8958116616
 20
49.802312332
 10
143.6917551602
 20
49.3190259512
 10
143.4710928048
 20
48.7964005049
 10
143.2372876252
 20
48.2426495131
 10
142.994017228
 20
47.6664752539
 10
142.74509035
 20
47.0769257124
 10
142.4944349374
 20
46.4832634504
 10
142.2459729756
 20
45.8947987135
 10
142.00362049
 20
45.3208059843
 10
141.7711742963
 20
44.7702736433
 10
141.5522881593
 20
44.2518562849
 10
141.3504012669
 20
43.7737078245
  0
LINE
  5
168
330
1F
100
AcDbEntity
  8
0
  6
Continuous
 62
     7
370
    15
100
AcDbLine
 10
141.3504012669
 20
56.920722204
 30
0.0
 11
140.7083579148
 21
56.920722204
 31
0.0
  0
LWPOLYLINE
  5
169
330
1F
100
AcDbEntity
  8
0
  6
Continuous
 62
     7
370
    15
100
AcDbPolyline
 90
        5
 70
   128
 43
0.0
 10
140.7083579148
 20
42.253074127
 10
140.8817657079
 20
42.6637858923
 10
141.0499223317
 20
43.0620522078
 10
141.2077256287
 20
43.4357971724
 10
141.3504012669
 20
43.7737078245
  0
LINE
  5
16A
330
1F
100
AcDbEntity
  8
0
  6
Continuous
 62
     7
370
    15
100
AcDbLine
 10
137.8108151997
 20
56.920722204
 30
0.0
 11
137.1687658872
 21
56.920722204
 31
0.0
  0
LWPOLYLINE
  5
16B
330
1F
100
AcDbEntity
  8
0
  6
Continuous
 62
     7
370
    15
100
AcDbPolyline
 90
        5
 70
   128
 43
0.0
 10
137.8108151997
 20
42.253074127
 10
137.6374014462
 20
42.6637858923
 10
137.4692507829
 20
43.0620522078
 10
137.3114415254
 20
43.4357971724
 10
137.1687658872
 20
43.7737078245
  0
LINE
  5
16C
330
1F
100
AcDbEntity
  8
0
  6
Continuous
 62
     7
370
    15
100
AcDbLine
 10
137.9595824326
 20
41.9007272299
 30
0.0
 11
140.5595847215
 21
41.9007272299
 31
0.0
  0
LINE
  5
16D
330
1F
100
AcDbEntity
  8
0
  6
Continuous
 62
     7
370
    15
100
AcDbLine
 10
140.7083579148
 20
56.920722204
 30
0.0
 11
137.8108151997
 21
56.920722204
 31
0.0
  0
LINE
  5
16E
330
1F
100
AcDbEntity
  8
0
  6
Continuous
 62
     7
370
    15
100
AcDbLine
 10
140.5595847215
 20
41.9007272299
 30
0.0
 11
140.7083579148
 21
42.253074127
 31
0.0
  0
LINE
  5
16F
330
1F
100
AcDbEntity
  8
0
  6
Continuous
 62
     7
370
    15
100
AcDbLine
 10
137.8108151997
 20
42.253074127
 30
0.0
 11
137.9595824326
 21
41.9007272299
 31
0.0
  0
LINE
  5
170
330
1F
100
AcDbEntity
  8
0
  6
Continuous
 62
     7
370
    15
100
AcDbLine
 10
134.1595836724
 20
50.9007186468
 30
0.0
 11
134.1595836724
 21
56.920722204
 31
0.0
  0
LINE
  5
171
330
1F
100
AcDbEntity
  8
0
  6
Continuous
 62
     7
370
    15
100
AcDbLine
 10
134.1595836724
 20
56.920722204
 30
0.0
 11
134.2775770272
 21
56.920722204
 31
0.0
  0
LWPOLYLINE
  5
172
330
1F
100
AcDbEntity
  8
0
  6
Continuous
 62
     7
370
    15
100
AcDbPolyline
 90
        3
 70
   128
 43
0.0
 10
134.2775770272
 20
50.6212682303
 10
134.2179068173
 20
50.762590843
 10
134.1595836724
 20
50.9007186468
  0
LINE
  5
173
330
1F
100
AcDbEntity
  8
0
  6
Continuous
 62
     7
370
    15
100
AcDbLine
 10
144.3595834817
 20
50.9007186468
 30
0.0
 11
144.3595834817
 21
56.920722204
 31
0.0
  0
LINE
  5
174
330
1F
100
AcDbEntity
  8
0
  6
Continuous
 62
     7
370
    15
100
AcDbLine
 10
144.2415901269
 20
56.920722204
 30
0.0
 11
144.3595834817
 21
56.920722204
 31
0.0
  0
LWPOLYLINE
  5
175
330
1F
100
AcDbEntity
  8
0
  6
Continuous
 62
     7
370
    15
100
AcDbPolyline
 90
        3
 70
   128
 43
0.0
 10
144.3595834817
 20
50.9007186468
 10
144.3012603368
 20
50.762590843
 10
144.2415901269
 20
50.6212682303
  0
ARC
  5
176
330
1F
100
AcDbEntity
  8
0
  6
Continuous
 62
     7
370
    15
100
AcDbCircle
 10
139.2595853682
 20
43.9007244305
 30
0.0
 40
3.00000000000001
100
AcDbArc
 50
154.0778644919
 51
270.0
  0
ARC
  5
177
330
1F
100
AcDbEntity
  8
0
  6
Continuous
 62
     7
370
    15
100
AcDbCircle
 10
139.2595853682
 20
43.9007244305
 30
0.0
 40
2.999999999999972
100
AcDbArc
 50
270.0
 51
25.9221355081
  0
ARC
  5
178
330
1F
100
AcDbEntity
  8
0
  6
Continuous
 62
     7
370
    15
100
AcDbCircle
 10
139.2595853682
 20
43.9007244305
 30
0.0
 40
5.899999999999984
100
AcDbArc
 50
132.4534892463
 51
270.0
  0
ARC
  5
179
330
1F
100
AcDbEntity
  8
0
  6
Continuous
 62
     7
370
    15
100
AcDbCircle
 10
139.2595853682
 20
43.9007244305
 30
0.0
 40
5.899999999999984
100
AcDbArc
 50
270.0
 51
47.5465107537
  0
ARC
  5
17A
330
1F
100
AcDbEntity
  8
0
  6
Continuous
 62
     7
370
    15
100
AcDbCircle
 10
139.2595853682
 20
43.9007244305
 30
0.0
 40
8.000000000000023
100
AcDbArc
 50
127.1874208762
 51
270.0
  0
ARC
  5
17B
330
1F
100
AcDbEntity
  8
0
  6
Continuous
 62
     7
370
    15
100
AcDbCircle
 10
139.2595853682
 20
43.9007244305
 30
0.0
 40
8.000000000000007
100
AcDbArc
 50
270.0
 51
52.8125791238
  0
ARC
  5
17C
330
1F
100
AcDbEntity
  8
0
  6
Continuous
 62
     7
370
    15
100
AcDbCircle
 10
139.2595853682
 20
43.9007244305
 30
0.0
 40
7.300000000000053
100
AcDbArc
 50
128.5920619741
 51
180.0
  0
ARC
  5
17D
330
1F
100
AcDbEntity
  8
0
  6
Continuous
 62
     7
370
    15
100
AcDbCircle
 10
139.2595853682
 20
43.9007244305
 30
0.0
 40
7.30000000000004
100
AcDbArc
 50
180.0
 51
51.4079380259
  0
LINE
  5
17E
330
1F
100
AcDbEntity
  8
0
  6
Continuous
 62
     7
370
    15
100
AcDbLine
 10
269.1266008462
 20
53.7607640799
 30
0.0
 11
269.0115460004
 21
53.7826985891
 31
0.0
  0
LINE
  5
17F
330
1F
100
AcDbEntity
  8
0
  6
Continuous
 62
     7
370
    15
100
AcDbLine
 10
269.1266008462
 20
53.7607640799
 30
0.0
 11
269.1623159493
 21
53.9172262724
 31
0.0
  0
LINE
  5
180
330
1F
100
AcDbEntity
  8
0
  6
Continuous
 62
     7
370
    15
100
AcDbLine
 10
269.1623159493
 20
53.9172262724
 30
0.0
 11
273.782003745
 21
54.672959524
 31
0.0
  0
ARC
  5
181
330
1F
100
AcDbEntity
  8
0
  6
Continuous
 62
     7
370
    15
100
AcDbCircle
 10
273.7981474754
 20
54.5742730469
 30
0.0
 40
0.1000000000000079
100
AcDbArc
 50
9.2907387057
 51
99.2907387057
  0
LINE
  5
182
330
1F
100
AcDbEntity
  8
0
  6
Continuous
 62
     7
370
    15
100
AcDbLine
 10
273.9380069817
 20
54.3387383993
 30
0.0
 11
273.8968380536
 21
54.5904190119
 31
0.0
  0
ARC
  5
183
330
1F
100
AcDbEntity
  8
0
  6
Continuous
 62
     7
370
    15
100
AcDbCircle
 10
273.8393204229
 20
54.3225897567
 30
0.0
 40
0.1000000000000116
100
AcDbArc
 50
290.8147792897
 51
9.2907387057
  0
LINE
  5
184
330
1F
100
AcDbEntity
  8
0
  6
Continuous
 62
     7
370
    15
100
AcDbLine
 10
270.7320996369
 20
53.034362274
 30
0.0
 11
273.8748558606
 21
54.2291135367
 31
0.0
  0
ARC
  5
185
330
1F
100
AcDbEntity
  8
0
  6
Continuous
 62
     7
370
    15
100
AcDbCircle
 10
269.310706122
 20
56.7733035006
 30
0.0
 40
3.999999999999978
100
AcDbArc
 50
255.0423793101
 51
290.8147792897
  0
LINE
  5
186
330
1F
100
AcDbEntity
  8
0
  6
Continuous
 62
     7
370
    15
100
AcDbLine
 10
248.3447083081
 20
57.8633756216
 30
0.0
 11
259.7744651879
 21
57.8633756216
 31
0.0
  0
LINE
  5
187
330
1F
100
AcDbEntity
  8
0
  6
Continuous
 62
     7
370
    15
100
AcDbLine
 10
247.911695465
 20
58.1133753832
 30
0.0
 11
260.2074750508
 21
58.1133753832
 31
0.0
  0
LINE
  5
188
330
1F
100
AcDbEntity
  8
0
  6
Continuous
 62
     7
370
    15
100
AcDbLine
 10
248.9052691306
 20
60.1973206576
 30
0.0
 11
259.2139013852
 21
60.1973206576
 31
0.0
  0
ARC
  5
189
330
1F
100
AcDbEntity
  8
0
  6
Continuous
 62
     7
370
    15
100
AcDbCircle
 10
260.7195853682
 20
43.9007244305
 30
0.0
 40
6.100000000000001
100
AcDbArc
 50
270.0
 51
60.4837878425
  0
ARC
  5
18A
330
1F
100
AcDbEntity
  8
0
  6
Continuous
 62
     7
370
    15
100
AcDbCircle
 10
260.7195853682
 20
43.9007244305
 30
0.0
 40
6.100000000000007
100
AcDbArc
 50
148.4697516263
 51
270.0
  0
LINE
  5
18B
330
1F
100
AcDbEntity
  8
0
  6
Continuous
 62
     7
370
    15
100
AcDbLine
 10
248.0595865096
 20
67.9007262762
 30
0.0
 11
248.0595865096
 21
67.2607273634
 31
0.0
  0
LINE
  5
18C
330
1F
100
AcDbEntity
  8
0
  6
Continuous
 62
     7
370
    15
100
AcDbLine
 10
265.2581699933
 20
67.9007262762
 30
0.0
 11
266.0595842446
 21
67.9007262762
 31
0.0
  0
LINE
  5
18D
330
1F
100
AcDbEntity
  8
0
  6
Continuous
 62
     7
370
    15
100
AcDbLine
 10
266.0595842446
 20
67.2607273634
 30
0.0
 11
266.0595842446
 21
67.9007262762
 31
0.0
  0
LINE
  5
18E
330
1F
100
AcDbEntity
  8
0
  6
Continuous
 62
     7
370
    15
100
AcDbLine
 10
248.0595865096
 20
67.2607273634
 30
0.0
 11
266.0595842446
 21
67.2607273634
 31
0.0
  0
LINE
  5
18F
330
1F
100
AcDbEntity
  8
0
  6
Continuous
 62
     7
370
    15
100
AcDbLine
 10
249.5595850791
 20
63.4607226427
 30
0.0
 11
258.5595854367
 21
63.4607226427
 31
0.0
  0
SPLINE
  5
190
330
1F
100
AcDbEntity
  8
0
  6
Continuous
 62
     7
370
    15
100
AcDbSpline
210
0.0
220
0.0
230
1.0
 70
     8
 71
     3
 72
    18
 73
    14
 74
     0
 42
0.00000001
 43
0.00000001
 12
1.0
 22
0.0
 32
0.0
 13
1.0
 23
0.0
 33
0.0
 40
0.0
 40
0.0
 40
0.0
 40
0.0
 40
0.035678307147696
 40
0.142051543492175
 40
0.2487544221294476
 40
0.3562873570630661
 40
0.4638639401592609
 40
0.5002280066325249
 40
0.6069484311190324
 40
0.7136455915613229
 40
0.820939241942024
 40
0.9286322977637019
 40
1.0
 40
1.0
 40
1.0
 40
1.0
 10
249.560580476652
 20
65.7531888063565
 30
0.0
 10
249.5603043480428
 20
65.75528157409937
 30
0.0
 10
249.5592049546501
 20
65.76361383288099
 30
0.0
 10
249.566459381375
 20
65.70915514360259
 30
0.0
 10
249.5793645262845
 20
65.59529794605814
 30
0.0
 10
249.5930820132632
 20
65.42778476742475
 30
0.0
 10
249.5990738451065
 20
65.27360022346181
 30
0.0
 10
249.6002837504244
 20
65.11673431108348
 30
0.0
 10
249.5966357816757
 20
64.95935539750239
 30
0.0
 10
249.5844647719414
 20
64.78001791403462
 30
0.0
 10
249.5705298433557
 20
64.64526088912027
 30
0.0
 10
249.5605915110816
 20
64.56815591058168
 30
0.0
 10
249.5605836212702
 20
64.56823061459794
 30
0.0
 10
249.560580476652
 20
64.5682603891507
 30
0.0
  0
LINE
  5
191
330
1F
100
AcDbEntity
  8
0
  6
Continuous
 62
     7
370
    15
100
AcDbLine
 10
250.3048010911
 20
62.8007263716
 30
0.0
 11
257.8143664445
 21
62.8007263716
 31
0.0
  0
LINE
  5
192
330
1F
100
AcDbEntity
  8
0
  6
Continuous
 62
     7
370
    15
100
AcDbLine
 10
254.0595837678
 20
62.6607269819
 30
0.0
 11
257.5943657006
 21
62.6607269819
 31
0.0
  0
LINE
  5
193
330
1F
100
AcDbEntity
  8
0
  6
Continuous
 62
     7
370
    15
100
AcDbLine
 10
250.524801835
 20
62.6607269819
 30
0.0
 11
254.0595837678
 21
62.6607269819
 31
0.0
  0
LINE
  5
194
330
1F
100
AcDbEntity
  8
0
  6
Continuous
 62
     7
370
    15
100
AcDbLine
 10
254.0595837678
 20
63.0007237967
 30
0.0
 11
257.8143664445
 21
63.0007237967
 31
0.0
  0
LINE
  5
195
330
1F
100
AcDbEntity
  8
0
  6
Continuous
 62
     7
370
    15
100
AcDbLine
 10
250.3048010911
 20
63.0007237967
 30
0.0
 11
254.0595837678
 21
63.0007237967
 31
0.0
  0
LINE
  5
196
330
1F
100
AcDbEntity
  8
0
  6
Continuous
 62
     7
370
    15
100
AcDbLine
 10
254.0595837678
 20
62.5207216318
 30
0.0
 11
257.8143664445
 21
62.5207216318
 31
0.0
  0
LINE
  5
197
330
1F
100
AcDbEntity
  8
0
  6
Continuous
 62
     7
370
    15
100
AcDbLine
 10
250.3048010911
 20
62.5207216318
 30
0.0
 11
254.0595837678
 21
62.5207216318
 31
0.0
  0
LINE
  5
198
330
1F
100
AcDbEntity
  8
0
  6
Continuous
 62
     7
370
    15
100
AcDbLine
 10
250.3048010911
 20
62.5007242735
 30
0.0
 11
257.8143664445
 21
62.5007242735
 31
0.0
  0
LINE
  5
199
330
1F
100
AcDbEntity
  8
0
  6
Continuous
 62
     7
370
    15
100
AcDbLine
 10
254.0595837678
 20
63.1407231863
 30
0.0
 11
257.5943657006
 21
63.1407231863
 31
0.0
  0
LINE
  5
19A
330
1F
100
AcDbEntity
  8
0
  6
Continuous
 62
     7
370
    15
100
AcDbLine
 10
250.524801835
 20
63.1407231863
 30
0.0
 11
254.0595837678
 21
63.1407231863
 31
0.0
  0
LINE
  5
19B
330
1F
100
AcDbEntity
  8
0
  6
Continuous
 62
     7
370
    15
100
AcDbLine
 10
250.3048010911
 20
63.280722576
 30
0.0
 11
257.8143664445
 21
63.280722576
 31
0.0
  0
LINE
  5
19C
330
1F
100
AcDbEntity
  8
0
  6
Continuous
 62
     7
370
    15
100
AcDbLine
 10
255.7178982343
 20
62.5007242735
 30
0.0
 11
255.7178982343
 21
60.6473238047
 31
0.0
  0
LINE
  5
19D
330
1F
100
AcDbEntity
  8
0
  6
Continuous
 62
     7
370
    15
100
AcDbLine
 10
252.4012752618
 20
62.5007242735
 30
0.0
 11
252.4012752618
 21
60.6473238047
 31
0.0
  0
LINE
  5
19E
330
1F
100
AcDbEntity
  8
0
  6
Continuous
 62
     7
370
    15
100
AcDbLine
 10
256.5595873441
 20
62.5007242735
 30
0.0
 11
256.5595873441
 21
60.6473238047
 31
0.0
  0
LINE
  5
19F
330
1F
100
AcDbEntity
  8
0
  6
Continuous
 62
     7
370
    15
100
AcDbLine
 10
251.559586152
 20
60.6473238047
 30
0.0
 11
251.559586152
 21
62.5007242735
 31
0.0
  0
SPLINE
  5
1A0
330
1F
100
AcDbEntity
  8
0
  6
Continuous
 62
     7
370
    15
100
AcDbSpline
210
0.0
220
0.0
230
1.0
 70
     8
 71
     3
 72
     9
 73
     5
 74
     0
 42
0.00000001
 43
0.00000001
 12
1.0
 22
0.0
 32
0.0
 13
1.0
 23
0.0
 33
0.0
 40
0.0
 40
0.0
 40
0.0
 40
0.0
 40
0.4925145018715653
 40
1.0
 40
1.0
 40
1.0
 40
1.0
 10
257.6672502602442
 20
57.63606138783845
 30
0.0
 10
257.768811488033
 20
57.68861574542753
 30
0.0
 10
257.9750211070448
 20
57.79532195892861
 30
0.0
 10
258.1681721436889
 20
57.81122265412181
 30
0.0
 10
258.2661934937342
 20
57.81929202634248
 30
0.0
  0
SPLINE
  5
1A1
330
1F
100
AcDbEntity
  8
0
  6
Continuous
 62
     7
370
    15
100
AcDbSpline
210
0.0
220
0.0
230
1.0
 70
     8
 71
     3
 72
    10
 73
     6
 74
     0
 42
0.00000001
 43
0.00000001
 12
1.0
 22
0.0
 32
0.0
 13
1.0
 23
0.0
 33
0.0
 40
0.0
 40
0.0
 40
0.0
 40
0.0
 40
0.2556918987063243
 40
0.5077937644022974
 40
1.0
 40
1.0
 40
1.0
 40
1.0
 10
257.2237320984705
 20
56.80072613316925
 30
0.0
 10
257.2323921602072
 20
56.89048343523331
 30
0.0
 10
257.2495906923915
 20
57.06873780515398
 30
0.0
 10
257.3995327277348
 20
57.37707556504032
 30
0.0
 10
257.5606827624413
 20
57.53296962973309
 30
0.0
 10
257.6672502602442
 20
57.63606138783845
 30
0.0
  0
LINE
  5
1A2
330
1F
100
AcDbEntity
  8
0
  6
Continuous
 62
     7
370
    15
100
AcDbLine
 10
257.2237320985
 20
44.3700165327
 30
0.0
 11
257.2237320985
 21
56.8007261332
 31
0.0
  0
SPLINE
  5
1A3
330
1F
100
AcDbEntity
  8
0
  6
Continuous
 62
     7
370
    15
100
AcDbSpline
210
0.0
220
0.0
230
1.0
 70
     8
 71
     3
 72
    10
 73
     6
 74
     0
 42
0.00000001
 43
0.00000001
 12
1.0
 22
0.0
 32
0.0
 13
1.0
 23
0.0
 33
0.0
 40
0.0
 40
0.0
 40
0.0
 40
0.0
 40
0.4114278778551575
 40
0.8501641429693937
 40
1.0
 40
1.0
 40
1.0
 40
1.0
 10
249.7852423037394
 20
55.90072579938324
 30
0.0
 10
249.837742239169
 20
55.89288550319107
 30
0.0
 10
249.946226775616
 20
55.87668451377942
 30
0.0
 10
250.0731399940413
 20
55.77827206083266
 30
0.0
 10
250.1314026325879
 20
55.69236635854746
 30
0.0
 10
250.1462348545893
 20
55.67049689847381
 30
0.0
  0
LINE
  5
1A4
330
1F
100
AcDbEntity
  8
0
  6
Continuous
 62
     7
370
    15
100
AcDbLine
 10
248.6595847453
 20
55.9007257994
 30
0.0
 11
249.7852423037
 21
55.9007257994
 31
0.0
  0
LWPOLYLINE
  5
1A5
330
1F
100
AcDbEntity
  8
0
  6
Continuous
 62
     7
370
    15
100
AcDbPolyline
 90
       18
 70
   128
 43
0.0
 10
250.147164687
 20
55.6717009123
 10
250.4752346124
 20
55.1477582033
 10
250.8288749303
 20
54.5829743918
 10
251.2055643643
 20
53.9813727911
 10
251.6026207055
 20
53.3472508963
 10
252.0172067727
 20
52.6851386603
 10
252.4463602151
 20
51.99974485
 10
252.8870292748
 20
51.2959808882
 10
253.3360668267
 20
50.5788416441
 10
253.7902601804
 20
49.8534650381
 10
254.246378764
 20
49.1250128325
 10
254.7011622037
 20
48.3986944731
 10
255.1513739671
 20
47.6796955641
 10
255.5937894429
 20
46.973130184
 10
256.025261506
 20
46.2840408857
 10
256.4427085961
 20
45.617351013
 10
256.8431504811
 20
44.9778289374
 10
257.2237320985
 20
44.3700165327
  0
SPLINE
  5
1A6
330
1F
100
AcDbEntity
  8
0
  6
Continuous
 62
     7
370
    15
100
AcDbSpline
210
0.0
220
0.0
230
1.0
 70
    24
 71
     3
 72
     9
 73
     5
 74
     0
 42
0.00000001
 43
0.00000001
 12
1.0
 22
0.0
 32
0.0
 13
1.0
 23
0.0
 33
0.0
 40
0.0
 40
0.0
 40
0.0
 40
0.0
 40
0.4999944581344328
 40
1.0
 40
1.0
 40
1.0
 40
1.0
 10
257.2237320984705
 20
56.80072613316922
 30
0.0
 10
257.2598025845641
 20
56.80072613316922
 30
0.0
 10
257.331944356351
 20
56.80072613316922
 30
0.0
 10
257.4160581034328
 20
56.80072613316928
 30
0.0
 10
257.4581154431208
 20
56.80072613316925
 30
0.0
  0
LINE
  5
1A7
330
1F
100
AcDbEntity
  8
0
  6
Continuous
 62
     7
370
    15
100
AcDbLine
 10
257.4581154431
 20
43.9956874426
 30
0.0
 11
257.4581154431
 21
56.8007261332
 31
0.0
  0
LWPOLYLINE
  5
1A8
330
1F
100
AcDbEntity
  8
0
  6
Continuous
 62
     7
370
    15
100
AcDbPolyline
 90
        4
 70
   128
 43
0.0
 10
257.2237320985
 20
44.3700165327
 10
257.2959729279
 20
44.2546457823
 10
257.3752471055
 20
44.1280335959
 10
257.4581154431
 20
43.9956874426
  0
SPLINE
  5
1A9
330
1F
100
AcDbEntity
  8
0
  6
Continuous
 62
     7
370
    15
100
AcDbSpline
210
0.0
220
0.0
230
1.0
 70
     8
 71
     3
 72
    11
 73
     7
 74
     0
 42
0.00000001
 43
0.00000001
 12
1.0
 22
0.0
 32
0.0
 13
1.0
 23
0.0
 33
0.0
 40
0.0
 40
0.0
 40
0.0
 40
0.0
 40
0.249977445658111
 40
0.499969820094995
 40
0.7499791753375217
 40
1.0
 40
1.0
 40
1.0
 40
1.0
 10
257.9344817246302
 20
57.33238168317231
 30
0.0
 10
257.9073611276887
 20
57.34940601978059
 30
0.0
 10
257.8531183141499
 20
57.38345570969908
 30
0.0
 10
257.7777330835411
 20
57.45790042805879
 30
0.0
 10
257.7122067906579
 20
57.54357043796365
 30
0.0
 10
257.6822161314703
 20
57.60523059977113
 30
0.0
 10
257.6672204579218
 20
57.63606138783845
 30
0.0
  0
SPLINE
  5
1AA
330
1F
100
AcDbEntity
  8
0
  6
Continuous
 62
     7
370
    15
100
AcDbSpline
210
0.0
220
0.0
230
1.0
 70
     8
 71
     3
 72
    11
 73
     7
 74
     0
 42
0.00000001
 43
0.00000001
 12
1.0
 22
0.0
 32
0.0
 13
1.0
 23
0.0
 33
0.0
 40
0.0
 40
0.0
 40
0.0
 40
0.0
 40
0.107162527113723
 40
0.2227903437665282
 40
0.4658289187903979
 40
1.0
 40
1.0
 40
1.0
 40
1.0
 10
257.4581154431208
 20
56.80072613316922
 30
0.0
 10
257.4603768276694
 20
56.82906982840771
 30
0.0
 10
257.4650782345373
 20
56.88799622531035
 30
0.0
 10
257.5129275827406
 20
57.00113966945558
 30
0.0
 10
257.6579984338407
 20
57.17946842193919
 30
0.0
 10
257.8218604437462
 20
57.27004885896083
 30
0.0
 10
257.9344817246302
 20
57.33230419713409
 30
0.0
  0
LINE
  5
1AB
330
1F
100
AcDbEntity
  8
0
  6
Continuous
 62
     7
370
    15
100
AcDbLine
 10
264.9421521272
 20
50.2872795637
 30
0.0
 11
266.4889105405
 21
50.7763356741
 31
0.0
  0
ARC
  5
1AC
330
1F
100
AcDbEntity
  8
0
  6
Continuous
 62
     7
370
    15
100
AcDbCircle
 10
265.5451006637
 20
48.3803312979
 30
0.0
 40
2.000000000000068
100
AcDbArc
 50
107.5460973091
 51
172.8749836511
  0
LINE
  5
1AD
330
1F
100
AcDbEntity
  8
0
  6
Continuous
 62
     7
370
    15
100
AcDbLine
 10
262.8290780629
 20
42.7766890104
 30
0.0
 11
263.5605462636
 21
48.6283988531
 31
0.0
  0
ARC
  5
1AE
330
1F
100
AcDbEntity
  8
0
  6
Continuous
 62
     7
370
    15
100
AcDbCircle
 10
261.8368031497
 20
42.9007244305
 30
0.0
 40
1.000000000000062
100
AcDbArc
 50
270.0
 51
352.8749836511
  0
LINE
  5
1AF
330
1F
100
AcDbEntity
  8
0
  6
Continuous
 62
     7
370
    15
100
AcDbLine
 10
259.5458038892
 20
41.9007272299
 30
0.0
 11
261.8368037785
 21
41.9007272299
 31
0.0
  0
ARC
  5
1B0
330
1F
100
AcDbEntity
  8
0
  6
Continuous
 62
     7
370
    15
100
AcDbCircle
 10
259.5458012748
 20
42.9007244305
 30
0.0
 40
1.000000000000028
100
AcDbArc
 50
217.5094967305
 51
270.0
  0
LINE
  5
1B1
330
1F
100
AcDbEntity
  8
0
  6
Continuous
 62
     7
370
    15
100
AcDbLine
 10
257.326079234
 20
44.1502065237
 30
0.0
 11
258.7525495137
 21
42.2918290671
 31
0.0
  0
LINE
  5
1B2
330
1F
100
AcDbEntity
  8
0
  6
Continuous
 62
     7
370
    15
100
AcDbLine
 10
257.326079234
 20
44.2065567549
 30
0.0
 11
257.326079234
 21
44.1502065237
 31
0.0
  0
LINE
  5
1B3
330
1F
100
AcDbEntity
  8
0
  6
Continuous
 62
     7
370
    15
100
AcDbLine
 10
257.4581154431
 20
56.8007261332
 30
0.0
 11
260.7195862378
 21
56.8007261332
 31
0.0
  0
SPLINE
  5
1B4
330
1F
100
AcDbEntity
  8
0
  6
Continuous
 62
     7
370
    15
100
AcDbSpline
210
0.0
220
0.0
230
1.0
 70
     8
 71
     3
 72
    13
 73
     9
 74
     0
 42
0.00000001
 43
0.00000001
 12
1.0
 22
0.0
 32
0.0
 13
1.0
 23
0.0
 33
0.0
 40
0.0
 40
0.0
 40
0.0
 40
0.0
 40
0.1653453445400213
 40
0.3320987771166193
 40
0.4999998786155203
 40
0.6678904713999322
 40
0.8346497831378804
 40
1.0
 40
1.0
 40
1.0
 40
1.0
 10
269.0115460003718
 20
53.78269858914764
 30
0.0
 10
268.6206793634713
 20
54.08908946011356
 30
0.0
 10
267.8356174526478
 20
54.70448043982662
 30
0.0
 10
266.527867511817
 20
55.44971365912177
 30
0.0
 10
265.1421359700805
 20
56.0514868157447
 30
0.0
 10
263.6937750711318
 20
56.48123256422058
 30
0.0
 10
262.2129575705762
 20
56.75098495030312
 30
0.0
 10
261.2159666504509
 20
56.78419270418547
 30
0.0
 10
260.7195862377986
 20
56.80072613316925
 30
0.0
  0
LINE
  5
1B5
330
1F
100
AcDbEntity
  8
0
  6
Continuous
 62
     7
370
    15
100
AcDbLine
 10
266.4889105405
 20
50.7763356741
 30
0.0
 11
269.0115460004
 21
53.7826985891
 31
0.0
  0
LINE
  5
1B6
330
1F
100
AcDbEntity
  8
0
  6
Continuous
 62
     7
370
    15
100
AcDbLine
 10
258.49661909
 20
57.4902743872
 30
0.0
 11
258.5723348702
 21
57.5007230814
 31
0.0
  0
LINE
  5
1B7
330
1F
100
AcDbEntity
  8
0
  6
Continuous
 62
     7
370
    15
100
AcDbLine
 10
260.7195862378
 20
57.5007230814
 30
0.0
 11
258.5723348702
 21
57.5007230814
 31
0.0
  0
LINE
  5
1B8
330
1F
100
AcDbEntity
  8
0
  6
Continuous
 62
     7
370
    15
100
AcDbLine
 10
260.7195862378
 20
56.8007261332
 30
0.0
 11
260.7195862378
 21
57.5007230814
 31
0.0
  0
ARC
  5
1B9
330
1F
100
AcDbEntity
  8
0
  6
Continuous
 62
     7
370
    15
100
AcDbCircle
 10
260.7195853682
 20
43.9007244305
 30
0.0
 40
13.6
100
AcDbArc
 50
50.0
 51
90.0
  0
SPLINE
  5
1BA
330
1F
100
AcDbEntity
  8
0
  6
Continuous
 62
     7
370
    15
100
AcDbSpline
210
0.0
220
0.0
230
1.0
 70
     8
 71
     3
 72
    12
 73
     8
 74
     0
 42
0.00000001
 43
0.00000001
 12
1.0
 22
0.0
 32
0.0
 13
1.0
 23
0.0
 33
0.0
 40
0.0
 40
0.0
 40
0.0
 40
0.0
 40
0.2146899435825551
 40
0.4293887900154438
 40
0.644083510429511
 40
0.85877692896836
 40
1.0
 40
1.0
 40
1.0
 40
1.0
 10
269.0115460003718
 20
53.78269858914764
 30
0.0
 10
269.0621302451241
 20
53.84298221540973
 30
0.0
 10
269.1633008322769
 20
53.96355196780001
 30
0.0
 10
269.2981444296853
 20
54.12424483607295
 30
0.0
 10
269.399895307719
 20
54.24552449854142
 30
0.0
 10
269.4538174243741
 20
54.30977393303971
 30
0.0
 10
269.459314381608
 20
54.31632602847236
 30
0.0
 10
269.4614955033168
 20
54.31892581540498
 30
0.0
  0
LINE
  5
1BB
330
1F
100
AcDbEntity
  8
0
  6
Continuous
 62
     7
370
    15
100
AcDbLine
 10
258.5217007245
 20
57.5118929918
 30
0.0
 11
258.5723348702
 21
57.5007230814
 31
0.0
  0
LINE
  5
1BC
330
1F
100
AcDbEntity
  8
0
  6
Continuous
 62
     7
370
    15
100
AcDbLine
 10
259.4205447282
 20
44.6507186468
 30
0.0
 11
260.7195862378
 21
45.400723892
 31
0.0
  0
LINE
  5
1BD
330
1F
100
AcDbEntity
  8
0
  6
Continuous
 62
     7
370
    15
100
AcDbLine
 10
260.7195862378
 20
45.400723892
 30
0.0
 11
262.018621787
 21
44.6507186468
 31
0.0
  0
LINE
  5
1BE
330
1F
100
AcDbEntity
  8
0
  6
Continuous
 62
     7
370
    15
100
AcDbLine
 10
262.018621787
 20
44.6507186468
 30
0.0
 11
262.018621787
 21
43.1507200773
 31
0.0
  0
LINE
  5
1BF
330
1F
100
AcDbEntity
  8
0
  6
Continuous
 62
     7
370
    15
100
AcDbLine
 10
260.7195862378
 20
42.4007267531
 30
0.0
 11
259.4205447282
 21
43.1507200773
 31
0.0
  0
LINE
  5
1C0
330
1F
100
AcDbEntity
  8
0
  6
Continuous
 62
     7
370
    15
100
AcDbLine
 10
259.4205447282
 20
43.1507200773
 30
0.0
 11
259.4205447282
 21
44.6507186468
 31
0.0
  0
CIRCLE
  5
1C1
330
1F
100
AcDbEntity
  8
0
  6
Continuous
 62
     7
370
    15
100
AcDbCircle
 10
260.7195853682
 20
43.9007244305
 30
0.0
 40
0.0335961654280865
  0
LINE
  5
1C2
330
1F
100
AcDbEntity
  8
0
  6
Continuous
 62
     7
370
    15
100
AcDbLine
 10
262.018621787
 20
43.1507200773
 30
0.0
 11
260.7195862378
 21
42.4007267531
 31
0.0
  0
ARC
  5
1C3
330
1F
100
AcDbEntity
  8
0
  6
Continuous
 62
     7
370
    15
100
AcDbCircle
 10
260.7195853682
 20
43.9007244305
 30
0.0
 40
8.099999999999994
100
AcDbArc
 50
270.0
 51
54.0317082524
  0
ARC
  5
1C4
330
1F
100
AcDbEntity
  8
0
  6
Continuous
 62
     7
370
    15
100
AcDbCircle
 10
260.7195853682
 20
43.9007244305
 30
0.0
 40
8.099999999999998
100
AcDbArc
 50
141.628272188
 51
270.0
  0
LINE
  5
1C5
330
1F
100
AcDbEntity
  8
0
  6
Continuous
 62
     7
370
    15
100
AcDbLine
 10
123.6395844067
 20
176.1607245381
 30
0.0
 11
123.6795850839
 21
176.1607245381
 31
0.0
  0
LINE
  5
1C6
330
1F
100
AcDbEntity
  8
0
  6
Continuous
 62
     7
370
    15
100
AcDbLine
 10
123.6395844067
 20
193.160724717
 30
0.0
 11
123.6795850839
 21
193.160724717
 31
0.0
  0
LINE
  5
1C7
330
1F
100
AcDbEntity
  8
0
  6
Continuous
 62
     7
370
    15
100
AcDbLine
 10
123.6395844067
 20
176.1607245381
 30
0.0
 11
123.6395844067
 21
193.160724717
 31
0.0
  0
LINE
  5
1C8
330
1F
100
AcDbEntity
  8
0
  6
Continuous
 62
     7
370
    15
100
AcDbLine
 10
123.6395844067
 20
194.1607237633
 30
0.0
 11
123.6795850839
 21
194.1607237633
 31
0.0
  0
LINE
  5
1C9
330
1F
100
AcDbEntity
  8
0
  6
Continuous
 62
     7
370
    15
100
AcDbLine
 10
123.6395844067
 20
193.160724717
 30
0.0
 11
123.6395844067
 21
194.1607237633
 31
0.0
  0
LINE
  5
1CA
330
1F
100
AcDbEntity
  8
0
  6
Continuous
 62
     7
370
    15
100
AcDbLine
 10
123.6395844067
 20
175.1607240017
 30
0.0
 11
123.6795850839
 21
175.1607240017
 31
0.0
  0
LINE
  5
1CB
330
1F
100
AcDbEntity
  8
0
  6
Continuous
 62
     7
370
    15
100
AcDbLine
 10
123.6395844067
 20
175.1607240017
 30
0.0
 11
123.6395844067
 21
176.1607245381
 31
0.0
  0
LINE
  5
1CC
330
1F
100
AcDbEntity
  8
0
  6
Continuous
 62
     7
370
    15
100
AcDbLine
 10
123.6795850839
 20
170.7607240255
 30
0.0
 11
123.6395844067
 21
170.7607240255
 31
0.0
  0
LINE
  5
1CD
330
1F
100
AcDbEntity
  8
0
  6
Continuous
 62
     7
370
    15
100
AcDbLine
 10
123.6795850839
 20
163.1607242699
 30
0.0
 11
123.6395844067
 21
163.1607242699
 31
0.0
  0
LINE
  5
1CE
330
1F
100
AcDbEntity
  8
0
  6
Continuous
 62
     7
370
    15
100
AcDbLine
 10
123.6395844067
 20
170.7607240255
 30
0.0
 11
123.6395844067
 21
163.1607242699
 31
0.0
  0
LINE
  5
1CF
330
1F
100
AcDbEntity
  8
0
  6
Continuous
 62
     7
370
    15
100
AcDbLine
 10
123.6395844067
 20
153.1607244003
 30
0.0
 11
123.6795850839
 21
153.1607244003
 31
0.0
  0
LINE
  5
1D0
330
1F
100
AcDbEntity
  8
0
  6
Continuous
 62
     7
370
    15
100
AcDbLine
 10
123.6395844067
 20
153.1607244003
 30
0.0
 11
123.6395844067
 21
160.360724556
 31
0.0
  0
LINE
  5
1D1
330
1F
100
AcDbEntity
  8
0
  6
Continuous
 62
     7
370
    15
100
AcDbLine
 10
123.6395844067
 20
160.360724556
 30
0.0
 11
123.6795850839
 21
160.360724556
 31
0.0
  0
LINE
  5
1D2
330
1F
100
AcDbEntity
  8
0
  6
Continuous
 62
     7
370
    15
100
AcDbLine
 10
123.6595877255
 20
171.1607248362
 30
0.0
 11
123.6595877255
 21
173.0607242163
 31
0.0
  0
LINE
  5
1D3
330
1F
100
AcDbEntity
  8
0
  6
Continuous
 62
     7
370
    15
100
AcDbLine
 10
123.6595877255
 20
170.7607240255
 30
0.0
 11
123.6595877255
 21
171.1607248362
 31
0.0
  0
LINE
  5
1D4
330
1F
100
AcDbEntity
  8
0
  6
Continuous
 62
     7
370
    15
100
AcDbLine
 10
123.6575850095
 20
172.192747968
 30
0.0
 11
123.6595877255
 21
172.192747968
 31
0.0
  0
LINE
  5
1D5
330
1F
100
AcDbEntity
  8
0
  6
Continuous
 62
     7
370
    15
100
AcDbLine
 10
123.6575850095
 20
172.2440303143
 30
0.0
 11
123.6595877255
 21
172.2440303143
 31
0.0
  0
LINE
  5
1D6
330
1F
100
AcDbEntity
  8
0
  6
Continuous
 62
     7
370
    15
100
AcDbLine
 10
123.6575850095
 20
172.2440303143
 30
0.0
 11
123.6575850095
 21
172.192747968
 31
0.0
  0
LINE
  5
1D7
330
1F
100
AcDbEntity
  8
0
  6
Continuous
 62
     7
370
    15
100
AcDbLine
 10
123.6575850095
 20
171.744029301
 30
0.0
 11
123.6595877255
 21
171.744029301
 31
0.0
  0
LINE
  5
1D8
330
1F
100
AcDbEntity
  8
0
  6
Continuous
 62
     7
370
    15
100
AcDbLine
 10
123.6575850095
 20
172.192747968
 30
0.0
 11
123.6575850095
 21
171.744029301
 31
0.0
  0
LINE
  5
1D9
330
1F
100
AcDbEntity
  8
0
  6
Continuous
 62
     7
370
    15
100
AcDbLine
 10
123.6575850095
 20
170.9634200509
 30
0.0
 11
123.6595877255
 21
170.9634200509
 31
0.0
  0
LINE
  5
1DA
330
1F
100
AcDbEntity
  8
0
  6
Continuous
 62
     7
370
    15
100
AcDbLine
 10
123.6575850095
 20
171.0987360056
 30
0.0
 11
123.6595877255
 21
171.0987360056
 31
0.0
  0
SPLINE
  5
1DB
330
1F
100
AcDbEntity
  8
0
  6
Continuous
 62
     7
370
    15
100
AcDbSpline
210
0.0
220
0.0
230
1.0
 70
    24
 71
     3
 72
    10
 73
     6
 74
     0
 42
0.00000001
 43
0.00000001
 12
1.0
 22
0.0
 32
0.0
 13
1.0
 23
0.0
 33
0.0
 40
0.0
 40
0.0
 40
0.0
 40
0.0
 40
0.5601118958683927
 40
0.7802846130752471
 40
1.0
 40
1.0
 40
1.0
 40
1.0
 10
123.657585009466
 20
171.2600947197095
 30
0.0
 10
123.657585009466
 20
171.2368826717294
 30
0.0
 10
123.657585009466
 20
171.2045462689312
 30
0.0
 10
123.657585009466
 20
171.1443662380561
 30
0.0
 10
123.657585009466
 20
171.1139355373157
 30
0.0
 10
123.657585009466
 20
171.0987360056058
 30
0.0
  0
LINE
  5
1DC
330
1F
100
AcDbEntity
  8
0
  6
Continuous
 62
     7
370
    15
100
AcDbLine
 10
123.6575850095
 20
171.2600947197
 30
0.0
 11
123.6595877255
 21
171.2600947197
 31
0.0
  0
SPLINE
  5
1DD
330
1F
100
AcDbEntity
  8
0
  6
Continuous
 62
     7
370
    15
100
AcDbSpline
210
0.0
220
0.0
230
1.0
 70
    24
 71
     3
 72
    10
 73
     6
 74
     0
 42
0.00000001
 43
0.00000001
 12
1.0
 22
0.0
 32
0.0
 13
1.0
 23
0.0
 33
0.0
 40
0.0
 40
0.0
 40
0.0
 40
0.0
 40
0.5601118958683927
 40
0.7802846130752471
 40
1.0
 40
1.0
 40
1.0
 40
1.0
 10
123.6595877255305
 20
171.2600947197095
 30
0.0
 10
123.6595877255305
 20
171.2368826717294
 30
0.0
 10
123.6595877255305
 20
171.2045462689312
 30
0.0
 10
123.6595877255305
 20
171.1443662380561
 30
0.0
 10
123.6595877255305
 20
171.1139355373157
 30
0.0
 10
123.6595877255305
 20
171.0987360056058
 30
0.0
  0
LINE
  5
1DE
330
1F
100
AcDbEntity
  8
0
  6
Continuous
 62
     7
370
    15
100
AcDbLine
 10
123.6575850095
 20
171.3736773308
 30
0.0
 11
123.6595877255
 21
171.3736773308
 31
0.0
  0
LINE
  5
1DF
330
1F
100
AcDbEntity
  8
0
  6
Continuous
 62
     7
370
    15
100
AcDbLine
 10
123.6575850095
 20
171.4044258769
 30
0.0
 11
123.6595877255
 21
171.4044258769
 31
0.0
  0
LINE
  5
1E0
330
1F
100
AcDbEntity
  8
0
  6
Continuous
 62
     7
370
    15
100
AcDbLine
 10
123.6575850095
 20
171.4044258769
 30
0.0
 11
123.6575850095
 21
171.3736773308
 31
0.0
  0
LINE
  5
1E1
330
1F
100
AcDbEntity
  8
0
  6
Continuous
 62
     7
370
    15
100
AcDbLine
 10
123.6575850095
 20
171.4890614923
 30
0.0
 11
123.6595877255
 21
171.4890614923
 31
0.0
  0
LINE
  5
1E2
330
1F
100
AcDbEntity
  8
0
  6
Continuous
 62
     7
370
    15
100
AcDbLine
 10
123.6575850095
 20
171.3098750289
 30
0.0
 11
123.6595877255
 21
171.3098750289
 31
0.0
  0
LINE
  5
1E3
330
1F
100
AcDbEntity
  8
0
  6
Continuous
 62
     7
370
    15
100
AcDbLine
 10
119.9595876778
 20
160.360724556
 30
0.0
 11
119.9595876778
 21
164.7607245322
 31
0.0
  0
LINE
  5
1E4
330
1F
100
AcDbEntity
  8
0
  6
Continuous
 62
     7
370
    15
100
AcDbLine
 10
119.5595868672
 20
160.7607246216
 30
0.0
 11
119.5595868672
 21
164.3607244666
 31
0.0
  0
LINE
  5
1E5
330
1F
100
AcDbEntity
  8
0
  6
Continuous
 62
     7
370
    15
100
AcDbLine
 10
119.1595860566
 20
160.360724556
 30
0.0
 11
119.1595860566
 21
164.7607245322
 31
0.0
  0
LINE
  5
1E6
330
1F
100
AcDbEntity
  8
0
  6
Continuous
 62
     7
370
    15
100
AcDbLine
 10
118.759585246
 20
160.7607246216
 30
0.0
 11
118.759585246
 21
164.3607244666
 31
0.0
  0
LINE
  5
1E7
330
1F
100
AcDbEntity
  8
0
  6
Continuous
 62
     7
370
    15
100
AcDbLine
 10
118.3595844354
 20
160.360724556
 30
0.0
 11
118.3595844354
 21
164.7607245322
 31
0.0
  0
LINE
  5
1E8
330
1F
100
AcDbEntity
  8
0
  6
Continuous
 62
     7
370
    15
100
AcDbLine
 10
117.9595836247
 20
160.7607246216
 30
0.0
 11
117.9595836247
 21
164.3607244666
 31
0.0
  0
LINE
  5
1E9
330
1F
100
AcDbEntity
  8
0
  6
Continuous
 62
     7
370
    15
100
AcDbLine
 10
117.5595828141
 20
160.360724556
 30
0.0
 11
117.5595828141
 21
164.7607245322
 31
0.0
  0
LINE
  5
1EA
330
1F
100
AcDbEntity
  8
0
  6
Continuous
 62
     7
370
    15
100
AcDbLine
 10
117.1595879639
 20
160.7607246216
 30
0.0
 11
117.1595879639
 21
164.3607244666
 31
0.0
  0
LINE
  5
1EB
330
1F
100
AcDbEntity
  8
0
  6
Continuous
 62
     7
370
    15
100
AcDbLine
 10
120.359582528
 20
162.5607245441
 30
0.0
 11
120.359582528
 21
160.360724556
 31
0.0
  0
LINE
  5
1EC
330
1F
100
AcDbEntity
  8
0
  6
Continuous
 62
     7
370
    15
100
AcDbLine
 10
120.359582528
 20
164.7607245322
 30
0.0
 11
120.359582528
 21
162.5607245441
 31
0.0
  0
LINE
  5
1ED
330
1F
100
AcDbEntity
  8
0
  6
Continuous
 62
     7
370
    15
100
AcDbLine
 10
277.7795859422
 20
163.8907247062
 30
0.0
 11
277.7795859422
 21
166.1765531476
 31
0.0
  0
LINE
  5
1EE
330
1F
100
AcDbEntity
  8
0
  6
Continuous
 62
     7
370
    15
100
AcDbLine
 10
277.7795859422
 20
161.6048955198
 30
0.0
 11
277.7795859422
 21
163.8907247062
 31
0.0
  0
SPLINE
  5
1EF
330
1F
100
AcDbEntity
  8
0
  6
Continuous
 62
     7
370
    15
100
AcDbSpline
210
0.0
220
0.0
230
1.0
 70
    24
 71
     3
 72
    13
 73
     9
 74
     0
 42
0.00000001
 43
0.00000001
 12
1.0
 22
0.0
 32
0.0
 13
1.0
 23
0.0
 33
0.0
 40
0.0
 40
0.0
 40
0.0
 40
0.0
 40
0.2394568626494331
 40
0.3683605163393253
 40
0.4999998362066703
 40
0.6316391560740153
 40
0.760542921500871
 40
1.0
 40
1.0
 40
1.0
 40
1.0
 10
280.6795843685969
 20
162.9107245083466
 30
0.0
 10
280.6795843685969
 20
162.9238154589323
 30
0.0
 10
280.6795843685969
 20
162.9439534882365
 30
0.0
 10
280.6795843685969
 20
163.0661565717953
 30
0.0
 10
280.6795843685969
 20
163.1926371295492
 30
0.0
 10
280.6795843685969
 20
163.3496397443083
 30
0.0
 10
280.6795843685969
 20
163.5777995952717
 30
0.0
 10
280.6795843685969
 20
163.7674441478703
 30
0.0
 10
280.6795843685969
 20
163.8907247062341
 30
0.0
  0
LINE
  5
1F0
330
1F
100
AcDbEntity
  8
0
  6
Continuous
 62
     7
370
    15
100
AcDbLine
 10
277.7195879067
 20
157.3907243859
 30
0.0
 11
277.7195879067
 21
158.0182676043
 31
0.0
  0
LINE
  5
1F1
330
1F
100
AcDbEntity
  8
0
  6
Continuous
 62
     7
370
    15
100
AcDbLine
 10
277.7195879067
 20
169.0098822888
 30
0.0
 11
277.7195879067
 21
170.3907237228
 31
0.0
  0
LINE
  5
1F2
330
1F
100
AcDbEntity
  8
0
  6
Continuous
 62
     7
370
    15
100
AcDbLine
 10
279.7195859994
 20
168.6306805189
 30
0.0
 11
279.7195859994
 21
169.5907250817
 31
0.0
  0
SPLINE
  5
1F3
330
1F
100
AcDbEntity
  8
0
  6
Continuous
 62
     7
370
    15
100
AcDbSpline
210
0.0
220
0.0
230
1.0
 70
     8
 71
     3
 72
     9
 73
     5
 74
     0
 42
0.00000001
 43
0.00000001
 12
1.0
 22
0.0
 32
0.0
 13
1.0
 23
0.0
 33
0.0
 40
0.0
 40
0.0
 40
0.0
 40
0.0
 40
0.5209753502055585
 40
1.0
 40
1.0
 40
1.0
 40
1.0
 10
279.5938619221552
 20
168.4097380216733
 30
0.0
 10
279.5994817958205
 20
168.4584906181065
 30
0.0
 10
279.6102690118815
 20
168.5520700867203
 30
0.0
 10
279.6841805504848
 20
168.6052202706725
 30
0.0
 10
279.7195859993799
 20
168.6306805189267
 30
0.0
  0
SPLINE
  5
1F4
330
1F
100
AcDbEntity
  8
0
  6
Continuous
 62
     7
370
    15
100
AcDbSpline
210
0.0
220
0.0
230
1.0
 70
     8
 71
     3
 72
     9
 73
     5
 74
     0
 42
0.00000001
 43
0.00000001
 12
1.0
 22
0.0
 32
0.0
 13
1.0
 23
0.0
 33
0.0
 40
0.0
 40
0.0
 40
0.0
 40
0.0
 40
0.4790248582119397
 40
1.0
 40
1.0
 40
1.0
 40
1.0
 10
279.7195859993799
 20
159.1507688935414
 30
0.0
 10
279.6841805504681
 20
159.1762291595032
 30
0.0
 10
279.6102690439877
 20
159.2293793572964
 30
0.0
 10
279.5994818053395
 20
159.3229585730633
 30
0.0
 10
279.5938619221552
 20
159.3717110182658
 30
0.0
  0
LINE
  5
1F5
330
1F
100
AcDbEntity
  8
0
  6
Continuous
 62
     7
370
    15
100
AcDbLine
 10
279.7195859994
 20
158.1907243307
 30
0.0
 11
279.7195859994
 21
159.1507688935
 31
0.0
  0
SPLINE
  5
1F6
330
1F
100
AcDbEntity
  8
0
  6
Continuous
 62
     7
370
    15
100
AcDbSpline
210
0.0
220
0.0
230
1.0
 70
     8
 71
     3
 72
    16
 73
    12
 74
     0
 42
0.00000001
 43
0.00000001
 12
1.0
 22
0.0
 32
0.0
 13
1.0
 23
0.0
 33
0.0
 40
0.0
 40
0.0
 40
0.0
 40
0.0
 40
0.0000604862897704
 40
0.1251214430213333
 40
0.2500910857965261
 40
0.3750578489536553
 40
0.500022713890483
 40
0.6249868339953201
 40
0.7499524858838272
 40
0.8749155412135153
 40
0.9999999999999999
 40
0.9999999999999999
 40
0.9999999999999999
 40
0.9999999999999999
 10
278.1838544453486
 20
170.205016511263
 30
0.0
 10
278.1838484823048
 20
170.2050189959327
 30
0.0
 10
278.1715133788766
 20
170.2101587634182
 30
0.0
 10
278.2130395551281
 20
170.1911067647916
 30
0.0
 10
278.3063928435173
 20
170.1460699465952
 30
0.0
 10
278.460100310751
 20
170.0765712055106
 30
0.0
 10
278.6405020474424
 20
170.0008725372025
 30
0.0
 10
278.8242000433644
 20
169.9304830892058
 30
0.0
 10
278.9803224744022
 20
169.8758929150749
 30
0.0
 10
279.090549573661
 20
169.8403646594103
 30
0.0
 10
279.1050462554842
 20
169.8358808461734
 30
0.0
 10
279.1122981156215
 20
169.833637851061
 30
0.0
  0
LINE
  5
1F7
330
1F
100
AcDbEntity
  8
0
  6
Continuous
 62
     7
370
    15
100
AcDbLine
 10
279.7195859994
 20
168.2638049896
 30
0.0
 11
279.7195859994
 21
164.9707243617
 31
0.0
  0
LINE
  5
1F8
330
1F
100
AcDbEntity
  8
0
  6
Continuous
 62
     7
370
    15
100
AcDbLine
 10
279.7195859994
 20
162.836226153
 30
0.0
 11
279.7195859994
 21
159.5176444228
 31
0.0
  0
ARC
  5
1F9
330
1F
100
AcDbEntity
  8
0
  6
Continuous
 62
     7
370
    15
100
AcDbCircle
 10
279.5572201863
 20
159.5304018922
 30
0.0
 40
0.162866234273277
100
AcDbArc
 50
283.0017347415
 51
355.5073639954
  0
ARC
  5
1FA
330
1F
100
AcDbEntity
  8
0
  6
Continuous
 62
     7
370
    15
100
AcDbCircle
 10
279.5572201433
 20
168.2510470781
 30
0.0
 40
0.1628663117762764
100
AcDbArc
 50
4.4927898857
 51
76.9982560284
  0
SPLINE
  5
1FB
330
1F
100
AcDbEntity
  8
0
  6
Continuous
 62
     7
370
    15
100
AcDbSpline
210
0.0
220
0.0
230
1.0
 70
     8
 71
     3
 72
     9
 73
     5
 74
     0
 42
0.00000001
 43
0.00000001
 12
1.0
 22
0.0
 32
0.0
 13
1.0
 23
0.0
 33
0.0
 40
0.0
 40
0.0
 40
0.0
 40
0.0
 40
0.5315576201013094
 40
1.0
 40
1.0
 40
1.0
 40
1.0
 10
279.7195859993799
 20
159.5176444228307
 30
0.0
 10
279.7237221408765
 20
159.477960287113
 30
0.0
 10
279.7315033133029
 20
159.4033039672391
 30
0.0
 10
279.785592466056
 20
159.3653000308102
 30
0.0
 10
279.8109301174982
 20
159.3474973763839
 30
0.0
  0
SPLINE
  5
1FC
330
1F
100
AcDbEntity
  8
0
  6
Continuous
 62
     7
370
    15
100
AcDbSpline
210
0.0
220
0.0
230
1.0
 70
     8
 71
     3
 72
    12
 73
     8
 74
     0
 42
0.00000001
 43
0.00000001
 12
1.0
 22
0.0
 32
0.0
 13
1.0
 23
0.0
 33
0.0
 40
0.0
 40
0.0
 40
0.0
 40
0.0
 40
0.0304722178186966
 40
0.0888125988379122
 40
0.3925542446839015
 40
0.6962728606113309
 40
1.0
 40
1.0
 40
1.0
 40
1.0
 10
279.8109301174982
 20
159.3474973763839
 30
0.0
 10
279.8109782337628
 20
159.345376790645
 30
0.0
 10
279.8111184707
 20
159.3391962516488
 30
0.0
 10
279.8103468431297
 20
159.3115873283241
 30
0.0
 10
279.8005642443274
 20
159.2635958144525
 30
0.0
 10
279.7698383844569
 20
159.2017496131275
 30
0.0
 10
279.738077398586
 20
159.1714635601263
 30
0.0
 10
279.7221966828212
 20
159.1563203211442
 30
0.0
  0
SPLINE
  5
1FD
330
1F
100
AcDbEntity
  8
0
  6
Continuous
 62
     7
370
    15
100
AcDbSpline
210
0.0
220
0.0
230
1.0
 70
     8
 71
     3
 72
    10
 73
     6
 74
     0
 42
0.00000001
 43
0.00000001
 12
1.0
 22
0.0
 32
0.0
 13
1.0
 23
0.0
 33
0.0
 40
0.0
 40
0.0
 40
0.0
 40
0.0
 40
0.2116694782874092
 40
0.487947855293545
 40
1.0
 40
1.0
 40
1.0
 40
1.0
 10
279.7221966828212
 20
159.1563203211442
 30
0.0
 10
279.7217639318676
 20
159.1559178150484
 30
0.0
 10
279.7207663392937
 20
159.1549899439742
 30
0.0
 10
279.7197482055215
 20
159.1530007612967
 30
0.0
 10
279.7196498713499
 20
159.1516477369006
 30
0.0
 10
279.7195859993799
 20
159.1507688935414
 30
0.0
  0
SPLINE
  5
1FE
330
1F
100
AcDbEntity
  8
0
  6
Continuous
 62
     7
370
    15
100
AcDbSpline
210
0.0
220
0.0
230
1.0
 70
     8
 71
     3
 72
    12
 73
     8
 74
     0
 42
0.00000001
 43
0.00000001
 12
1.0
 22
0.0
 32
0.0
 13
1.0
 23
0.0
 33
0.0
 40
0.0
 40
0.0
 40
0.0
 40
0.0
 40
0.0304753385881276
 40
0.0888172015231825
 40
0.3925549585233311
 40
0.6962759250564163
 40
1.0
 40
1.0
 40
1.0
 40
1.0
 10
279.8109301174982
 20
168.4339509184972
 30
0.0
 10
279.8109782344099
 20
168.4360717556467
 30
0.0
 10
279.8111184661394
 20
168.4422527147184
 30
0.0
 10
279.8103469220164
 20
168.4698617403409
 30
0.0
 10
279.8005638720169
 20
168.5178531748265
 30
0.0
 10
279.7698388324461
 20
168.5796996394385
 30
0.0
 10
279.7380774535391
 20
168.6099853923308
 30
0.0
 10
279.7221966828212
 20
168.6251283462659
 30
0.0
  0
SPLINE
  5
1FF
330
1F
100
AcDbEntity
  8
0
  6
Continuous
 62
     7
370
    15
100
AcDbSpline
210
0.0
220
0.0
230
1.0
 70
     8
 71
     3
 72
     9
 73
     5
 74
     0
 42
0.00000001
 43
0.00000001
 12
1.0
 22
0.0
 32
0.0
 13
1.0
 23
0.0
 33
0.0
 40
0.0
 40
0.0
 40
0.0
 40
0.0
 40
0.4684433024197358
 40
0.9999999999999999
 40
0.9999999999999999
 40
0.9999999999999999
 40
0.9999999999999999
 10
279.8109301174982
 20
168.4339509184972
 30
0.0
 10
279.7855924658836
 20
168.4161482201637
 30
0.0
 10
279.7315034192823
 20
168.3781442648471
 30
0.0
 10
279.7237221729718
 20
168.3034886707119
 30
0.0
 10
279.7195859993799
 20
168.2638049896374
 30
0.0
  0
SPLINE
  5
200
330
1F
100
AcDbEntity
  8
0
  6
Continuous
 62
     7
370
    15
100
AcDbSpline
210
0.0
220
0.0
230
1.0
 70
     8
 71
     3
 72
    11
 73
     7
 74
     0
 42
0.00000001
 43
0.00000001
 12
1.0
 22
0.0
 32
0.0
 13
1.0
 23
0.0
 33
0.0
 40
0.0
 40
0.0
 40
0.0
 40
0.0
 40
0.370537618276855
 40
0.744358022160848
 40
0.9444798242996421
 40
1.0
 40
1.0
 40
1.0
 40
1.0
 10
279.7195859993799
 20
168.6306805189267
 30
0.0
 10
279.7196202167553
 20
168.6300490662148
 30
0.0
 10
279.7196889546555
 20
168.6287805664228
 30
0.0
 10
279.7204408407023
 20
168.6269519090958
 30
0.0
 10
279.7215179900784
 20
168.6256981920749
 30
0.0
 10
279.722075584738
 20
168.6252300229611
 30
0.0
 10
279.7221966828212
 20
168.6251283462659
 30
0.0
  0
SPLINE
  5
201
330
1F
100
AcDbEntity
  8
0
  6
Continuous
 62
     7
370
    15
100
AcDbSpline
210
0.0
220
0.0
230
1.0
 70
     8
 71
     3
 72
    11
 73
     7
 74
     0
 42
0.00000001
 43
0.00000001
 12
1.0
 22
0.0
 32
0.0
 13
1.0
 23
0.0
 33
0.0
 40
0.0
 40
0.0
 40
0.0
 40
0.0
 40
0.3658255002254321
 40
0.7252573565349012
 40
0.9820698241119247
 40
1.0
 40
1.0
 40
1.0
 40
1.0
 10
280.3091116989955
 20
168.322426157774
 30
0.0
 10
280.2408995208067
 20
168.3561021362069
 30
0.0
 10
280.1056673294855
 20
168.4228655277197
 30
0.0
 10
279.9336624343852
 20
168.4593439529499
 30
0.0
 10
279.8443590006477
 20
168.4482498561275
 30
0.0
 10
279.8129780895509
 20
168.434826922177
 30
0.0
 10
279.8109301174982
 20
168.4339509184972
 30
0.0
  0
SPLINE
  5
202
330
1F
100
AcDbEntity
  8
0
  6
Continuous
 62
     7
370
    15
100
AcDbSpline
210
0.0
220
0.0
230
1.0
 70
     8
 71
     3
 72
    11
 73
     7
 74
     0
 42
0.00000001
 43
0.00000001
 12
1.0
 22
0.0
 32
0.0
 13
1.0
 23
0.0
 33
0.0
 40
0.0
 40
0.0
 40
0.0
 40
0.0
 40
0.2357937913316324
 40
0.274904047153853
 40
0.6342563914987903
 40
0.9999999999999999
 40
0.9999999999999999
 40
0.9999999999999999
 40
0.9999999999999999
 10
279.8109301174982
 20
159.3474973763839
 30
0.0
 10
279.8404895102902
 20
159.3388285196871
 30
0.0
 10
279.8749518117106
 20
159.3287217913603
 30
0.0
 10
279.9715901024046
 20
159.3305316727099
 30
0.0
 10
280.1057482445165
 20
159.3584461613568
 30
0.0
 10
280.2409267098239
 20
159.4253003858955
 30
0.0
 10
280.3091116989955
 20
159.459022137107
 30
0.0
  0
LINE
  5
203
330
1F
100
AcDbEntity
  8
0
  6
Continuous
 62
     7
370
    15
100
AcDbLine
 10
283.6016603555
 20
160.6265929367
 30
0.0
 11
280.3876944627
 21
159.2292201545
 31
0.0
  0
SPLINE
  5
204
330
1F
100
AcDbEntity
  8
0
  6
Continuous
 62
     7
370
    15
100
AcDbSpline
210
0.0
220
0.0
230
1.0
 70
     8
 71
     3
 72
    10
 73
     6
 74
     0
 42
0.00000001
 43
0.00000001
 12
1.0
 22
0.0
 32
0.0
 13
1.0
 23
0.0
 33
0.0
 40
0.0
 40
0.0
 40
0.0
 40
0.0
 40
0.3554428462657607
 40
0.7142318194393809
 40
1.0
 40
1.0
 40
1.0
 40
1.0
 10
280.3876944626673
 20
159.2292201544658
 30
0.0
 10
280.2965986170443
 20
159.1961747686094
 30
0.0
 10
280.113549352595
 20
159.1297729087543
 30
0.0
 10
279.8754583030944
 20
159.1041988688258
 30
0.0
 10
279.7692740790403
 20
159.1403101663649
 30
0.0
 10
279.7221966828212
 20
159.1563203211442
 30
0.0
  0
SPLINE
  5
205
330
1F
100
AcDbEntity
  8
0
  6
Continuous
 62
     7
370
    15
100
AcDbSpline
210
0.0
220
0.0
230
1.0
 70
     8
 71
     3
 72
    12
 73
     8
 74
     0
 42
0.00000001
 43
0.00000001
 12
1.0
 22
0.0
 32
0.0
 13
1.0
 23
0.0
 33
0.0
 40
0.0
 40
0.0
 40
0.0
 40
0.0
 40
0.2239102194547591
 40
0.4477885824969153
 40
0.6716991590903125
 40
0.8955850132902579
 40
1.0
 40
1.0
 40
1.0
 40
1.0
 10
279.8533388222559
 20
169.5302859719411
 30
0.0
 10
279.848258469394
 20
169.5325806145438
 30
0.0
 10
279.8380984864677
 20
169.5371695732833
 30
0.0
 10
279.8250045619271
 20
169.543143786545
 30
0.0
 10
279.81547336331
 20
169.5475123507206
 30
0.0
 10
279.8112482842641
 20
169.5494684088991
 30
0.0
 10
279.8108893145434
 20
169.5496344689656
 30
0.0
 10
279.8107751454219
 20
169.5496872838155
 30
0.0
  0
LINE
  5
206
330
1F
100
AcDbEntity
  8
0
  6
Continuous
 62
     7
370
    15
100
AcDbLine
 10
279.8533388223
 20
169.5302859719
 30
0.0
 11
283.3320864285
 21
167.9540396507
 31
0.0
  0
LINE
  5
207
330
1F
100
AcDbEntity
  8
0
  6
Continuous
 62
     7
370
    15
100
AcDbLine
 10
283.3320864285
 20
167.9540396507
 30
0.0
 11
283.6016603555
 21
167.8323910411
 31
0.0
  0
LINE
  5
208
330
1F
100
AcDbEntity
  8
0
  6
Continuous
 62
     7
370
    15
100
AcDbLine
 10
283.6016603555
 20
167.1548561032
 30
0.0
 11
283.6016603555
 21
167.8323910411
 31
0.0
  0
LINE
  5
209
330
1F
100
AcDbEntity
  8
0
  6
Continuous
 62
     7
370
    15
100
AcDbLine
 10
280.3876944627
 20
168.5522288855
 30
0.0
 11
283.6016603555
 21
167.1548561032
 31
0.0
  0
SPLINE
  5
20A
330
1F
100
AcDbEntity
  8
0
  6
Continuous
 62
     7
370
    15
100
AcDbSpline
210
0.0
220
0.0
230
1.0
 70
     8
 71
     3
 72
    10
 73
     6
 74
     0
 42
0.00000001
 43
0.00000001
 12
1.0
 22
0.0
 32
0.0
 13
1.0
 23
0.0
 33
0.0
 40
0.0
 40
0.0
 40
0.0
 40
0.0
 40
0.2857682031705076
 40
0.6445570825628617
 40
1.0
 40
1.0
 40
1.0
 40
1.0
 10
279.7221966828212
 20
168.6251283462659
 30
0.0
 10
279.7692740713137
 20
168.641138620938
 30
0.0
 10
279.8754582578145
 20
168.6772501820535
 30
0.0
 10
280.1135494304896
 20
168.6516766805894
 30
0.0
 10
280.2965986288232
 20
168.5852744590082
 30
0.0
 10
280.3876944626673
 20
168.5522288854733
 30
0.0
  0
ARC
  5
20B
330
1F
100
AcDbEntity
  8
0
  6
Continuous
 62
     7
370
    15
100
AcDbCircle
 10
279.5637095981
 20
159.075788463
 30
0.0
 40
0.8381481616935351
100
AcDbArc
 50
10.5480672335
 51
27.2090610719
  0
ARC
  5
20C
330
1F
100
AcDbEntity
  8
0
  6
Continuous
 62
     7
370
    15
100
AcDbCircle
 10
279.5636969954
 20
168.705663644
 30
0.0
 40
0.8381611129355628
100
AcDbArc
 50
332.7911010853
 51
349.4518843545
  0
LINE
  5
20D
330
1F
100
AcDbEntity
  8
0
  6
Continuous
 62
     7
370
    15
100
AcDbLine
 10
280.309111699
 20
159.4590221371
 30
0.0
 11
283.5230775918
 21
160.8269751843
 31
0.0
  0
ARC
  5
20E
330
1F
100
AcDbEntity
  8
0
  6
Continuous
 62
     7
370
    15
100
AcDbCircle
 10
282.5144477363
 20
160.3158267629
 30
0.0
 40
1.130755010582231
100
AcDbArc
 50
15.9519243328
 51
26.8747531786
  0
LINE
  5
20F
330
1F
100
AcDbEntity
  8
0
  6
Continuous
 62
     7
370
    15
100
AcDbLine
 10
283.5230775918
 20
166.9544734831
 30
0.0
 11
280.309111699
 21
168.3224261578
 31
0.0
  0
ARC
  5
210
330
1F
100
AcDbEntity
  8
0
  6
Continuous
 62
     7
370
    15
100
AcDbCircle
 10
282.5144702831
 20
167.4656124847
 30
0.0
 40
1.130730640776211
100
AcDbArc
 50
333.1251561354
 51
344.0482387622
  0
LINE
  5
211
330
1F
100
AcDbEntity
  8
0
  6
Continuous
 62
     7
370
    15
100
AcDbLine
 10
283.5230775918
 20
160.8269751843
 30
0.0
 11
283.5230775918
 21
166.9544734831
 31
0.0
  0
ARC
  5
212
330
1F
100
AcDbEntity
  8
0
  6
Continuous
 62
     7
370
    15
100
AcDbCircle
 10
283.5684141826
 20
167.1882493394
 30
0.0
 40
0.2381313868924141
100
AcDbArc
 50
259.0247598558
 51
309.4076928553
  0
ARC
  5
213
330
1F
100
AcDbEntity
  8
0
  6
Continuous
 62
     7
370
    15
100
AcDbCircle
 10
283.5526749355
 20
166.9950259761
 30
0.0
 40
0.1671683011124073
100
AcDbArc
 50
3.165657413
 51
72.9605217164
  0
ARC
  5
214
330
1F
100
AcDbEntity
  8
0
  6
Continuous
 62
     7
370
    15
100
AcDbCircle
 10
283.5684141826
 20
160.593199328
 30
0.0
 40
0.2381313868922296
100
AcDbArc
 50
50.5923071447
 51
100.9752401443
  0
ARC
  5
215
330
1F
100
AcDbEntity
  8
0
  6
Continuous
 62
     7
370
    15
100
AcDbCircle
 10
283.5526759332
 20
160.7864223054
 30
0.0
 40
0.1671672836405775
100
AcDbArc
 50
287.0392275137
 51
356.8344557615
  0
LINE
  5
216
330
1F
100
AcDbEntity
  8
0
  6
Continuous
 62
     7
370
    15
100
AcDbLine
 10
283.7195881451
 20
167.0042575176
 30
0.0
 11
283.7195881451
 21
160.7771911498
 31
0.0
  0
LINE
  5
217
330
1F
100
AcDbEntity
  8
0
  6
Continuous
 62
     7
370
    15
100
AcDbLine
 10
283.7195881451
 20
167.6494539555
 30
0.0
 11
283.7195881451
 21
167.0042575176
 31
0.0
  0
SPLINE
  5
218
330
1F
100
AcDbEntity
  8
0
  6
Continuous
 62
     7
370
    15
100
AcDbSpline
210
0.0
220
0.0
230
1.0
 70
     8
 71
     3
 72
    11
 73
     7
 74
     0
 42
0.00000001
 43
0.00000001
 12
1.0
 22
0.0
 32
0.0
 13
1.0
 23
0.0
 33
0.0
 40
0.0
 40
0.0
 40
0.0
 40
0.0
 40
0.2933086258802272
 40
0.5865956208155599
 40
0.8804989503315899
 40
1.0
 40
1.0
 40
1.0
 40
1.0
 10
283.6016603554591
 20
167.8323910411015
 30
0.0
 10
283.621270767269
 20
167.8211123716524
 30
0.0
 10
283.6604901446589
 20
167.7985558645343
 30
0.0
 10
283.7007071245051
 20
167.7424661878977
 30
0.0
 10
283.7179018245392
 20
167.6901750159014
 30
0.0
 10
283.7192099972211
 20
167.6585854245881
 30
0.0
 10
283.7195881451472
 20
167.649453955473
 30
0.0
  0
LINE
  5
219
330
1F
100
AcDbEntity
  8
0
  6
Continuous
 62
     7
370
    15
100
AcDbLine
 10
283.7195881451
 20
160.7771911498
 30
0.0
 11
283.7195881451
 21
160.120041373
 31
0.0
  0
SPLINE
  5
21A
330
1F
100
AcDbEntity
  8
0
  6
Continuous
 62
     7
370
    15
100
AcDbSpline
210
0.0
220
0.0
230
1.0
 70
     8
 71
     3
 72
    16
 73
    12
 74
     0
 42
0.00000001
 43
0.00000001
 12
1.0
 22
0.0
 32
0.0
 13
1.0
 23
0.0
 33
0.0
 40
0.0
 40
0.0
 40
0.0
 40
0.0
 40
0.000008646373079
 40
0.125068644100875
 40
0.2501192539089416
 40
0.3751528864365136
 40
0.500177941641528
 40
0.6252038612396523
 40
0.7502242297457471
 40
0.8753393516383233
 40
1.0
 40
1.0
 40
1.0
 40
1.0
 10
278.1845816220149
 20
170.2068791564122
 30
0.0
 10
278.1845816219961
 20
170.2068796531466
 30
0.0
 10
278.1845813505379
 20
170.214064850828
 30
0.0
 10
278.2081311391975
 20
170.19197611975
 30
0.0
 10
278.308778858362
 20
170.1481259569542
 30
0.0
 10
278.4606701907803
 20
170.0782487205678
 30
0.0
 10
278.6417117288001
 20
170.0025963414857
 30
0.0
 10
278.8253348063442
 20
169.9321747593209
 30
0.0
 10
278.9814948107307
 20
169.8776065047259
 30
0.0
 10
279.0914114295713
 20
169.8421814381016
 30
0.0
 10
279.1058413441799
 20
169.8377217917942
 30
0.0
 10
279.1130431736811
 20
169.8354960258618
 30
0.0
  0
SPLINE
  5
21B
330
1F
100
AcDbEntity
  8
0
  6
Continuous
 62
     7
370
    15
100
AcDbSpline
210
0.0
220
0.0
230
1.0
 70
     8
 71
     3
 72
    12
 73
     8
 74
     0
 42
0.00000001
 43
0.00000001
 12
1.0
 22
0.0
 32
0.0
 13
1.0
 23
0.0
 33
0.0
 40
0.0
 40
0.0
 40
0.0
 40
0.0
 40
0.1840797367543684
 40
0.4011031546568742
 40
0.6181301283596426
 40
0.8351557354081358
 40
1.0
 40
1.0
 40
1.0
 40
1.0
 10
263.4760864819392
 20
212.3807222421781
 30
0.0
 10
263.4861091272362
 20
212.3133407817058
 30
0.0
 10
263.5079481124364
 20
212.1665189922068
 30
0.0
 10
263.5416663208907
 20
211.9599768114726
 30
0.0
 10
263.5771659953621
 20
211.7923936449398
 30
0.0
 10
263.6098423063076
 20
211.6959812834104
 30
0.0
 10
263.6306191199954
 20
211.6853252524862
 30
0.0
 10
263.6395879830226
 20
211.6807252939359
 30
0.0
  0
LINE
  5
21C
330
1F
100
AcDbEntity
  8
0
  6
Continuous
 62
     7
370
    15
100
AcDbLine
 10
130.6395836915
 20
211.6807252939
 30
0.0
 11
130.6395836915
 21
212.3807222422
 31
0.0
  0
LINE
  5
21D
330
1F
100
AcDbEntity
  8
0
  6
Continuous
 62
     7
370
    15
100
AcDbLine
 10
130.6395836915
 20
212.3807222422
 30
0.0
 11
263.4760864819
 21
212.3807222422
 31
0.0
  0
LINE
  5
21E
330
1F
100
AcDbEntity
  8
0
  6
Continuous
 62
     7
370
    15
100
AcDbLine
 10
124.1395839299
 20
214.0807241972
 30
0.0
 11
130.6395836915
 21
214.0807241972
 31
0.0
  0
LINE
  5
21F
330
1F
100
AcDbEntity
  8
0
  6
Continuous
 62
     7
370
    15
100
AcDbLine
 10
124.1395839299
 20
251.646372753
 30
0.0
 11
124.1395839299
 21
214.0807241972
 31
0.0
  0
LINE
  5
220
330
1F
100
AcDbEntity
  8
0
  6
Continuous
 62
     7
370
    15
100
AcDbLine
 10
259.6395858373
 20
218.0649132307
 30
0.0
 11
124.1395839299
 21
251.646372753
 31
0.0
  0
ARC
  5
221
330
1F
100
AcDbEntity
  8
0
  6
Continuous
 62
     7
370
    15
100
AcDbCircle
 10
259.1584731604
 20
216.1236400047
 30
0.0
 40
2.000000000000045
100
AcDbArc
 50
28.590234854
 51
76.0806356206
  0
LINE
  5
222
330
1F
100
AcDbEntity
  8
0
  6
Continuous
 62
     7
370
    15
100
AcDbLine
 10
130.6395836915
 20
214.0807241972
 30
0.0
 11
130.6395836915
 21
212.3807222422
 31
0.0
  0
LINE
  5
223
330
1F
100
AcDbEntity
  8
0
  6
Continuous
 62
     7
370
    15
100
AcDbLine
 10
263.4760864819
 20
212.3807222422
 30
0.0
 11
260.9146007146
 21
217.0807272967
 31
0.0
  0
SPLINE
  5
224
330
1F
100
AcDbEntity
  8
0
  6
Continuous
 62
     7
370
    15
100
AcDbSpline
210
0.0
220
0.0
230
1.0
 70
     8
 71
     3
 72
    12
 73
     8
 74
     0
 42
0.00000001
 43
0.00000001
 12
1.0
 22
0.0
 32
0.0
 13
1.0
 23
0.0
 33
0.0
 40
0.0
 40
0.0
 40
0.0
 40
0.0
 40
0.2274198064429085
 40
0.4548320528032507
 40
0.6821779858038158
 40
0.9095214780358098
 40
0.9999999999999999
 40
0.9999999999999999
 40
0.9999999999999999
 40
0.9999999999999999
 10
263.4760864819392
 20
212.3807222421781
 30
0.0
 10
263.488486236135
 20
212.3449956664913
 30
0.0
 10
263.5132853323235
 20
212.2735437027709
 30
0.0
 10
263.5504801321634
 20
212.1798136779718
 30
0.0
 10
263.5876425284505
 20
212.1118842731701
 30
0.0
 10
263.6174296265108
 20
212.0834782816546
 30
0.0
 10
263.6346777388059
 20
212.081335981093
 30
0.0
 10
263.6395879830226
 20
212.080726104559
 30
0.0
  0
LINE
  5
225
330
1F
100
AcDbEntity
  8
0
  6
Continuous
 62
     7
370
    15
100
AcDbLine
 10
263.639587983
 20
212.0807261046
 30
0.0
 11
263.639587983
 21
211.6807252939
 31
0.0
  0
SPLINE
  5
226
330
1F
100
AcDbEntity
  8
0
  6
Continuous
 62
     7
370
    15
100
AcDbSpline
210
0.0
220
0.0
230
1.0
 70
     8
 71
     3
 72
    11
 73
     7
 74
     0
 42
0.00000001
 43
0.00000001
 12
1.0
 22
0.0
 32
0.0
 13
1.0
 23
0.0
 33
0.0
 40
0.0
 40
0.0
 40
0.0
 40
0.0
 40
0.2499990778894089
 40
0.4999999378604647
 40
0.7500026859537279
 40
0.9999999999999999
 40
0.9999999999999999
 40
0.9999999999999999
 40
0.9999999999999999
 10
123.4395869816645
 20
251.7207235868588
 30
0.0
 10
123.4501075865381
 20
251.7145293809352
 30
0.0
 10
123.4711488712799
 20
251.7021409249334
 30
0.0
 10
123.6330249912103
 20
251.6835455091142
 30
0.0
 10
123.8644078069345
 20
251.6649658209588
 30
0.0
 10
124.0478592201716
 20
251.6525703973921
 30
0.0
 10
124.1395839299067
 20
251.646372752966
 30
0.0
  0
LINE
  5
227
330
1F
100
AcDbEntity
  8
0
  6
Continuous
 62
     7
370
    15
100
AcDbLine
 10
124.1395839299
 20
214.0807241972
 30
0.0
 11
123.4395869817
 21
214.0807241972
 31
0.0
  0
LINE
  5
228
330
1F
100
AcDbEntity
  8
0
  6
Continuous
 62
     7
370
    15
100
AcDbLine
 10
123.4395869817
 20
214.0807241972
 30
0.0
 11
123.4395869817
 21
251.7207235869
 31
0.0
  0
LINE
  5
229
330
1F
100
AcDbEntity
  8
0
  6
Continuous
 62
     7
370
    15
100
AcDbLine
 10
123.8395877923
 20
251.7207235869
 30
0.0
 11
123.4395869817
 21
251.7207235869
 31
0.0
  0
SPLINE
  5
22A
330
1F
100
AcDbEntity
  8
0
  6
Continuous
 62
     7
370
    15
100
AcDbSpline
210
0.0
220
0.0
230
1.0
 70
     8
 71
     3
 72
    11
 73
     7
 74
     0
 42
0.00000001
 43
0.00000001
 12
1.0
 22
0.0
 32
0.0
 13
1.0
 23
0.0
 33
0.0
 40
0.0
 40
0.0
 40
0.0
 40
0.0
 40
0.2499978895659226
 40
0.4999982754018704
 40
0.7500001386442497
 40
1.0
 40
1.0
 40
1.0
 40
1.0
 10
123.8395877922877
 20
251.7207235868588
 30
0.0
 10
123.8440970357456
 20
251.7145293739457
 30
0.0
 10
123.853115567687
 20
251.702140886269
 30
0.0
 10
123.9224850295111
 20
251.6835455500444
 30
0.0
 10
124.0216514373482
 20
251.6649656644228
 30
0.0
 10
124.1002732039814
 20
251.6525703735757
 30
0.0
 10
124.1395839299067
 20
251.646372752966
 30
0.0
  0
LINE
  5
22B
330
1F
100
AcDbEntity
  8
0
  6
Continuous
 62
     7
370
    15
100
AcDbLine
 10
264.1395875062
 20
214.9349839266
 30
0.0
 11
263.8995834435
 21
214.9349839266
 31
0.0
  0
LINE
  5
22C
330
1F
100
AcDbEntity
  8
0
  6
Continuous
 62
     7
370
    15
100
AcDbLine
 10
264.1395875062
 20
214.9349839266
 30
0.0
 11
264.1395875062
 21
213.9205486353
 31
0.0
  0
LINE
  5
22D
330
1F
100
AcDbEntity
  8
0
  6
Continuous
 62
     7
370
    15
100
AcDbLine
 10
264.1395875062
 20
213.9205486353
 30
0.0
 11
263.8995834435
 21
213.9205486353
 31
0.0
  0
LINE
  5
22E
330
1F
100
AcDbEntity
  8
0
  6
Continuous
 62
     7
370
    15
100
AcDbLine
 10
263.8995834435
 20
214.9349839266
 30
0.0
 11
263.8995834435
 21
213.9205486353
 31
0.0
  0
LINE
  5
22F
330
1F
100
AcDbEntity
  8
0
  6
Continuous
 62
     7
370
    15
100
AcDbLine
 10
263.8995834435
 20
212.8206700857
 30
0.0
 11
264.1395875062
 21
212.8206700857
 31
0.0
  0
LINE
  5
230
330
1F
100
AcDbEntity
  8
0
  6
Continuous
 62
     7
370
    15
100
AcDbLine
 10
263.8995834435
 20
213.9205486353
 30
0.0
 11
263.8995834435
 21
212.8206700857
 31
0.0
  0
LINE
  5
231
330
1F
100
AcDbEntity
  8
0
  6
Continuous
 62
     7
370
    15
100
AcDbLine
 10
264.1395875062
 20
213.9205486353
 30
0.0
 11
264.1395875062
 21
212.8206700857
 31
0.0
  0
ARC
  5
232
330
1F
100
AcDbEntity
  8
0
  6
Continuous
 62
     7
370
    15
100
AcDbCircle
 10
263.5995998141
 20
212.8977383042
 30
0.0
 40
0.2999836296905595
100
AcDbArc
 50
269.9976109904
 51
359.9978353106
  0
ARC
  5
233
330
1F
100
AcDbEntity
  8
0
  6
Continuous
 62
     7
370
    15
100
AcDbCircle
 10
263.5996056854
 20
212.8206755476
 30
0.0
 40
0.2999777581532799
100
AcDbArc
 50
269.9964895108
 51
359.9989567901
  0
LINE
  5
234
330
1F
100
AcDbEntity
  8
0
  6
Continuous
 62
     7
370
    15
100
AcDbLine
 10
263.5995873059
 20
212.5977546747
 30
0.0
 11
263.5995873059
 21
212.52069779
 31
0.0
  0
ARC
  5
235
330
1F
100
AcDbEntity
  8
0
  6
Continuous
 62
     7
370
    15
100
AcDbCircle
 10
263.5996048342
 20
212.8207062025
 30
0.0
 40
0.5399826731456218
100
AcDbArc
 50
269.9981401263
 51
359.9961677687
  0
LINE
  5
236
330
1F
100
AcDbEntity
  8
0
  6
Continuous
 62
     7
370
    15
100
AcDbLine
 10
263.5995873059
 20
212.52069779
 30
0.0
 11
263.5995873059
 21
212.2807235296
 31
0.0
  0
LINE
  5
237
330
1F
100
AcDbEntity
  8
0
  6
Continuous
 62
     7
370
    15
100
AcDbLine
 10
263.5995873059
 20
212.52069779
 30
0.0
 11
263.3997984971
 21
212.52069779
 31
0.0
  0
LINE
  5
238
330
1F
100
AcDbEntity
  8
0
  6
Continuous
 62
     7
370
    15
100
AcDbLine
 10
263.5995873059
 20
212.5977546747
 30
0.0
 11
263.3578070248
 21
212.5977546747
 31
0.0
  0
LINE
  5
239
330
1F
100
AcDbEntity
  8
0
  6
Continuous
 62
     7
370
    15
100
AcDbLine
 10
263.5995873059
 20
212.2807235296
 30
0.0
 11
263.5115333642
 21
212.2807235296
 31
0.0
  0
LINE
  5
23A
330
1F
100
AcDbEntity
  8
0
  6
Continuous
 62
     7
370
    15
100
AcDbLine
 10
264.1395875062
 20
214.9829656656
 30
0.0
 11
263.8995834435
 21
214.9829656656
 31
0.0
  0
LINE
  5
23B
330
1F
100
AcDbEntity
  8
0
  6
Continuous
 62
     7
370
    15
100
AcDbLine
 10
263.8995834435
 20
214.9829656656
 30
0.0
 11
263.8995834435
 21
214.9349839266
 31
0.0
  0
LINE
  5
23C
330
1F
100
AcDbEntity
  8
0
  6
Continuous
 62
     7
370
    15
100
AcDbLine
 10
264.1395875062
 20
214.9829656656
 30
0.0
 11
264.1395875062
 21
214.9349839266
 31
0.0
  0
LINE
  5
23D
330
1F
100
AcDbEntity
  8
0
  6
Continuous
 62
     7
370
    15
100
AcDbLine
 10
263.5995873059
 20
212.0621771391
 30
0.0
 11
263.5995873059
 21
212.2807235296
 31
0.0
  0
ARC
  5
23E
330
1F
100
AcDbEntity
  8
0
  6
Continuous
 62
     7
370
    15
100
AcDbCircle
 10
263.1929267037
 20
211.6855168073
 30
0.0
 40
0.6491712789885902
100
AcDbArc
 50
5.0426361813
 51
51.2127502676
  0
ARC
  5
23F
330
1F
100
AcDbEntity
  8
0
  6
Continuous
 62
     7
370
    15
100
AcDbCircle
 10
263.2996592569
 20
212.0333566212
 30
0.0
 40
0.5399261512826045
100
AcDbArc
 50
0.0008099554
 51
30.4223151826
  0
LINE
  5
240
330
1F
100
AcDbEntity
  8
0
  6
Continuous
 62
     7
370
    15
100
AcDbLine
 10
263.8395854081
 20
212.0333642538
 30
0.0
 11
263.8395854081
 21
211.7425770338
 31
0.0
  0
LINE
  5
241
330
1F
100
AcDbEntity
  8
0
  6
Continuous
 62
     7
370
    15
100
AcDbLine
 10
263.8395854081
 20
211.7425770338
 30
0.0
 11
263.8395854081
 21
211.6807252939
 31
0.0
  0
LINE
  5
242
330
1F
100
AcDbEntity
  8
0
  6
Continuous
 62
     7
370
    15
100
AcDbLine
 10
264.1395875062
 20
212.8206700857
 30
0.0
 11
264.1395875062
 21
212.6236111696
 31
0.0
  0
ARC
  5
243
330
1F
100
AcDbEntity
  8
0
  6
Continuous
 62
     7
370
    15
100
AcDbCircle
 10
263.5996449172
 20
212.6236260403
 30
0.0
 40
0.5399425891894586
100
AcDbArc
 50
295.2406361569
 51
359.9984220029
  0
LINE
  5
244
330
1F
100
AcDbEntity
  8
0
  6
Continuous
 62
     7
370
    15
100
AcDbLine
 10
123.6815877999
 20
204.1207254704
 30
0.0
 11
123.8410004224
 21
204.1207254704
 31
0.0
  0
LINE
  5
245
330
1F
100
AcDbEntity
  8
0
  6
Continuous
 62
     7
370
    15
100
AcDbLine
 10
123.6815877999
 20
204.1207254704
 30
0.0
 11
123.6815877999
 21
204.6107263144
 31
0.0
  0
LINE
  5
246
330
1F
100
AcDbEntity
  8
0
  6
Continuous
 62
     7
370
    15
100
AcDbLine
 10
123.6815877999
 20
204.6107263144
 30
0.0
 11
130.441583022
 21
204.6107263144
 31
0.0
  0
LINE
  5
247
330
1F
100
AcDbEntity
  8
0
  6
Continuous
 62
     7
370
    15
100
AcDbLine
 10
130.441583022
 20
204.6107263144
 30
0.0
 11
130.441583022
 21
204.1207254704
 31
0.0
  0
ARC
  5
248
330
1F
100
AcDbEntity
  8
0
  6
Continuous
 62
     7
370
    15
100
AcDbCircle
 10
124.0615853682
 20
213.2307244305
 30
0.0
 40
0.3799999999999955
100
AcDbArc
 50
90.0
 51
180.0
  0
LINE
  5
249
330
1F
100
AcDbEntity
  8
0
  6
Continuous
 62
     7
370
    15
100
AcDbLine
 10
130.0615855302
 20
213.6107236918
 30
0.0
 11
124.0615852918
 21
213.6107236918
 31
0.0
  0
ARC
  5
24A
330
1F
100
AcDbEntity
  8
0
  6
Continuous
 62
     7
370
    15
100
AcDbCircle
 10
130.0615853682
 20
213.2307244305
 30
0.0
 40
0.3799999999999955
100
AcDbArc
 50
0.0
 51
90.0
  0
LINE
  5
24B
330
1F
100
AcDbEntity
  8
0
  6
Continuous
 62
     7
370
    15
100
AcDbLine
 10
130.441583022
 20
204.6107263144
 30
0.0
 11
130.441583022
 21
213.2307261999
 31
0.0
  0
LINE
  5
24C
330
1F
100
AcDbEntity
  8
0
  6
Continuous
 62
     7
370
    15
100
AcDbLine
 10
123.6815877999
 20
213.2307261999
 30
0.0
 11
123.6815877999
 21
204.6107263144
 31
0.0
  0
LINE
  5
24D
330
1F
100
AcDbEntity
  8
0
  6
Continuous
 62
     7
370
    15
100
AcDbLine
 10
268.9895936097
 20
141.0007239159
 30
0.0
 11
259.559584483
 21
141.0007239159
 31
0.0
  0
LINE
  5
24E
330
1F
100
AcDbEntity
  8
0
  6
Continuous
 62
     7
370
    15
100
AcDbLine
 10
251.559586152
 20
141.0007239159
 30
0.0
 11
243.7981703128
 21
141.0007239159
 31
0.0
  0
LINE
  5
24F
330
1F
100
AcDbEntity
  8
0
  6
Continuous
 62
     7
370
    15
100
AcDbLine
 10
272.3481722916
 20
141.0007239159
 30
0.0
 11
268.9895936097
 21
141.0007239159
 31
0.0
  0
SPLINE
  5
250
330
1F
100
AcDbEntity
  8
0
  6
Continuous
 62
     7
370
    15
100
AcDbSpline
210
0.0
220
0.0
230
1.0
 70
     8
 71
     3
 72
    11
 73
     7
 74
     0
 42
0.00000001
 43
0.00000001
 12
1.0
 22
0.0
 32
0.0
 13
1.0
 23
0.0
 33
0.0
 40
0.0
 40
0.0
 40
0.0
 40
0.0
 40
0.2499984323294349
 40
0.4999998000135092
 40
0.7500011676975836
 40
1.0
 40
1.0
 40
1.0
 40
1.0
 10
272.584027871023
 20
141.4107248957768
 30
0.0
 10
272.5643746712645
 20
141.3569995685207
 30
0.0
 10
272.5250680409895
 20
141.249548283193
 30
0.0
 10
272.4661000880727
 20
141.1140255617789
 30
0.0
 10
272.4071320632819
 20
141.0192145627207
 30
0.0
 10
272.3678254824205
 20
141.0068874439886
 30
0.0
 10
272.3481722916468
 20
141.0007239158765
 30
0.0
  0
LINE
  5
251
330
1F
100
AcDbEntity
  8
0
  6
Continuous
 62
     7
370
    15
100
AcDbLine
 10
272.584027871
 20
141.4107248958
 30
0.0
 11
272.584027871
 21
150.0007242735
 31
0.0
  0
LINE
  5
252
330
1F
100
AcDbEntity
  8
0
  6
Continuous
 62
     7
370
    15
100
AcDbLine
 10
272.584027871
 20
150.0007242735
 30
0.0
 11
259.559584483
 21
150.0007242735
 31
0.0
  0
LINE
  5
253
330
1F
100
AcDbEntity
  8
0
  6
Continuous
 62
     7
370
    15
100
AcDbLine
 10
251.559586152
 20
150.0007242735
 30
0.0
 11
243.7981703128
 21
150.0007242735
 31
0.0
  0
SPLINE
  5
254
330
1F
100
AcDbEntity
  8
0
  6
Continuous
 62
     7
370
    15
100
AcDbSpline
210
0.0
220
0.0
230
1.0
 70
     8
 71
     3
 72
    10
 73
     6
 74
     0
 42
0.00000001
 43
0.00000001
 12
1.0
 22
0.0
 32
0.0
 13
1.0
 23
0.0
 33
0.0
 40
0.0
 40
0.0
 40
0.0
 40
0.0
 40
0.0728959238318059
 40
0.5393535233627433
 40
1.0
 40
1.0
 40
1.0
 40
1.0
 10
272.5126632298335
 20
141.2258461888448
 30
0.0
 10
272.5169694017407
 20
141.2285935227354
 30
0.0
 10
272.5488305658258
 20
141.2489209174078
 30
0.0
 10
272.5859016513554
 20
141.3147241312815
 30
0.0
 10
272.5940990464633
 20
141.3788586401087
 30
0.0
 10
272.5981720532282
 20
141.4107248957768
 30
0.0
  0
LINE
  5
255
330
1F
100
AcDbEntity
  8
0
  6
Continuous
 62
     7
370
    15
100
AcDbLine
 10
272.5981720532
 20
141.4107248958
 30
0.0
 11
272.7581688012
 21
141.4107248958
 31
0.0
  0
SPLINE
  5
256
330
1F
100
AcDbEntity
  8
0
  6
Continuous
 62
     7
370
    15
100
AcDbSpline
210
0.0
220
0.0
230
1.0
 70
     8
 71
     3
 72
    12
 73
     8
 74
     0
 42
0.00000001
 43
0.00000001
 12
1.0
 22
0.0
 32
0.0
 13
1.0
 23
0.0
 33
0.0
 40
0.0
 40
0.0
 40
0.0
 40
0.0
 40
0.2286711443263561
 40
0.4574122495541389
 40
0.6861574125082014
 40
0.9149008198086254
 40
1.0
 40
1.0
 40
1.0
 40
1.0
 10
272.3481722916468
 20
141.0007239158765
 30
0.0
 10
272.3972672709981
 20
141.0058711457878
 30
0.0
 10
272.4954722500873
 20
141.0161671803822
 30
0.0
 10
272.6241019820464
 20
141.0960912852271
 30
0.0
 10
272.7169391756439
 20
141.2123626674786
 30
0.0
 10
272.75469096466
 20
141.3254641687036
 30
0.0
 10
272.7574269359386
 20
141.3925377352331
 30
0.0
 10
272.7581688011988
 20
141.4107248957768
 30
0.0
  0
LINE
  5
257
330
1F
100
AcDbEntity
  8
0
  6
Continuous
 62
     7
370
    15
100
AcDbLine
 10
276.6781695927
 20
145.8407246347
 30
0.0
 11
276.5181728448
 21
145.8407246347
 31
0.0
  0
LINE
  5
258
330
1F
100
AcDbEntity
  8
0
  6
Continuous
 62
     7
370
    15
100
AcDbLine
 10
276.5181728448
 20
149.5907244112
 30
0.0
 11
276.6781695927
 21
149.5907244112
 31
0.0
  0
LINE
  5
259
330
1F
100
AcDbEntity
  8
0
  6
Continuous
 62
     7
370
    15
100
AcDbLine
 10
276.6781695927
 20
145.8407246347
 30
0.0
 11
276.6781695927
 21
149.5907244112
 31
0.0
  0
LINE
  5
25A
330
1F
100
AcDbEntity
  8
0
  6
Continuous
 62
     7
370
    15
100
AcDbLine
 10
276.5181728448
 20
145.8407246347
 30
0.0
 11
276.5181728448
 21
149.5907244112
 31
0.0
  0
LINE
  5
25B
330
1F
100
AcDbEntity
  8
0
  6
Continuous
 62
     7
370
    15
100
AcDbLine
 10
276.6781695927
 20
144.8407240983
 30
0.0
 11
276.5181728448
 21
144.8407240983
 31
0.0
  0
LINE
  5
25C
330
1F
100
AcDbEntity
  8
0
  6
Continuous
 62
     7
370
    15
100
AcDbLine
 10
276.6781695927
 20
144.8407240983
 30
0.0
 11
276.6781695927
 21
145.8407246347
 31
0.0
  0
LINE
  5
25D
330
1F
100
AcDbEntity
  8
0
  6
Continuous
 62
     7
370
    15
100
AcDbLine
 10
276.5181728448
 20
144.8407240983
 30
0.0
 11
276.5181728448
 21
145.8407246347
 31
0.0
  0
LINE
  5
25E
330
1F
100
AcDbEntity
  8
0
  6
Continuous
 62
     7
370
    15
100
AcDbLine
 10
272.7581688012
 20
149.5907244112
 30
0.0
 11
272.5981720532
 21
149.5907244112
 31
0.0
  0
ARC
  5
25F
330
1F
100
AcDbEntity
  8
0
  6
Continuous
 62
     7
370
    15
100
AcDbCircle
 10
273.0081711546
 20
149.5907244305
 30
0.0
 40
0.4099999999999966
100
AcDbArc
 50
90.0
 51
180.0
  0
LINE
  5
260
330
1F
100
AcDbEntity
  8
0
  6
Continuous
 62
     7
370
    15
100
AcDbLine
 10
273.0081685628
 20
149.8407245453
 30
0.0
 11
273.0081685628
 21
150.0007242735
 31
0.0
  0
ARC
  5
261
330
1F
100
AcDbEntity
  8
0
  6
Continuous
 62
     7
370
    15
100
AcDbCircle
 10
273.0081711546
 20
149.5907244305
 30
0.0
 40
0.25
100
AcDbArc
 50
90.0
 51
180.0
  0
LINE
  5
262
330
1F
100
AcDbEntity
  8
0
  6
Continuous
 62
     7
370
    15
100
AcDbLine
 10
276.2681730832
 20
149.8407245453
 30
0.0
 11
276.2681730832
 21
150.0007242735
 31
0.0
  0
LINE
  5
263
330
1F
100
AcDbEntity
  8
0
  6
Continuous
 62
     7
370
    15
100
AcDbLine
 10
273.0081685628
 20
150.0007242735
 30
0.0
 11
276.2681730832
 21
150.0007242735
 31
0.0
  0
LINE
  5
264
330
1F
100
AcDbEntity
  8
0
  6
Continuous
 62
     7
370
    15
100
AcDbLine
 10
273.0081685628
 20
149.8407245453
 30
0.0
 11
276.2681730832
 21
149.8407245453
 31
0.0
  0
ARC
  5
265
330
1F
100
AcDbEntity
  8
0
  6
Continuous
 62
     7
370
    15
100
AcDbCircle
 10
276.2681711546
 20
149.5907244305
 30
0.0
 40
0.410000000000025
100
AcDbArc
 50
0.0
 51
90.0
  0
ARC
  5
266
330
1F
100
AcDbEntity
  8
0
  6
Continuous
 62
     7
370
    15
100
AcDbCircle
 10
276.2681711546
 20
149.5907244305
 30
0.0
 40
0.2500000000000284
100
AcDbArc
 50
0.0
 51
90.0
  0
LINE
  5
267
330
1F
100
AcDbEntity
  8
0
  6
Continuous
 62
     7
370
    15
100
AcDbLine
 10
272.7581688012
 20
141.4107248958
 30
0.0
 11
272.7581688012
 21
149.5907244112
 31
0.0
  0
LINE
  5
268
330
1F
100
AcDbEntity
  8
0
  6
Continuous
 62
     7
370
    15
100
AcDbLine
 10
272.5981720532
 20
141.4107248958
 30
0.0
 11
272.5981720532
 21
149.5907244112
 31
0.0
  0
LINE
  5
269
330
1F
100
AcDbEntity
  8
0
  6
Continuous
 62
     7
370
    15
100
AcDbLine
 10
265.2395852651
 20
198.9051044758
 30
0.0
 11
265.1995845879
 21
198.9051044758
 31
0.0
  0
ARC
  5
26A
330
1F
100
AcDbEntity
  8
0
  6
Continuous
 62
     7
370
    15
100
AcDbCircle
 10
272.4105368598
 20
195.4461028164
 30
0.0
 40
4.900000000000017
100
AcDbArc
 50
18.0
 51
108.0
  0
LINE
  5
26B
330
1F
100
AcDbEntity
  8
0
  6
Continuous
 62
     7
370
    15
100
AcDbLine
 10
277.0707138623
 20
196.960285383
 30
0.0
 11
276.7853983487
 21
196.867582279
 31
0.0
  0
LINE
  5
26C
330
1F
100
AcDbEntity
  8
0
  6
Continuous
 62
     7
370
    15
100
AcDbLine
 10
270.989061221
 20
199.8209626253
 30
0.0
 11
270.8963521565
 21
200.1062811192
 31
0.0
  0
ARC
  5
26D
330
1F
100
AcDbEntity
  8
0
  6
Continuous
 62
     7
370
    15
100
AcDbCircle
 10
272.4105368598
 20
195.4461028164
 30
0.0
 40
4.599999999999994
100
AcDbArc
 50
18.0
 51
108.0
  0
LINE
  5
26E
330
1F
100
AcDbEntity
  8
0
  6
Continuous
 62
     7
370
    15
100
AcDbLine
 10
269.9928470696
 20
199.8127133425
 30
0.0
 11
270.0855561341
 21
199.5273978289
 31
0.0
  0
LINE
  5
26F
330
1F
100
AcDbEntity
  8
0
  6
Continuous
 62
     7
370
    15
100
AcDbLine
 10
269.9928470696
 20
199.8127133425
 30
0.0
 11
270.8963521565
 21
200.1062811192
 31
0.0
  0
LINE
  5
270
330
1F
100
AcDbEntity
  8
0
  6
Continuous
 62
     7
370
    15
100
AcDbLine
 10
270.0855561341
 20
199.5273978289
 30
0.0
 11
270.989061221
 21
199.8209626253
 31
0.0
  0
LINE
  5
271
330
1F
100
AcDbEntity
  8
0
  6
Continuous
 62
     7
370
    15
100
AcDbLine
 10
273.5796936597
 20
186.9937033232
 30
0.0
 11
273.8650091733
 21
187.0864064272
 31
0.0
  0
LINE
  5
272
330
1F
100
AcDbEntity
  8
0
  6
Continuous
 62
     7
370
    15
100
AcDbLine
 10
274.1740294541
 20
186.1353517349
 30
0.0
 11
273.8887139405
 21
186.0426456507
 31
0.0
  0
LWPOLYLINE
  5
273
330
1F
100
AcDbEntity
  8
0
  6
Continuous
 62
     7
370
    15
100
AcDbPolyline
 90
        9
 70
   128
 43
0.0
 10
273.8650091733
 20
187.0864064272
 10
273.9252992715
 20
186.9008661087
 10
273.9832647885
 20
186.7224545057
 10
274.0366943921
 20
186.5580291327
 10
274.083519801
 20
186.4139080818
 10
274.121952876
 20
186.295631605
 10
274.1505035008
 20
186.2077445562
 10
274.1680928315
 20
186.153626519
 10
274.1740294541
 20
186.1353517349
  0
LINE
  5
274
330
1F
100
AcDbEntity
  8
0
  6
Continuous
 62
     7
370
    15
100
AcDbLine
 10
269.9250467862
 20
199.2123783405
 30
0.0
 11
269.6397253121
 21
199.1196722563
 31
0.0
  0
ARC
  5
275
330
1F
100
AcDbEntity
  8
0
  6
Continuous
 62
     7
370
    15
100
AcDbCircle
 10
270.1628092438
 20
199.2896325176
 30
0.0
 40
0.5500000000000232
100
AcDbArc
 50
108.0
 51
198.0
  0
ARC
  5
276
330
1F
100
AcDbEntity
  8
0
  6
Continuous
 62
     7
370
    15
100
AcDbCircle
 10
270.1628092438
 20
199.2896325176
 30
0.0
 40
0.2500000000000276
100
AcDbArc
 50
108.0
 51
198.0
  0
LINE
  5
277
330
1F
100
AcDbEntity
  8
0
  6
Continuous
 62
     7
370
    15
100
AcDbLine
 10
273.8650091733
 20
187.0864064272
 30
0.0
 11
269.9250467862
 21
199.2123783405
 31
0.0
  0
LINE
  5
278
330
1F
100
AcDbEntity
  8
0
  6
Continuous
 62
     7
370
    15
100
AcDbLine
 10
277.0707138623
 20
196.960285383
 30
0.0
 11
277.503336295
 21
195.6288070257
 31
0.0
  0
LINE
  5
279
330
1F
100
AcDbEntity
  8
0
  6
Continuous
 62
     7
370
    15
100
AcDbLine
 10
277.2180207814
 20
195.5361009415
 30
0.0
 11
277.503336295
 21
195.6288070257
 31
0.0
  0
LINE
  5
27A
330
1F
100
AcDbEntity
  8
0
  6
Continuous
 62
     7
370
    15
100
AcDbLine
 10
276.7853983487
 20
196.867582279
 30
0.0
 11
277.2180207814
 21
195.5361009415
 31
0.0
  0
LWPOLYLINE
  5
27B
330
1F
100
AcDbEntity
  8
0
  6
Continuous
 62
     7
370
    15
100
AcDbPolyline
 90
        9
 70
   128
 43
0.0
 10
277.503336295
 20
195.6288070257
 10
277.6239105309
 20
195.2577234085
 10
277.7398475255
 20
194.9009002026
 10
277.8467007722
 20
194.5720494564
 10
277.94035159
 20
194.283810335
 10
278.0172117795
 20
194.0472573813
 10
278.0743249501
 20
193.8714832838
 10
278.109497651
 20
193.7632412489
 10
278.1213708962
 20
193.726694661
  0
LINE
  5
27C
330
1F
100
AcDbEntity
  8
0
  6
Continuous
 62
     7
370
    15
100
AcDbLine
 10
278.1213708962
 20
193.726694661
 30
0.0
 11
277.8360553826
 21
193.6339885767
 31
0.0
  0
LWPOLYLINE
  5
27D
330
1F
100
AcDbEntity
  8
0
  6
Continuous
 62
     7
370
    15
100
AcDbPolyline
 90
        9
 70
   128
 43
0.0
 10
277.8360553826
 20
193.6339885767
 10
277.8241821374
 20
193.6705381449
 10
277.7890094365
 20
193.7787771996
 10
277.7318962659
 20
193.954551297
 10
277.6550360764
 20
194.1911042507
 10
277.5613792981
 20
194.4793433722
 10
277.4545320119
 20
194.8081941183
 10
277.3385950173
 20
195.1650173243
 10
277.2180207814
 20
195.5361009415
  0
LINE
  5
27E
330
1F
100
AcDbEntity
  8
0
  6
Continuous
 62
     7
370
    15
100
AcDbLine
 10
243.6946191634
 20
140.7607243236
 30
0.0
 11
141.7595871533
 21
140.7607243236
 31
0.0
  0
LINE
  5
27F
330
1F
100
AcDbEntity
  8
0
  6
Continuous
 62
     7
370
    15
100
AcDbLine
 10
243.7981703128
 20
140.7607243236
 30
0.0
 11
243.7981703128
 21
141.2507251676
 31
0.0
  0
LINE
  5
280
330
1F
100
AcDbEntity
  8
0
  6
Continuous
 62
     7
370
    15
100
AcDbLine
 10
243.7981703128
 20
140.7607243236
 30
0.0
 11
243.6946191634
 21
140.7607243236
 31
0.0
  0
LINE
  5
281
330
1F
100
AcDbEntity
  8
0
  6
Continuous
 62
     7
370
    15
100
AcDbLine
 10
243.7981703128
 20
141.2507251676
 30
0.0
 11
243.7981703128
 21
150.6607242699
 31
0.0
  0
LINE
  5
282
330
1F
100
AcDbEntity
  8
0
  6
Continuous
 62
     7
370
    15
100
AcDbLine
 10
169.4981702412
 20
150.0007242735
 30
0.0
 11
159.4981708373
 21
150.0007242735
 31
0.0
  0
ARC
  5
283
330
1F
100
AcDbEntity
  8
0
  6
Continuous
 62
     7
370
    15
100
AcDbCircle
 10
159.4981711546
 20
148.5007244305
 30
0.0
 40
1.5
100
AcDbArc
 50
90.0
 51
270.0
  0
LINE
  5
284
330
1F
100
AcDbEntity
  8
0
  6
Continuous
 62
     7
370
    15
100
AcDbLine
 10
159.4981708373
 20
147.0007241543
 30
0.0
 11
169.4981702412
 21
147.0007241543
 31
0.0
  0
ARC
  5
285
330
1F
100
AcDbEntity
  8
0
  6
Continuous
 62
     7
370
    15
100
AcDbCircle
 10
169.4981711546
 20
148.5007244305
 30
0.0
 40
1.5
100
AcDbArc
 50
270.0
 51
90.0
  0
LINE
  5
286
330
1F
100
AcDbEntity
  8
0
  6
Continuous
 62
     7
370
    15
100
AcDbLine
 10
197.4981711055
 20
150.0007242735
 30
0.0
 11
187.4981709565
 21
150.0007242735
 31
0.0
  0
ARC
  5
287
330
1F
100
AcDbEntity
  8
0
  6
Continuous
 62
     7
370
    15
100
AcDbCircle
 10
187.4981711546
 20
148.5007244305
 30
0.0
 40
1.5
100
AcDbArc
 50
90.0
 51
270.0
  0
LINE
  5
288
330
1F
100
AcDbEntity
  8
0
  6
Continuous
 62
     7
370
    15
100
AcDbLine
 10
187.4981709565
 20
147.0007241543
 30
0.0
 11
197.4981711055
 21
147.0007241543
 31
0.0
  0
ARC
  5
289
330
1F
100
AcDbEntity
  8
0
  6
Continuous
 62
     7
370
    15
100
AcDbCircle
 10
197.4981711546
 20
148.5007244305
 30
0.0
 40
1.5
100
AcDbArc
 50
270.0
 51
90.0
  0
LINE
  5
28A
330
1F
100
AcDbEntity
  8
0
  6
Continuous
 62
     7
370
    15
100
AcDbLine
 10
225.4981704797
 20
150.0007242735
 30
0.0
 11
215.4981710757
 21
150.0007242735
 31
0.0
  0
ARC
  5
28B
330
1F
100
AcDbEntity
  8
0
  6
Continuous
 62
     7
370
    15
100
AcDbCircle
 10
215.4981711546
 20
148.5007244305
 30
0.0
 40
1.500000000000028
100
AcDbArc
 50
90.0
 51
270.0
  0
LINE
  5
28C
330
1F
100
AcDbEntity
  8
0
  6
Continuous
 62
     7
370
    15
100
AcDbLine
 10
215.4981710757
 20
147.0007241543
 30
0.0
 11
225.4981704797
 21
147.0007241543
 31
0.0
  0
ARC
  5
28D
330
1F
100
AcDbEntity
  8
0
  6
Continuous
 62
     7
370
    15
100
AcDbCircle
 10
225.4981711546
 20
148.5007244305
 30
0.0
 40
1.5
100
AcDbArc
 50
270.0
 51
90.0
  0
LINE
  5
28E
330
1F
100
AcDbEntity
  8
0
  6
Continuous
 62
     7
370
    15
100
AcDbLine
 10
183.498171791
 20
146.0007243629
 30
0.0
 11
173.498172387
 21
146.0007243629
 31
0.0
  0
ARC
  5
28F
330
1F
100
AcDbEntity
  8
0
  6
Continuous
 62
     7
370
    15
100
AcDbCircle
 10
173.4981711546
 20
144.5007244305
 30
0.0
 40
1.5
100
AcDbArc
 50
90.0
 51
270.0
  0
LINE
  5
290
330
1F
100
AcDbEntity
  8
0
  6
Continuous
 62
     7
370
    15
100
AcDbLine
 10
173.498172387
 20
143.0007242437
 30
0.0
 11
183.498171791
 21
143.0007242437
 31
0.0
  0
ARC
  5
291
330
1F
100
AcDbEntity
  8
0
  6
Continuous
 62
     7
370
    15
100
AcDbCircle
 10
183.4981711546
 20
144.5007244305
 30
0.0
 40
1.5
100
AcDbArc
 50
270.0
 51
90.0
  0
LINE
  5
292
330
1F
100
AcDbEntity
  8
0
  6
Continuous
 62
     7
370
    15
100
AcDbLine
 10
211.4981711651
 20
146.0007243629
 30
0.0
 11
201.4981711092
 21
146.0007243629
 31
0.0
  0
ARC
  5
293
330
1F
100
AcDbEntity
  8
0
  6
Continuous
 62
     7
370
    15
100
AcDbCircle
 10
201.4981711546
 20
144.5007244305
 30
0.0
 40
1.500000000000028
100
AcDbArc
 50
90.0
 51
270.0
  0
LINE
  5
294
330
1F
100
AcDbEntity
  8
0
  6
Continuous
 62
     7
370
    15
100
AcDbLine
 10
201.4981711092
 20
143.0007242437
 30
0.0
 11
211.4981711651
 21
143.0007242437
 31
0.0
  0
ARC
  5
295
330
1F
100
AcDbEntity
  8
0
  6
Continuous
 62
     7
370
    15
100
AcDbCircle
 10
211.4981711546
 20
144.5007244305
 30
0.0
 40
1.500000000000028
100
AcDbArc
 50
270.0
 51
90.0
  0
LINE
  5
296
330
1F
100
AcDbEntity
  8
0
  6
Continuous
 62
     7
370
    15
100
AcDbLine
 10
239.4981720294
 20
146.0007243629
 30
0.0
 11
229.4981726254
 21
146.0007243629
 31
0.0
  0
ARC
  5
297
330
1F
100
AcDbEntity
  8
0
  6
Continuous
 62
     7
370
    15
100
AcDbCircle
 10
229.4981711546
 20
144.5007244305
 30
0.0
 40
1.5
100
AcDbArc
 50
90.0
 51
270.0
  0
LINE
  5
298
330
1F
100
AcDbEntity
  8
0
  6
Continuous
 62
     7
370
    15
100
AcDbLine
 10
229.4981726254
 20
143.0007242437
 30
0.0
 11
239.4981720294
 21
143.0007242437
 31
0.0
  0
ARC
  5
299
330
1F
100
AcDbEntity
  8
0
  6
Continuous
 62
     7
370
    15
100
AcDbCircle
 10
239.4981711546
 20
144.5007244305
 30
0.0
 40
1.5
100
AcDbArc
 50
270.0
 51
90.0
  0
LINE
  5
29A
330
1F
100
AcDbEntity
  8
0
  6
Continuous
 62
     7
370
    15
100
AcDbLine
 10
225.4981704797
 20
146.0007243629
 30
0.0
 11
215.4981710757
 21
146.0007243629
 31
0.0
  0
ARC
  5
29B
330
1F
100
AcDbEntity
  8
0
  6
Continuous
 62
     7
370
    15
100
AcDbCircle
 10
215.4981711546
 20
144.5007244305
 30
0.0
 40
1.5
100
AcDbArc
 50
90.0
 51
270.0
  0
LINE
  5
29C
330
1F
100
AcDbEntity
  8
0
  6
Continuous
 62
     7
370
    15
100
AcDbLine
 10
215.4981710757
 20
143.0007242437
 30
0.0
 11
225.4981704797
 21
143.0007242437
 31
0.0
  0
ARC
  5
29D
330
1F
100
AcDbEntity
  8
0
  6
Continuous
 62
     7
370
    15
100
AcDbCircle
 10
225.4981711546
 20
144.5007244305
 30
0.0
 40
1.5
100
AcDbArc
 50
270.0
 51
90.0
  0
LINE
  5
29E
330
1F
100
AcDbEntity
  8
0
  6
Continuous
 62
     7
370
    15
100
AcDbLine
 10
197.4981711055
 20
146.0007243629
 30
0.0
 11
187.4981709565
 21
146.0007243629
 31
0.0
  0
ARC
  5
29F
330
1F
100
AcDbEntity
  8
0
  6
Continuous
 62
     7
370
    15
100
AcDbCircle
 10
187.4981711546
 20
144.5007244305
 30
0.0
 40
1.5
100
AcDbArc
 50
90.0
 51
270.0
  0
LINE
  5
2A0
330
1F
100
AcDbEntity
  8
0
  6
Continuous
 62
     7
370
    15
100
AcDbLine
 10
187.4981709565
 20
143.0007242437
 30
0.0
 11
197.4981711055
 21
143.0007242437
 31
0.0
  0
ARC
  5
2A1
330
1F
100
AcDbEntity
  8
0
  6
Continuous
 62
     7
370
    15
100
AcDbCircle
 10
197.4981711546
 20
144.5007244305
 30
0.0
 40
1.5
100
AcDbArc
 50
270.0
 51
90.0
  0
LINE
  5
2A2
330
1F
100
AcDbEntity
  8
0
  6
Continuous
 62
     7
370
    15
100
AcDbLine
 10
169.4981702412
 20
146.0007243629
 30
0.0
 11
159.4981708373
 21
146.0007243629
 31
0.0
  0
ARC
  5
2A3
330
1F
100
AcDbEntity
  8
0
  6
Continuous
 62
     7
370
    15
100
AcDbCircle
 10
159.4981711546
 20
144.5007244305
 30
0.0
 40
1.5
100
AcDbArc
 50
90.0
 51
270.0
  0
LINE
  5
2A4
330
1F
100
AcDbEntity
  8
0
  6
Continuous
 62
     7
370
    15
100
AcDbLine
 10
159.4981708373
 20
143.0007242437
 30
0.0
 11
169.4981702412
 21
143.0007242437
 31
0.0
  0
ARC
  5
2A5
330
1F
100
AcDbEntity
  8
0
  6
Continuous
 62
     7
370
    15
100
AcDbCircle
 10
169.4981711546
 20
144.5007244305
 30
0.0
 40
1.5
100
AcDbArc
 50
270.0
 51
90.0
  0
LINE
  5
2A6
330
1F
100
AcDbEntity
  8
0
  6
Continuous
 62
     7
370
    15
100
AcDbLine
 10
211.4981711651
 20
150.0007242735
 30
0.0
 11
201.4981711092
 21
150.0007242735
 31
0.0
  0
ARC
  5
2A7
330
1F
100
AcDbEntity
  8
0
  6
Continuous
 62
     7
370
    15
100
AcDbCircle
 10
201.4981711546
 20
148.5007244305
 30
0.0
 40
1.5
100
AcDbArc
 50
90.0
 51
270.0
  0
LINE
  5
2A8
330
1F
100
AcDbEntity
  8
0
  6
Continuous
 62
     7
370
    15
100
AcDbLine
 10
201.4981711092
 20
147.0007241543
 30
0.0
 11
211.4981711651
 21
147.0007241543
 31
0.0
  0
ARC
  5
2A9
330
1F
100
AcDbEntity
  8
0
  6
Continuous
 62
     7
370
    15
100
AcDbCircle
 10
211.4981711546
 20
148.5007244305
 30
0.0
 40
1.5
100
AcDbArc
 50
270.0
 51
90.0
  0
LINE
  5
2AA
330
1F
100
AcDbEntity
  8
0
  6
Continuous
 62
     7
370
    15
100
AcDbLine
 10
183.498171791
 20
150.0007242735
 30
0.0
 11
173.498172387
 21
150.0007242735
 31
0.0
  0
ARC
  5
2AB
330
1F
100
AcDbEntity
  8
0
  6
Continuous
 62
     7
370
    15
100
AcDbCircle
 10
173.4981711546
 20
148.5007244305
 30
0.0
 40
1.5
100
AcDbArc
 50
90.0
 51
270.0
  0
LINE
  5
2AC
330
1F
100
AcDbEntity
  8
0
  6
Continuous
 62
     7
370
    15
100
AcDbLine
 10
173.498172387
 20
147.0007241543
 30
0.0
 11
183.498171791
 21
147.0007241543
 31
0.0
  0
ARC
  5
2AD
330
1F
100
AcDbEntity
  8
0
  6
Continuous
 62
     7
370
    15
100
AcDbCircle
 10
183.4981711546
 20
148.5007244305
 30
0.0
 40
1.5
100
AcDbArc
 50
270.0
 51
90.0
  0
LINE
  5
2AE
330
1F
100
AcDbEntity
  8
0
  6
Continuous
 62
     7
370
    15
100
AcDbLine
 10
239.4981720294
 20
150.0007242735
 30
0.0
 11
229.4981726254
 21
150.0007242735
 31
0.0
  0
ARC
  5
2AF
330
1F
100
AcDbEntity
  8
0
  6
Continuous
 62
     7
370
    15
100
AcDbCircle
 10
229.4981711546
 20
148.5007244305
 30
0.0
 40
1.500000000000028
100
AcDbArc
 50
90.0
 51
270.0
  0
LINE
  5
2B0
330
1F
100
AcDbEntity
  8
0
  6
Continuous
 62
     7
370
    15
100
AcDbLine
 10
229.4981726254
 20
147.0007241543
 30
0.0
 11
239.4981720294
 21
147.0007241543
 31
0.0
  0
ARC
  5
2B1
330
1F
100
AcDbEntity
  8
0
  6
Continuous
 62
     7
370
    15
100
AcDbCircle
 10
239.4981711546
 20
148.5007244305
 30
0.0
 40
1.500000000000028
100
AcDbArc
 50
270.0
 51
90.0
  0
SPLINE
  5
2B2
330
1F
100
AcDbEntity
  8
0
  6
Continuous
 62
     7
370
    15
100
AcDbSpline
210
0.0
220
0.0
230
1.0
 70
     8
 71
     3
 72
     9
 73
     5
 74
     0
 42
0.00000001
 43
0.00000001
 12
1.0
 22
0.0
 32
0.0
 13
1.0
 23
0.0
 33
0.0
 40
0.0
 40
0.0
 40
0.0
 40
0.0
 40
0.6141707441516002
 40
1.0
 40
1.0
 40
1.0
 40
1.0
 10
244.0411009634837
 20
140.8572063620702
 30
0.0
 10
243.9971433027635
 20
140.8952604786082
 30
0.0
 10
243.9255709246605
 20
140.9572206369198
 30
0.0
 10
243.8336399661025
 20
140.9754811699544
 30
0.0
 10
243.7981703127726
 20
140.9825266178266
 30
0.0
  0
LINE
  5
2B3
330
1F
100
AcDbEntity
  8
0
  6
Continuous
 62
     7
370
    15
100
AcDbLine
 10
243.8713946189
 20
140.6875015076
 30
0.0
 11
244.0411009635
 21
140.8572063621
 31
0.0
  0
SPLINE
  5
2B4
330
1F
100
AcDbEntity
  8
0
  6
Continuous
 62
     7
370
    15
100
AcDbSpline
210
0.0
220
0.0
230
1.0
 70
     8
 71
     3
 72
    10
 73
     6
 74
     0
 42
0.00000001
 43
0.00000001
 12
1.0
 22
0.0
 32
0.0
 13
1.0
 23
0.0
 33
0.0
 40
0.0
 40
0.0
 40
0.0
 40
0.0
 40
0.2774367350669755
 40
0.7623455040786076
 40
1.0
 40
1.0
 40
1.0
 40
1.0
 10
243.8713946188792
 20
140.6875015075818
 30
0.0
 10
243.8577525422624
 20
140.6994445193572
 30
0.0
 10
243.8202666059729
 20
140.7322617356135
 30
0.0
 10
243.7572088410336
 20
140.7571201142149
 30
0.0
 10
243.7101101477344
 20
140.7598322795038
 30
0.0
 10
243.6946191634043
 20
140.7607243235722
 30
0.0
  0
LINE
  5
2B5
330
1F
100
AcDbEntity
  8
0
  6
Continuous
 62
     7
370
    15
100
AcDbLine
 10
244.0411009635
 20
140.8572063621
 30
0.0
 11
245.3820892419
 21
139.5162165936
 31
0.0
  0
LINE
  5
2B6
330
1F
100
AcDbEntity
  8
0
  6
Continuous
 62
     7
370
    15
100
AcDbLine
 10
245.3820892419
 20
139.5162165936
 30
0.0
 11
245.2123858775
 21
139.346510249
 31
0.0
  0
LINE
  5
2B7
330
1F
100
AcDbEntity
  8
0
  6
Continuous
 62
     7
370
    15
100
AcDbLine
 10
243.8713946189
 20
140.6875015076
 30
0.0
 11
245.2123858775
 21
139.346510249
 31
0.0
  0
LINE
  5
2B8
330
1F
100
AcDbEntity
  8
0
  6
Continuous
 62
     7
370
    15
100
AcDbLine
 10
265.3609999265
 20
151.0007244374
 30
0.0
 11
276.6195841874
 21
151.0007244374
 31
0.0
  0
SPLINE
  5
2B9
330
1F
100
AcDbEntity
  8
0
  6
Continuous
 62
     7
370
    15
100
AcDbSpline
210
0.0
220
0.0
230
1.0
 70
     8
 71
     3
 72
    11
 73
     7
 74
     0
 42
0.00000001
 43
0.00000001
 12
1.0
 22
0.0
 32
0.0
 13
1.0
 23
0.0
 33
0.0
 40
0.0
 40
0.0
 40
0.0
 40
0.0
 40
0.2499988158868076
 40
0.4999975074405245
 40
0.7499983867532316
 40
0.9999999999999999
 40
0.9999999999999999
 40
0.9999999999999999
 40
0.9999999999999999
 10
265.3609999264582
 20
151.0007244374171
 30
0.0
 10
265.3817138031393
 20
151.0068873420043
 30
0.0
 10
265.4231415461998
 20
151.0192131481138
 30
0.0
 10
265.4852963725359
 20
151.1140259926615
 30
0.0
 10
265.5474352363924
 20
151.2495493115929
 30
0.0
 10
265.5888697638297
 20
151.356999375287
 30
0.0
 10
265.6095870579584
 20
151.4107244859949
 30
0.0
  0
LINE
  5
2BA
330
1F
100
AcDbEntity
  8
0
  6
Continuous
 62
     7
370
    15
100
AcDbLine
 10
265.609587058
 20
151.410724486
 30
0.0
 11
276.709587201
 21
151.410724486
 31
0.0
  0
SPLINE
  5
2BB
330
1F
100
AcDbEntity
  8
0
  6
Continuous
 62
     7
370
    15
100
AcDbSpline
210
0.0
220
0.0
230
1.0
 70
     8
 71
     3
 72
    11
 73
     7
 74
     0
 42
0.00000001
 43
0.00000001
 12
1.0
 22
0.0
 32
0.0
 13
1.0
 23
0.0
 33
0.0
 40
0.0
 40
0.0
 40
0.0
 40
0.0
 40
0.2500000465046255
 40
0.5000028130818231
 40
0.7499995621688947
 40
1.0
 40
1.0
 40
1.0
 40
1.0
 10
276.7095872010096
 20
151.4107244859949
 30
0.0
 10
276.7020869131459
 20
151.3569991767379
 30
0.0
 10
276.6870862558132
 20
151.2495479736771
 30
0.0
 10
276.6645860706768
 20
151.1140272539617
 30
0.0
 10
276.6420846981497
 20
151.0192124826595
 30
0.0
 10
276.6270843945375
 20
151.0068871494747
 30
0.0
 10
276.6195841873988
 20
151.0007244374171
 30
0.0
  0
SPLINE
  5
2BC
330
1F
100
AcDbEntity
  8
0
  6
Continuous
 62
     7
370
    15
100
AcDbSpline
210
0.0
220
0.0
230
1.0
 70
     8
 71
     3
 72
    12
 73
     8
 74
     0
 42
0.00000001
 43
0.00000001
 12
1.0
 22
0.0
 32
0.0
 13
1.0
 23
0.0
 33
0.0
 40
0.0
 40
0.0
 40
0.0
 40
0.0
 40
0.2354074352951821
 40
0.5036249124504334
 40
0.7396701895110716
 40
0.942423965673218
 40
1.0
 40
1.0
 40
1.0
 40
1.0
 10
265.6095870579584
 20
151.4107244859949
 30
0.0
 10
265.5628435583724
 20
151.3823840870042
 30
0.0
 10
265.4628416580199
 20
151.3217533301947
 30
0.0
 10
265.3289421929733
 20
151.239650816074
 30
0.0
 10
265.2336976288422
 20
151.1886806524074
 30
0.0
 10
265.2018081584355
 20
151.1683434650705
 30
0.0
 10
265.1999872995409
 20
151.1632624129761
 30
0.0
 10
265.199584587942
 20
151.1621386583463
 30
0.0
  0
SPLINE
  5
2BD
330
1F
100
AcDbEntity
  8
0
  6
Continuous
 62
     7
370
    15
100
AcDbSpline
210
0.0
220
0.0
230
1.0
 70
     8
 71
     3
 72
    12
 73
     8
 74
     0
 42
0.00000001
 43
0.00000001
 12
1.0
 22
0.0
 32
0.0
 13
1.0
 23
0.0
 33
0.0
 40
0.0
 40
0.0
 40
0.0
 40
0.0
 40
0.1538925031379738
 40
0.2930166708457334
 40
0.5279200360107364
 40
0.7279788254438685
 40
1.0
 40
1.0
 40
1.0
 40
1.0
 10
265.199584587942
 20
175.8993104870931
 30
0.0
 10
265.2022557862109
 20
175.8941057393915
 30
0.0
 10
265.207341840489
 20
175.8841957190007
 30
0.0
 10
265.2530055353743
 20
175.8587643879611
 30
0.0
 10
265.3356836122244
 20
175.8184243438591
 30
0.0
 10
265.4619308954898
 20
175.7412745396479
 30
0.0
 10
265.555608370567
 20
175.6838271120878
 30
0.0
 10
265.6095870579584
 20
175.6507248457089
 30
0.0
  0
LINE
  5
2BE
330
1F
100
AcDbEntity
  8
0
  6
Continuous
 62
     7
370
    15
100
AcDbLine
 10
265.609587058
 20
175.6507248457
 30
0.0
 11
265.609587058
 21
151.410724486
 31
0.0
  0
SPLINE
  5
2BF
330
1F
100
AcDbEntity
  8
0
  6
Continuous
 62
     7
370
    15
100
AcDbSpline
210
0.0
220
0.0
230
1.0
 70
     8
 71
     3
 72
    12
 73
     8
 74
     0
 42
0.00000001
 43
0.00000001
 12
1.0
 22
0.0
 32
0.0
 13
1.0
 23
0.0
 33
0.0
 40
0.0
 40
0.0
 40
0.0
 40
0.0
 40
0.3486720710652639
 40
0.5713398999709387
 40
0.757563012824062
 40
0.9447314268291787
 40
1.0
 40
1.0
 40
1.0
 40
1.0
 10
265.6095870579584
 20
151.4107244859949
 30
0.0
 10
265.5705724397508
 20
151.3715317669011
 30
0.0
 10
265.5066424324059
 20
151.3073099204588
 30
0.0
 10
265.4294444324831
 20
151.2320257542841
 30
0.0
 10
265.3803359421215
 20
151.1883829861822
 30
0.0
 10
265.3610820069708
 20
151.1686339359721
 30
0.0
 10
265.3598647870687
 20
151.1633444965117
 30
0.0
 10
265.359587296377
 20
151.1621386583463
 30
0.0
  0
LINE
  5
2C0
330
1F
100
AcDbEntity
  8
0
  6
Continuous
 62
     7
370
    15
100
AcDbLine
 10
265.1995845879
 20
151.1621386583
 30
0.0
 11
265.3595872964
 21
151.1621386583
 31
0.0
  0
LINE
  5
2C1
330
1F
100
AcDbEntity
  8
0
  6
Continuous
 62
     7
370
    15
100
AcDbLine
 10
276.709587201
 20
175.6507248457
 30
0.0
 11
265.609587058
 21
175.6507248457
 31
0.0
  0
LINE
  5
2C2
330
1F
100
AcDbEntity
  8
0
  6
Continuous
 62
     7
370
    15
100
AcDbLine
 10
276.709587201
 20
175.6507248457
 30
0.0
 11
276.709587201
 21
151.410724486
 31
0.0
  0
SPLINE
  5
2C3
330
1F
100
AcDbEntity
  8
0
  6
Continuous
 62
     7
370
    15
100
AcDbSpline
210
0.0
220
0.0
230
1.0
 70
     8
 71
     3
 72
    11
 73
     7
 74
     0
 42
0.00000001
 43
0.00000001
 12
1.0
 22
0.0
 32
0.0
 13
1.0
 23
0.0
 33
0.0
 40
0.0
 40
0.0
 40
0.0
 40
0.0
 40
0.2499927507964318
 40
0.4999987283287656
 40
0.7499953346743604
 40
1.0
 40
1.0
 40
1.0
 40
1.0
 10
265.3609999264582
 20
151.160724538149
 30
0.0
 10
265.3817141787387
 20
151.1644827156332
 30
0.0
 10
265.4231437792592
 20
151.1719992694411
 30
0.0
 10
265.4852942266459
 20
151.2298085574361
 30
0.0
 10
265.5474365956204
 20
151.3124486261704
 30
0.0
 10
265.5888700145723
 20
151.3779655140548
 30
0.0
 10
265.6095870579584
 20
151.4107244859949
 30
0.0
  0
LINE
  5
2C4
330
1F
100
AcDbEntity
  8
0
  6
Continuous
 62
     7
370
    15
100
AcDbLine
 10
265.3609999265
 20
151.1607245381
 30
0.0
 11
265.3609999265
 21
151.0007244374
 31
0.0
  0
SPLINE
  5
2C5
330
1F
100
AcDbEntity
  8
0
  6
Continuous
 62
     7
370
    15
100
AcDbSpline
210
0.0
220
0.0
230
1.0
 70
     8
 71
     3
 72
    13
 73
     9
 74
     0
 42
0.00000001
 43
0.00000001
 12
1.0
 22
0.0
 32
0.0
 13
1.0
 23
0.0
 33
0.0
 40
0.0
 40
0.0
 40
0.0
 40
0.0
 40
0.1407608311192791
 40
0.2700129567421802
 40
0.388812304110438
 40
0.498544965405417
 40
0.7066229800113015
 40
1.0
 40
1.0
 40
1.0
 40
1.0
 10
265.359587296377
 20
175.8993104870931
 30
0.0
 10
265.3612257571862
 20
175.8940964694362
 30
0.0
 10
265.3643687170856
 20
175.8840947359082
 30
0.0
 10
265.3867805776798
 20
175.8636934862772
 30
0.0
 10
265.4155934905688
 20
175.8400854535626
 30
0.0
 10
265.4574217489551
 20
175.8036249520736
 30
0.0
 10
265.5209559250715
 20
175.7398234078541
 30
0.0
 10
265.5768728040546
 20
175.6836116304035
 30
0.0
 10
265.6095870579584
 20
175.6507248457089
 30
0.0
  0
LWPOLYLINE
  5
2C6
330
1F
100
AcDbEntity
  8
0
  6
Continuous
 62
     7
370
    15
100
AcDbPolyline
 90
        2
 70
   128
 43
0.0
 10
265.609587058
 20
175.6507248457
 10
265.609587058
 20
175.6507248457
  0
LINE
  5
2C7
330
1F
100
AcDbEntity
  8
0
  6
Continuous
 62
     7
370
    15
100
AcDbLine
 10
265.1995845879
 20
175.8993104871
 30
0.0
 11
265.3595872964
 21
175.8993104871
 31
0.0
  0
SPLINE
  5
2C8
330
1F
100
AcDbEntity
  8
0
  6
Continuous
 62
     7
370
    15
100
AcDbSpline
210
0.0
220
0.0
230
1.0
 70
     8
 71
     3
 72
    11
 73
     7
 74
     0
 42
0.00000001
 43
0.00000001
 12
1.0
 22
0.0
 32
0.0
 13
1.0
 23
0.0
 33
0.0
 40
0.0
 40
0.0
 40
0.0
 40
0.0
 40
0.2499999458418035
 40
0.4999967967373635
 40
0.7499992103858492
 40
1.0
 40
1.0
 40
1.0
 40
1.0
 10
276.6511388863428
 20
176.0607243354932
 30
0.0
 10
276.656007851779
 20
176.0545617081502
 30
0.0
 10
276.6657457223745
 20
176.0422365297562
 30
0.0
 10
276.6803658191327
 20
175.947422539611
 30
0.0
 10
276.6949699298443
 20
175.8119011631081
 30
0.0
 10
276.7047147878384
 20
175.7044501685067
 30
0.0
 10
276.7095872010096
 20
175.6507248457089
 30
0.0
  0
SPLINE
  5
2C9
330
1F
100
AcDbEntity
  8
0
  6
Continuous
 62
     7
370
    15
100
AcDbSpline
210
0.0
220
0.0
230
1.0
 70
     8
 71
     3
 72
    12
 73
     8
 74
     0
 42
0.00000001
 43
0.00000001
 12
1.0
 22
0.0
 32
0.0
 13
1.0
 23
0.0
 33
0.0
 40
0.0
 40
0.0
 40
0.0
 40
0.0
 40
0.2301704996249833
 40
0.4604224809316599
 40
0.6906786965334145
 40
0.9209287339332438
 40
1.0
 40
1.0
 40
1.0
 40
1.0
 10
265.6095870579584
 20
175.6507248457089
 30
0.0
 10
265.5905080248452
 20
175.7001402684222
 30
0.0
 10
265.5523432045313
 20
175.7989886071928
 30
0.0
 10
265.4950847966819
 20
175.9282156475458
 30
0.0
 10
265.4378638841557
 20
176.0210023778992
 30
0.0
 10
265.3930394522833
 20
176.0575671295598
 30
0.0
 10
265.3675227234165
 20
176.0600815727578
 30
0.0
 10
265.3609999264582
 20
176.0607243354932
 30
0.0
  0
SPLINE
  5
2CA
330
1F
100
AcDbEntity
  8
0
  6
Continuous
 62
     7
370
    15
100
AcDbSpline
210
0.0
220
0.0
230
1.0
 70
     8
 71
     3
 72
    11
 73
     7
 74
     0
 42
0.00000001
 43
0.00000001
 12
1.0
 22
0.0
 32
0.0
 13
1.0
 23
0.0
 33
0.0
 40
0.0
 40
0.0
 40
0.0
 40
0.0
 40
0.2543085685332112
 40
0.5087845042886097
 40
0.7632586019649832
 40
1.0
 40
1.0
 40
1.0
 40
1.0
 10
265.6095870579584
 20
175.6507248457089
 30
0.0
 10
265.5885107838897
 20
175.6840516707233
 30
0.0
 10
265.5463443648965
 20
175.7507272540205
 30
0.0
 10
265.4830892444721
 20
175.8343168596929
 30
0.0
 10
265.4212843095175
 20
175.8903456806289
 30
0.0
 10
265.3806052207383
 20
175.8973492403846
 30
0.0
 10
265.3609999264582
 20
175.9007246072904
 30
0.0
  0
LINE
  5
2CB
330
1F
100
AcDbEntity
  8
0
  6
Continuous
 62
     7
370
    15
100
AcDbLine
 10
265.3609999265
 20
175.9007246073
 30
0.0
 11
265.3609999265
 21
176.0607243355
 31
0.0
  0
LINE
  5
2CC
330
1F
100
AcDbEntity
  8
0
  6
Continuous
 62
     7
370
    15
100
AcDbLine
 10
276.709587201
 20
175.6507248457
 30
0.0
 11
277.1195837106
 21
175.6507248457
 31
0.0
  0
LINE
  5
2CD
330
1F
100
AcDbEntity
  8
0
  6
Continuous
 62
     7
370
    15
100
AcDbLine
 10
277.1195837106
 20
175.6507248457
 30
0.0
 11
277.1195837106
 21
151.410724486
 31
0.0
  0
LINE
  5
2CE
330
1F
100
AcDbEntity
  8
0
  6
Continuous
 62
     7
370
    15
100
AcDbLine
 10
277.1195837106
 20
151.410724486
 30
0.0
 11
276.709587201
 21
151.410724486
 31
0.0
  0
SPLINE
  5
2CF
330
1F
100
AcDbEntity
  8
0
  6
Continuous
 62
     7
370
    15
100
AcDbSpline
210
0.0
220
0.0
230
1.0
 70
     8
 71
     3
 72
    12
 73
     8
 74
     0
 42
0.00000001
 43
0.00000001
 12
1.0
 22
0.0
 32
0.0
 13
1.0
 23
0.0
 33
0.0
 40
0.0
 40
0.0
 40
0.0
 40
0.0
 40
0.1986332071264874
 40
0.4263136618604753
 40
0.6540216221374543
 40
0.881723101983052
 40
1.0
 40
1.0
 40
1.0
 40
1.0
 10
276.9595869625911
 20
175.6507248457089
 30
0.0
 10
276.9572113794463
 20
175.6767003284979
 30
0.0
 10
276.9521128183139
 20
175.7324498345677
 30
0.0
 10
276.9094430634356
 20
175.8093468679764
 30
0.0
 10
276.8417155673803
 20
175.8690929307808
 30
0.0
 10
276.7701384869823
 20
175.8973479993418
 30
0.0
 10
276.7250136671111
 20
175.8998643592012
 30
0.0
 10
276.7095872010096
 20
175.9007246072904
 30
0.0
  0
LINE
  5
2D0
330
1F
100
AcDbEntity
  8
0
  6
Continuous
 62
     7
370
    15
100
AcDbLine
 10
276.709587201
 20
175.9007246073
 30
0.0
 11
276.709587201
 21
176.0607243355
 31
0.0
  0
SPLINE
  5
2D1
330
1F
100
AcDbEntity
  8
0
  6
Continuous
 62
     7
370
    15
100
AcDbSpline
210
0.0
220
0.0
230
1.0
 70
     8
 71
     3
 72
    12
 73
     8
 74
     0
 42
0.00000001
 43
0.00000001
 12
1.0
 22
0.0
 32
0.0
 13
1.0
 23
0.0
 33
0.0
 40
0.0
 40
0.0
 40
0.0
 40
0.0
 40
0.2196131596443793
 40
0.4392518522300304
 40
0.6588871513089735
 40
0.8785282823312918
 40
0.9999999999999999
 40
0.9999999999999999
 40
0.9999999999999999
 40
0.9999999999999999
 10
277.1195837105616
 20
175.6507248457089
 30
0.0
 10
277.1148412766791
 20
175.6978765042531
 30
0.0
 10
277.1053558575433
 20
175.792185303347
 30
0.0
 10
277.0314654510584
 20
175.9171274957759
 30
0.0
 10
276.9231632218477
 20
176.0100030049939
 30
0.0
 10
276.8085264440797
 20
176.0550760197953
 30
0.0
 10
276.7355680068439
 20
176.0592411242932
 30
0.0
 10
276.7095872010096
 20
176.0607243354932
 30
0.0
  0
LINE
  5
2D2
330
1F
100
AcDbEntity
  8
0
  6
Continuous
 62
     7
370
    15
100
AcDbLine
 10
276.709587201
 20
151.1607245381
 30
0.0
 11
276.709587201
 21
151.0007244374
 31
0.0
  0
SPLINE
  5
2D3
330
1F
100
AcDbEntity
  8
0
  6
Continuous
 62
     7
370
    15
100
AcDbSpline
210
0.0
220
0.0
230
1.0
 70
     8
 71
     3
 72
    11
 73
     7
 74
     0
 42
0.00000001
 43
0.00000001
 12
1.0
 22
0.0
 32
0.0
 13
1.0
 23
0.0
 33
0.0
 40
0.0
 40
0.0
 40
0.0
 40
0.0
 40
0.2500005312525339
 40
0.4999980075679868
 40
0.7499982453469368
 40
1.0
 40
1.0
 40
1.0
 40
1.0
 10
276.7095872010096
 20
151.160724538149
 30
0.0
 10
276.7423467683458
 20
151.1644822448363
 30
0.0
 10
276.8078655027055
 20
151.1719976122928
 30
0.0
 10
276.8905002112893
 20
151.2298108721052
 30
0.0
 10
276.9483111812776
 20
151.3124470008894
 30
0.0
 10
276.9558283612182
 20
151.377965258038
 30
0.0
 10
276.9595869625911
 20
151.4107244859949
 30
0.0
  0
SPLINE
  5
2D4
330
1F
100
AcDbEntity
  8
0
  6
Continuous
 62
     7
370
    15
100
AcDbSpline
210
0.0
220
0.0
230
1.0
 70
     8
 71
     3
 72
    11
 73
     7
 74
     0
 42
0.00000001
 43
0.00000001
 12
1.0
 22
0.0
 32
0.0
 13
1.0
 23
0.0
 33
0.0
 40
0.0
 40
0.0
 40
0.0
 40
0.0
 40
0.2499962816149644
 40
0.4999977934355359
 40
0.7499989880927003
 40
1.0
 40
1.0
 40
1.0
 40
1.0
 10
276.7095872010096
 20
151.0007244374171
 30
0.0
 10
276.7633113901556
 20
151.0068875641961
 30
0.0
 10
276.8707608924185
 20
151.0192139466938
 30
0.0
 10
277.0062834584068
 20
151.1140253128205
 30
0.0
 10
277.1010952514138
 20
151.2495490510875
 30
0.0
 10
277.1134208923473
 20
151.3569993541167
 30
0.0
 10
277.1195837105616
 20
151.4107244859949
 30
0.0
  0
LINE
  5
2D5
330
1F
100
AcDbEntity
  8
0
  6
Continuous
 62
     7
370
    15
100
AcDbLine
 10
276.709587201
 20
151.0007244374
 30
0.0
 11
276.6195841874
 21
151.0007244374
 31
0.0
  0
ARC
  5
2D6
330
1F
100
AcDbEntity
  8
0
  6
Continuous
 62
     7
370
    15
100
AcDbCircle
 10
276.0442871263
 20
185.8806034315
 30
0.0
 40
2.159999999999994
100
AcDbArc
 50
198.0
 51
250.0
  0
LINE
  5
2D7
330
1F
100
AcDbEntity
  8
0
  6
Continuous
 62
     7
370
    15
100
AcDbLine
 10
273.9900060738
 20
185.2131278093
 30
0.0
 11
274.142176732
 21
185.2625698622
 31
0.0
  0
ARC
  5
2D8
330
1F
100
AcDbEntity
  8
0
  6
Continuous
 62
     7
370
    15
100
AcDbCircle
 10
276.0442871263
 20
185.8806034315
 30
0.0
 40
1.999999999999975
100
AcDbArc
 50
198.0
 51
250.0
  0
LINE
  5
2D9
330
1F
100
AcDbEntity
  8
0
  6
Continuous
 62
     7
370
    15
100
AcDbLine
 10
275.3602453317
 20
184.0012193497
 30
0.0
 11
275.3055223073
 21
183.8508666332
 31
0.0
  0
ARC
  5
2DA
330
1F
100
AcDbEntity
  8
0
  6
Continuous
 62
     7
370
    15
100
AcDbCircle
 10
277.3683992283
 20
176.4707244305
 30
0.0
 40
0.2500000000000074
100
AcDbArc
 50
270.0
 51
320.0
  0
LINE
  5
2DB
330
1F
100
AcDbEntity
  8
0
  6
Continuous
 62
     7
370
    15
100
AcDbLine
 10
277.5599130238
 20
176.3100282128
 30
0.0
 11
277.6824780549
 21
176.2071818884
 31
0.0
  0
ARC
  5
2DC
330
1F
100
AcDbEntity
  8
0
  6
Continuous
 62
     7
370
    15
100
AcDbCircle
 10
277.3683992283
 20
176.4707244305
 30
0.0
 40
0.4100000000000266
100
AcDbArc
 50
270.0
 51
320.0
  0
LINE
  5
2DD
330
1F
100
AcDbEntity
  8
0
  6
Continuous
 62
     7
370
    15
100
AcDbLine
 10
277.3683973397
 20
176.0607243355
 30
0.0
 11
277.3683973397
 21
176.2207240637
 31
0.0
  0
LINE
  5
2DE
330
1F
100
AcDbEntity
  8
0
  6
Continuous
 62
     7
370
    15
100
AcDbLine
 10
265.6395860757
 20
176.2207240637
 30
0.0
 11
265.6395860757
 21
176.0607243355
 31
0.0
  0
LINE
  5
2DF
330
1F
100
AcDbEntity
  8
0
  6
Continuous
 62
     7
370
    15
100
AcDbLine
 10
265.2395852651
 20
176.0607243355
 30
0.0
 11
265.2395852651
 21
176.2207240637
 31
0.0
  0
LINE
  5
2E0
330
1F
100
AcDbEntity
  8
0
  6
Continuous
 62
     7
370
    15
100
AcDbLine
 10
265.2395852651
 20
176.2207240637
 30
0.0
 11
265.6395860757
 21
176.2207240637
 31
0.0
  0
LINE
  5
2E1
330
1F
100
AcDbEntity
  8
0
  6
Continuous
 62
     7
370
    15
100
AcDbLine
 10
265.6395860757
 20
176.0607243355
 30
0.0
 11
265.2395852651
 21
176.0607243355
 31
0.0
  0
LINE
  5
2E2
330
1F
100
AcDbEntity
  8
0
  6
Continuous
 62
     7
370
    15
100
AcDbLine
 10
268.8874193276
 20
200.358259755
 30
0.0
 11
268.8874193276
 21
200.5182594832
 31
0.0
  0
LINE
  5
2E3
330
1F
100
AcDbEntity
  8
0
  6
Continuous
 62
     7
370
    15
100
AcDbLine
 10
265.6395860757
 20
200.358259755
 30
0.0
 11
268.8874193276
 21
200.358259755
 31
0.0
  0
LINE
  5
2E4
330
1F
100
AcDbEntity
  8
0
  6
Continuous
 62
     7
370
    15
100
AcDbLine
 10
265.6395860757
 20
200.5182594832
 30
0.0
 11
265.6395860757
 21
200.358259755
 31
0.0
  0
LINE
  5
2E5
330
1F
100
AcDbEntity
  8
0
  6
Continuous
 62
     7
370
    15
100
AcDbLine
 10
265.6395860757
 20
200.5182594832
 30
0.0
 11
268.8874193276
 21
200.5182594832
 31
0.0
  0
LINE
  5
2E6
330
1F
100
AcDbEntity
  8
0
  6
Continuous
 62
     7
370
    15
100
AcDbLine
 10
279.1956015672
 20
182.4349940594
 30
0.0
 11
279.2503245915
 21
182.5853467758
 31
0.0
  0
LINE
  5
2E7
330
1F
100
AcDbEntity
  8
0
  6
Continuous
 62
     7
370
    15
100
AcDbLine
 10
279.1956015672
 20
182.4349940594
 30
0.0
 11
275.3055223073
 21
183.8508666332
 31
0.0
  0
LINE
  5
2E8
330
1F
100
AcDbEntity
  8
0
  6
Continuous
 62
     7
370
    15
100
AcDbLine
 10
279.2503245915
 20
182.5853467758
 30
0.0
 11
275.3602453317
 21
184.0012193497
 31
0.0
  0
LINE
  5
2E9
330
1F
100
AcDbEntity
  8
0
  6
Continuous
 62
     7
370
    15
100
AcDbLine
 10
273.9900060738
 20
185.2131278093
 30
0.0
 11
269.1251822556
 21
200.1855135735
 31
0.0
  0
LINE
  5
2EA
330
1F
100
AcDbEntity
  8
0
  6
Continuous
 62
     7
370
    15
100
AcDbLine
 10
269.1251822556
 20
200.1855135735
 30
0.0
 11
269.2773529137
 21
200.2349556263
 31
0.0
  0
LINE
  5
2EB
330
1F
100
AcDbEntity
  8
0
  6
Continuous
 62
     7
370
    15
100
AcDbLine
 10
274.142176732
 20
185.2625698622
 30
0.0
 11
269.2773529137
 21
200.2349556263
 31
0.0
  0
ARC
  5
2EC
330
1F
100
AcDbEntity
  8
0
  6
Continuous
 62
     7
370
    15
100
AcDbCircle
 10
268.8874175314
 20
200.1082593359
 30
0.0
 40
0.2499999999999716
100
AcDbArc
 50
18.0
 51
90.0
  0
ARC
  5
2ED
330
1F
100
AcDbEntity
  8
0
  6
Continuous
 62
     7
370
    15
100
AcDbCircle
 10
268.8874175314
 20
200.1082593359
 30
0.0
 40
0.4099999999999682
100
AcDbArc
 50
18.0
 51
90.0
  0
LINE
  5
2EE
330
1F
100
AcDbEntity
  8
0
  6
Continuous
 62
     7
370
    15
100
AcDbLine
 10
265.6395860757
 20
200.358259755
 30
0.0
 11
265.2395852651
 21
200.358259755
 31
0.0
  0
LINE
  5
2EF
330
1F
100
AcDbEntity
  8
0
  6
Continuous
 62
     7
370
    15
100
AcDbLine
 10
265.2395852651
 20
200.358259755
 30
0.0
 11
265.2395852651
 21
200.5182594832
 31
0.0
  0
LINE
  5
2F0
330
1F
100
AcDbEntity
  8
0
  6
Continuous
 62
     7
370
    15
100
AcDbLine
 10
265.2395852651
 20
200.5182594832
 30
0.0
 11
265.6395860757
 21
200.5182594832
 31
0.0
  0
ARC
  5
2F1
330
1F
100
AcDbEntity
  8
0
  6
Continuous
 62
     7
370
    15
100
AcDbCircle
 10
278.5115618822
 20
180.5556093271
 30
0.0
 40
2.159999999999988
100
AcDbArc
 50
320.0
 51
70.0
  0
LINE
  5
2F2
330
1F
100
AcDbEntity
  8
0
  6
Continuous
 62
     7
370
    15
100
AcDbLine
 10
280.1662155236
 20
179.1671887811
 30
0.0
 11
280.0436504926
 21
179.2700336154
 31
0.0
  0
ARC
  5
2F3
330
1F
100
AcDbEntity
  8
0
  6
Continuous
 62
     7
370
    15
100
AcDbCircle
 10
278.5115618822
 20
180.5556093271
 30
0.0
 40
2.000000000000002
100
AcDbArc
 50
320.0
 51
70.0
  0
LINE
  5
2F4
330
1F
100
AcDbEntity
  8
0
  6
Continuous
 62
     7
370
    15
100
AcDbLine
 10
265.6395860757
 20
176.2207240637
 30
0.0
 11
277.3683973397
 21
176.2207240637
 31
0.0
  0
LINE
  5
2F5
330
1F
100
AcDbEntity
  8
0
  6
Continuous
 62
     7
370
    15
100
AcDbLine
 10
265.6395860757
 20
176.0607243355
 30
0.0
 11
277.3683973397
 21
176.0607243355
 31
0.0
  0
LINE
  5
2F6
330
1F
100
AcDbEntity
  8
0
  6
Continuous
 62
     7
370
    15
100
AcDbLine
 10
277.5599130238
 20
176.3100282128
 30
0.0
 11
280.0436504926
 21
179.2700336154
 31
0.0
  0
LINE
  5
2F7
330
1F
100
AcDbEntity
  8
0
  6
Continuous
 62
     7
370
    15
100
AcDbLine
 10
277.6824780549
 20
176.2071818884
 30
0.0
 11
280.1662155236
 21
179.1671887811
 31
0.0
  0
LINE
  5
2F8
330
1F
100
AcDbEntity
  8
0
  6
Continuous
 62
     7
370
    15
100
AcDbLine
 10
269.198692664
 20
200.4770488318
 30
0.0
 11
269.2773529137
 21
200.2349556263
 31
0.0
  0
ARC
  5
2F9
330
1F
100
AcDbEntity
  8
0
  6
Continuous
 62
     7
370
    15
100
AcDbCircle
 10
269.4364540555
 20
200.5543035295
 30
0.0
 40
0.2500000000000182
100
AcDbArc
 50
117.5760822282
 51
198.0
  0
ARC
  5
2FA
330
1F
100
AcDbEntity
  8
0
  6
Continuous
 62
     7
370
    15
100
AcDbCircle
 10
269.4364540555
 20
200.5543035295
 30
0.0
 40
0.4100000000000091
100
AcDbArc
 50
115.9840982143
 51
188.7082308842
  0
LINE
  5
2FB
330
1F
100
AcDbEntity
  8
0
  6
Continuous
 62
     7
370
    15
100
AcDbLine
 10
130.441583022
 20
204.6107263144
 30
0.0
 11
264.2375835027
 21
204.6107263144
 31
0.0
  0
LINE
  5
2FC
330
1F
100
AcDbEntity
  8
0
  6
Continuous
 62
     7
370
    15
100
AcDbLine
 10
264.2375835027
 20
204.6107263144
 30
0.0
 11
264.2375835027
 21
204.1207254704
 31
0.0
  0
LINE
  5
2FD
330
1F
100
AcDbEntity
  8
0
  6
Continuous
 62
     7
370
    15
100
AcDbLine
 10
130.441583022
 20
211.1907214697
 30
0.0
 11
130.441583022
 21
204.6107263144
 31
0.0
  0
LINE
  5
2FE
330
1F
100
AcDbEntity
  8
0
  6
Continuous
 62
     7
370
    15
100
AcDbLine
 10
130.441583022
 20
211.1907214697
 30
0.0
 11
264.2375835027
 21
211.1907214697
 31
0.0
  0
LINE
  5
2FF
330
1F
100
AcDbEntity
  8
0
  6
Continuous
 62
     7
370
    15
100
AcDbLine
 10
264.2375835027
 20
204.6107263144
 30
0.0
 11
264.2375835027
 21
211.1907214697
 31
0.0
  0
LINE
  5
300
330
1F
100
AcDbEntity
  8
0
  6
Continuous
 62
     7
370
    15
100
AcDbLine
 10
272.04491578
 20
211.160722452
 30
0.0
 11
272.04491578
 21
211.1907214697
 31
0.0
  0
LINE
  5
301
330
1F
100
AcDbEntity
  8
0
  6
Continuous
 62
     7
370
    15
100
AcDbLine
 10
272.1049138154
 20
211.160722452
 30
0.0
 11
272.04491578
 21
211.160722452
 31
0.0
  0
LINE
  5
302
330
1F
100
AcDbEntity
  8
0
  6
Continuous
 62
     7
370
    15
100
AcDbLine
 10
272.1049138154
 20
211.420723873
 30
0.0
 11
272.1049138154
 21
211.160722452
 31
0.0
  0
ARC
  5
303
330
1F
100
AcDbEntity
  8
0
  6
Continuous
 62
     7
370
    15
100
AcDbCircle
 10
272.115771434
 20
207.0207244305
 30
0.0
 40
4.400013393073634
100
AcDbArc
 50
293.4904921589
 51
90.1413679219
  0
LINE
  5
304
330
1F
100
AcDbEntity
  8
0
  6
Continuous
 62
     7
370
    15
100
AcDbLine
 10
268.5535856332
 20
200.6738991316
 30
0.0
 11
273.8696046914
 21
202.9853553351
 31
0.0
  0
ARC
  5
305
330
1F
100
AcDbEntity
  8
0
  6
Continuous
 62
     7
370
    15
100
AcDbCircle
 10
268.3940848601
 20
201.0407244305
 30
0.0
 40
0.4000000000000061
100
AcDbArc
 50
270.0
 51
293.4998700858
  0
ARC
  5
306
330
1F
100
AcDbEntity
  8
0
  6
Continuous
 62
     7
370
    15
100
AcDbCircle
 10
265.4375853682
 20
201.0407244305
 30
0.0
 40
0.4000000000000341
100
AcDbArc
 50
180.0
 51
270.0
  0
LINE
  5
307
330
1F
100
AcDbEntity
  8
0
  6
Continuous
 62
     7
370
    15
100
AcDbLine
 10
264.3295832719
 20
204.1607231672
 30
0.0
 11
265.0375851239
 21
204.1607231672
 31
0.0
  0
LINE
  5
308
330
1F
100
AcDbEntity
  8
0
  6
Continuous
 62
     7
370
    15
100
AcDbLine
 10
264.3295832719
 20
211.1907214697
 30
0.0
 11
264.3295832719
 21
204.1607231672
 31
0.0
  0
LINE
  5
309
330
1F
100
AcDbEntity
  8
0
  6
Continuous
 62
     7
370
    15
100
AcDbLine
 10
264.3295832719
 20
211.1907214697
 30
0.0
 11
272.04491578
 21
211.1907214697
 31
0.0
  0
ARC
  5
30A
330
1F
100
AcDbEntity
  8
0
  6
Continuous
 62
     7
370
    15
100
AcDbCircle
 10
269.615771434
 20
204.5207244305
 30
0.0
 40
0.5200000000000048
100
AcDbArc
 50
100.4998591652
 51
259.5001408348
  0
ARC
  5
30B
330
1F
100
AcDbEntity
  8
0
  6
Continuous
 62
     7
370
    15
100
AcDbCircle
 10
269.515771434
 20
205.0818126178
 30
0.0
 40
0.0500702202186724
100
AcDbArc
 50
276.0057764949
 51
100.1054407085
  0
ARC
  5
30C
330
1F
100
AcDbEntity
  8
0
  6
Continuous
 62
     7
370
    15
100
AcDbCircle
 10
269.615771434
 20
204.5207244305
 30
0.0
 40
0.6200000000000231
100
AcDbArc
 50
100.1054407084
 51
259.8945592916
  0
ARC
  5
30D
330
1F
100
AcDbEntity
  8
0
  6
Continuous
 62
     7
370
    15
100
AcDbCircle
 10
269.515771434
 20
203.9596362432
 30
0.0
 40
0.0500702202186466
100
AcDbArc
 50
259.8945592915
 51
83.9942235051
  0
ARC
  5
30E
330
1F
100
AcDbEntity
  8
0
  6
Continuous
 62
     7
370
    15
100
AcDbCircle
 10
269.715771434
 20
205.0818126178
 30
0.0
 40
0.0500702202186724
100
AcDbArc
 50
79.8945592915
 51
255.7948950783
  0
ARC
  5
30F
330
1F
100
AcDbEntity
  8
0
  6
Continuous
 62
     7
370
    15
100
AcDbCircle
 10
269.615771434
 20
204.5207244305
 30
0.0
 40
0.520000000000012
100
AcDbArc
 50
279.7110222516
 51
80.2889777484
  0
ARC
  5
310
330
1F
100
AcDbEntity
  8
0
  6
Continuous
 62
     7
370
    15
100
AcDbCircle
 10
269.715771434
 20
203.9596362432
 30
0.0
 40
0.0500702202186374
100
AcDbArc
 50
104.2051049218
 51
280.1054407084
  0
ARC
  5
311
330
1F
100
AcDbEntity
  8
0
  6
Continuous
 62
     7
370
    15
100
AcDbCircle
 10
269.615771434
 20
204.5207244305
 30
0.0
 40
0.6200000000000231
100
AcDbArc
 50
280.1054407084
 51
79.8945592916
  0
LINE
  5
312
330
1F
100
AcDbEntity
  8
0
  6
Continuous
 62
     7
370
    15
100
AcDbLine
 10
265.4375859345
 20
200.6407231863
 30
0.0
 11
268.3940836038
 21
200.6407231863
 31
0.0
  0
LINE
  5
313
330
1F
100
AcDbEntity
  8
0
  6
Continuous
 62
     7
370
    15
100
AcDbLine
 10
265.0375851239
 20
204.1607231672
 30
0.0
 11
265.0375851239
 21
201.0407239969
 31
0.0
  0
LINE
  5
314
330
1F
100
AcDbEntity
  8
0
  6
Continuous
 62
     7
370
    15
100
AcDbLine
 10
130.441583022
 20
211.6807252939
 30
0.0
 11
264.2375835027
 21
211.6807252939
 31
0.0
  0
LINE
  5
315
330
1F
100
AcDbEntity
  8
0
  6
Continuous
 62
     7
370
    15
100
AcDbLine
 10
264.2375835027
 20
211.6807252939
 30
0.0
 11
264.2375835027
 21
211.1907214697
 31
0.0
  0
LINE
  5
316
330
1F
100
AcDbEntity
  8
0
  6
Continuous
 62
     7
370
    15
100
AcDbLine
 10
272.04491578
 20
211.6121501501
 30
0.0
 11
272.04491578
 21
211.1907214697
 31
0.0
  0
LINE
  5
317
330
1F
100
AcDbEntity
  8
0
  6
Continuous
 62
     7
370
    15
100
AcDbLine
 10
264.3295832719
 20
211.1907214697
 30
0.0
 11
264.3295832719
 21
211.6807252939
 31
0.0
  0
LINE
  5
318
330
1F
100
AcDbEntity
  8
0
  6
Continuous
 62
     7
370
    15
100
AcDbLine
 10
264.3295832719
 20
211.6807252939
 30
0.0
 11
272.04491578
 21
211.6807252939
 31
0.0
  0
LINE
  5
319
330
1F
100
AcDbEntity
  8
0
  6
Continuous
 62
     7
370
    15
100
AcDbLine
 10
269.2440219964
 20
200.9523034866
 30
0.0
 11
273.8782414044
 21
202.9673189695
 31
0.0
  0
LINE
  5
31A
330
1F
100
AcDbEntity
  8
0
  6
Continuous
 62
     7
370
    15
100
AcDbLine
 10
273.9739426221
 20
202.7472258385
 30
0.0
 11
273.8782414044
 21
202.9673189695
 31
0.0
  0
LINE
  5
31B
330
1F
100
AcDbEntity
  8
0
  6
Continuous
 62
     7
370
    15
100
AcDbLine
 10
269.339723214
 20
200.7322073753
 30
0.0
 11
273.9739426221
 21
202.7472258385
 31
0.0
  0
LINE
  5
31C
330
1F
100
AcDbEntity
  8
0
  6
Continuous
 62
     7
370
    15
100
AcDbLine
 10
269.2440219964
 20
200.9523034866
 30
0.0
 11
269.339723214
 21
200.7322073753
 31
0.0
  0
ARC
  5
31D
330
1F
100
AcDbEntity
  8
0
  6
Continuous
 62
     7
370
    15
100
AcDbCircle
 10
129.9495853682
 20
213.2307244305
 30
0.0
 40
0.4900000000000375
100
AcDbArc
 50
9.533941107
 51
90.0
  0
ARC
  5
31E
330
1F
100
AcDbEntity
  8
0
  6
Continuous
 62
     7
370
    15
100
AcDbCircle
 10
272.115771434
 20
207.0207244305
 30
0.0
 40
4.420000000000016
100
AcDbArc
 50
293.5
 51
90.0
  0
LINE
  5
31F
330
1F
100
AcDbEntity
  8
0
  6
Continuous
 62
     7
370
    15
100
AcDbLine
 10
272.1157737817
 20
211.4407271917
 30
0.0
 11
272.1157737817
 21
211.6807252939
 31
0.0
  0
ARC
  5
320
330
1F
100
AcDbEntity
  8
0
  6
Continuous
 62
     7
370
    15
100
AcDbCircle
 10
272.115771434
 20
207.0207244305
 30
0.0
 40
4.659999999999997
100
AcDbArc
 50
293.5
 51
90.0
  0
LWPOLYLINE
  5
321
330
1F
100
AcDbEntity
  8
0
  6
Continuous
 62
     7
370
    15
100
AcDbPolyline
 90
        3
 70
   128
 43
0.0
 10
123.6853607739
 20
213.2841379221
 10
123.6843892182
 20
213.2794947203
 10
123.6795850839
 20
213.2307261999
  0
LINE
  5
322
330
1F
100
AcDbEntity
  8
0
  6
Continuous
 62
     7
370
    15
100
AcDbLine
 10
123.6795850839
 20
213.2307261999
 30
0.0
 11
123.4395869817
 21
213.2307261999
 31
0.0
  0
ARC
  5
323
330
1F
100
AcDbEntity
  8
0
  6
Continuous
 62
     7
370
    15
100
AcDbCircle
 10
123.9295853682
 20
213.2307244305
 30
0.0
 40
0.4900000000000375
100
AcDbArc
 50
90.0
 51
180.0
  0
LINE
  5
324
330
1F
100
AcDbEntity
  8
0
  6
Continuous
 62
     7
370
    15
100
AcDbLine
 10
129.9495824422
 20
213.7207240637
 30
0.0
 11
123.9295848454
 21
213.7207240637
 31
0.0
  0
LINE
  5
325
330
1F
100
AcDbEntity
  8
0
  6
Continuous
 62
     7
370
    15
100
AcDbLine
 10
123.4395869817
 20
204.1207254704
 30
0.0
 11
123.6795850839
 21
204.1207254704
 31
0.0
  0
LINE
  5
326
330
1F
100
AcDbEntity
  8
0
  6
Continuous
 62
     7
370
    15
100
AcDbLine
 10
123.6795850839
 20
213.2307261999
 30
0.0
 11
123.6795850839
 21
204.1207254704
 31
0.0
  0
LINE
  5
327
330
1F
100
AcDbEntity
  8
0
  6
Continuous
 62
     7
370
    15
100
AcDbLine
 10
123.4395869817
 20
213.2307261999
 30
0.0
 11
123.4395869817
 21
204.1207254704
 31
0.0
  0
LINE
  5
328
330
1F
100
AcDbEntity
  8
0
  6
Continuous
 62
     7
370
    15
100
AcDbLine
 10
272.04491578
 20
211.6121501501
 30
0.0
 11
272.04491578
 21
211.6807252939
 31
0.0
  0
LINE
  5
329
330
1F
100
AcDbEntity
  8
0
  6
Continuous
 62
     7
370
    15
100
AcDbLine
 10
272.1157737817
 20
211.6807252939
 30
0.0
 11
272.04491578
 21
211.6807252939
 31
0.0
  0
LINE
  5
32A
330
1F
100
AcDbEntity
  8
0
  6
Continuous
 62
     7
370
    15
100
AcDbLine
 10
272.1157737817
 20
211.4407271917
 30
0.0
 11
272.04491578
 21
211.4407271917
 31
0.0
  0
LINE
  5
32B
330
1F
100
AcDbEntity
  8
0
  6
Continuous
 62
     7
370
    15
100
AcDbLine
 10
264.3295832719
 20
211.6807252939
 30
0.0
 11
264.2375835027
 21
211.6720110949
 31
0.0
  0
LWPOLYLINE
  5
32C
330
1F
100
AcDbEntity
  8
0
  6
Continuous
 62
     7
370
    15
100
AcDbPolyline
 90
        3
 70
   128
 43
0.0
 10
264.3295832719
 20
211.4407271917
 10
264.2808147515
 20
211.4359230574
 10
264.2375835027
 20
211.4231795843
  0
LINE
  5
32D
330
1F
100
AcDbEntity
  8
0
  6
Continuous
 62
     7
370
    15
100
AcDbLine
 10
265.0375851239
 20
204.1507244881
 30
0.0
 11
264.3295832719
 21
204.1507244881
 31
0.0
  0
LINE
  5
32E
330
1F
100
AcDbEntity
  8
0
  6
Continuous
 62
     7
370
    15
100
AcDbLine
 10
264.3295832719
 20
204.1507244881
 30
0.0
 11
264.3295832719
 21
204.1607231672
 31
0.0
  0
LINE
  5
32F
330
1F
100
AcDbEntity
  8
0
  6
Continuous
 62
     7
370
    15
100
AcDbLine
 10
269.7098144139
 20
204.0092796858
 30
0.0
 11
269.7218903149
 21
204.0116668518
 31
0.0
  0
ARC
  5
330
330
1F
100
AcDbEntity
  8
0
  6
Continuous
 62
     7
370
    15
100
AcDbCircle
 10
269.6150516037
 20
204.5205738412
 30
0.0
 40
0.6200000000000035
100
AcDbArc
 50
281.8320243843
 51
79.8945592916
  0
ARC
  5
331
330
1F
100
AcDbEntity
  8
0
  6
Continuous
 62
     7
370
    15
100
AcDbCircle
 10
269.6150516037
 20
204.5205738412
 30
0.0
 40
0.520000000000012
100
AcDbArc
 50
101.7577105966
 51
260.2889777484
  0
ARC
  5
332
330
1F
100
AcDbEntity
  8
0
  6
Continuous
 62
     7
370
    15
100
AcDbCircle
 10
269.5150516037
 20
205.0816620285
 30
0.0
 40
0.0500702202186649
100
AcDbArc
 50
284.2051049218
 51
100.1054407084
  0
LINE
  5
333
330
1F
100
AcDbEntity
  8
0
  6
Continuous
 62
     7
370
    15
100
AcDbLine
 10
269.4880791749
 20
205.1274330195
 30
0.0
 11
269.506264552
 21
205.130955654
 31
0.0
  0
ARC
  5
334
330
1F
100
AcDbEntity
  8
0
  6
Continuous
 62
     7
370
    15
100
AcDbCircle
 10
269.5150516037
 20
203.959485654
 30
0.0
 40
0.0500702202186525
100
AcDbArc
 50
259.8945592916
 51
75.7948950782
  0
SPLINE
  5
335
330
1F
100
AcDbEntity
  8
0
  6
Continuous
 62
     7
370
    15
100
AcDbSpline
210
0.0
220
0.0
230
1.0
 70
     8
 71
     3
 72
    13
 73
     9
 74
     0
 42
0.00000001
 43
0.00000001
 12
1.0
 22
0.0
 32
0.0
 13
1.0
 23
0.0
 33
0.0
 40
0.0
 40
0.0
 40
0.0
 40
0.0
 40
0.3066671053006455
 40
0.4984639679571623
 40
0.6088138612444514
 40
0.7281653123964407
 40
0.8581367734507791
 40
1.0
 40
1.0
 40
1.0
 40
1.0
 10
124.0895875538691
 20
151.4107244859949
 30
0.0
 10
124.0547456699273
 20
151.3769798224711
 30
0.0
 10
123.9981128474938
 20
151.3221304480624
 30
0.0
 10
123.9365687323697
 20
151.2573605340878
 30
0.0
 10
123.8963873391159
 20
151.2211833382464
 30
0.0
 10
123.8672618402615
 20
151.197165120628
 30
0.0
 10
123.8444722923957
 20
151.1767760006461
 30
0.0
 10
123.8412627607168
 20
151.1671580228046
 30
0.0
 10
123.8395877922877
 20
151.1621386583463
 30
0.0
  0
LINE
  5
336
330
1F
100
AcDbEntity
  8
0
  6
Continuous
 62
     7
370
    15
100
AcDbLine
 10
123.6795850839
 20
151.1621386583
 30
0.0
 11
123.8395877923
 21
151.1621386583
 31
0.0
  0
SPLINE
  5
337
330
1F
100
AcDbEntity
  8
0
  6
Continuous
 62
     7
370
    15
100
AcDbSpline
210
0.0
220
0.0
230
1.0
 70
     8
 71
     3
 72
    13
 73
     9
 74
     0
 42
0.00000001
 43
0.00000001
 12
1.0
 22
0.0
 32
0.0
 13
1.0
 23
0.0
 33
0.0
 40
0.0
 40
0.0
 40
0.0
 40
0.0
 40
0.2855787160602148
 40
0.4687827821264839
 40
0.5799067958809686
 40
0.7049805269670713
 40
0.844823720267889
 40
1.0
 40
1.0
 40
1.0
 40
1.0
 10
124.0895875538691
 20
151.4107244859949
 30
0.0
 10
124.0322566299772
 20
151.3768348562059
 30
0.0
 10
123.9381468504575
 20
151.3212043976168
 30
0.0
 10
123.8365621035419
 20
151.2561318142851
 30
0.0
 10
123.7717310940415
 20
151.220672922398
 30
0.0
 10
123.72443617637
 20
151.1968900494762
 30
0.0
 10
123.6874422556553
 20
151.1766352041426
 30
0.0
 10
123.6822933428312
 20
151.1671354181598
 30
0.0
 10
123.6795850838526
 20
151.1621386583463
 30
0.0
  0
SPLINE
  5
338
330
1F
100
AcDbEntity
  8
0
  6
Continuous
 62
     7
370
    15
100
AcDbSpline
210
0.0
220
0.0
230
1.0
 70
     8
 71
     3
 72
    11
 73
     7
 74
     0
 42
0.00000001
 43
0.00000001
 12
1.0
 22
0.0
 32
0.0
 13
1.0
 23
0.0
 33
0.0
 40
0.0
 40
0.0
 40
0.0
 40
0.0
 40
0.254296593786244
 40
0.5087721191305761
 40
0.7632531893960246
 40
1.0
 40
1.0
 40
1.0
 40
1.0
 10
123.8410004223689
 20
151.160724538149
 30
0.0
 10
123.8620745675937
 20
151.1646160948007
 30
0.0
 10
123.9042376865143
 20
151.1724019463333
 30
0.0
 10
123.9674915059321
 20
151.2321962295887
 30
0.0
 10
124.0293046962365
 20
151.3153892069882
 30
0.0
 10
124.0699827867724
 20
151.3797202168805
 30
0.0
 10
124.0895875538691
 20
151.4107244859949
 30
0.0
  0
SPLINE
  5
339
330
1F
100
AcDbEntity
  8
0
  6
Continuous
 62
     7
370
    15
100
AcDbSpline
210
0.0
220
0.0
230
1.0
 70
     8
 71
     3
 72
    12
 73
     8
 74
     0
 42
0.00000001
 43
0.00000001
 12
1.0
 22
0.0
 32
0.0
 13
1.0
 23
0.0
 33
0.0
 40
0.0
 40
0.0
 40
0.0
 40
0.0
 40
0.2301666634974203
 40
0.4604205506964092
 40
0.6906733782239566
 40
0.9209293199601252
 40
0.9999999999999999
 40
0.9999999999999999
 40
0.9999999999999999
 40
0.9999999999999999
 10
123.8410004223688
 20
151.0007244374171
 30
0.0
 10
123.8600770612659
 20
151.0059399899905
 30
0.0
 10
123.8982375683218
 20
151.0163730716173
 30
0.0
 10
123.9554966415541
 20
151.0973146349386
 30
0.0
 10
124.0127168841775
 20
151.2149219872178
 30
0.0
 10
124.0575478014873
 20
151.3277242485117
 30
0.0
 10
124.0830648386049
 20
151.3938271358059
 30
0.0
 10
124.0895875538691
 20
151.4107244859949
 30
0.0
  0
LINE
  5
33A
330
1F
100
AcDbEntity
  8
0
  6
Continuous
 62
     7
370
    15
100
AcDbLine
 10
123.8410004224
 20
151.0007244374
 30
0.0
 11
123.8410004224
 21
151.1607245381
 31
0.0
  0
LINE
  5
33B
330
1F
100
AcDbEntity
  8
0
  6
Continuous
 62
     7
370
    15
100
AcDbLine
 10
123.6795850839
 20
203.9593101318
 30
0.0
 11
123.6795850839
 21
151.1621386583
 31
0.0
  0
SPLINE
  5
33C
330
1F
100
AcDbEntity
  8
0
  6
Continuous
 62
     7
370
    15
100
AcDbSpline
210
0.0
220
0.0
230
1.0
 70
     8
 71
     3
 72
    12
 73
     8
 74
     0
 42
0.00000001
 43
0.00000001
 12
1.0
 22
0.0
 32
0.0
 13
1.0
 23
0.0
 33
0.0
 40
0.0
 40
0.0
 40
0.0
 40
0.0
 40
0.1873992249514364
 40
0.3754389362425528
 40
0.5704396829123294
 40
0.779826260548715
 40
1.0
 40
1.0
 40
1.0
 40
1.0
 10
123.6795850838526
 20
203.9593101318494
 30
0.0
 10
123.6836524009679
 20
203.9547166811652
 30
0.0
 10
123.6918009363287
 20
203.945514080466
 30
0.0
 10
123.7540473563217
 20
203.9112110867952
 30
0.0
 10
123.8456512039028
 20
203.860187399347
 30
0.0
 10
123.9602734695372
 20
203.7888447067086
 30
0.0
 10
124.0457672165718
 20
203.7371959057608
 30
0.0
 10
124.0895875538691
 20
203.7107230003491
 30
0.0
  0
LINE
  5
33D
330
1F
100
AcDbEntity
  8
0
  6
Continuous
 62
     7
370
    15
100
AcDbLine
 10
124.0895875539
 20
203.7107230003
 30
0.0
 11
124.0895875539
 21
151.410724486
 31
0.0
  0
LINE
  5
33E
330
1F
100
AcDbEntity
  8
0
  6
Continuous
 62
     7
370
    15
100
AcDbLine
 10
265.0381692494
 20
151.0007244374
 30
0.0
 11
123.8410004224
 21
151.0007244374
 31
0.0
  0
LINE
  5
33F
330
1F
100
AcDbEntity
  8
0
  6
Continuous
 62
     7
370
    15
100
AcDbLine
 10
124.0895875539
 20
151.410724486
 30
0.0
 11
264.7895880784
 21
151.410724486
 31
0.0
  0
SPLINE
  5
340
330
1F
100
AcDbEntity
  8
0
  6
Continuous
 62
     7
370
    15
100
AcDbSpline
210
0.0
220
0.0
230
1.0
 70
     8
 71
     3
 72
    12
 73
     8
 74
     0
 42
0.00000001
 43
0.00000001
 12
1.0
 22
0.0
 32
0.0
 13
1.0
 23
0.0
 33
0.0
 40
0.0
 40
0.0
 40
0.0
 40
0.0
 40
0.2353724286334359
 40
0.5035735661906
 40
0.7398130049781796
 40
0.9425314232107945
 40
1.0
 40
1.0
 40
1.0
 40
1.0
 10
264.78958807839
 20
151.4107244859949
 30
0.0
 10
264.8179223890328
 20
151.3639835305373
 30
0.0
 10
264.8785429550812
 20
151.2639823971693
 30
0.0
 10
264.9607029986124
 20
151.1300758554772
 30
0.0
 10
265.0118111893735
 20
151.0348292201934
 30
0.0
 10
265.0321124502286
 20
151.0029399760712
 30
0.0
 10
265.0370734851431
 20
151.0011252610279
 30
0.0
 10
265.0381692494257
 20
151.0007244374171
 30
0.0
  0
LINE
  5
341
330
1F
100
AcDbEntity
  8
0
  6
Continuous
 62
     7
370
    15
100
AcDbLine
 10
264.7895880784
 20
203.7107230003
 30
0.0
 11
124.0895875539
 21
203.7107230003
 31
0.0
  0
LINE
  5
342
330
1F
100
AcDbEntity
  8
0
  6
Continuous
 62
     7
370
    15
100
AcDbLine
 10
264.7895880784
 20
151.410724486
 30
0.0
 11
264.7895880784
 21
203.7107230003
 31
0.0
  0
SPLINE
  5
343
330
1F
100
AcDbEntity
  8
0
  6
Continuous
 62
     7
370
    15
100
AcDbSpline
210
0.0
220
0.0
230
1.0
 70
     8
 71
     3
 72
    12
 73
     8
 74
     0
 42
0.00000001
 43
0.00000001
 12
1.0
 22
0.0
 32
0.0
 13
1.0
 23
0.0
 33
0.0
 40
0.0
 40
0.0
 40
0.0
 40
0.0
 40
0.3486255646455231
 40
0.5715624194078882
 40
0.7575563265171096
 40
0.9445166253986249
 40
1.0
 40
1.0
 40
1.0
 40
1.0
 10
264.78958807839
 20
151.4107244859949
 30
0.0
 10
264.8287743553703
 20
151.3717072365822
 30
0.0
 10
264.8930192230732
 20
151.3077394851191
 30
0.0
 10
264.968357812882
 20
151.2305761475037
 30
0.0
 10
265.0120727554107
 20
151.1815081384332
 30
0.0
 10
265.0318068177507
 20
151.1622259943556
 30
0.0
 10
265.0369843647962
 20
151.1610041564572
 30
0.0
 10
265.0381692494257
 20
151.160724538149
 30
0.0
  0
LINE
  5
344
330
1F
100
AcDbEntity
  8
0
  6
Continuous
 62
     7
370
    15
100
AcDbLine
 10
265.0381692494
 20
151.0007244374
 30
0.0
 11
265.0381692494
 21
151.1607245381
 31
0.0
  0
LINE
  5
345
330
1F
100
AcDbEntity
  8
0
  6
Continuous
 62
     7
370
    15
100
AcDbLine
 10
265.1995845879
 20
151.1621386583
 30
0.0
 11
265.03958784
 21
151.1621386583
 31
0.0
  0
SPLINE
  5
346
330
1F
100
AcDbEntity
  8
0
  6
Continuous
 62
     7
370
    15
100
AcDbSpline
210
0.0
220
0.0
230
1.0
 70
     8
 71
     3
 72
    11
 73
     7
 74
     0
 42
0.00000001
 43
0.00000001
 12
1.0
 22
0.0
 32
0.0
 13
1.0
 23
0.0
 33
0.0
 40
0.0
 40
0.0
 40
0.0
 40
0.0
 40
0.2500023412457331
 40
0.4999997237652307
 40
0.7500091592510996
 40
1.0
 40
1.0
 40
1.0
 40
1.0
 10
265.0395878399714
 20
151.1621386583463
 30
0.0
 10
265.0358292727517
 20
151.1828539184402
 30
0.0
 10
265.0283122128625
 20
151.2242840277468
 30
0.0
 10
264.9705004396062
 20
151.286433765336
 30
0.0
 10
264.8878617630916
 20
151.3485748245403
 30
0.0
 10
264.822345161115
 20
151.390008445808
 30
0.0
 10
264.78958807839
 20
151.4107244859949
 30
0.0
  0
SPLINE
  5
347
330
1F
100
AcDbEntity
  8
0
  6
Continuous
 62
     7
370
    15
100
AcDbSpline
210
0.0
220
0.0
230
1.0
 70
     8
 71
     3
 72
    11
 73
     7
 74
     0
 42
0.00000001
 43
0.00000001
 12
1.0
 22
0.0
 32
0.0
 13
1.0
 23
0.0
 33
0.0
 40
0.0
 40
0.0
 40
0.0
 40
0.0
 40
0.2500010107317372
 40
0.5000019353332082
 40
0.7500028599346793
 40
1.0
 40
1.0
 40
1.0
 40
1.0
 10
265.199584587942
 20
151.1621386583463
 30
0.0
 10
265.1934217695112
 20
151.1828541198412
 30
0.0
 10
265.181096134773
 20
151.2242850356942
 30
0.0
 10
265.0862844941315
 20
151.2864315610726
 30
0.0
 10
264.9507612441251
 20
151.348577273518
 30
0.0
 10
264.8433121958707
 20
151.3900088530359
 30
0.0
 10
264.78958807839
 20
151.4107244859949
 30
0.0
  0
SPLINE
  5
348
330
1F
100
AcDbEntity
  8
0
  6
Continuous
 62
     7
370
    15
100
AcDbSpline
210
0.0
220
0.0
230
1.0
 70
     8
 71
     3
 72
     9
 73
     5
 74
     0
 42
0.00000001
 43
0.00000001
 12
1.0
 22
0.0
 32
0.0
 13
1.0
 23
0.0
 33
0.0
 40
0.0
 40
0.0
 40
0.0
 40
0.0
 40
0.5509808850515255
 40
1.0
 40
1.0
 40
1.0
 40
1.0
 10
264.78958807839
 20
203.7107230003491
 30
0.0
 10
264.8396693926015
 20
203.7298027270768
 30
0.0
 10
264.9305642232033
 20
203.7644313816188
 30
0.0
 10
265.0044217034805
 20
203.799057269821
 30
0.0
 10
265.037585123907
 20
203.8146049554959
 30
0.0
  0
LINE
  5
349
330
1F
100
AcDbEntity
  8
0
  6
Continuous
 62
     7
370
    15
100
AcDbLine
 10
265.1995845879
 20
151.1621386583
 30
0.0
 11
265.1995845879
 21
200.7192344244
 31
0.0
  0
SPLINE
  5
34A
330
1F
100
AcDbEntity
  8
0
  6
Continuous
 62
     7
370
    15
100
AcDbSpline
210
0.0
220
0.0
230
1.0
 70
     8
 71
     3
 72
    11
 73
     7
 74
     0
 42
0.00000001
 43
0.00000001
 12
1.0
 22
0.0
 32
0.0
 13
1.0
 23
0.0
 33
0.0
 40
0.0
 40
0.0
 40
0.0
 40
0.0
 40
0.2500032617873033
 40
0.5000032378320663
 40
0.7500026008919682
 40
1.0
 40
1.0
 40
1.0
 40
1.0
 10
124.0895875538691
 20
203.7107230003491
 30
0.0
 10
124.0688703287829
 20
203.7434822415412
 30
0.0
 10
124.0274361508929
 20
203.8090002933772
 30
0.0
 10
123.9652965437177
 20
203.8916394786107
 30
0.0
 10
123.9031423934944
 20
203.949449493327
 30
0.0
 10
123.8617143585019
 20
203.9569670023936
 30
0.0
 10
123.8410004223689
 20
203.9607257421628
 30
0.0
  0
LINE
  5
34B
330
1F
100
AcDbEntity
  8
0
  6
Continuous
 62
     7
370
    15
100
AcDbLine
 10
123.8410004224
 20
203.9607257422
 30
0.0
 11
123.8410004224
 21
204.1207254704
 31
0.0
  0
SPLINE
  5
34C
330
1F
100
AcDbEntity
  8
0
  6
Continuous
 62
     7
370
    15
100
AcDbSpline
210
0.0
220
0.0
230
1.0
 70
     8
 71
     3
 72
    11
 73
     7
 74
     0
 42
0.00000001
 43
0.00000001
 12
1.0
 22
0.0
 32
0.0
 13
1.0
 23
0.0
 33
0.0
 40
0.0
 40
0.0
 40
0.0
 40
0.0
 40
0.2500010530578914
 40
0.4999988758975557
 40
0.7500020910301904
 40
1.0
 40
1.0
 40
1.0
 40
1.0
 10
124.0895875538691
 20
203.7107230003491
 30
0.0
 10
124.0688703680448
 20
203.7644480838134
 30
0.0
 10
124.0274362640793
 20
203.8718975565698
 30
0.0
 10
123.9652955612302
 20
204.0074229973478
 30
0.0
 10
123.9031429993557
 20
204.1022370696351
 30
0.0
 10
123.8617144681471
 20
204.1145627137232
 30
0.0
 10
123.8410004223689
 20
204.1207254703656
 30
0.0
  0
LWPOLYLINE
  5
34D
330
1F
100
AcDbEntity
  8
0
  6
Continuous
 62
     7
370
    15
100
AcDbPolyline
 90
        2
 70
   128
 43
0.0
 10
124.0895875539
 20
203.7107230003
 10
124.0895875539
 20
203.7107230003
  0
SPLINE
  5
34E
330
1F
100
AcDbEntity
  8
0
  6
Continuous
 62
     7
370
    15
100
AcDbSpline
210
0.0
220
0.0
230
1.0
 70
     8
 71
     3
 72
    12
 73
     8
 74
     0
 42
0.00000001
 43
0.00000001
 12
1.0
 22
0.0
 32
0.0
 13
1.0
 23
0.0
 33
0.0
 40
0.0
 40
0.0
 40
0.0
 40
0.0
 40
0.1739907478647577
 40
0.3320946391993672
 40
0.5068830886371931
 40
0.7762257013298205
 40
0.9999999999999999
 40
0.9999999999999999
 40
0.9999999999999999
 40
0.9999999999999999
 10
123.8395877922877
 20
203.9593101318494
 30
0.0
 10
123.8422386854168
 20
203.9545251072479
 30
0.0
 10
123.8472984222594
 20
203.9453919720777
 30
0.0
 10
123.8827212192763
 20
203.9132190677425
 30
0.0
 10
123.938385338357
 20
203.8626187667159
 30
0.0
 10
124.0092505515564
 20
203.7903395404375
 30
0.0
 10
124.0645107275694
 20
203.7355749376744
 30
0.0
 10
124.0895875538691
 20
203.7107230003491
 30
0.0
  0
LINE
  5
34F
330
1F
100
AcDbEntity
  8
0
  6
Continuous
 62
     7
370
    15
100
AcDbLine
 10
123.6795850839
 20
203.9593101318
 30
0.0
 11
123.8395877923
 21
203.9593101318
 31
0.0
  0
SPLINE
  5
350
330
1F
100
AcDbEntity
  8
0
  6
Continuous
 62
     7
370
    15
100
AcDbSpline
210
0.0
220
0.0
230
1.0
 70
     8
 71
     3
 72
    13
 73
     9
 74
     0
 42
0.00000001
 43
0.00000001
 12
1.0
 22
0.0
 32
0.0
 13
1.0
 23
0.0
 33
0.0
 40
0.0
 40
0.0
 40
0.0
 40
0.0
 40
0.147903019192713
 40
0.2849704737587219
 40
0.4118446813076017
 40
0.5293580020822989
 40
0.7073737972854504
 40
0.9999999999999999
 40
0.9999999999999999
 40
0.9999999999999999
 40
0.9999999999999999
 10
265.0381692494257
 20
204.1207254703656
 30
0.0
 10
265.03374533623
 20
204.1182559023826
 30
0.0
 10
265.0252216113857
 20
204.1134976901303
 30
0.0
 10
265.0055360050696
 20
204.0784950369016
 30
0.0
 10
264.9811922282843
 20
204.031619384543
 30
0.0
 10
264.9460698814167
 20
203.9666204102279
 30
0.0
 10
264.8802623726808
 20
203.8640046663638
 30
0.0
 10
264.8243513167906
 20
203.7694890171103
 30
0.0
 10
264.78958807839
 20
203.7107230003491
 30
0.0
  0
LINE
  5
351
330
1F
100
AcDbEntity
  8
0
  6
Continuous
 62
     7
370
    15
100
AcDbLine
 10
265.0375851239
 20
204.1207254704
 30
0.0
 11
123.8410004224
 21
204.1207254704
 31
0.0
  0
SPLINE
  5
352
330
1F
100
AcDbEntity
  8
0
  6
Continuous
 62
     7
370
    15
100
AcDbSpline
210
0.0
220
0.0
230
1.0
 70
     8
 71
     3
 72
    13
 73
     9
 74
     0
 42
0.00000001
 43
0.00000001
 12
1.0
 22
0.0
 32
0.0
 13
1.0
 23
0.0
 33
0.0
 40
0.0
 40
0.0
 40
0.0
 40
0.0
 40
0.1349072818924949
 40
0.2621650060509811
 40
0.3831941292052991
 40
0.4996540223070852
 40
0.6858327522876486
 40
1.0
 40
1.0
 40
1.0
 40
1.0
 10
265.0381692494257
 20
203.9607257421628
 30
0.0
 10
265.0337232309061
 20
203.9591943366319
 30
0.0
 10
265.0250832934932
 20
203.9562183598378
 30
0.0
 10
265.005241410995
 20
203.9346379046808
 30
0.0
 10
264.980704495479
 20
203.9058022269114
 30
0.0
 10
264.9448161252502
 20
203.8654605204303
 30
0.0
 10
264.8792961912343
 20
203.8032887132726
 30
0.0
 10
264.82418954345
 20
203.7464266750773
 30
0.0
 10
264.78958807839
 20
203.7107230003491
 30
0.0
  0
LWPOLYLINE
  5
353
330
1F
100
AcDbEntity
  8
0
  6
Continuous
 62
     7
370
    15
100
AcDbPolyline
 90
        2
 70
   128
 43
0.0
 10
264.7895880784
 20
203.7107230003
 10
264.7895880784
 20
203.7107230003
  0
SPLINE
  5
354
330
1F
100
AcDbEntity
  8
0
  6
Continuous
 62
     7
370
    15
100
AcDbSpline
210
0.0
220
0.0
230
1.0
 70
     8
 71
     3
 72
    11
 73
     7
 74
     0
 42
0.00000001
 43
0.00000001
 12
1.0
 22
0.0
 32
0.0
 13
1.0
 23
0.0
 33
0.0
 40
0.0
 40
0.0
 40
0.0
 40
0.0
 40
0.2542966052442655
 40
0.5087731049421572
 40
0.7632546902629684
 40
1.0
 40
1.0
 40
1.0
 40
1.0
 10
264.78958807839
 20
203.7107230003491
 30
0.0
 10
264.8229133102216
 20
203.7317984456367
 30
0.0
 10
264.8895873488137
 20
203.7739642453992
 30
0.0
 10
264.9731771284806
 20
203.8372165640768
 30
0.0
 10
265.029202759939
 20
203.8990308732371
 30
0.0
 10
265.0362104871375
 20
203.9397065925152
 30
0.0
 10
265.0395878399714
 20
203.9593101318494
 30
0.0
  0
LINE
  5
355
330
1F
100
AcDbEntity
  8
0
  6
Continuous
 62
     7
370
    15
100
AcDbLine
 10
265.2395852651
 20
195.3593105848
 30
0.0
 11
265.1995845879
 21
195.3593105848
 31
0.0
  0
LINE
  5
356
330
1F
100
AcDbEntity
  8
0
  6
Continuous
 62
     7
370
    15
100
AcDbLine
 10
265.1995845879
 20
179.3593109425
 30
0.0
 11
265.2395852651
 21
179.3593109425
 31
0.0
  0
LINE
  5
357
330
1F
100
AcDbEntity
  8
0
  6
Continuous
 62
     7
370
    15
100
AcDbLine
 10
123.6795850839
 20
207.7207238253
 30
0.0
 11
123.6815877999
 21
207.7207238253
 31
0.0
  0
LINE
  5
358
330
1F
100
AcDbEntity
  8
0
  6
Continuous
 62
     7
370
    15
100
AcDbLine
 10
123.6795850839
 20
204.1207254704
 30
0.0
 11
123.6795850839
 21
203.9593101318
 31
0.0
  0
LWPOLYLINE
  5
359
330
1F
100
AcDbEntity
  8
0
  6
Continuous
 62
     7
370
    15
100
AcDbPolyline
 90
        6
 70
   128
 43
0.0
 10
131.6149064149
 20
218.922802883
 10
131.6149123753
 20
218.9228982504
 10
131.6158362473
 20
218.9405829485
 10
131.6167899217
 20
218.958965021
 10
131.6177555169
 20
218.9774245794
 10
131.6186853494
 20
218.9953238543
  0
LINE
  5
35A
330
1F
100
AcDbEntity
  8
0
  6
Continuous
 62
     7
370
    15
100
AcDbLine
 10
131.6186853494
 20
218.9953238543
 30
0.0
 11
251.9655533875
 21
212.7246708449
 31
0.0
  0
LWPOLYLINE
  5
35B
330
1F
100
AcDbEntity
  8
0
  6
Continuous
 62
     7
370
    15
100
AcDbPolyline
 90
        6
 70
   128
 43
0.0
 10
251.9655533875
 20
212.7246708449
 10
251.863206252
 20
212.712058502
 10
251.7576523866
 20
212.6990468081
 10
251.6525038327
 20
212.6860947188
 10
251.5513785924
 20
212.6736313875
 10
251.5508421506
 20
212.6735658224
  0
LINE
  5
35C
330
1F
100
AcDbEntity
  8
0
  6
Continuous
 62
     7
370
    15
100
AcDbLine
 10
131.6189058865
 20
218.9995975073
 30
0.0
 11
131.6186853494
 21
218.9953238543
 31
0.0
  0
LINE
  5
35D
330
1F
100
AcDbEntity
  8
0
  6
Continuous
 62
     7
370
    15
100
AcDbLine
 10
251.9655533875
 20
212.7246708449
 30
0.0
 11
251.9900091733
 21
212.7276808794
 31
0.0
  0
LINE
  5
35E
330
1F
100
AcDbEntity
  8
0
  6
Continuous
 62
     7
370
    15
100
AcDbLine
 10
123.6395844067
 20
200.960725623
 30
0.0
 11
123.6795850839
 21
200.960725623
 31
0.0
  0
LINE
  5
35F
330
1F
100
AcDbEntity
  8
0
  6
Continuous
 62
     7
370
    15
100
AcDbLine
 10
123.6395844067
 20
201.160723048
 30
0.0
 11
123.6795850839
 21
201.160723048
 31
0.0
  0
LINE
  5
360
330
1F
100
AcDbEntity
  8
0
  6
Continuous
 62
     7
370
    15
100
AcDbLine
 10
123.6395844067
 20
200.960725623
 30
0.0
 11
123.6395844067
 21
201.160723048
 31
0.0
  0
LINE
  5
361
330
1F
100
AcDbEntity
  8
0
  6
Continuous
 62
     7
370
    15
100
AcDbLine
 10
123.6395844067
 20
194.1607237633
 30
0.0
 11
123.6395844067
 21
200.960725623
 31
0.0
  0
LINE
  5
362
330
1F
100
AcDbEntity
  8
0
  6
Continuous
 62
     7
370
    15
100
AcDbLine
 10
123.6375876511
 20
164.3607244666
 30
0.0
 11
123.6395844067
 21
164.3607244666
 31
0.0
  0
LINE
  5
363
330
1F
100
AcDbEntity
  8
0
  6
Continuous
 62
     7
370
    15
100
AcDbLine
 10
123.6375876511
 20
166.760724115
 30
0.0
 11
123.6395844067
 21
166.760724115
 31
0.0
  0
LINE
  5
364
330
1F
100
AcDbEntity
  8
0
  6
Continuous
 62
     7
370
    15
100
AcDbLine
 10
123.6375876511
 20
164.3607244666
 30
0.0
 11
123.6375876511
 21
166.760724115
 31
0.0
  0
LINE
  5
365
330
1F
100
AcDbEntity
  8
0
  6
Continuous
 62
     7
370
    15
100
AcDbLine
 10
123.6375876511
 20
168.8607246454
 30
0.0
 11
123.6395844067
 21
168.8607246454
 31
0.0
  0
LINE
  5
366
330
1F
100
AcDbEntity
  8
0
  6
Continuous
 62
     7
370
    15
100
AcDbLine
 10
123.6375876511
 20
166.760724115
 30
0.0
 11
123.6375876511
 21
168.8607246454
 31
0.0
  0
LINE
  5
367
330
1F
100
AcDbEntity
  8
0
  6
Continuous
 62
     7
370
    15
100
AcDbLine
 10
277.1195837106
 20
154.960724416
 30
0.0
 11
277.1595843877
 21
154.960724416
 31
0.0
  0
LINE
  5
368
330
1F
100
AcDbEntity
  8
0
  6
Continuous
 62
     7
370
    15
100
AcDbLine
 10
277.1195837106
 20
155.1607244487
 30
0.0
 11
277.1595843877
 21
155.1607244487
 31
0.0
  0
LINE
  5
369
330
1F
100
AcDbEntity
  8
0
  6
Continuous
 62
     7
370
    15
100
AcDbLine
 10
277.1595843877
 20
154.960724416
 30
0.0
 11
277.1595843877
 21
155.1607244487
 31
0.0
  0
LINE
  5
36A
330
1F
100
AcDbEntity
  8
0
  6
Continuous
 62
     7
370
    15
100
AcDbLine
 10
277.1195837106
 20
153.3607244331
 30
0.0
 11
277.1595843877
 21
153.3607244331
 31
0.0
  0
LINE
  5
36B
330
1F
100
AcDbEntity
  8
0
  6
Continuous
 62
     7
370
    15
100
AcDbLine
 10
277.1595843877
 20
153.3607244331
 30
0.0
 11
277.1595843877
 21
154.960724416
 31
0.0
  0
LINE
  5
36C
330
1F
100
AcDbEntity
  8
0
  6
Continuous
 62
     7
370
    15
100
AcDbLine
 10
277.1195837106
 20
153.1607244003
 30
0.0
 11
277.1595843877
 21
153.1607244003
 31
0.0
  0
LINE
  5
36D
330
1F
100
AcDbEntity
  8
0
  6
Continuous
 62
     7
370
    15
100
AcDbLine
 10
277.1595843877
 20
153.1607244003
 30
0.0
 11
277.1595843877
 21
153.3607244331
 31
0.0
  0
LINE
  5
36E
330
1F
100
AcDbEntity
  8
0
  6
Continuous
 62
     7
370
    15
100
AcDbLine
 10
277.1195837106
 20
169.5107237275
 30
0.0
 11
277.439583167
 21
169.5107237275
 31
0.0
  0
SPLINE
  5
36F
330
1F
100
AcDbEntity
  8
0
  6
Continuous
 62
     7
370
    15
100
AcDbSpline
210
0.0
220
0.0
230
1.0
 70
    24
 71
     3
 72
    11
 73
     7
 74
     0
 42
0.00000001
 43
0.00000001
 12
1.0
 22
0.0
 32
0.0
 13
1.0
 23
0.0
 33
0.0
 40
0.0
 40
0.0
 40
0.0
 40
0.0
 40
0.2833541845222368
 40
0.5581127527814495
 40
0.7754837414013622
 40
1.0
 40
1.0
 40
1.0
 40
1.0
 10
277.4395831669673
 20
169.1118494446889
 30
0.0
 10
277.4395831669673
 20
169.171259410887
 30
0.0
 10
277.4395831669673
 20
169.2882771278952
 30
0.0
 10
277.4395831669673
 20
169.4178960673785
 30
0.0
 10
277.4395831669673
 20
169.496680422245
 30
0.0
 10
277.4395831669673
 20
169.5059924343491
 30
0.0
 10
277.4395831669673
 20
169.5107237275258
 30
0.0
  0
LINE
  5
370
330
1F
100
AcDbEntity
  8
0
  6
Continuous
 62
     7
370
    15
100
AcDbLine
 10
277.1195837106
 20
169.1118494447
 30
0.0
 11
277.439583167
 21
169.1118494447
 31
0.0
  0
LINE
  5
371
330
1F
100
AcDbEntity
  8
0
  6
Continuous
 62
     7
370
    15
100
AcDbLine
 10
277.439583167
 20
157.9095211651
 30
0.0
 11
277.439583167
 21
169.1118494447
 31
0.0
  0
LINE
  5
372
330
1F
100
AcDbEntity
  8
0
  6
Continuous
 62
     7
370
    15
100
AcDbLine
 10
277.1195837106
 20
157.9095211651
 30
0.0
 11
277.439583167
 21
157.9095211651
 31
0.0
  0
LINE
  5
373
330
1F
100
AcDbEntity
  8
0
  6
Continuous
 62
     7
370
    15
100
AcDbLine
 10
277.1195837106
 20
157.5107243683
 30
0.0
 11
277.439583167
 21
157.5107243683
 31
0.0
  0
SPLINE
  5
374
330
1F
100
AcDbEntity
  8
0
  6
Continuous
 62
     7
370
    15
100
AcDbSpline
210
0.0
220
0.0
230
1.0
 70
    24
 71
     3
 72
    11
 73
     7
 74
     0
 42
0.00000001
 43
0.00000001
 12
1.0
 22
0.0
 32
0.0
 13
1.0
 23
0.0
 33
0.0
 40
0.0
 40
0.0
 40
0.0
 40
0.0
 40
0.2832762378415304
 40
0.558000965715224
 40
0.7754015583322462
 40
1.0
 40
1.0
 40
1.0
 40
1.0
 10
277.4395831669673
 20
157.5107243682757
 30
0.0
 10
277.4395831669673
 20
157.5183811076451
 30
0.0
 10
277.4395831669673
 20
157.5334634456303
 30
0.0
 10
277.4395831669673
 20
157.6400517357855
 30
0.0
 10
277.4395831669673
 20
157.7701362730136
 30
0.0
 10
277.4395831669673
 20
157.8625578466128
 30
0.0
 10
277.4395831669673
 20
157.9095211650744
 30
0.0
  0
SPLINE
  5
375
330
1F
100
AcDbEntity
  8
0
  6
Continuous
 62
     7
370
    15
100
AcDbSpline
210
0.0
220
0.0
230
1.0
 70
     8
 71
     3
 72
    11
 73
     7
 74
     0
 42
0.00000001
 43
0.00000001
 12
1.0
 22
0.0
 32
0.0
 13
1.0
 23
0.0
 33
0.0
 40
0.0
 40
0.0
 40
0.0
 40
0.0
 40
0.2371524618392051
 40
0.497802710161639
 40
0.7485381503766987
 40
1.0
 40
1.0
 40
1.0
 40
1.0
 10
277.4395831669673
 20
169.1118494446889
 30
0.0
 10
277.4785810838652
 20
169.1057066277071
 30
0.0
 10
277.5604409497585
 20
169.0928123447727
 30
0.0
 10
277.6491637259146
 20
169.0662076929348
 30
0.0
 10
277.7086103108763
 20
169.035527713575
 30
0.0
 10
277.7159251812166
 20
169.0139737878825
 30
0.0
 10
277.7195879067286
 20
169.0031812365666
 30
0.0
  0
LINE
  5
376
330
1F
100
AcDbEntity
  8
0
  6
Continuous
 62
     7
370
    15
100
AcDbLine
 10
277.7195879067
 20
169.0031812366
 30
0.0
 11
277.7195879067
 21
158.0182676043
 31
0.0
  0
SPLINE
  5
377
330
1F
100
AcDbEntity
  8
0
  6
Continuous
 62
     7
370
    15
100
AcDbSpline
210
0.0
220
0.0
230
1.0
 70
     8
 71
     3
 72
    11
 73
     7
 74
     0
 42
0.00000001
 43
0.00000001
 12
1.0
 22
0.0
 32
0.0
 13
1.0
 23
0.0
 33
0.0
 40
0.0
 40
0.0
 40
0.0
 40
0.0
 40
0.2371464767614069
 40
0.4977997518166983
 40
0.7485362619335595
 40
1.0
 40
1.0
 40
1.0
 40
1.0
 10
277.4395831669673
 20
157.9095211650744
 30
0.0
 10
277.4785813503529
 20
157.9156679060923
 30
0.0
 10
277.560443355118
 20
157.9285706748578
 30
0.0
 10
277.6491630275723
 20
157.9551943787998
 30
0.0
 10
277.7086105123646
 20
157.9858976194997
 30
0.0
 10
277.7159252444927
 20
158.0074671978442
 30
0.0
 10
277.7195879067286
 20
158.0182676042929
 30
0.0
  0
SPLINE
  5
378
330
1F
100
AcDbEntity
  8
0
  6
Continuous
 62
     7
370
    15
100
AcDbSpline
210
0.0
220
0.0
230
1.0
 70
     8
 71
     3
 72
    11
 73
     7
 74
     0
 42
0.00000001
 43
0.00000001
 12
1.0
 22
0.0
 32
0.0
 13
1.0
 23
0.0
 33
0.0
 40
0.0
 40
0.0
 40
0.0
 40
0.0
 40
0.2371978402111143
 40
0.4978650807899696
 40
0.7485806898107152
 40
1.0
 40
1.0
 40
1.0
 40
1.0
 10
277.4395831669673
 20
169.5107237275258
 30
0.0
 10
277.4785803789188
 20
169.4821402031636
 30
0.0
 10
277.5604333589525
 20
169.4221449744838
 30
0.0
 10
277.6491582563695
 20
169.2974710243786
 30
0.0
 10
277.7086091046278
 20
169.1543263350493
 30
0.0
 10
277.7159248885367
 20
169.0536099846466
 30
0.0
 10
277.7195879067286
 20
169.0031812365666
 30
0.0
  0
SPLINE
  5
379
330
1F
100
AcDbEntity
  8
0
  6
Continuous
 62
     7
370
    15
100
AcDbSpline
210
0.0
220
0.0
230
1.0
 70
    24
 71
     3
 72
    13
 73
     9
 74
     0
 42
0.00000001
 43
0.00000001
 12
1.0
 22
0.0
 32
0.0
 13
1.0
 23
0.0
 33
0.0
 40
0.0
 40
0.0
 40
0.0
 40
0.0
 40
0.1275336633709886
 40
0.2545879292581067
 40
0.4999422084954416
 40
0.7453297157673768
 40
0.872506843107269
 40
1.0
 40
1.0
 40
1.0
 40
1.0
 10
277.4395831669673
 20
169.5107237275258
 30
0.0
 10
277.4395831669673
 20
169.5092704499214
 30
0.0
 10
277.4395831669672
 20
169.5063693575654
 30
0.0
 10
277.4395831669673
 20
169.4742704265347
 30
0.0
 10
277.4395831669673
 20
169.4011161147779
 30
0.0
 10
277.4395831669673
 20
169.2916008392728
 30
0.0
 10
277.4395831669673
 20
169.1916312999612
 30
0.0
 10
277.4395831669673
 20
169.1384653882796
 30
0.0
 10
277.4395831669673
 20
169.1118494446889
 30
0.0
  0
SPLINE
  5
37A
330
1F
100
AcDbEntity
  8
0
  6
Continuous
 62
     7
370
    15
100
AcDbSpline
210
0.0
220
0.0
230
1.0
 70
     8
 71
     3
 72
    11
 73
     7
 74
     0
 42
0.00000001
 43
0.00000001
 12
1.0
 22
0.0
 32
0.0
 13
1.0
 23
0.0
 33
0.0
 40
0.0
 40
0.0
 40
0.0
 40
0.0
 40
0.251419272834664
 40
0.5021348446053411
 40
0.7627991540267743
 40
1.0
 40
1.0
 40
1.0
 40
1.0
 10
277.7195879067286
 20
158.0182676042929
 30
0.0
 10
277.7159248456029
 20
157.9678388945198
 30
0.0
 10
277.7086089759467
 20
157.8671226206237
 30
0.0
 10
277.6491590033226
 20
157.723977893943
 30
0.0
 10
277.560431773771
 20
157.5993060481343
 30
0.0
 10
277.4785801981388
 20
157.5393090795276
 30
0.0
 10
277.4395831669673
 20
157.5107243682757
 30
0.0
  0
SPLINE
  5
37B
330
1F
100
AcDbEntity
  8
0
  6
Continuous
 62
     7
370
    15
100
AcDbSpline
210
0.0
220
0.0
230
1.0
 70
    24
 71
     3
 72
    13
 73
     9
 74
     0
 42
0.00000001
 43
0.00000001
 12
1.0
 22
0.0
 32
0.0
 13
1.0
 23
0.0
 33
0.0
 40
0.0
 40
0.0
 40
0.0
 40
0.0
 40
0.1275872743422035
 40
0.2546759376553649
 40
0.5000486612429057
 40
0.7453995488189236
 40
0.8725416198788002
 40
0.9999999999999999
 40
0.9999999999999999
 40
0.9999999999999999
 40
0.9999999999999999
 10
277.4395831669673
 20
157.9095211650744
 30
0.0
 10
277.4395831669673
 20
157.8828868476068
 30
0.0
 10
277.4395831669673
 20
157.8297222995759
 30
0.0
 10
277.4395831669673
 20
157.7297734550557
 30
0.0
 10
277.4395831669673
 20
157.6202924061607
 30
0.0
 10
277.4395831669673
 20
157.5471422293672
 30
0.0
 10
277.4395831669673
 20
157.5150904937501
 30
0.0
 10
277.4395831669673
 20
157.5121809483487
 30
0.0
 10
277.4395831669673
 20
157.5107243682757
 30
0.0
  0
LWPOLYLINE
  5
37C
330
1F
100
AcDbEntity
  8
0
  6
Continuous
 62
     7
370
    15
100
AcDbPolyline
 90
        9
 70
   128
 43
0.0
 10
275.3055223073
 20
183.8508666332
 10
275.3048666562
 20
183.8490606125
 10
275.3029175843
 20
183.8437140759
 10
275.2997585381
 20
183.8350296791
 10
275.295508727
 20
183.8233441885
 10
275.2903231229
 20
183.8091046389
 10
275.2844103421
 20
183.7928593929
 10
275.2779968823
 20
183.7752313193
 10
275.2713211621
 20
183.7568969305
  0
ARC
  5
37D
330
1F
100
AcDbEntity
  8
0
  6
Continuous
 62
     7
370
    15
100
AcDbCircle
 10
276.0442871263
 20
185.8806034315
 30
0.0
 40
2.260000000000018
100
AcDbArc
 50
198.0
 51
250.0
  0
LWPOLYLINE
  5
37E
330
1F
100
AcDbEntity
  8
0
  6
Continuous
 62
     7
370
    15
100
AcDbPolyline
 90
        9
 70
   128
 43
0.0
 10
273.9900060738
 20
185.2131278093
 10
273.9881762112
 20
185.2125317629
 10
273.9827641095
 20
185.2107734259
 10
273.9739783849
 20
185.2079183634
 10
273.9621468629
 20
185.204076844
 10
273.9477344598
 20
185.199391919
 10
273.9312954987
 20
185.1940513428
 10
273.9134558286
 20
185.1882547911
 10
273.8949009026
 20
185.1822257813
  0
LWPOLYLINE
  5
37F
330
1F
100
AcDbEntity
  8
0
  6
Continuous
 62
     7
370
    15
100
AcDbPolyline
 90
        9
 70
   128
 43
0.0
 10
279.161400422
 20
182.3410243567
 10
279.1680701817
 20
182.3593587454
 10
279.174489602
 20
182.3769868191
 10
279.1804023827
 20
182.393232065
 10
279.1855820264
 20
182.4074716147
 10
279.189837798
 20
182.4191571053
 10
279.1929968442
 20
182.427841502
 10
279.1949459161
 20
182.4331880386
 10
279.1956015672
 20
182.4349940594
  0
LINE
  5
380
330
1F
100
AcDbEntity
  8
0
  6
Continuous
 62
     7
370
    15
100
AcDbLine
 10
279.161400422
 20
182.3410243567
 30
0.0
 11
275.2713211621
 21
183.7568969305
 31
0.0
  0
ARC
  5
381
330
1F
100
AcDbEntity
  8
0
  6
Continuous
 62
     7
370
    15
100
AcDbCircle
 10
265.4395853682
 20
176.4207244305
 30
0.0
 40
0.1000000000000227
100
AcDbArc
 50
180.0
 51
270.0
  0
LINE
  5
382
330
1F
100
AcDbEntity
  8
0
  6
Continuous
 62
     7
370
    15
100
AcDbLine
 10
265.4395826901
 20
176.3207242664
 30
0.0
 11
265.4395826901
 21
176.2207240637
 31
0.0
  0
ARC
  5
383
330
1F
100
AcDbEntity
  8
0
  6
Continuous
 62
     7
370
    15
100
AcDbCircle
 10
265.4395853682
 20
176.4207244305
 30
0.0
 40
0.2000000000000171
100
AcDbArc
 50
180.0
 51
270.0
  0
LINE
  5
384
330
1F
100
AcDbEntity
  8
0
  6
Continuous
 62
     7
370
    15
100
AcDbLine
 10
265.3395839776
 20
176.420724469
 30
0.0
 11
265.2395852651
 21
176.420724469
 31
0.0
  0
LINE
  5
385
330
1F
100
AcDbEntity
  8
0
  6
Continuous
 62
     7
370
    15
100
AcDbLine
 10
273.8949009026
 20
185.1822257813
 30
0.0
 11
269.0188475694
 21
200.1891613777
 31
0.0
  0
LINE
  5
386
330
1F
100
AcDbEntity
  8
0
  6
Continuous
 62
     7
370
    15
100
AcDbLine
 10
277.4833031739
 20
176.3743058618
 30
0.0
 11
279.9670466031
 21
179.3343127545
 31
0.0
  0
LWPOLYLINE
  5
387
330
1F
100
AcDbEntity
  8
0
  6
Continuous
 62
     7
370
    15
100
AcDbPolyline
 90
        9
 70
   128
 43
0.0
 10
279.9670466031
 20
179.3343127545
 10
279.9819894875
 20
179.3217734273
 10
279.9963601674
 20
179.3097139176
 10
280.0096043195
 20
179.2986021217
 10
280.0212153043
 20
179.2888612326
 10
280.0307401265
 20
179.2808667596
 10
280.0378211583
 20
179.2749271567
 10
280.0421782578
 20
179.2712689217
 10
280.0436504926
 20
179.2700336154
  0
LWPOLYLINE
  5
388
330
1F
100
AcDbEntity
  8
0
  6
Continuous
 62
     7
370
    15
100
AcDbPolyline
 90
        9
 70
   128
 43
0.0
 10
277.4833031739
 20
176.3743058618
 10
277.4982520188
 20
176.3617665346
 10
277.5126226987
 20
176.349708515
 10
277.5258668507
 20
176.338595229
 10
277.5374718751
 20
176.3288543399
 10
277.5470026578
 20
176.3208598669
 10
277.5540777291
 20
176.3149202641
 10
277.5584407891
 20
176.311262029
 10
277.5599130238
 20
176.3100282128
  0
ARC
  5
389
330
1F
100
AcDbEntity
  8
0
  6
Continuous
 62
     7
370
    15
100
AcDbCircle
 10
277.3683992283
 20
176.4707244305
 30
0.0
 40
0.1500000000000057
100
AcDbArc
 50
270.0
 51
320.0
  0
LINE
  5
38A
330
1F
100
AcDbEntity
  8
0
  6
Continuous
 62
     7
370
    15
100
AcDbLine
 10
277.3683973397
 20
176.3207242664
 30
0.0
 11
277.3683973397
 21
176.2207240637
 31
0.0
  0
LINE
  5
38B
330
1F
100
AcDbEntity
  8
0
  6
Continuous
 62
     7
370
    15
100
AcDbLine
 10
265.4395826901
 20
176.3207242664
 30
0.0
 11
277.3683973397
 21
176.3207242664
 31
0.0
  0
LINE
  5
38C
330
1F
100
AcDbEntity
  8
0
  6
Continuous
 62
     7
370
    15
100
AcDbLine
 10
265.3395839776
 20
200.1582593496
 30
0.0
 11
265.3395839776
 21
176.420724469
 31
0.0
  0
ARC
  5
38D
330
1F
100
AcDbEntity
  8
0
  6
Continuous
 62
     7
370
    15
100
AcDbCircle
 10
265.4395853682
 20
200.1582593359
 30
0.0
 40
0.1000000000000227
100
AcDbArc
 50
90.0
 51
180.0
  0
LINE
  5
38E
330
1F
100
AcDbEntity
  8
0
  6
Continuous
 62
     7
370
    15
100
AcDbLine
 10
268.9237423982
 20
200.2582580622
 30
0.0
 11
265.4395826901
 21
200.2582580622
 31
0.0
  0
ARC
  5
38F
330
1F
100
AcDbEntity
  8
0
  6
Continuous
 62
     7
370
    15
100
AcDbCircle
 10
268.9237446578
 20
200.1582593359
 30
0.0
 40
0.1000000000000227
100
AcDbArc
 50
18.0
 51
90.0
  0
ARC
  5
390
330
1F
100
AcDbEntity
  8
0
  6
Continuous
 62
     7
370
    15
100
AcDbCircle
 10
278.5115618822
 20
180.5556093271
 30
0.0
 40
1.900000000000034
100
AcDbArc
 50
320.0
 51
70.0
  0
LINE
  5
391
330
1F
100
AcDbEntity
  8
0
  6
Continuous
 62
     7
370
    15
100
AcDbLine
 10
265.2395852651
 20
176.420724469
 30
0.0
 11
265.2395852651
 21
200.1582593496
 31
0.0
  0
LINE
  5
392
330
1F
100
AcDbEntity
  8
0
  6
Continuous
 62
     7
370
    15
100
AcDbLine
 10
265.2395852651
 20
200.1582593496
 30
0.0
 11
265.3395839776
 21
200.1582593496
 31
0.0
  0
LINE
  5
393
330
1F
100
AcDbEntity
  8
0
  6
Continuous
 62
     7
370
    15
100
AcDbLine
 10
265.4395826901
 20
200.358259755
 30
0.0
 11
265.4395826901
 21
200.2582580622
 31
0.0
  0
ARC
  5
394
330
1F
100
AcDbEntity
  8
0
  6
Continuous
 62
     7
370
    15
100
AcDbCircle
 10
265.4395853682
 20
200.1582593359
 30
0.0
 40
0.2000000000000171
100
AcDbArc
 50
90.0
 51
180.0
  0
LINE
  5
395
330
1F
100
AcDbEntity
  8
0
  6
Continuous
 62
     8
370
    15
100
AcDbLine
 10
247.1995868529
 20
150.6607242699
 30
0.0
 11
247.1995868529
 21
151.0007244374
 31
0.0
  0
LINE
  5
396
330
1F
100
AcDbEntity
  8
0
  6
Continuous
 62
     8
370
    15
100
AcDbLine
 10
244.0595843638
 20
150.6607242699
 30
0.0
 11
244.0595843638
 21
151.0007244374
 31
0.0
  0
LINE
  5
397
330
1F
100
AcDbEntity
  8
0
  6
Continuous
 62
     8
370
    15
100
AcDbLine
 10
262.7195843304
 20
150.6607242699
 30
0.0
 11
262.7195843304
 21
151.0007244374
 31
0.0
  0
LINE
  5
398
330
1F
100
AcDbEntity
  8
0
  6
Continuous
 62
     8
370
    15
100
AcDbLine
 10
248.3995863046
 20
150.6607242699
 30
0.0
 11
248.3995863046
 21
151.0007244374
 31
0.0
  0
LINE
  5
399
330
1F
100
AcDbEntity
  8
0
  6
Continuous
 62
     8
370
    15
100
AcDbLine
 10
267.0595832909
 20
150.6607242699
 30
0.0
 11
267.0595832909
 21
151.0007244374
 31
0.0
  0
LINE
  5
39A
330
1F
100
AcDbEntity
  8
0
  6
Continuous
 62
     8
370
    15
100
AcDbLine
 10
263.9195867623
 20
150.6607242699
 30
0.0
 11
263.9195867623
 21
151.0007244374
 31
0.0
  0
LINE
  5
39B
330
1F
100
AcDbEntity
  8
0
  6
Continuous
 62
     8
370
    15
100
AcDbLine
 10
126.2595840539
 20
150.6607242699
 30
0.0
 11
126.2595840539
 21
151.0007244374
 31
0.0
  0
LINE
  5
39C
330
1F
100
AcDbEntity
  8
0
  6
Continuous
 62
     8
370
    15
100
AcDbLine
 10
129.399586543
 20
150.6607242699
 30
0.0
 11
129.399586543
 21
151.0007244374
 31
0.0
  0
LINE
  5
39D
330
1F
100
AcDbEntity
  8
0
  6
Continuous
 62
     8
370
    15
100
AcDbLine
 10
144.9195870007
 20
150.6607242699
 30
0.0
 11
144.9195870007
 21
151.0007244374
 31
0.0
  0
LINE
  5
39E
330
1F
100
AcDbEntity
  8
0
  6
Continuous
 62
     8
370
    15
100
AcDbLine
 10
130.5995830144
 20
150.6607242699
 30
0.0
 11
130.5995830144
 21
151.0007244374
 31
0.0
  0
LINE
  5
39F
330
1F
100
AcDbEntity
  8
0
  6
Continuous
 62
     8
370
    15
100
AcDbLine
 10
146.1195834721
 20
150.6607242699
 30
0.0
 11
146.1195834721
 21
151.0007244374
 31
0.0
  0
LINE
  5
3A0
330
1F
100
AcDbEntity
  8
0
  6
Continuous
 62
     8
370
    15
100
AcDbLine
 10
149.2595859612
 20
150.6607242699
 30
0.0
 11
149.2595859612
 21
151.0007244374
 31
0.0
  0
LINE
  5
3A1
330
1F
100
AcDbEntity
  8
0
  6
Continuous
 62
     8
370
    15
100
AcDbLine
 10
134.7595878686
 20
66.8607265528
 30
0.0
 11
143.759585246
 21
66.8607265528
 31
0.0
  0
SPLINE
  5
3A2
330
1F
100
AcDbEntity
  8
0
  6
Continuous
 62
     8
370
    15
100
AcDbSpline
210
0.0
220
0.0
230
1.0
 70
     8
 71
     3
 72
    12
 73
     8
 74
     0
 42
0.00000001
 43
0.00000001
 12
1.0
 22
0.0
 32
0.0
 13
1.0
 23
0.0
 33
0.0
 40
0.0
 40
0.0
 40
0.0
 40
0.0
 40
0.1833098430435615
 40
0.3860297362635873
 40
0.5865849746031088
 40
0.7892572057886799
 40
1.0
 40
1.0
 40
1.0
 40
1.0
 10
142.1463199700221
 20
60.89682288724335
 30
0.0
 10
142.2158186565543
 20
60.89255102899474
 30
0.0
 10
142.3621750070225
 20
60.88355498008829
 30
0.0
 10
142.5901179165031
 20
60.78943626558927
 30
0.0
 10
142.8122916957087
 20
60.64205112835464
 30
0.0
 10
143.017622337026
 20
60.44389252436675
 30
0.0
 10
143.1171807032711
 20
60.27462841440038
 30
0.0
 10
143.1679316605433
 20
60.18834419804961
 30
0.0
  0
LINE
  5
3A3
330
1F
100
AcDbEntity
  8
0
  6
Continuous
 62
     8
370
    15
100
AcDbLine
 10
143.1679316605
 20
60.188344198
 30
0.0
 11
145.0465270127
 21
60.188344198
 31
0.0
  0
SPLINE
  5
3A4
330
1F
100
AcDbEntity
  8
0
  6
Continuous
 62
     8
370
    15
100
AcDbSpline
210
0.0
220
0.0
230
1.0
 70
     8
 71
     3
 72
    12
 73
     8
 74
     0
 42
0.00000001
 43
0.00000001
 12
1.0
 22
0.0
 32
0.0
 13
1.0
 23
0.0
 33
0.0
 40
0.0
 40
0.0
 40
0.0
 40
0.0
 40
0.2072317602904018
 40
0.4064497116385824
 40
0.6043174434982808
 40
0.8048389646863856
 40
1.0
 40
1.0
 40
1.0
 40
1.0
 10
135.3512354935511
 20
60.18834419804963
 30
0.0
 10
135.4019763630328
 20
60.27458637498806
 30
0.0
 10
135.5014959141876
 20
60.44373567864015
 30
0.0
 10
135.7068142525544
 20
60.64201047242288
 30
0.0
 10
135.9295546074792
 20
60.78997502522554
 30
0.0
 10
136.1637822547732
 20
60.88579197247207
 30
0.0
 10
136.3163848427485
 20
60.89460430103072
 30
0.0
 10
136.391652449499
 20
60.89895077306181
 30
0.0
  0
LINE
  5
3A5
330
1F
100
AcDbEntity
  8
0
  6
Continuous
 62
     8
370
    15
100
AcDbLine
 10
133.4726461018
 20
60.188344198
 30
0.0
 11
135.3512354936
 21
60.188344198
 31
0.0
  0
LINE
  5
3A6
330
1F
100
AcDbEntity
  8
0
  6
Continuous
 62
     8
370
    15
100
AcDbLine
 10
134.284747466
 20
58.8297814901
 30
0.0
 11
133.0685087289
 21
58.8297814901
 31
0.0
  0
LINE
  5
3A7
330
1F
100
AcDbEntity
  8
0
  6
Continuous
 62
     8
370
    15
100
AcDbLine
 10
145.4506643857
 20
58.8297814901
 30
0.0
 11
144.2344256486
 21
58.8297814901
 31
0.0
  0
SPLINE
  5
3A8
330
1F
100
AcDbEntity
  8
0
  6
Continuous
 62
     8
370
    15
100
AcDbSpline
210
0.0
220
0.0
230
1.0
 70
     8
 71
     3
 72
    12
 73
     8
 74
     0
 42
0.00000001
 43
0.00000001
 12
1.0
 22
0.0
 32
0.0
 13
1.0
 23
0.0
 33
0.0
 40
0.0
 40
0.0
 40
0.0
 40
0.0
 40
0.1455846651565144
 40
0.3591947009404347
 40
0.5727761414552465
 40
0.7864080929133566
 40
1.0
 40
1.0
 40
1.0
 40
1.0
 10
141.2361808861598
 20
60.44744558888826
 30
0.0
 10
141.2272548946959
 20
60.43494255070708
 30
0.0
 10
141.2052321848795
 20
60.40409434938382
 30
0.0
 10
141.2015660570521
 20
60.33413154788806
 30
0.0
 10
141.2230841266487
 20
60.24421807844127
 30
0.0
 10
141.2715208381545
 20
60.14385250963272
 30
0.0
 10
141.3241094337509
 20
60.07373326909404
 30
0.0
 10
141.3504012669428
 20
60.03867693501863
 30
0.0
  0
SPLINE
  5
3A9
330
1F
100
AcDbEntity
  8
0
  6
Continuous
 62
     8
370
    15
100
AcDbSpline
210
0.0
220
0.0
230
1.0
 70
     8
 71
     3
 72
    12
 73
     8
 74
     0
 42
0.00000001
 43
0.00000001
 12
1.0
 22
0.0
 32
0.0
 13
1.0
 23
0.0
 33
0.0
 40
0.0
 40
0.0
 40
0.0
 40
0.0
 40
0.0506354505646118
 40
0.2879852483356716
 40
0.5253044911392091
 40
0.7626769069603979
 40
0.9999999999999999
 40
0.9999999999999999
 40
0.9999999999999999
 40
0.9999999999999999
 10
137.4442764366969
 20
60.14668055135164
 30
0.0
 10
137.4461757277237
 20
60.14429611335362
 30
0.0
 10
137.4569778000255
 20
60.13073480479725
 30
0.0
 10
137.4429394105245
 20
60.09338209802092
 30
0.0
 10
137.3990735391537
 20
60.03664906848924
 30
0.0
 10
137.3217016629013
 20
59.97178088273289
 30
0.0
 10
137.2480104229911
 20
59.92631803171944
 30
0.0
 10
137.2111686314448
 20
59.90358896809966
 30
0.0
  0
SPLINE
  5
3AA
330
1F
100
AcDbEntity
  8
0
  6
Continuous
 62
     8
370
    15
100
AcDbSpline
210
0.0
220
0.0
230
1.0
 70
     8
 71
     3
 72
    12
 73
     8
 74
     0
 42
0.00000001
 43
0.00000001
 12
1.0
 22
0.0
 32
0.0
 13
1.0
 23
0.0
 33
0.0
 40
0.0
 40
0.0
 40
0.0
 40
0.0
 40
0.2372008993332601
 40
0.474445395614962
 40
0.7116367475338498
 40
0.948858062634778
 40
1.0
 40
1.0
 40
1.0
 40
1.0
 10
141.3080044831141
 20
59.90358896809966
 30
0.0
 10
141.2711600397155
 20
59.92631794741573
 30
0.0
 10
141.1974643809994
 20
59.97178008357901
 30
0.0
 10
141.120097362013
 20
60.0366485349228
 30
0.0
 10
141.0762145232187
 20
60.09338446546955
 30
0.0
 10
141.0622080413367
 20
60.13076659377592
 30
0.0
 10
141.073025804479
 20
60.14434913928702
 30
0.0
 10
141.0749443615778
 20
60.14675803738984
 30
0.0
  0
SPLINE
  5
3AB
330
1F
100
AcDbEntity
  8
0
  6
Continuous
 62
     8
370
    15
100
AcDbSpline
210
0.0
220
0.0
230
1.0
 70
     8
 71
     3
 72
    12
 73
     8
 74
     0
 42
0.00000001
 43
0.00000001
 12
1.0
 22
0.0
 32
0.0
 13
1.0
 23
0.0
 33
0.0
 40
0.0
 40
0.0
 40
0.0
 40
0.0
 40
0.1279778753408253
 40
0.3459967318712617
 40
0.5639623027153576
 40
0.7820141172537761
 40
1.0
 40
1.0
 40
1.0
 40
1.0
 10
137.7410122002466
 20
59.43602033215911
 30
0.0
 10
137.7445063870109
 20
59.4301610145557
 30
0.0
 10
137.7539531542566
 20
59.41431995815138
 30
0.0
 10
137.7225766674689
 20
59.367060416985
 30
0.0
 10
137.6509488251526
 20
59.29960551062974
 30
0.0
 10
137.5429243434995
 20
59.22031643547798
 30
0.0
 10
137.4487944379583
 20
59.16381676361082
 30
0.0
 10
137.4017366017207
 20
59.13557119923982
 30
0.0
  0
SPLINE
  5
3AC
330
1F
100
AcDbEntity
  8
0
  6
Continuous
 62
     8
370
    15
100
AcDbSpline
210
0.0
220
0.0
230
1.0
 70
     8
 71
     3
 72
    12
 73
     8
 74
     0
 42
0.00000001
 43
0.00000001
 12
1.0
 22
0.0
 32
0.0
 13
1.0
 23
0.0
 33
0.0
 40
0.0
 40
0.0
 40
0.0
 40
0.0
 40
0.2179910766289385
 40
0.4360385143898066
 40
0.6540039392631982
 40
0.8720226497872452
 40
0.9999999999999999
 40
0.9999999999999999
 40
0.9999999999999999
 40
0.9999999999999999
 10
141.1174365128382
 20
59.13557119923982
 30
0.0
 10
141.0703759073198
 20
59.16381642366294
 30
0.0
 10
140.976242528863
 20
59.2203141752522
 30
0.0
 10
140.8682255607858
 20
59.29960666257969
 30
0.0
 10
140.7965951155849
 20
59.36706023065483
 30
0.0
 10
140.7652228990822
 20
59.41431992122767
 30
0.0
 10
140.7746631754833
 20
59.43016101384002
 30
0.0
 10
140.7781549538477
 20
59.43602033215911
 30
0.0
  0
SPLINE
  5
3AD
330
1F
100
AcDbEntity
  8
0
  6
Continuous
 62
     8
370
    15
100
AcDbSpline
210
0.0
220
0.0
230
1.0
 70
     8
 71
     3
 72
    14
 73
    10
 74
     0
 42
0.00000001
 43
0.00000001
 12
1.0
 22
0.0
 32
0.0
 13
1.0
 23
0.0
 33
0.0
 40
0.0
 40
0.0
 40
0.0
 40
0.0
 40
0.0444002821433133
 40
0.2036496314651206
 40
0.3629235251011713
 40
0.5221988342077832
 40
0.6814490218205225
 40
0.8407395145684793
 40
1.0
 40
1.0
 40
1.0
 40
1.0
 10
140.5853935326441
 20
59.35607262212189
 30
0.0
 10
140.5853295848165
 20
59.3564331275977
 30
0.0
 10
140.5850362769611
 20
59.35808664878597
 30
0.0
 10
140.5917059821325
 20
59.32093315569065
 30
0.0
 10
140.6053880260948
 20
59.24490653245407
 30
0.0
 10
140.625417271856
 20
59.13353108325159
 30
0.0
 10
140.6502373094717
 20
58.99552033795952
 30
0.0
 10
140.6784323228341
 20
58.83872268433205
 30
0.0
 10
140.6983833439467
 20
58.72781052071186
 30
0.0
 10
140.7083579148158
 20
58.67235966283235
 30
0.0
  0
SPLINE
  5
3AE
330
1F
100
AcDbEntity
  8
0
  6
Continuous
 62
     8
370
    15
100
AcDbSpline
210
0.0
220
0.0
230
1.0
 70
     8
 71
     3
 72
    14
 73
    10
 74
     0
 42
0.00000001
 43
0.00000001
 12
1.0
 22
0.0
 32
0.0
 13
1.0
 23
0.0
 33
0.0
 40
0.0
 40
0.0
 40
0.0
 40
0.0
 40
0.0472048570431196
 40
0.2059871123092499
 40
0.3647931394555202
 40
0.5236010410316407
 40
0.682383894835142
 40
0.8412078644954476
 40
1.0
 40
1.0
 40
1.0
 40
1.0
 10
137.9337795819147
 20
59.35607262212186
 30
0.0
 10
137.9338512558359
 20
59.35647548995387
 30
0.0
 10
137.9341640182291
 20
59.35823347814734
 30
0.0
 10
137.9274669410441
 20
59.32099225876242
 30
0.0
 10
137.9137852819707
 20
59.24489053439319
 30
0.0
 10
137.8937551655333
 20
59.13353544101199
 30
0.0
 10
137.8689382522395
 20
58.99551852452056
 30
0.0
 10
137.8407314298002
 20
58.8387241978128
 30
0.0
 10
137.820786610083
 20
58.72781080226822
 30
0.0
 10
137.8108151997431
 20
58.67235966283235
 30
0.0
  0
LINE
  5
3AF
330
1F
100
AcDbEntity
  8
0
  6
Continuous
 62
     8
370
    15
100
AcDbLine
 10
134.2775770272
 20
58.7183863695
 30
0.0
 11
133.0595859135
 21
58.7183863695
 31
0.0
  0
LINE
  5
3B0
330
1F
100
AcDbEntity
  8
0
  6
Continuous
 62
     8
370
    15
100
AcDbLine
 10
145.459587201
 20
58.7183863695
 30
0.0
 11
144.2415901269
 21
58.7183863695
 31
0.0
  0
LINE
  5
3B1
330
1F
100
AcDbEntity
  8
0
  6
Continuous
 62
     8
370
    15
100
AcDbLine
 10
140.7083579148
 20
42.253074127
 30
0.0
 11
140.7083579148
 21
43.8100666578
 31
0.0
  0
LINE
  5
3B2
330
1F
100
AcDbEntity
  8
0
  6
Continuous
 62
     8
370
    15
100
AcDbLine
 10
140.7083579148
 20
43.9913839872
 30
0.0
 11
140.7083579148
 21
56.920722204
 31
0.0
  0
LINE
  5
3B3
330
1F
100
AcDbEntity
  8
0
  6
Continuous
 62
     8
370
    15
100
AcDbLine
 10
137.8108151997
 20
56.920722204
 30
0.0
 11
137.8108151997
 21
43.9913839872
 31
0.0
  0
LINE
  5
3B4
330
1F
100
AcDbEntity
  8
0
  6
Continuous
 62
     8
370
    15
100
AcDbLine
 10
137.8108151997
 20
43.8100666578
 30
0.0
 11
137.8108151997
 21
42.253074127
 31
0.0
  0
ARC
  5
3B5
330
1F
100
AcDbEntity
  8
0
  6
Continuous
 62
     8
370
    15
100
AcDbCircle
 10
139.2595853682
 20
43.9007244305
 30
0.0
 40
3.849241802962382
100
AcDbArc
 50
143.7701544687
 51
180.0
  0
ARC
  5
3B6
330
1F
100
AcDbEntity
  8
0
  6
Continuous
 62
     8
370
    15
100
AcDbCircle
 10
139.2595853682
 20
43.9007244305
 30
0.0
 40
3.849241802962382
100
AcDbArc
 50
180.0
 51
36.2298455313
  0
ARC
  5
3B7
330
1F
100
AcDbEntity
  8
0
  6
Continuous
 62
     8
370
    15
100
AcDbCircle
 10
139.2595853682
 20
43.9007244305
 30
0.0
 40
4.009855864329043
100
AcDbArc
 50
142.4073149889
 51
37.5926850111
  0
ARC
  5
3B8
330
1F
100
AcDbEntity
  8
0
  6
Continuous
 62
     8
370
    15
100
AcDbCircle
 10
139.2595853682
 20
43.9007244305
 30
0.0
 40
4.748881180437553
100
AcDbArc
 50
137.4733089095
 51
42.5266910905
  0
ARC
  5
3B9
330
1F
100
AcDbEntity
  8
0
  6
Continuous
 62
     8
370
    15
100
AcDbCircle
 10
139.2595853682
 20
43.9007244305
 30
0.0
 40
4.950758197037573
100
AcDbArc
 50
136.4089562017
 51
43.5910437983
  0
ARC
  5
3BA
330
1F
100
AcDbEntity
  8
0
  6
Continuous
 62
     8
370
    15
100
AcDbCircle
 10
139.2595853682
 20
43.9007244305
 30
0.0
 40
5.73398138330154
100
AcDbArc
 50
133.0440841973
 51
180.0
  0
ARC
  5
3BB
330
1F
100
AcDbEntity
  8
0
  6
Continuous
 62
     8
370
    15
100
AcDbCircle
 10
139.2595853682
 20
43.9007244305
 30
0.0
 40
5.73398138330154
100
AcDbArc
 50
180.0
 51
46.9559158027
  0
SPLINE
  5
3BC
330
1F
100
AcDbEntity
  8
0
  6
Continuous
 62
     8
370
    15
100
AcDbSpline
210
0.0
220
0.0
230
1.0
 70
     8
 71
     3
 72
    53
 73
    49
 74
     0
 42
0.00000001
 43
0.00000001
 12
1.0
 22
0.0
 32
0.0
 13
1.0
 23
0.0
 33
0.0
 40
0.0
 40
0.0
 40
0.0
 40
0.0
 40
0.0024897383988156
 40
0.023366780690582
 40
0.0442405876649525
 40
0.065117655111216
 40
0.0855565639975741
 40
0.1059986617401681
 40
0.1321436524056977
 40
0.1575760112494048
 40
0.1822444254690532
 40
0.2069105516459981
 40
0.2323427906638909
 40
0.2584902037350132
 40
0.2789293871183441
 40
0.2993712061282474
 40
0.3202453728229709
 40
0.3411223177777061
 40
0.3619961366084017
 40
0.3828730723724241
 40
0.403312122029305
 40
0.4237541389744778
 40
0.4498992346717978
 40
0.4753314332667431
 40
0.5000000102091019
 40
0.5246659637391623
 40
0.5500982626679427
 40
0.5762457306677367
 40
0.5966848332525282
 40
0.6171267930337161
 40
0.6380007319373358
 40
0.6588776768920709
 40
0.679751725969942
 40
0.7006286973077734
 40
0.7210676061941316
 40
0.7415097715032036
 40
0.7676547621687333
 40
0.7930867705566063
 40
0.8177555201468819
 40
0.8424213208783988
 40
0.8678535898512305
 40
0.8940012630886182
 40
0.9144405140376588
 40
0.934882333047562
 40
0.9557564036345031
 40
0.976633106483675
 40
0.9975072647567544
 40
0.9999999999999999
 40
0.9999999999999999
 40
0.9999999999999999
 40
0.9999999999999999
 10
143.8518651570185
 20
49.69823070126922
 30
0.0
 10
143.8764688868373
 20
49.68046411455799
 30
0.0
 10
144.1073806802686
 20
49.51372051792177
 30
0.0
 10
144.4983840107417
 20
49.13859675968099
 30
0.0
 10
145.0144699140061
 20
48.57601048571922
 30
0.0
 10
145.4609082205373
 20
47.96125391118869
 30
0.0
 10
145.8416006024963
 20
47.31067196914021
 30
0.0
 10
146.1804871674176
 20
46.56590078400338
 30
0.0
 10
146.4511856854577
 20
45.72832769694929
 30
0.0
 10
146.6223464534983
 20
44.81251306218348
 30
0.0
 10
146.6779188391172
 20
43.9007533261144
 30
0.0
 10
146.6223429343284
 20
42.98899443556672
 30
0.0
 10
146.4512118816813
 20
42.07318184146236
 30
0.0
 10
146.1805274043075
 20
41.23558520819506
 30
0.0
 10
145.8415601621782
 20
40.49088494694011
 30
0.0
 10
145.4611576809735
 20
39.83997688686461
 30
0.0
 10
145.0136866349925
 20
39.22653141399654
 30
0.0
 10
144.5014225200099
 20
38.65893419991151
 30
0.0
 10
143.9338050591961
 20
38.14664332730519
 30
0.0
 10
143.3203953149902
 20
37.69918635611519
 30
0.0
 10
142.6694572473746
 20
37.31876903103776
 30
0.0
 10
141.9247912375635
 20
36.97978944219302
 30
0.0
 10
141.0871802526219
 20
36.70913404221635
 30
0.0
 10
140.1713755773763
 20
36.53795810523594
 30
0.0
 10
139.2596155003644
 20
36.48239443509802
 30
0.0
 10
138.3478546149381
 20
36.53795247019384
 30
0.0
 10
137.4320489091746
 20
36.70911371424354
 30
0.0
 10
136.5944419558719
 20
36.97976659970698
 30
0.0
 10
135.8497487002907
 20
37.31875444957753
 30
0.0
 10
135.1988382848571
 20
37.69914724299994
 30
0.0
 10
134.5853932291327
 20
38.14661803936206
 30
0.0
 10
134.0177972867356
 20
38.65888298554906
 30
0.0
 10
133.5055000870491
 20
39.22649987391161
 30
0.0
 10
133.0580555265366
 20
39.83992023122438
 30
0.0
 10
132.6776286411799
 20
40.49085323295665
 30
0.0
 10
132.3386590081676
 20
41.23552232070149
 30
0.0
 10
132.0679868476495
 20
42.07312624948229
 30
0.0
 10
131.8968272999397
 20
42.98893225585615
 30
0.0
 10
131.8412467059031
 20
43.90068993954879
 30
0.0
 10
131.8968239112717
 20
44.81244730044045
 30
0.0
 10
132.0679622031709
 20
45.7282652991309
 30
0.0
 10
132.3386530835116
 20
46.56583936569211
 30
0.0
 10
132.6775595347397
 20
47.31063736147906
 30
0.0
 10
133.0582247004135
 20
47.9611943967706
 30
0.0
 10
133.5046787410198
 20
48.5759799405329
 30
0.0
 10
134.0207259292913
 20
49.13855662155908
 30
0.0
 10
134.4117791760377
 20
49.51367429366718
 30
0.0
 10
134.6426762969223
 20
49.68044041255806
 30
0.0
 10
134.6673079575404
 20
49.69823070126922
 30
0.0
  0
SPLINE
  5
3BD
330
1F
100
AcDbEntity
  8
0
  6
Continuous
 62
     8
370
    15
100
AcDbSpline
210
0.0
220
0.0
230
1.0
 70
     8
 71
     3
 72
    53
 73
    49
 74
     0
 42
0.00000001
 43
0.00000001
 12
1.0
 22
0.0
 32
0.0
 13
1.0
 23
0.0
 33
0.0
 40
0.0
 40
0.0
 40
0.0
 40
0.0
 40
0.0176681886949805
 40
0.0379056847883104
 40
0.0581455481552368
 40
0.078382966361945
 40
0.098201298645868
 40
0.118016997823884
 40
0.1433669746842689
 40
0.1680232321588551
 40
0.1919371604178833
 40
0.2158531471723571
 40
0.2405094751647708
 40
0.2658573077960131
 40
0.285675293765222
 40
0.3054913425811723
 40
0.3257310369009013
 40
0.3459686279797488
 40
0.366208482041102
 40
0.3864459281614085
 40
0.4062641499868788
 40
0.4260799125634492
 40
0.4514297676950629
 40
0.4760861744165662
 40
0.5000000948883148
 40
0.5239159461723225
 40
0.5485723999061123
 40
0.5739201501228589
 40
0.5937381994899122
 40
0.6135541378478936
 40
0.6337939354936124
 40
0.6540314315869423
 40
0.6742713806340658
 40
0.6945087234276965
 40
0.714326834794924
 40
0.734142766804362
 40
0.7594925002072654
 40
0.7841490091653455
 40
0.8080629374243737
 40
0.8319786610258958
 40
0.8566352405010841
 40
0.8819831124463815
 40
0.9018010984155905
 40
0.9216171472315408
 40
0.9418568415512698
 40
0.9620944326301173
 40
0.9823341153307177
 40
1.0
 40
1.0
 40
1.0
 40
1.0
 10
144.3595834816798
 20
51.48284144956025
 30
0.0
 10
144.5847004036065
 20
51.3255107424899
 30
0.0
 10
145.0676707425804
 20
50.98797030228474
 30
0.0
 10
145.7352961386042
 20
50.37597879950473
 30
0.0
 10
146.3693396033847
 20
49.67630614710475
 30
0.0
 10
146.9219324888996
 20
48.91793689288437
 30
0.0
 10
147.3919957829544
 20
48.11380258076264
 30
0.0
 10
147.810822540423
 20
47.19366292190419
 30
0.0
 10
148.1452438931251
 20
46.15876430595375
 30
0.0
 10
148.3567046656763
 20
45.02722495375311
 30
0.0
 10
148.4253708005686
 20
43.90069365039256
 30
0.0
 10
148.356700850698
 20
42.77415931352657
 30
0.0
 10
148.1452151445614
 20
41.64262784296499
 30
0.0
 10
147.810804526733
 20
40.60771505423097
 30
0.0
 10
147.391965055332
 20
39.68763880426177
 30
0.0
 10
146.9219543860692
 20
38.88336503358475
 30
0.0
 10
146.3690833915188
 20
38.12545998540504
 30
0.0
 10
145.7361255426122
 20
37.42413405289624
 30
0.0
 10
145.0348281908196
 20
36.79119447289136
 30
0.0
 10
144.2768842239259
 20
36.23832034082888
 30
0.0
 10
143.4726428898616
 20
35.76832394756865
 30
0.0
 10
142.5525301909698
 20
35.34949164461737
 30
0.0
 10
141.5176224416163
 20
35.01507230718512
 30
0.0
 10
140.3860864911898
 20
34.80360020552462
 30
0.0
 10
139.2595535758819
 20
34.73494832225229
 30
0.0
 10
138.1330198919906
 20
34.80360708349092
 30
0.0
 10
137.0014877811376
 20
35.01508960428476
 30
0.0
 10
135.9665796768455
 20
35.34951697751454
 30
0.0
 10
135.0464973525132
 20
35.76833834999918
 30
0.0
 10
134.2422283101095
 20
36.23835934501807
 30
0.0
 10
133.4843189868893
 20
36.79122126573675
 30
0.0
 10
132.7829961192039
 20
37.42418577861631
 30
0.0
 10
132.1500622433385
 20
38.12548551889392
 30
0.0
 10
131.5971842026619
 20
38.88342416540766
 30
0.0
 10
131.1271862340122
 20
39.68766397401141
 30
0.0
 10
130.708351640017
 20
40.60777428970705
 30
0.0
 10
130.3739260798336
 20
41.64268327050133
 30
0.0
 10
130.1624694224765
 20
42.77422152429219
 30
0.0
 10
130.0938035326895
 20
43.90075310022112
 30
0.0
 10
130.162467072924
 20
45.02728652589477
 30
0.0
 10
130.3739472313347
 20
46.15882279447464
 30
0.0
 10
130.7083756162336
 20
47.19372614699866
 30
0.0
 10
131.1271914507828
 20
48.11383570658681
 30
0.0
 10
131.5972804614308
 20
48.91799545114375
 30
0.0
 10
132.1498540763219
 20
49.67633522989792
 30
0.0
 10
132.7839244895715
 20
50.37602963533183
 30
0.0
 10
133.451534331729
 20
50.98798287552844
 30
0.0
 10
133.9344983537172
 20
51.32552840166129
 30
0.0
 10
134.1595836724146
 20
51.48284144956025
 30
0.0
  0
ARC
  5
3BE
330
1F
100
AcDbEntity
  8
0
  6
Continuous
 62
     8
370
    15
100
AcDbCircle
 10
139.2595853682
 20
43.9007244305
 30
0.0
 40
9.725438825158818
100
AcDbArc
 50
121.627721117
 51
180.0
  0
ARC
  5
3BF
330
1F
100
AcDbEntity
  8
0
  6
Continuous
 62
     8
370
    15
100
AcDbCircle
 10
139.2595853682
 20
43.9007244305
 30
0.0
 40
9.725438825158818
100
AcDbArc
 50
180.0
 51
58.372278883
  0
SPLINE
  5
3C0
330
1F
100
AcDbEntity
  8
0
  6
Continuous
 62
     8
370
    15
100
AcDbSpline
210
0.0
220
0.0
230
1.0
 70
     8
 71
     3
 72
    32
 73
    28
 74
     0
 42
0.00000001
 43
0.00000001
 12
1.0
 22
0.0
 32
0.0
 13
1.0
 23
0.0
 33
0.0
 40
0.0
 40
0.0
 40
0.0
 40
0.0
 40
0.0120725162775905
 40
0.0555754020525902
 40
0.0990782878275898
 40
0.1451873542982346
 40
0.1932126568786756
 40
0.2422570743463502
 40
0.2913022365078572
 40
0.3153426665643872
 40
0.3393893698691802
 40
0.3854979840167186
 40
0.4290009031909781
 40
0.4725038223652376
 40
0.5186124365127761
 40
0.5666378955180648
 40
0.6156827739516245
 40
0.6647274219014211
 40
0.688767851957951
 40
0.7128143740970129
 40
0.7589234405676577
 40
0.8024263263426573
 40
0.845929212117657
 40
0.8920375759612207
 40
0.9400635276931025
 40
0.989108175642899
 40
1.0
 40
1.0
 40
1.0
 40
1.0
 10
256.9568224991663
 20
44.79628511029632
 30
0.0
 10
256.9375263077363
 20
44.73348825161572
 30
0.0
 10
256.8486969723972
 20
44.44440513186102
 30
0.0
 10
256.8223152981664
 20
43.89901678399044
 30
0.0
 10
256.8805275649718
 20
43.17672609561104
 30
0.0
 10
257.0908718114469
 20
42.45259778431789
 30
0.0
 10
257.4506495746282
 20
41.75705508602886
 30
0.0
 10
257.9550073031351
 20
41.13622957151836
 30
0.0
 10
258.4742640874257
 20
40.71458965980374
 30
0.0
 10
258.9307997861803
 20
40.44792487635338
 30
0.0
 10
259.397428615429
 20
40.23542497689173
 30
0.0
 10
259.9951714213855
 20
40.06345323223412
 30
0.0
 10
260.71956811604
 20
39.99704843345386
 30
0.0
 10
261.4440757121245
 20
40.06350326987981
 30
0.0
 10
262.1675680328075
 20
40.27148832828739
 30
0.0
 10
262.863300860198
 20
40.63192557659143
 30
0.0
 10
263.4840644734668
 20
41.13611116461852
 30
0.0
 10
263.9057205733254
 20
41.65540999747957
 30
0.0
 10
264.1723771847423
 20
42.11193742217068
 30
0.0
 10
264.3848956298324
 20
42.57856732873572
 30
0.0
 10
264.5568406578898
 20
43.17627706557781
 30
0.0
 10
264.623347900784
 20
43.90081300911972
 30
0.0
 10
264.556476573988
 20
44.62480850540196
 30
0.0
 10
264.3502088917094
 20
45.35034934190107
 30
0.0
 10
263.982916481203
 20
46.03796794288706
 30
0.0
 10
263.6298244883502
 20
46.51965310059736
 30
0.0
 10
263.3733183400577
 20
46.72106938097961
 30
0.0
 10
263.3267053212031
 20
46.75767131406219
 30
0.0
  0
ARC
  5
3C1
330
1F
100
AcDbEntity
  8
0
  6
Continuous
 62
     8
370
    15
100
AcDbCircle
 10
260.7195853682
 20
43.9007244305
 30
0.0
 40
3.917743098890131
100
AcDbArc
 50
180.0
 51
48.1334496112
  0
LWPOLYLINE
  5
3C2
330
1F
100
AcDbEntity
  8
0
  6
Continuous
 62
     8
370
    15
100
AcDbPolyline
 90
        3
 70
   128
 43
0.0
 10
256.9199033822
 20
44.8552460249
 10
256.8383344258
 20
44.4341868933
 10
256.8018444623
 20
43.9007253225
  0
ARC
  5
3C3
330
1F
100
AcDbEntity
  8
0
  6
Continuous
 62
     8
370
    15
100
AcDbCircle
 10
260.7195853682
 20
43.9007244305
 30
0.0
 40
5.935777087639991
100
AcDbArc
 50
149.2599590086
 51
60.2775564956
  0
LINE
  5
3C4
330
1F
100
AcDbEntity
  8
0
  6
Continuous
 62
     8
370
    15
100
AcDbLine
 10
254.0595837678
 20
66.8607265528
 30
0.0
 11
258.5595854367
 21
66.8607265528
 31
0.0
  0
LINE
  5
3C5
330
1F
100
AcDbEntity
  8
0
  6
Continuous
 62
     8
370
    15
100
AcDbLine
 10
249.5595850791
 20
66.8607265528
 30
0.0
 11
254.0595837678
 21
66.8607265528
 31
0.0
  0
LINE
  5
3C6
330
1F
100
AcDbEntity
  8
0
  6
Continuous
 62
     8
370
    15
100
AcDbLine
 10
257.6672502602
 20
57.6360613878
 30
0.0
 11
248.6595847453
 21
57.6360613878
 31
0.0
  0
LINE
  5
3C7
330
1F
100
AcDbEntity
  8
0
  6
Continuous
 62
     8
370
    15
100
AcDbLine
 10
258.2661934937
 20
57.8192920263
 30
0.0
 11
259.4407387818
 21
57.8192920263
 31
0.0
  0
SPLINE
  5
3C8
330
1F
100
AcDbEntity
  8
0
  6
Continuous
 62
     8
370
    15
100
AcDbSpline
210
0.0
220
0.0
230
1.0
 70
     8
 71
     3
 72
     9
 73
     5
 74
     0
 42
0.00000001
 43
0.00000001
 12
1.0
 22
0.0
 32
0.0
 13
1.0
 23
0.0
 33
0.0
 40
0.0
 40
0.0
 40
0.0
 40
0.0
 40
0.5693693544798476
 40
1.0
 40
1.0
 40
1.0
 40
1.0
 10
257.9344817246302
 20
57.33230419713409
 30
0.0
 10
258.041734685506
 20
57.38152600022018
 30
0.0
 10
258.2301061881728
 20
57.46797568828085
 30
0.0
 10
258.4163966906398
 20
57.48356231014673
 30
0.0
 10
258.4966190899714
 20
57.49027438718232
 30
0.0
  0
SPLINE
  5
3C9
330
1F
100
AcDbEntity
  8
0
  6
Continuous
 62
     8
370
    15
100
AcDbSpline
210
0.0
220
0.0
230
1.0
 70
     8
 71
     3
 72
    11
 73
     7
 74
     0
 42
0.00000001
 43
0.00000001
 12
1.0
 22
0.0
 32
0.0
 13
1.0
 23
0.0
 33
0.0
 40
0.0
 40
0.0
 40
0.0
 40
0.0
 40
0.28438020825305
 40
0.5687642304298633
 40
0.8531507826152147
 40
1.0
 40
1.0
 40
1.0
 40
1.0
 10
258.2661934937342
 20
57.81929202634248
 30
0.0
 10
258.2768891207448
 20
57.7755248528668
 30
0.0
 10
258.2982805182087
 20
57.68798991893842
 30
0.0
 10
258.3717716545784
 20
57.58589626639726
 30
0.0
 10
258.4497333630642
 20
57.52303659732155
 30
0.0
 10
258.5034190687821
 20
57.51472376894328
 30
0.0
 10
258.5217007244929
 20
57.51189299184234
 30
0.0
  0
SPLINE
  5
3CA
330
1F
100
AcDbEntity
  8
0
  6
Continuous
 62
     8
370
    15
100
AcDbSpline
210
0.0
220
0.0
230
1.0
 70
     8
 71
     3
 72
    51
 73
    47
 74
     0
 42
0.00000001
 43
0.00000001
 12
1.0
 22
0.0
 32
0.0
 13
1.0
 23
0.0
 33
0.0
 40
0.0
 40
0.0
 40
0.0
 40
0.0
 40
0.0024248201821909
 40
0.024248196476555
 40
0.0456143771746521
 40
0.0669830087041543
 40
0.0943139488913122
 40
0.120899284218545
 40
0.1466862614563959
 40
0.1724709128423377
 40
0.1990564534161489
 40
0.2263895048133877
 40
0.2477558068035664
 40
0.2691243267864896
 40
0.2909450360487141
 40
0.3127685570679399
 40
0.3345892960196868
 40
0.356412586781934
 40
0.3777786422017889
 40
0.3991472737312911
 40
0.4264781693292095
 40
0.4530636739295714
 40
0.478850642335018
 40
0.5046352760570039
 40
0.5312208699485942
 40
0.5585538767569572
 40
0.5799200467114313
 40
0.6012886919729233
 40
0.6231094867667726
 40
0.6449327057034266
 40
0.6667535523847387
 40
0.688576843146986
 40
0.709943097018909
 40
0.7313117285484112
 40
0.7586426241463295
 40
0.7852279594735625
 40
0.8110149367114133
 40
0.8367995792649705
 40
0.8633851198387819
 40
0.8907181712360207
 40
0.9120842091549592
 40
0.9334530528681083
 40
0.9552736765993376
 40
0.9770971976185634
 40
0.9989179365703102
 40
1.0
 40
1.0
 40
1.0
 40
1.0
 10
254.0395387257441
 20
49.45535369473847
 30
0.0
 10
254.0171784357512
 20
49.43079724895316
 30
0.0
 10
253.7935755851139
 20
49.18523284523296
 30
0.0
 10
253.4394390043144
 20
48.66685118540795
 30
0.0
 10
252.9871353121114
 20
47.90702892624496
 30
0.0
 10
252.59050573607
 20
47.03097403612497
 30
0.0
 10
252.2720526750376
 20
46.04755725677745
 30
0.0
 10
252.0711471035112
 20
44.97170313337626
 30
0.0
 10
252.0058292094614
 20
43.90076366631101
 30
0.0
 10
252.071124310328
 20
42.82978214503569
 30
0.0
 10
252.272142711991
 20
41.75405144287189
 30
0.0
 10
252.590085497153
 20
40.77018259063453
 30
0.0
 10
252.9882545645091
 20
39.8954455874718
 30
0.0
 10
253.4350740593814
 20
39.13086804830557
 30
0.0
 10
253.9606886564013
 20
38.41031009369649
 30
0.0
 10
254.5624104205395
 20
37.74359741417163
 30
0.0
 10
255.2291439322045
 20
37.14184667575815
 30
0.0
 10
255.9496711600134
 20
36.61625052843673
 30
0.0
 10
256.7142760484566
 20
36.16941356454181
 30
0.0
 10
257.5889786472767
 20
35.7712411759595
 30
0.0
 10
258.5728529646926
 20
35.45331694238696
 30
0.0
 10
259.6485797326802
 20
35.25225102631688
 30
0.0
 10
260.7195543202205
 20
35.18699031467224
 30
0.0
 10
261.7905296813993
 20
35.25224544903163
 30
0.0
 10
262.8662575885216
 20
35.4532963717886
 30
0.0
 10
263.8501292182382
 20
35.77121974212097
 30
0.0
 10
264.7248617365903
 20
36.16939815349681
 30
0.0
 10
265.4894451552626
 20
36.61620966586068
 30
0.0
 10
266.2099946318655
 20
37.14183374892072
 30
0.0
 10
266.8767146703317
 20
37.74354479442274
 30
0.0
 10
267.478456713572
 20
38.41028322165788
 30
0.0
 10
268.0040562789847
 20
39.13081250085293
 30
0.0
 10
268.450897492389
 20
39.89541835643645
 30
0.0
 10
268.8490696324902
 20
40.7701238431851
 30
0.0
 10
269.1669967693343
 20
41.75399545989103
 30
0.0
 10
269.3680498414039
 20
42.82972140957053
 30
0.0
 10
269.4333276825251
 20
43.90069422768966
 30
0.0
 10
269.3680508587699
 20
44.97166442133083
 30
0.0
 10
269.1670352597087
 20
46.04740921359776
 30
0.0
 10
268.8490648005077
 20
47.03123130439446
 30
0.0
 10
268.4509859640418
 20
47.90609673184676
 30
0.0
 10
268.0038165819014
 20
48.6702088492646
 30
0.0
 10
267.4795481333595
 20
49.39255066997672
 30
0.0
 10
266.8727937821183
 20
50.05260024167424
 30
0.0
 10
266.4301193011775
 20
50.48068577352002
 30
0.0
 10
266.1763242233152
 20
50.66500029207668
 30
0.0
 10
266.1643334473475
 20
50.67370839673433
 30
0.0
  0
ARC
  5
3CB
330
1F
100
AcDbEntity
  8
0
  6
Continuous
 62
     8
370
    15
100
AcDbCircle
 10
260.7195853682
 20
43.9007244305
 30
0.0
 40
9.675907755363035
100
AcDbArc
 50
0.0
 51
50.0
  0
ARC
  5
3CC
330
1F
100
AcDbEntity
  8
0
  6
Continuous
 62
     8
370
    15
100
AcDbCircle
 10
260.7195853682
 20
43.9007244305
 30
0.0
 40
9.675907755363028
100
AcDbArc
 50
138.3416060128
 51
0.0
  0
SPLINE
  5
3CD
330
1F
100
AcDbEntity
  8
0
  6
Continuous
 62
     8
370
    15
100
AcDbSpline
210
0.0
220
0.0
230
1.0
 70
     8
 71
     3
 72
    51
 73
    47
 74
     0
 42
0.00000001
 43
0.00000001
 12
1.0
 22
0.0
 32
0.0
 13
1.0
 23
0.0
 33
0.0
 40
0.0
 40
0.0
 40
0.0
 40
0.0
 40
0.0045342189130241
 40
0.0260993991201805
 40
0.0476674264844306
 40
0.0692325478865723
 40
0.090800527378227
 40
0.1119162159296423
 40
0.1330352089869053
 40
0.1600458523524034
 40
0.1863199006910329
 40
0.2118052056271538
 40
0.2372877735624575
 40
0.2635620634294243
 40
0.2905755161443824
 40
0.3116911463583143
 40
0.3328098825663018
 40
0.3543749993775474
 40
0.3759430143217596
 40
0.3975081233048932
 40
0.4190762407013645
 40
0.4401918431438341
 40
0.4613106808256947
 40
0.4883212717200545
 40
0.5145954878808453
 40
0.5400807928169662
 40
0.5655633503585447
 40
0.5918376088556477
 40
0.6188509515751855
 40
0.6399667371646541
 40
0.6610853872650805
 40
0.6826503661698928
 40
0.7042186222426574
 40
0.7257836044529632
 40
0.7473517591039437
 40
0.768467447655359
 40
0.7895861299620542
 40
0.8165967733275524
 40
0.842871157310542
 40
0.8683564622466629
 40
0.8938390301819665
 40
0.9201133200489334
 40
0.9471264478305725
 40
0.968242318036705
 40
0.9893611403532829
 40
1.0
 40
1.0
 40
1.0
 40
1.0
 10
264.5775266732081
 20
50.09063191968355
 30
0.0
 10
264.6233086105074
 20
50.06437044879011
 30
0.0
 10
264.886833834364
 20
49.91320690254808
 30
0.0
 10
265.3285266732932
 20
49.57358341427723
 30
0.0
 10
265.8911022746593
 20
49.07266372604415
 30
0.0
 10
266.3957496165765
 20
48.51152242355982
 30
0.0
 10
266.8373597442908
 20
47.90672574704816
 30
0.0
 10
267.2125816280194
 20
47.26449759260765
 30
0.0
 10
267.5469919426042
 20
46.52991652064819
 30
0.0
 10
267.8139985813662
 20
45.70362069108116
 30
0.0
 10
267.9828516451511
 20
44.80019430528797
 30
0.0
 10
268.0376761844827
 20
43.90075679998676
 30
0.0
 10
267.9828475230372
 20
43.00131886647674
 30
0.0
 10
267.8140207153903
 20
42.09788219775612
 30
0.0
 10
267.5470160996242
 20
41.27159427367327
 30
0.0
 10
267.2126039431313
 20
40.53696561466377
 30
0.0
 10
266.8373554985952
 20
39.89485018640579
 30
0.0
 10
266.3959346626311
 20
39.28969281067818
 30
0.0
 10
265.8905872436335
 20
38.72977186798302
 30
0.0
 10
265.330641263239
 20
38.22440185675507
 30
0.0
 10
264.7255230682655
 20
37.78298621389175
 30
0.0
 10
264.0833754074726
 20
37.40772232286255
 30
0.0
 10
263.3487773429906
 20
37.0733199231684
 30
0.0
 10
262.5224860633002
 20
36.80631936175979
 30
0.0
 10
261.6190568687843
 20
36.63746570577806
 30
0.0
 10
260.7196178901543
 20
36.58264274803463
 30
0.0
 10
259.8201804760884
 20
36.63746453826472
 30
0.0
 10
258.9167427580715
 20
36.80628036582767
 30
0.0
 10
258.0904591033122
 20
37.07329934904443
 30
0.0
 10
257.3558295902335
 20
37.40770682185707
 30
0.0
 10
256.7137102010658
 20
37.78294760862499
 30
0.0
 10
256.1085566436021
 20
38.2243745835035
 30
0.0
 10
255.5486375003704
 20
38.72972255346851
 30
0.0
 10
255.0432576266062
 20
39.28966284369692
 30
0.0
 10
254.6018569990743
 20
39.89479188222248
 30
0.0
 10
254.2265826781911
 20
40.536932396084
 30
0.0
 10
253.8921811072357
 20
41.27153120395621
 30
0.0
 10
253.6251725703569
 20
42.09781933094678
 30
0.0
 10
253.4563183788552
 20
43.00125573158431
 30
0.0
 10
253.4015094781538
 20
43.90068380337933
 30
0.0
 10
253.4562740814218
 20
44.80016926456334
 30
0.0
 10
253.6253501295929
 20
45.70341838463876
 30
0.0
 10
253.8914600531305
 20
46.53036243486189
 30
0.0
 10
254.2285550948282
 20
47.26302685846595
 30
0.0
 10
254.5316060210214
 20
47.80097231380886
 30
0.0
 10
254.7539861041324
 20
48.09640187064038
 30
0.0
 10
254.8284836853846
 20
48.19537110883149
 30
0.0
  0
ARC
  5
3CE
330
1F
100
AcDbEntity
  8
0
  6
Continuous
 62
     8
370
    15
100
AcDbCircle
 10
260.7195853682
 20
43.9007244305
 30
0.0
 40
6.905596460486947
100
AcDbArc
 50
145.1940210723
 51
0.0
  0
ARC
  5
3CF
330
1F
100
AcDbEntity
  8
0
  6
Continuous
 62
     8
370
    15
100
AcDbCircle
 10
260.7195853682
 20
43.9007244305
 30
0.0
 40
6.90559646048696
100
AcDbArc
 50
0.0
 51
59.7048847025
  0
ARC
  5
3D0
330
1F
100
AcDbEntity
  8
0
  6
Continuous
 62
     8
370
    15
100
AcDbCircle
 10
260.7195853682
 20
43.9007244305
 30
0.0
 40
6.69708499322365
100
AcDbArc
 50
145.9586330154
 51
60.1658108859
  0
LINE
  5
3D1
330
1F
100
AcDbEntity
  8
0
  6
Continuous
 62
     8
370
    15
100
AcDbLine
 10
280.5795856561
 20
163.8907247062
 30
0.0
 11
280.5795856561
 21
164.9707243617
 31
0.0
  0
LINE
  5
3D2
330
1F
100
AcDbEntity
  8
0
  6
Continuous
 62
     8
370
    15
100
AcDbLine
 10
280.5795856561
 20
162.8107243057
 30
0.0
 11
280.5795856561
 21
163.8907247062
 31
0.0
  0
LINE
  5
3D3
330
1F
100
AcDbEntity
  8
0
  6
Continuous
 62
     8
370
    15
100
AcDbLine
 10
279.5938619222
 20
159.3717110183
 30
0.0
 11
279.5938619222
 21
162.8107243057
 31
0.0
  0
LINE
  5
3D4
330
1F
100
AcDbEntity
  8
0
  6
Continuous
 62
     8
370
    15
100
AcDbLine
 10
279.5938619222
 20
164.9707243617
 30
0.0
 11
279.5938619222
 21
168.4097380217
 31
0.0
  0
LINE
  5
3D5
330
1F
100
AcDbEntity
  8
0
  6
Continuous
 62
     8
370
    15
100
AcDbLine
 10
280.309111699
 20
168.3224261578
 30
0.0
 11
280.309111699
 21
164.9707243617
 31
0.0
  0
LINE
  5
3D6
330
1F
100
AcDbEntity
  8
0
  6
Continuous
 62
     8
370
    15
100
AcDbLine
 10
280.309111699
 20
162.8107243057
 30
0.0
 11
280.309111699
 21
159.4590221371
 31
0.0
  0
LINE
  5
3D7
330
1F
100
AcDbEntity
  8
0
  6
Continuous
 62
     8
370
    15
100
AcDbLine
 10
283.6016603555
 20
159.9376571204
 30
0.0
 11
283.6016603555
 21
160.6265929367
 31
0.0
  0
LINE
  5
3D8
330
1F
100
AcDbEntity
  8
0
  6
Continuous
 62
     8
370
    15
100
AcDbLine
 10
263.639587983
 20
211.7425770338
 30
0.0
 11
263.8395854081
 21
211.7425770338
 31
0.0
  0
LINE
  5
3D9
330
1F
100
AcDbEntity
  8
0
  6
Continuous
 62
     8
370
    15
100
AcDbLine
 10
264.1023405637
 20
212.6236111696
 30
0.0
 11
264.1395875062
 21
212.6236111696
 31
0.0
  0
LINE
  5
3DA
330
1F
100
AcDbEntity
  8
0
  6
Continuous
 62
     8
370
    15
100
AcDbLine
 10
272.584027871
 20
141.4107248958
 30
0.0
 11
259.559584483
 21
141.4107248958
 31
0.0
  0
LINE
  5
3DB
330
1F
100
AcDbEntity
  8
0
  6
Continuous
 62
     8
370
    15
100
AcDbLine
 10
251.559586152
 20
141.4107248958
 30
0.0
 11
243.7981703128
 21
141.4107248958
 31
0.0
  0
LINE
  5
3DC
330
1F
100
AcDbEntity
  8
0
  6
Continuous
 62
     8
370
    15
100
AcDbLine
 10
243.7981703128
 20
141.2507251676
 30
0.0
 11
141.7595871533
 21
141.2507251676
 31
0.0
  0
LINE
  5
3DD
330
1F
100
AcDbEntity
  8
0
  6
Continuous
 62
     8
370
    15
100
AcDbLine
 10
269.198692664
 20
200.4770488318
 30
0.0
 11
269.1144355382
 21
200.4496724184
 31
0.0
  0
LINE
  5
3DE
330
1F
100
AcDbEntity
  8
0
  6
Continuous
 62
     8
370
    15
100
AcDbLine
 10
129.9495824422
 20
213.6107236918
 30
0.0
 11
129.9495824422
 21
213.7207240637
 31
0.0
  0
LINE
  5
3DF
330
1F
100
AcDbEntity
  8
0
  6
Continuous
 62
     8
370
    15
100
AcDbLine
 10
123.9295848454
 20
213.7207240637
 30
0.0
 11
123.9295848454
 21
213.5870606478
 31
0.0
  0
LINE
  5
3E0
330
1F
100
AcDbEntity
  8
0
  6
Continuous
 62
     8
370
    15
100
AcDbLine
 10
123.6795850839
 20
207.5207264002
 30
0.0
 11
123.6815877999
 21
207.5207264002
 31
0.0
  0
LWPOLYLINE
  5
3E1
330
1F
100
AcDbEntity
  8
0
  6
Continuous
 62
     8
370
    15
100
AcDbPolyline
 90
        8
 70
   128
 43
0.0
 10
269.1114314641
 20
200.2192438419
 10
269.1067167367
 20
200.2177090223
 10
269.0979250516
 20
200.2148539599
 10
269.0860994901
 20
200.2110124405
 10
269.071687087
 20
200.2063304957
 10
269.0552481259
 20
200.2009869393
 10
269.0374024953
 20
200.1951903875
 10
269.0188475694
 20
200.1891613777
  0
LINE
  5
3E2
330
1F
100
AcDbEntity
  8
0
  6
Continuous
 62
     8
370
    15
100
AcDbLine
 10
268.9237423982
 20
200.3556073483
 30
0.0
 11
268.9237423982
 21
200.2582580622
 31
0.0
  0
ENDSEC
  0
SECTION
  2
OBJECTS
  0
DICTIONARY
  5
C
330
0
100
AcDbDictionary
281
     1
  3
ACAD_GROUP
350
D
  3
ACAD_LAYOUT
350
1A
  3
ACAD_MLINESTYLE
350
17
  3
ACAD_PLOTSETTINGS
350
19
  3
ACAD_PLOTSTYLENAME
350
E
  0
DICTIONARY
  5
D
102
{ACAD_REACTORS
330
C
102
}
330
C
100
AcDbDictionary
281
     1
  0
DICTIONARY
  5
1A
102
{ACAD_REACTORS
330
C
102
}
330
C
100
AcDbDictionary
281
     1
  3
Layout1
350
1E
  3
Layout2
350
26
  3
Model
350
22
  0
DICTIONARY
  5
17
102
{ACAD_REACTORS
330
C
102
}
330
C
100
AcDbDictionary
281
     1
  3
Standard
350
18
  0
DICTIONARY
  5
19
102
{ACAD_REACTORS
330
C
102
}
330
C
100
AcDbDictionary
281
     1
  0
ACDBDICTIONARYWDFLT
  5
E
102
{ACAD_REACTORS
330
C
102
}
330
C
100
AcDbDictionary
281
     1
  3
Normal
350
F
100
AcDbDictionaryWithDefault
340
F
  0
LAYOUT
  5
1E
102
{ACAD_REACTORS
330
1A
102
}
330
1A
100
AcDbPlotSettings
  1

  2
none_device
  4

  6

 40
0.0
 41
0.0
 42
0.0
 43
0.0
 44
0.0
 45
0.0
 46
0.0
 47
0.0
 48
0.0
 49
0.0
140
0.0
141
0.0
142
1.0
143
1.0
 70
   688
 72
     0
 73
     0
 74
     5
  7

 75
    16
147
1.0
148
0.0
149
0.0
100
AcDbLayout
  1
Layout1
 70
     1
 71
     1
 10
0.0
 20
0.0
 11
420.0
 21
297.0
 12
0.0
 22
0.0
 32
0.0
 14
1.0000000000E+20
 24
1.0000000000E+20
 34
1.0000000000E+20
 15
-1.0000000000E+20
 25
-1.0000000000E+20
 35
-1.0000000000E+20
146
0.0
 13
0.0
 23
0.0
 33
0.0
 16
1.0
 26
0.0
 36
0.0
 17
0.0
 27
1.0
 37
0.0
 76
     0
330
1B
  0
LAYOUT
  5
26
102
{ACAD_REACTORS
330
1A
102
}
330
1A
100
AcDbPlotSettings
  1

  2
none_device
  4

  6

 40
0.0
 41
0.0
 42
0.0
 43
0.0
 44
0.0
 45
0.0
 46
0.0
 47
0.0
 48
0.0
 49
0.0
140
0.0
141
0.0
142
1.0
143
1.0
 70
   688
 72
     0
 73
     0
 74
     5
  7

 75
    16
147
1.0
148
0.0
149
0.0
100
AcDbLayout
  1
Layout2
 70
     1
 71
     2
 10
0.0
 20
0.0
 11
0.0
 21
0.0
 12
0.0
 22
0.0
 32
0.0
 14
0.0
 24
0.0
 34
0.0
 15
0.0
 25
0.0
 35
0.0
146
0.0
 13
0.0
 23
0.0
 33
0.0
 16
1.0
 26
0.0
 36
0.0
 17
0.0
 27
1.0
 37
0.0
 76
     0
330
23
  0
LAYOUT
  5
22
102
{ACAD_REACTORS
330
1A
102
}
330
1A
100
AcDbPlotSettings
  1

  2
none_device
  4

  6

 40
0.0
 41
0.0
 42
0.0
 43
0.0
 44
0.0
 45
0.0
 46
0.0
 47
0.0
 48
0.0
 49
0.0
140
0.0
141
0.0
142
1.0
143
1.0
 70
  1712
 72
     0
 73
     0
 74
     0
  7

 75
     0
147
1.0
148
0.0
149
0.0
100
AcDbLayout
  1
Model
 70
     1
 71
     0
 10
0.0
 20
0.0
 11
420.0
 21
297.0
 12
0.0
 22
0.0
 32
0.0
 14
0.0
 24
0.0
 34
0.0
 15
420.0
 25
297.0
 35
0.0
146
0.0
 13
0.0
 23
0.0
 33
0.0
 16
1.0
 26
0.0
 36
0.0
 17
0.0
 27
1.0
 37
0.0
 76
     0
330
1F
331
29
  0
MLINESTYLE
  5
18
102
{ACAD_REACTORS
330
17
102
}
330
17
100
AcDbMlineStyle
  2
Standard
 70
     0
  3

 62
   256
 51
90.0
 52
90.0
 71
     2
 49
0.5
 62
   256
  6
BYLAYER
 49
-0.5
 62
   256
  6
BYLAYER
  0
ACDBPLACEHOLDER
  5
F
102
{ACAD_REACTORS
330
E
102
}
330
E
  0
ENDSEC
  0
EOF
