  0
SECTION
  2
HEADER
  9
$ACADVER
  1
AC1015
  9
$ACADMAINTVER
 70
     6
  9
$DWGCODEPAGE
  3
ANSI_1252
  9
$INSBASE
 10
0.0
 20
0.0
 30
0.0
  9
$EXTMIN
 10
0.0
 20
0.0
 30
0.0
  9
$EXTMAX
 10
420.0
 20
297.0
 30
0.0
  9
$LIMMIN
 10
0.0
 20
0.0
  9
$LIMMAX
 10
420.0
 20
297.0
  9
$ORTHOMODE
 70
     0
  9
$REGENMODE
 70
     1
  9
$FILLMODE
 70
     1
  9
$QTEXTMODE
 70
     0
  9
$MIRRTEXT
 70
     1
  9
$LTSCALE
 40
1.0
  9
$ATTMODE
 70
     1
  9
$TEXTSIZE
 40
3.5
  9
$TRACEWID
 40
1.0
  9
$TEXTSTYLE
  7
Standard
  9
$CLAYER
  8
0
  9
$CELTYPE
  6
ByLayer
  9
$CECOLOR
 62
   256
  9
$CELTSCALE
 40
1.0
  9
$DISPSILH
 70
     0
  9
$DIMSCALE
 40
1.0
  9
$DIMASZ
 40
3.302
  9
$DIMEXO
 40
1.0
  9
$DIMDLI
 40
3.75
  9
$DIMRND
 40
0.0
  9
$DIMDLE
 40
0.0
  9
$DIMEXE
 40
1.0
  9
$DIMTP
 40
0.0
  9
$DIMTM
 40
0.0
  9
$DIMTXT
 40
3.5
  9
$DIMCEN
 40
2.5
  9
$DIMTSZ
 40
0.0
  9
$DIMTOL
 70
     0
  9
$DIMLIM
 70
     0
  9
$DIMTIH
 70
     1
  9
$DIMTOH
 70
     1
  9
$DIMSE1
 70
     0
  9
$DIMSE2
 70
     0
  9
$DIMTAD
 70
     1
  9
$DIMZIN
 70
     0
  9
$DIMBLK
  1

  9
$DIMASO
 70
     1
  9
$DIMSHO
 70
     1
  9
$DIMPOST
  1

  9
$DIMAPOST
  1

  9
$DIMALT
 70
     0
  9
$DIMALTD
 70
     3
  9
$DIMALTF
 40
0.0393700787
  9
$DIMLFAC
 40
5.0
  9
$DIMTOFL
 70
     1
  9
$DIMTVP
 40
0.0
  9
$DIMTIX
 70
     0
  9
$DIMSOXD
 70
     0
  9
$DIMSAH
 70
     0
  9
$DIMBLK1
  1

  9
$DIMBLK2
  1

  9
$DIMSTYLE
  2
ISO-25
  9
$DIMCLRD
 70
     0
  9
$DIMCLRE
 70
     0
  9
$DIMCLRT
 70
     0
  9
$DIMTFAC
 40
1.0
  9
$DIMGAP
 40
1.524
  9
$DIMJUST
 70
     0
  9
$DIMSD1
 70
     0
  9
$DIMSD2
 70
     0
  9
$DIMTOLJ
 70
     0
  9
$DIMTZIN
 70
     0
  9
$DIMALTZ
 70
     0
  9
$DIMALTTZ
 70
     0
  9
$DIMUPT
 70
     0
  9
$DIMDEC
 70
     1
  9
$DIMTDEC
 70
     1
  9
$DIMALTU
 70
     2
  9
$DIMALTTD
 70
     3
  9
$DIMTXSTY
  7
Standard
  9
$DIMAUNIT
 70
     0
  9
$DIMADEC
 70
     1
  9
$DIMALTRND
 40
0.0
  9
$DIMAZIN
 70
     0
  9
$DIMDSEP
 70
    44
  9
$DIMATFIT
 70
     3
  9
$DIMFRAC
 70
     0
  9
$DIMLDRBLK
  1

  9
$DIMLUNIT
 70
     2
  9
$DIMLWD
 70
    -2
  9
$DIMLWE
 70
    -2
  9
$DIMTMOVE
 70
     0
  9
$LUNITS
 70
     2
  9
$LUPREC
 70
     1
  9
$SKETCHINC
 40
1.0
  9
$FILLETRAD
 40
10.0
  9
$AUNITS
 70
     0
  9
$AUPREC
 70
     1
  9
$MENU
  1
.
  9
$ELEVATION
 40
0.0
  9
$PELEVATION
 40
0.0
  9
$THICKNESS
 40
0.0
  9
$LIMCHECK
 70
     0
  9
$CHAMFERA
 40
10.0
  9
$CHAMFERB
 40
10.0
  9
$CHAMFERC
 40
20.0
  9
$CHAMFERD
 40
0.0
  9
$SKPOLY
 70
     0
  9
$TDCREATE
 40
2456191.345513287
  9
$TDUCREATE
 40
2456191.30384662
  9
$TDUPDATE
 40
2456191.345515092
  9
$TDUUPDATE
 40
2456191.303848426
  9
$TDINDWG
 40
0.0000000116
  9
$TDUSRTIMER
 40
0.0000000116
  9
$USRTIMER
 70
     1
  9
$ANGBASE
 50
0.0
  9
$ANGDIR
 70
     0
  9
$PDMODE
 70
     0
  9
$PDSIZE
 40
-1.0
  9
$PLINEWID
 40
0.0
  9
$SPLFRAME
 70
     0
  9
$SPLINETYPE
 70
     6
  9
$SPLINESEGS
 70
     8
  9
$HANDSEED
  5
38B
  9
$SURFTAB1
 70
     6
  9
$SURFTAB2
 70
     6
  9
$SURFTYPE
 70
     6
  9
$SURFU
 70
     6
  9
$SURFV
 70
     6
  9
$UCSBASE
  2

  9
$UCSNAME
  2

  9
$UCSORG
 10
0.0
 20
0.0
 30
0.0
  9
$UCSXDIR
 10
1.0
 20
0.0
 30
0.0
  9
$UCSYDIR
 10
0.0
 20
1.0
 30
0.0
  9
$UCSORTHOREF
  2

  9
$UCSORTHOVIEW
 70
     0
  9
$UCSORGTOP
 10
0.0
 20
0.0
 30
0.0
  9
$UCSORGBOTTOM
 10
0.0
 20
0.0
 30
0.0
  9
$UCSORGLEFT
 10
0.0
 20
0.0
 30
0.0
  9
$UCSORGRIGHT
 10
0.0
 20
0.0
 30
0.0
  9
$UCSORGFRONT
 10
0.0
 20
0.0
 30
0.0
  9
$UCSORGBACK
 10
0.0
 20
0.0
 30
0.0
  9
$PUCSBASE
  2

  9
$PUCSNAME
  2

  9
$PUCSORG
 10
0.0
 20
0.0
 30
0.0
  9
$PUCSXDIR
 10
1.0
 20
0.0
 30
0.0
  9
$PUCSYDIR
 10
0.0
 20
1.0
 30
0.0
  9
$PUCSORTHOREF
  2

  9
$PUCSORTHOVIEW
 70
     0
  9
$PUCSORGTOP
 10
0.0
 20
0.0
 30
0.0
  9
$PUCSORGBOTTOM
 10
0.0
 20
0.0
 30
0.0
  9
$PUCSORGLEFT
 10
0.0
 20
0.0
 30
0.0
  9
$PUCSORGRIGHT
 10
0.0
 20
0.0
 30
0.0
  9
$PUCSORGFRONT
 10
0.0
 20
0.0
 30
0.0
  9
$PUCSORGBACK
 10
0.0
 20
0.0
 30
0.0
  9
$USERI1
 70
     0
  9
$USERI2
 70
     0
  9
$USERI3
 70
     0
  9
$USERI4
 70
     0
  9
$USERI5
 70
     0
  9
$USERR1
 40
0.0
  9
$USERR2
 40
0.0
  9
$USERR3
 40
0.0
  9
$USERR4
 40
0.0
  9
$USERR5
 40
0.0
  9
$WORLDVIEW
 70
     1
  9
$SHADEDGE
 70
     3
  9
$SHADEDIF
 70
    70
  9
$TILEMODE
 70
     1
  9
$MAXACTVP
 70
    64
  9
$PINSBASE
 10
0.0
 20
0.0
 30
0.0
  9
$PLIMCHECK
 70
     0
  9
$PEXTMIN
 10
1.0000000000E+20
 20
1.0000000000E+20
 30
1.0000000000E+20
  9
$PEXTMAX
 10
-1.0000000000E+20
 20
-1.0000000000E+20
 30
-1.0000000000E+20
  9
$PLIMMIN
 10
0.0
 20
0.0
  9
$PLIMMAX
 10
420.0
 20
297.0
  9
$UNITMODE
 70
     0
  9
$VISRETAIN
 70
     1
  9
$PLINEGEN
 70
     0
  9
$PSLTSCALE
 70
     1
  9
$TREEDEPTH
 70
  3020
  9
$CMLSTYLE
  2
Standard
  9
$CMLJUST
 70
     0
  9
$CMLSCALE
 40
20.0
  9
$PROXYGRAPHICS
 70
     1
  9
$MEASUREMENT
 70
     1
  9
$CELWEIGHT
370
    -1
  9
$ENDCAPS
280
     0
  9
$JOINSTYLE
280
     0
  9
$LWDISPLAY
290
     1
  9
$INSUNITS
 70
     4
  9
$HYPERLINKBASE
  1

  9
$STYLESHEET
  1

  9
$XEDIT
290
     1
  9
$CEPSNTYPE
380
     0
  9
$PSTYLEMODE
290
     1
  9
$FINGERPRINTGUID
  2
{525DC676-4457-4F66-9794-7E832A3DEB1B}
  9
$VERSIONGUID
  2
{FAEB1C32-E019-11D5-929B-00C0DF256EC4}
  9
$EXTNAMES
290
     1
  9
$PSVPSCALE
 40
0.0
  9
$OLESTARTUP
290
     0
  0
ENDSEC
  0
SECTION
  2
CLASSES
  0
CLASS
  1
ACDBDICTIONARYWDFLT
  2
AcDbDictionaryWithDefault
  3
ObjectDBX Classes
 90
        0
280
     0
281
     0
  0
CLASS
  1
VISUALSTYLE
  2
AcDbVisualStyle
  3
ObjectDBX Classes
 90
     4095
280
     0
281
     0
  0
CLASS
  1
MATERIAL
  2
AcDbMaterial
  3
ObjectDBX Classes
 90
     1153
280
     0
281
     0
  0
CLASS
  1
ACDBPLACEHOLDER
  2
AcDbPlaceHolder
  3
ObjectDBX Classes
 90
        0
280
     0
281
     0
  0
CLASS
  1
LAYOUT
  2
AcDbLayout
  3
ObjectDBX Classes
 90
        0
280
     0
281
     0
  0
ENDSEC
  0
SECTION
  2
TABLES
  0
TABLE
  2
VPORT
  5
8
330
0
100
AcDbSymbolTable
 70
     1
  0
VPORT
  5
29
330
8
100
AcDbSymbolTableRecord
100
AcDbViewportTableRecord
  2
*Active
 70
     0
 10
0.0
 20
0.0
 11
1.0
 21
1.0
 12
210.0
 22
148.5
 13
0.0
 23
0.0
 14
10.0
 24
10.0
 15
10.0
 25
10.0
 16
0.0
 26
0.0
 36
1.0
 17
0.0
 27
0.0
 37
0.0
 40
297.0
 41
1.4141414141
 42
50.0
 43
0.0
 44
0.0
 50
0.0
 51
0.0
 71
     0
 72
  2000
 73
     1
 74
     3
 75
     0
 76
     0
 77
     0
 78
     0
281
     0
 65
     1
110
0.0
120
0.0
130
0.0
111
1.0
121
0.0
131
0.0
112
0.0
122
1.0
132
0.0
 79
     0
146
0.0
  0
ENDTAB
  0
TABLE
  2
LTYPE
  5
5
330
0
100
AcDbSymbolTable
 70
     6
  0
LTYPE
  5
14
330
5
100
AcDbSymbolTableRecord
100
AcDbLinetypeTableRecord
  2
ByBlock
 70
     0
  3

 72
    65
 73
     0
 40
0.0
  0
LTYPE
  5
15
330
5
100
AcDbSymbolTableRecord
100
AcDbLinetypeTableRecord
  2
ByLayer
 70
     0
  3

 72
    65
 73
     0
 40
0.0
  0
LTYPE
  5
16
330
5
100
AcDbSymbolTableRecord
100
AcDbLinetypeTableRecord
  2
Continuous
 70
     0
  3
Solid line
 72
    65
 73
     0
 40
0.0
  0
LTYPE
  5
3F
330
5
100
AcDbSymbolTableRecord
100
AcDbLinetypeTableRecord
  2
HIDDEN
 70
     0
  3
Hidden __ __ __ __ __ __ __ __ __ __ __ __ __ __
 72
    65
 73
     2
 40
1.905
 49
1.27
 74
     0
 49
-0.635
 74
     0
  0
LTYPE
  5
40
330
5
100
AcDbSymbolTableRecord
100
AcDbLinetypeTableRecord
  2
PHANTOM
 70
     0
  3
Phantom ______  __  __  ______  __  __  ______
 72
    65
 73
     6
 40
12.7
 49
6.35
 74
     0
 49
-1.27
 74
     0
 49
1.27
 74
     0
 49
-1.27
 74
     0
 49
1.27
 74
     0
 49
-1.27
 74
     0
  0
LTYPE
  5
41
330
5
100
AcDbSymbolTableRecord
100
AcDbLinetypeTableRecord
  2
CENTER
 70
     0
  3
Center ____ _ ____ _ ____ _ ____ _ ____ _ ____
 72
    65
 73
     4
 40
10.16
 49
6.35
 74
     0
 49
-1.27
 74
     0
 49
1.27
 74
     0
 49
-1.27
 74
     0
  0
LTYPE
  5
42
330
5
100
AcDbSymbolTableRecord
100
AcDbLinetypeTableRecord
  2
CENTERX2
 70
     0
  3
Center (2x) ________  __  ________  __  _____
 72
    65
 73
     4
 40
20.32
 49
12.7
 74
     0
 49
-2.54
 74
     0
 49
2.54
 74
     0
 49
-2.54
 74
     0
  0
LTYPE
  5
43
330
5
100
AcDbSymbolTableRecord
100
AcDbLinetypeTableRecord
  2
DOT2
 70
     0
  3
Dot (.5x) ........................................
 72
    65
 73
     2
 40
0.635
 49
0.0
 74
     0
 49
-0.635
 74
     0
  0
ENDTAB
  0
TABLE
  2
LAYER
  5
2
330
0
100
AcDbSymbolTable
 70
     4
  0
LAYER
  5
10
330
2
100
AcDbSymbolTableRecord
100
AcDbLayerTableRecord
  2
0
 70
     0
 62
     7
  6
Continuous
370
    -3
390
F
  0
LAYER
  5
44
330
2
100
AcDbSymbolTableRecord
100
AcDbLayerTableRecord
  2
FORMAT
 70
     0
 62
     7
  6
Continuous
370
    -3
390
F
  0
LAYER
  5
45
330
2
100
AcDbSymbolTableRecord
100
AcDbLayerTableRecord
  2
SLD-0
 70
     0
 62
     1
  6
Continuous
370
    -3
390
F
  0
LAYER
  5
46
330
2
100
AcDbSymbolTableRecord
100
AcDbLayerTableRecord
  2
WATERMARK
 70
     0
 62
    20
  6
Continuous
370
    -3
390
F
  0
ENDTAB
  0
TABLE
  2
STYLE
  5
3
330
0
100
AcDbSymbolTable
 70
     1
  0
STYLE
  5
11
330
3
100
AcDbSymbolTableRecord
100
AcDbTextStyleTableRecord
  2
Standard
 70
     0
 40
0.0
 41
1.0
 50
0.0
 71
     0
 42
3.5
  3
txt
  4

  0
ENDTAB
  0
TABLE
  2
VIEW
  5
6
330
0
100
AcDbSymbolTable
 70
     0
  0
ENDTAB
  0
TABLE
  2
UCS
  5
7
330
0
100
AcDbSymbolTable
 70
     0
  0
ENDTAB
  0
TABLE
  2
APPID
  5
9
330
0
100
AcDbSymbolTable
 70
     1
  0
APPID
  5
12
330
9
100
AcDbSymbolTableRecord
100
AcDbRegAppTableRecord
  2
ACAD
 70
     0
  0
ENDTAB
  0
TABLE
  2
DIMSTYLE
  5
A
330
0
100
AcDbSymbolTable
 70
     1
100
AcDbDimStyleTable
  0
DIMSTYLE
105
27
330
A
100
AcDbSymbolTableRecord
100
AcDbDimStyleTableRecord
  2
ISO-25
 70
     0
 41
2.5
 42
0.625
 43
3.75
 44
1.25
 73
     0
 74
     0
 77
     1
 78
     8
140
2.5
141
2.5
143
0.0393700787
147
0.625
171
     3
172
     1
178
     0
271
     2
272
     2
274
     3
278
    44
283
     0
284
     8
340
11
  0
ENDTAB
  0
TABLE
  2
BLOCK_RECORD
  5
1
330
0
100
AcDbSymbolTable
 70
     1
  0
BLOCK_RECORD
  5
1F
330
1
100
AcDbSymbolTableRecord
100
AcDbBlockTableRecord
  2
*Model_Space
340
22
  0
BLOCK_RECORD
  5
1B
330
1
100
AcDbSymbolTableRecord
100
AcDbBlockTableRecord
  2
*Paper_Space
340
1E
  0
BLOCK_RECORD
  5
23
330
1
100
AcDbSymbolTableRecord
100
AcDbBlockTableRecord
  2
*Paper_Space0
340
26
  0
ENDTAB
  0
ENDSEC
  0
SECTION
  2
BLOCKS
  0
BLOCK
  5
20
330
1F
100
AcDbEntity
  8
0
100
AcDbBlockBegin
  2
*Model_Space
 70
     0
 10
0.0
 20
0.0
 30
0.0
  3
*Model_Space
  1

  0
ENDBLK
  5
21
330
1F
100
AcDbEntity
  8
0
100
AcDbBlockEnd
  0
BLOCK
  5
1C
330
1B
100
AcDbEntity
 67
     1
  8
0
100
AcDbBlockBegin
  2
*Paper_Space
 70
     0
 10
0.0
 20
0.0
 30
0.0
  3
*Paper_Space
  1

  0
ENDBLK
  5
1D
330
1B
100
AcDbEntity
 67
     1
  8
0
100
AcDbBlockEnd
  0
BLOCK
  5
24
330
23
100
AcDbEntity
  8
0
100
AcDbBlockBegin
  2
*Paper_Space0
 70
     0
 10
0.0
 20
0.0
 30
0.0
  3
*Paper_Space0
  1

  0
ENDBLK
  5
25
330
23
100
AcDbEntity
  8
0
100
AcDbBlockEnd
  0
ENDSEC
  0
SECTION
  2
ENTITIES
  0
LINE
  5
47
330
1F
100
AcDbEntity
  8
0
  6
Continuous
 62
     7
370
    15
100
AcDbLine
 10
282.2043517067
 20
133.5293939265
 30
0.0
 11
282.2643517067
 21
133.6664137035
 31
0.0
  0
LINE
  5
48
330
1F
100
AcDbEntity
  8
0
  6
Continuous
 62
     7
370
    15
100
AcDbLine
 10
282.2643517067
 20
138.2380711736
 30
0.0
 11
282.2043517067
 21
138.3750909506
 31
0.0
  0
ARC
  5
49
330
1F
100
AcDbEntity
  8
0
  6
Continuous
 62
     7
370
    15
100
AcDbCircle
 10
285.0643517067
 20
134.9722424385
 30
0.0
 40
0.1000000000000227
100
AcDbArc
 50
270.0
 51
0.0
  0
ARC
  5
4A
330
1F
100
AcDbEntity
  8
0
  6
Continuous
 62
     7
370
    15
100
AcDbCircle
 10
285.0643517067
 20
136.9322424385
 30
0.0
 40
0.1000000000000227
100
AcDbArc
 50
0.0
 51
90.0
  0
LINE
  5
4B
330
1F
100
AcDbEntity
  8
0
  6
Continuous
 62
     7
370
    15
100
AcDbLine
 10
282.2643517067
 20
134.8722424385
 30
0.0
 11
285.0643517067
 21
134.8722424385
 31
0.0
  0
LINE
  5
4C
330
1F
100
AcDbEntity
  8
0
  6
Continuous
 62
     7
370
    15
100
AcDbLine
 10
285.0643517067
 20
137.0322424385
 30
0.0
 11
282.2643517067
 21
137.0322424385
 31
0.0
  0
LINE
  5
4D
330
1F
100
AcDbEntity
  8
0
  6
Continuous
 62
     7
370
    15
100
AcDbLine
 10
266.4643517067
 20
121.7822424385
 30
0.0
 11
266.4643517067
 21
122.8222424385
 31
0.0
  0
LINE
  5
4E
330
1F
100
AcDbEntity
  8
0
  6
Continuous
 62
     7
370
    15
100
AcDbLine
 10
266.4143517067
 20
121.6622424385
 30
0.0
 11
266.4643517067
 21
121.7822424385
 31
0.0
  0
LINE
  5
4F
330
1F
100
AcDbEntity
  8
0
  6
Continuous
 62
     7
370
    15
100
AcDbLine
 10
285.0887780147
 20
130.0479513504
 30
0.0
 11
285.5995057349
 21
130.2522424385
 31
0.0
  0
LINE
  5
50
330
1F
100
AcDbEntity
  8
0
  6
Continuous
 62
     7
370
    15
100
AcDbLine
 10
283.5995057349
 20
129.4522424385
 30
0.0
 11
284.1593365306
 21
129.6761747568
 31
0.0
  0
LINE
  5
51
330
1F
100
AcDbEntity
  8
0
  6
Continuous
 62
     7
370
    15
100
AcDbLine
 10
284.063772547
 20
142.2665357137
 30
0.0
 11
283.5995057349
 21
142.4522424385
 31
0.0
  0
LINE
  5
52
330
1F
100
AcDbEntity
  8
0
  6
Continuous
 62
     7
370
    15
100
AcDbLine
 10
285.5995057349
 20
141.6522424385
 30
0.0
 11
284.9922207712
 21
141.895156424
 31
0.0
  0
LINE
  5
53
330
1F
100
AcDbEntity
  8
0
  6
Continuous
 62
     7
370
    15
100
AcDbLine
 10
285.5995057349
 20
130.2522424385
 30
0.0
 11
289.4815786703
 21
131.9991752595
 31
0.0
  0
LINE
  5
54
330
1F
100
AcDbEntity
  8
0
  6
Continuous
 62
     7
370
    15
100
AcDbLine
 10
285.6906978854
 20
141.6112059708
 30
0.0
 11
285.5995057349
 21
141.6522424385
 31
0.0
  0
ARC
  5
55
330
1F
100
AcDbEntity
  8
0
  6
Continuous
 62
     7
370
    15
100
AcDbCircle
 10
289.3995057349
 20
132.1815595605
 30
0.0
 40
0.2000000000000071
100
AcDbArc
 50
294.227745318
 51
0.0
  0
LINE
  5
56
330
1F
100
AcDbEntity
  8
0
  6
Continuous
 62
     7
370
    15
100
AcDbLine
 10
283.1995057349
 20
134.5298804831
 30
0.0
 11
283.5995057349
 21
134.5228984572
 31
0.0
  0
LINE
  5
57
330
1F
100
AcDbEntity
  8
0
  6
Continuous
 62
     7
370
    15
100
AcDbLine
 10
284.9934898963
 20
141.8968028399
 30
0.0
 11
284.063999235
 21
142.2685991044
 31
0.0
  0
LINE
  5
58
330
1F
100
AcDbEntity
  8
0
  6
Continuous
 62
     7
370
    15
100
AcDbLine
 10
284.1589680608
 20
129.673873303
 30
0.0
 11
285.088857886
 21
130.045829233
 31
0.0
  0
LINE
  5
59
330
1F
100
AcDbEntity
  8
0
  6
Continuous
 62
     7
370
    15
100
AcDbLine
 10
124.0443517067
 20
136.8222424385
 30
0.0
 11
123.6443517067
 21
136.4222424385
 31
0.0
  0
LINE
  5
5A
330
1F
100
AcDbEntity
  8
0
  6
Continuous
 62
     7
370
    15
100
AcDbLine
 10
123.6443517067
 20
132.8222424385
 30
0.0
 11
124.0443517067
 21
132.4222424385
 31
0.0
  0
LINE
  5
5B
330
1F
100
AcDbEntity
  8
0
  6
Continuous
 62
     7
370
    15
100
AcDbLine
 10
124.0443517067
 20
132.4222424385
 30
0.0
 11
124.4443517067
 21
132.8222424385
 31
0.0
  0
LINE
  5
5C
330
1F
100
AcDbEntity
  8
0
  6
Continuous
 62
     7
370
    15
100
AcDbLine
 10
124.4443517067
 20
136.4222424385
 30
0.0
 11
124.0443517067
 21
136.8222424385
 31
0.0
  0
LINE
  5
5D
330
1F
100
AcDbEntity
  8
0
  6
Continuous
 62
     7
370
    15
100
AcDbLine
 10
123.2443517067
 20
136.8222424385
 30
0.0
 11
122.8443517067
 21
136.4222424385
 31
0.0
  0
LINE
  5
5E
330
1F
100
AcDbEntity
  8
0
  6
Continuous
 62
     7
370
    15
100
AcDbLine
 10
122.8443517067
 20
132.8222424385
 30
0.0
 11
123.2443517067
 21
132.4222424385
 31
0.0
  0
LINE
  5
5F
330
1F
100
AcDbEntity
  8
0
  6
Continuous
 62
     7
370
    15
100
AcDbLine
 10
123.2443517067
 20
132.4222424385
 30
0.0
 11
123.6443517067
 21
132.8222424385
 31
0.0
  0
LINE
  5
60
330
1F
100
AcDbEntity
  8
0
  6
Continuous
 62
     7
370
    15
100
AcDbLine
 10
123.6443517067
 20
136.4222424385
 30
0.0
 11
123.2443517067
 21
136.8222424385
 31
0.0
  0
LINE
  5
61
330
1F
100
AcDbEntity
  8
0
  6
Continuous
 62
     7
370
    15
100
AcDbLine
 10
122.4443517067
 20
136.8222424385
 30
0.0
 11
122.0443517067
 21
136.4222424385
 31
0.0
  0
LINE
  5
62
330
1F
100
AcDbEntity
  8
0
  6
Continuous
 62
     7
370
    15
100
AcDbLine
 10
122.0443517067
 20
132.8222424385
 30
0.0
 11
122.4443517067
 21
132.4222424385
 31
0.0
  0
LINE
  5
63
330
1F
100
AcDbEntity
  8
0
  6
Continuous
 62
     7
370
    15
100
AcDbLine
 10
122.4443517067
 20
132.4222424385
 30
0.0
 11
122.8443517067
 21
132.8222424385
 31
0.0
  0
LINE
  5
64
330
1F
100
AcDbEntity
  8
0
  6
Continuous
 62
     7
370
    15
100
AcDbLine
 10
122.8443517067
 20
136.4222424385
 30
0.0
 11
122.4443517067
 21
136.8222424385
 31
0.0
  0
LINE
  5
65
330
1F
100
AcDbEntity
  8
0
  6
Continuous
 62
     7
370
    15
100
AcDbLine
 10
121.6443517067
 20
132.4222424385
 30
0.0
 11
122.0443517067
 21
132.8222424385
 31
0.0
  0
LINE
  5
66
330
1F
100
AcDbEntity
  8
0
  6
Continuous
 62
     7
370
    15
100
AcDbLine
 10
122.0443517067
 20
136.4222424385
 30
0.0
 11
121.6443517067
 21
136.8222424385
 31
0.0
  0
LINE
  5
67
330
1F
100
AcDbEntity
  8
0
  6
Continuous
 62
     7
370
    15
100
AcDbLine
 10
121.6443517067
 20
136.8222424385
 30
0.0
 11
121.2443517067
 21
136.4222424385
 31
0.0
  0
LINE
  5
68
330
1F
100
AcDbEntity
  8
0
  6
Continuous
 62
     7
370
    15
100
AcDbLine
 10
121.2443517067
 20
132.8222424385
 30
0.0
 11
121.6443517067
 21
132.4222424385
 31
0.0
  0
LINE
  5
69
330
1F
100
AcDbEntity
  8
0
  6
Continuous
 62
     7
370
    15
100
AcDbLine
 10
124.4443517067
 20
132.4222424385
 30
0.0
 11
128.1243517067
 21
132.4222424385
 31
0.0
  0
LINE
  5
6A
330
1F
100
AcDbEntity
  8
0
  6
Continuous
 62
     7
370
    15
100
AcDbLine
 10
128.1223517067
 20
136.8222424385
 30
0.0
 11
126.8006924333
 21
136.8222424385
 31
0.0
  0
LINE
  5
6B
330
1F
100
AcDbEntity
  8
0
  6
Continuous
 62
     7
370
    15
100
AcDbLine
 10
125.602108782
 20
136.8222424385
 30
0.0
 11
124.4443517067
 21
136.8222424385
 31
0.0
  0
LWPOLYLINE
  5
6C
330
1F
100
AcDbEntity
  8
0
  6
Continuous
 62
     7
370
    15
100
AcDbPolyline
 90
        3
 70
   128
 43
0.0
 10
237.4248779506
 20
179.7422424385
 10
237.6656550185
 20
179.4524757096
 10
237.7419151419
 20
179.3422424385
  0
LWPOLYLINE
  5
6D
330
1F
100
AcDbEntity
  8
0
  6
Continuous
 62
     7
370
    15
100
AcDbPolyline
 90
        3
 70
   128
 43
0.0
 10
237.9780894434
 20
179.3422424385
 10
237.8274584174
 20
179.57003276
 10
237.6928140096
 20
179.7422424385
  0
ARC
  5
6E
330
1F
100
AcDbEntity
  8
0
  6
Continuous
 62
     7
370
    15
100
AcDbCircle
 10
125.4943517067
 20
140.3122424385
 30
0.0
 40
0.0499999999999829
100
AcDbArc
 50
90.0
 51
119.4734267881
  0
LINE
  5
6F
330
1F
100
AcDbEntity
  8
0
  6
Continuous
 62
     7
370
    15
100
AcDbLine
 10
125.6343517067
 20
140.3622424385
 30
0.0
 11
125.4943517067
 21
140.3622424385
 31
0.0
  0
SPLINE
  5
70
330
1F
100
AcDbEntity
  8
0
  6
Continuous
 62
     7
370
    15
100
AcDbSpline
210
0.0
220
0.0
230
1.0
 70
     8
 71
     3
 72
    13
 73
     9
 74
     0
 42
0.00000001
 43
0.00000001
 12
1.0
 22
0.0
 32
0.0
 13
1.0
 23
0.0
 33
0.0
 40
0.0
 40
0.0
 40
0.0
 40
0.0
 40
0.054688053089785
 40
0.2134688124151778
 40
0.3745771152238225
 40
0.5445034158367739
 40
0.7475374220967432
 40
1.0
 40
1.0
 40
1.0
 40
1.0
 10
125.7343332936787
 20
137.8313874563442
 30
0.0
 10
125.7324165481956
 20
137.8312886647668
 30
0.0
 10
125.7249347425934
 20
137.8309030426884
 30
0.0
 10
125.7121655960599
 20
137.8337099123119
 30
0.0
 10
125.6986873922641
 20
137.8392380611714
 30
0.0
 10
125.6891681891227
 20
137.846619256286
 30
0.0
 10
125.6845932906272
 20
137.8535746368359
 30
0.0
 10
125.6845025026196
 20
137.8559406713334
 30
0.0
 10
125.6844521826495
 20
137.8572520646334
 30
0.0
  0
LINE
  5
71
330
1F
100
AcDbEntity
  8
0
  6
Continuous
 62
     7
370
    15
100
AcDbLine
 10
126.7543517067
 20
137.8310124886
 30
0.0
 11
125.7343517067
 21
137.8310124886
 31
0.0
  0
ARC
  5
72
330
1F
100
AcDbEntity
  8
0
  6
Continuous
 62
     7
370
    15
100
AcDbCircle
 10
126.7543517067
 20
137.7810124886
 30
0.0
 40
0.0500000000000114
100
AcDbArc
 50
0.0
 51
90.0
  0
ARC
  5
73
330
1F
100
AcDbEntity
  8
0
  6
Continuous
 62
     7
370
    15
100
AcDbCircle
 10
126.7543517067
 20
136.8410184087
 30
0.0
 40
0.0499999999999972
100
AcDbArc
 50
270.0
 51
0.0
  0
LINE
  5
74
330
1F
100
AcDbEntity
  8
0
  6
Continuous
 62
     7
370
    15
100
AcDbLine
 10
125.7343517067
 20
136.7910184087
 30
0.0
 11
126.7543517067
 21
136.7910184087
 31
0.0
  0
ARC
  5
75
330
1F
100
AcDbEntity
  8
0
  6
Continuous
 62
     7
370
    15
100
AcDbCircle
 10
125.4943517067
 20
136.9322424385
 30
0.0
 40
0.0500000000000256
100
AcDbArc
 50
180.0
 51
270.0
  0
ARC
  5
76
330
1F
100
AcDbEntity
  8
0
  6
Continuous
 62
     7
370
    15
100
AcDbCircle
 10
126.7543517067
 20
140.4034664683
 30
0.0
 40
0.0499999999999972
100
AcDbArc
 50
0.0
 51
90.0
  0
LINE
  5
77
330
1F
100
AcDbEntity
  8
0
  6
Continuous
 62
     7
370
    15
100
AcDbLine
 10
126.7543517067
 20
140.4534664683
 30
0.0
 11
125.7343517067
 21
140.4534664683
 31
0.0
  0
SPLINE
  5
78
330
1F
100
AcDbEntity
  8
0
  6
Continuous
 62
     7
370
    15
100
AcDbSpline
210
0.0
220
0.0
230
1.0
 70
     8
 71
     3
 72
    13
 73
     9
 74
     0
 42
0.00000001
 43
0.00000001
 12
1.0
 22
0.0
 32
0.0
 13
1.0
 23
0.0
 33
0.0
 40
0.0
 40
0.0
 40
0.0
 40
0.0
 40
0.0634888169714469
 40
0.2470479163495015
 40
0.4311284030721254
 40
0.6187780680255144
 40
0.8315552682031278
 40
1.0
 40
1.0
 40
1.0
 40
1.0
 10
125.6343734847596
 20
139.2440737507774
 30
0.0
 10
125.6364186971903
 20
139.2441682171439
 30
0.0
 10
125.6443770352663
 20
139.2445358050139
 30
0.0
 10
125.6578889239644
 20
139.2418668016257
 30
0.0
 10
125.6719088266791
 20
139.2366772126039
 30
0.0
 10
125.6812024593564
 20
139.2302835898712
 30
0.0
 10
125.6844077844635
 20
139.2256805330398
 30
0.0
 10
125.6842676688938
 20
139.225829031194
 30
0.0
 10
125.6842057581599
 20
139.2258946458129
 30
0.0
  0
LINE
  5
79
330
1F
100
AcDbEntity
  8
0
  6
Continuous
 62
     7
370
    15
100
AcDbLine
 10
124.6143517067
 20
139.2444328032
 30
0.0
 11
125.6343517067
 21
139.2444328032
 31
0.0
  0
ARC
  5
7A
330
1F
100
AcDbEntity
  8
0
  6
Continuous
 62
     7
370
    15
100
AcDbCircle
 10
124.6143517067
 20
139.2944328032
 30
0.0
 40
0.0500000000000114
100
AcDbArc
 50
180.0
 51
270.0
  0
ARC
  5
7B
330
1F
100
AcDbEntity
  8
0
  6
Continuous
 62
     7
370
    15
100
AcDbCircle
 10
124.6143517067
 20
140.3057716377
 30
0.0
 40
0.0499999999999972
100
AcDbArc
 50
90.0
 51
180.0
  0
LINE
  5
7C
330
1F
100
AcDbEntity
  8
0
  6
Continuous
 62
     7
370
    15
100
AcDbLine
 10
125.6343517067
 20
140.3557716377
 30
0.0
 11
124.6143517067
 21
140.3557716377
 31
0.0
  0
ARC
  5
7D
330
1F
100
AcDbEntity
  8
0
  6
Continuous
 62
     7
370
    15
100
AcDbCircle
 10
125.7343517067
 20
140.3122424385
 30
0.0
 40
0.0499999999999829
100
AcDbArc
 50
90.0
 51
142.7089330724
  0
ARC
  5
7E
330
1F
100
AcDbEntity
  8
0
  6
Continuous
 62
     7
370
    15
100
AcDbCircle
 10
125.8743517067
 20
140.3122424385
 30
0.0
 40
0.0499999999999829
100
AcDbArc
 50
0.0
 51
90.0
  0
LINE
  5
7F
330
1F
100
AcDbEntity
  8
0
  6
Continuous
 62
     7
370
    15
100
AcDbLine
 10
125.8743517067
 20
140.3622424385
 30
0.0
 11
125.7343517067
 21
140.3622424385
 31
0.0
  0
LINE
  5
80
330
1F
100
AcDbEntity
  8
0
  6
Continuous
 62
     7
370
    15
100
AcDbLine
 10
124.6143517067
 20
136.8887132393
 30
0.0
 11
125.4697507145
 21
136.8887132393
 31
0.0
  0
ARC
  5
81
330
1F
100
AcDbEntity
  8
0
  6
Continuous
 62
     7
370
    15
100
AcDbCircle
 10
124.6143517067
 20
136.9387132393
 30
0.0
 40
0.0500000000000114
100
AcDbArc
 50
180.0
 51
270.0
  0
LINE
  5
82
330
1F
100
AcDbEntity
  8
0
  6
Continuous
 62
     7
370
    15
100
AcDbLine
 10
124.457663238
 20
139.7145807193
 30
0.0
 11
124.4043517067
 21
139.6222424385
 31
0.0
  0
LINE
  5
83
330
1F
100
AcDbEntity
  8
0
  6
Continuous
 62
     7
370
    15
100
AcDbLine
 10
124.4043517067
 20
137.6222424385
 30
0.0
 11
124.457663238
 21
137.5299041578
 31
0.0
  0
LINE
  5
84
330
1F
100
AcDbEntity
  8
0
  6
Continuous
 62
     7
370
    15
100
AcDbLine
 10
125.3910401754
 20
137.5299041578
 30
0.0
 11
125.4443517067
 21
137.6222424385
 31
0.0
  0
LINE
  5
85
330
1F
100
AcDbEntity
  8
0
  6
Continuous
 62
     7
370
    15
100
AcDbLine
 10
126.9357866031
 20
137.5727662278
 30
0.0
 11
126.9643517067
 21
137.6222424385
 31
0.0
  0
LINE
  5
86
330
1F
100
AcDbEntity
  8
0
  6
Continuous
 62
     7
370
    15
100
AcDbLine
 10
125.9529168103
 20
139.6717186492
 30
0.0
 11
125.9243517067
 21
139.6222424385
 31
0.0
  0
LINE
  5
87
330
1F
100
AcDbEntity
  8
0
  6
Continuous
 62
     7
370
    15
100
AcDbLine
 10
126.9643517067
 20
139.6222424385
 30
0.0
 11
126.9357866031
 21
139.6717186492
 31
0.0
  0
LINE
  5
88
330
1F
100
AcDbEntity
  8
0
  6
Continuous
 62
     7
370
    15
100
AcDbLine
 10
127.0246575418
 20
139.6400926685
 30
0.0
 11
127.0143517067
 21
139.6222424385
 31
0.0
  0
LINE
  5
89
330
1F
100
AcDbEntity
  8
0
  6
Continuous
 62
     7
370
    15
100
AcDbLine
 10
128.0543517067
 20
139.6222424385
 30
0.0
 11
128.0440458716
 21
139.6400926685
 31
0.0
  0
LINE
  5
8A
330
1F
100
AcDbEntity
  8
0
  6
Continuous
 62
     7
370
    15
100
AcDbLine
 10
127.0143517067
 20
137.6222424385
 30
0.0
 11
127.0246575418
 21
137.6043922086
 31
0.0
  0
LINE
  5
8B
330
1F
100
AcDbEntity
  8
0
  6
Continuous
 62
     7
370
    15
100
AcDbLine
 10
128.0440458716
 20
137.6043922086
 30
0.0
 11
128.0543517067
 21
137.6222424385
 31
0.0
  0
LINE
  5
8C
330
1F
100
AcDbEntity
  8
0
  6
Continuous
 62
     7
370
    15
100
AcDbLine
 10
128.0543517067
 20
137.4022424385
 30
0.0
 11
128.1243517067
 21
137.4022424385
 31
0.0
  0
LINE
  5
8D
330
1F
100
AcDbEntity
  8
0
  6
Continuous
 62
     7
370
    15
100
AcDbLine
 10
128.1243517067
 20
139.8422424385
 30
0.0
 11
128.0543517067
 21
139.8422424385
 31
0.0
  0
LINE
  5
8E
330
1F
100
AcDbEntity
  8
0
  6
Continuous
 62
     7
370
    15
100
AcDbLine
 10
127.0143517067
 20
139.2222424385
 30
0.0
 11
126.9643517067
 21
139.2222424385
 31
0.0
  0
LINE
  5
8F
330
1F
100
AcDbEntity
  8
0
  6
Continuous
 62
     7
370
    15
100
AcDbLine
 10
126.9643517067
 20
138.0222424385
 30
0.0
 11
127.0143517067
 21
138.0222424385
 31
0.0
  0
SPLINE
  5
90
330
1F
100
AcDbEntity
  8
0
  6
Continuous
 62
     7
370
    15
100
AcDbSpline
210
0.0
220
0.0
230
1.0
 70
     8
 71
     3
 72
    10
 73
     6
 74
     0
 42
0.00000001
 43
0.00000001
 12
1.0
 22
0.0
 32
0.0
 13
1.0
 23
0.0
 33
0.0
 40
0.0
 40
0.0
 40
0.0
 40
0.0
 40
0.1290619505837097
 40
0.8436515523235566
 40
0.9999999999999999
 40
0.9999999999999999
 40
0.9999999999999999
 40
0.9999999999999999
 10
245.8897351796516
 20
179.7422424385203
 30
0.0
 10
245.8955110813734
 20
179.7292247625199
 30
0.0
 10
245.9332669686173
 20
179.6441308791899
 30
0.0
 10
245.9535333394828
 20
179.5309385709377
 30
0.0
 10
245.9445211212923
 20
179.435224274953
 30
0.0
 10
245.9429032722097
 20
179.4180419029028
 30
0.0
  0
LINE
  5
91
330
1F
100
AcDbEntity
  8
0
  6
Continuous
 62
     7
370
    15
100
AcDbLine
 10
144.4079929026
 20
179.5022424385
 30
0.0
 11
144.4843517067
 21
179.5022424385
 31
0.0
  0
LINE
  5
92
330
1F
100
AcDbEntity
  8
0
  6
Continuous
 62
     7
370
    15
100
AcDbLine
 10
143.2079929026
 20
179.5022424385
 30
0.0
 11
144.4079929026
 21
179.5022424385
 31
0.0
  0
LINE
  5
93
330
1F
100
AcDbEntity
  8
0
  6
Continuous
 62
     7
370
    15
100
AcDbLine
 10
232.6843517067
 20
179.5022424385
 30
0.0
 11
233.7279929026
 21
179.5022424385
 31
0.0
  0
ARC
  5
94
330
1F
100
AcDbEntity
  8
0
  6
Continuous
 62
     7
370
    15
100
AcDbCircle
 10
263.8243517067
 20
93.6222424385
 30
0.0
 40
0.3999999999999915
100
AcDbArc
 50
270.0
 51
0.0
  0
ARC
  5
95
330
1F
100
AcDbEntity
  8
0
  6
Continuous
 62
     7
370
    15
100
AcDbCircle
 10
253.2243517067
 20
93.6222424385
 30
0.0
 40
0.3999999999999915
100
AcDbArc
 50
180.0
 51
270.0
  0
LINE
  5
96
330
1F
100
AcDbEntity
  8
0
  6
Continuous
 62
     7
370
    15
100
AcDbLine
 10
264.2243517067
 20
93.6222424385
 30
0.0
 11
264.2243517067
 21
94.4222424385
 31
0.0
  0
LINE
  5
97
330
1F
100
AcDbEntity
  8
0
  6
Continuous
 62
     7
370
    15
100
AcDbLine
 10
252.8243517067
 20
94.4222424385
 30
0.0
 11
252.8243517067
 21
93.6222424385
 31
0.0
  0
ARC
  5
98
330
1F
100
AcDbEntity
  8
0
  6
Continuous
 62
     7
370
    15
100
AcDbCircle
 10
149.0243517067
 20
93.6222424385
 30
0.0
 40
0.4000000000000341
100
AcDbArc
 50
270.0
 51
0.0
  0
ARC
  5
99
330
1F
100
AcDbEntity
  8
0
  6
Continuous
 62
     7
370
    15
100
AcDbCircle
 10
138.4243517067
 20
93.6222424385
 30
0.0
 40
0.3999999999999915
100
AcDbArc
 50
180.0
 51
270.0
  0
LINE
  5
9A
330
1F
100
AcDbEntity
  8
0
  6
Continuous
 62
     7
370
    15
100
AcDbLine
 10
149.4243517067
 20
93.6222424385
 30
0.0
 11
149.4243517067
 21
94.4222424385
 31
0.0
  0
LINE
  5
9B
330
1F
100
AcDbEntity
  8
0
  6
Continuous
 62
     7
370
    15
100
AcDbLine
 10
138.0243517067
 20
94.4222424385
 30
0.0
 11
138.0243517067
 21
93.6222424385
 31
0.0
  0
LINE
  5
9C
330
1F
100
AcDbEntity
  8
0
  6
Continuous
 62
     7
370
    15
100
AcDbLine
 10
149.3843517067
 20
94.4222424385
 30
0.0
 11
149.3843517067
 21
104.0222424385
 31
0.0
  0
LINE
  5
9D
330
1F
100
AcDbEntity
  8
0
  6
Continuous
 62
     7
370
    15
100
AcDbLine
 10
138.0643517067
 20
104.0222424385
 30
0.0
 11
138.0643517067
 21
94.4222424385
 31
0.0
  0
LINE
  5
9E
330
1F
100
AcDbEntity
  8
0
  6
Continuous
 62
     7
370
    15
100
AcDbLine
 10
264.1843517067
 20
94.4222424385
 30
0.0
 11
264.1843517067
 21
104.0222424385
 31
0.0
  0
LINE
  5
9F
330
1F
100
AcDbEntity
  8
0
  6
Continuous
 62
     7
370
    15
100
AcDbLine
 10
252.8643517067
 20
104.0222424385
 30
0.0
 11
252.8643517067
 21
94.4222424385
 31
0.0
  0
ARC
  5
A0
330
1F
100
AcDbEntity
  8
0
  6
Continuous
 62
     7
370
    15
100
AcDbCircle
 10
265.2043517067
 20
122.5222424385
 30
0.0
 40
0.3000000000000682
100
AcDbArc
 50
90.0
 51
180.0
  0
ARC
  5
A1
330
1F
100
AcDbEntity
  8
0
  6
Continuous
 62
     7
370
    15
100
AcDbCircle
 10
251.8443517067
 20
122.5222424385
 30
0.0
 40
0.2999999999999972
100
AcDbArc
 50
0.0
 51
90.0
  0
ARC
  5
A2
330
1F
100
AcDbEntity
  8
0
  6
Continuous
 62
     7
370
    15
100
AcDbCircle
 10
263.9643517067
 20
105.2287556277
 30
0.0
 40
0.9400000000000562
100
AcDbArc
 50
350.5402980318
 51
0.0
  0
ARC
  5
A3
330
1F
100
AcDbEntity
  8
0
  6
Continuous
 62
     7
370
    15
100
AcDbCircle
 10
253.0843517067
 20
105.2287556277
 30
0.0
 40
0.9400000000000002
100
AcDbArc
 50
180.0
 51
189.4597019682
  0
LINE
  5
A4
330
1F
100
AcDbEntity
  8
0
  6
Continuous
 62
     7
370
    15
100
AcDbLine
 10
264.9043517067
 20
105.2287556277
 30
0.0
 11
264.9043517067
 21
122.5222424385
 31
0.0
  0
LINE
  5
A5
330
1F
100
AcDbEntity
  8
0
  6
Continuous
 62
     7
370
    15
100
AcDbLine
 10
252.1443517067
 20
122.5222424385
 30
0.0
 11
252.1443517067
 21
105.2287556277
 31
0.0
  0
LINE
  5
A6
330
1F
100
AcDbEntity
  8
0
  6
Continuous
 62
     7
370
    15
100
AcDbLine
 10
252.1571343521
 20
105.0742629828
 30
0.0
 11
252.3324216626
 21
104.0222424385
 31
0.0
  0
LINE
  5
A7
330
1F
100
AcDbEntity
  8
0
  6
Continuous
 62
     7
370
    15
100
AcDbLine
 10
264.7162817508
 20
104.0222424385
 30
0.0
 11
264.8915690613
 21
105.0742629828
 31
0.0
  0
ARC
  5
A8
330
1F
100
AcDbEntity
  8
0
  6
Continuous
 62
     7
370
    15
100
AcDbCircle
 10
150.4043517067
 20
122.5222424385
 30
0.0
 40
0.2999999999999972
100
AcDbArc
 50
90.0
 51
180.0
  0
ARC
  5
A9
330
1F
100
AcDbEntity
  8
0
  6
Continuous
 62
     7
370
    15
100
AcDbCircle
 10
137.0443517067
 20
122.5222424385
 30
0.0
 40
0.3000000000000398
100
AcDbArc
 50
0.0
 51
90.0
  0
LINE
  5
AA
330
1F
100
AcDbEntity
  8
0
  6
Continuous
 62
     7
370
    15
100
AcDbLine
 10
150.1043517067
 20
105.2287556277
 30
0.0
 11
150.1043517067
 21
122.5222424385
 31
0.0
  0
LINE
  5
AB
330
1F
100
AcDbEntity
  8
0
  6
Continuous
 62
     7
370
    15
100
AcDbLine
 10
137.3443517067
 20
122.5222424385
 30
0.0
 11
137.3443517067
 21
105.2287556277
 31
0.0
  0
ARC
  5
AC
330
1F
100
AcDbEntity
  8
0
  6
Continuous
 62
     7
370
    15
100
AcDbCircle
 10
149.1643517067
 20
105.2287556277
 30
0.0
 40
0.9400000000000002
100
AcDbArc
 50
350.5402980318
 51
0.0
  0
ARC
  5
AD
330
1F
100
AcDbEntity
  8
0
  6
Continuous
 62
     7
370
    15
100
AcDbCircle
 10
138.2843517067
 20
105.2287556277
 30
0.0
 40
0.9400000000000281
100
AcDbArc
 50
180.0
 51
189.4597019682
  0
LINE
  5
AE
330
1F
100
AcDbEntity
  8
0
  6
Continuous
 62
     7
370
    15
100
AcDbLine
 10
137.3571343521
 20
105.0742629828
 30
0.0
 11
137.5324216626
 21
104.0222424385
 31
0.0
  0
LINE
  5
AF
330
1F
100
AcDbEntity
  8
0
  6
Continuous
 62
     7
370
    15
100
AcDbLine
 10
149.9162817508
 20
104.0222424385
 30
0.0
 11
150.0915690613
 21
105.0742629828
 31
0.0
  0
LINE
  5
B0
330
1F
100
AcDbEntity
  8
0
  6
Continuous
 62
     7
370
    15
100
AcDbLine
 10
282.2643517067
 20
135.9522424385
 30
0.0
 11
282.2643517067
 21
138.2380711736
 31
0.0
  0
LINE
  5
B1
330
1F
100
AcDbEntity
  8
0
  6
Continuous
 62
     7
370
    15
100
AcDbLine
 10
282.2643517067
 20
133.6664137035
 30
0.0
 11
282.2643517067
 21
135.9522424385
 31
0.0
  0
SPLINE
  5
B2
330
1F
100
AcDbEntity
  8
0
  6
Continuous
 62
     7
370
    15
100
AcDbSpline
210
0.0
220
0.0
230
1.0
 70
    24
 71
     3
 72
    13
 73
     9
 74
     0
 42
0.00000001
 43
0.00000001
 12
1.0
 22
0.0
 32
0.0
 13
1.0
 23
0.0
 33
0.0
 40
0.0
 40
0.0
 40
0.0
 40
0.0
 40
0.2394568443945912
 40
0.3683606602381699
 40
0.4999999999999997
 40
0.631639339761831
 40
0.7605431556054083
 40
1.0
 40
1.0
 40
1.0
 40
1.0
 10
285.1643517066962
 20
134.9722424385201
 30
0.0
 10
285.1643517066962
 20
134.9853332687562
 30
0.0
 10
285.1643517066962
 20
135.0054711223268
 30
0.0
 10
285.1643517066962
 20
135.1276747679915
 30
0.0
 10
285.1643517066962
 20
135.2541553006099
 30
0.0
 10
285.1643517066962
 20
135.4111578919824
 30
0.0
 10
285.1643517066962
 20
135.6393176531218
 30
0.0
 10
285.1643517066962
 20
135.8289620442023
 30
0.0
 10
285.1643517066962
 20
135.95224243852
 30
0.0
  0
LINE
  5
B3
330
1F
100
AcDbEntity
  8
0
  6
Continuous
 62
     7
370
    15
100
AcDbLine
 10
266.3112906648
 20
121.7822424385
 30
0.0
 11
266.4643517067
 21
121.7822424385
 31
0.0
  0
LINE
  5
B4
330
1F
100
AcDbEntity
  8
0
  6
Continuous
 62
     7
370
    15
100
AcDbLine
 10
264.9043517067
 20
121.7822424385
 30
0.0
 11
266.3112906648
 21
121.7822424385
 31
0.0
  0
LINE
  5
B5
330
1F
100
AcDbEntity
  8
0
  6
Continuous
 62
     7
370
    15
100
AcDbLine
 10
266.2694322096
 20
121.6622424385
 30
0.0
 11
266.4143517067
 21
121.6622424385
 31
0.0
  0
LINE
  5
B6
330
1F
100
AcDbEntity
  8
0
  6
Continuous
 62
     7
370
    15
100
AcDbLine
 10
264.9043517067
 20
121.6622424385
 30
0.0
 11
266.2694322096
 21
121.6622424385
 31
0.0
  0
LINE
  5
B7
330
1F
100
AcDbEntity
  8
0
  6
Continuous
 62
     7
370
    15
100
AcDbLine
 10
281.6443517067
 20
125.2622424385
 30
0.0
 11
281.6043517067
 21
125.2622424385
 31
0.0
  0
LINE
  5
B8
330
1F
100
AcDbEntity
  8
0
  6
Continuous
 62
     7
370
    15
100
AcDbLine
 10
281.6443517067
 20
125.0622424385
 30
0.0
 11
281.6043517067
 21
125.0622424385
 31
0.0
  0
LINE
  5
B9
330
1F
100
AcDbEntity
  8
0
  6
Continuous
 62
     7
370
    15
100
AcDbLine
 10
281.6443517067
 20
125.2622424385
 30
0.0
 11
281.6443517067
 21
125.0622424385
 31
0.0
  0
LINE
  5
BA
330
1F
100
AcDbEntity
  8
0
  6
Continuous
 62
     7
370
    15
100
AcDbLine
 10
281.6443517067
 20
127.0622424385
 30
0.0
 11
281.6043517067
 21
127.0622424385
 31
0.0
  0
LINE
  5
BB
330
1F
100
AcDbEntity
  8
0
  6
Continuous
 62
     7
370
    15
100
AcDbLine
 10
281.6443517067
 20
126.8622424385
 30
0.0
 11
281.6043517067
 21
126.8622424385
 31
0.0
  0
LINE
  5
BC
330
1F
100
AcDbEntity
  8
0
  6
Continuous
 62
     7
370
    15
100
AcDbLine
 10
281.6443517067
 20
127.0622424385
 30
0.0
 11
281.6443517067
 21
126.8622424385
 31
0.0
  0
LINE
  5
BD
330
1F
100
AcDbEntity
  8
0
  6
Continuous
 62
     7
370
    15
100
AcDbLine
 10
281.6443517067
 20
126.8622424385
 30
0.0
 11
281.6443517067
 21
125.2622424385
 31
0.0
  0
LINE
  5
BE
330
1F
100
AcDbEntity
  8
0
  6
Continuous
 62
     7
370
    15
100
AcDbLine
 10
128.1223517067
 20
136.4222424385
 30
0.0
 11
128.1243517067
 21
136.4222424385
 31
0.0
  0
LINE
  5
BF
330
1F
100
AcDbEntity
  8
0
  6
Continuous
 62
     7
370
    15
100
AcDbLine
 10
128.1223517067
 20
136.4222424385
 30
0.0
 11
128.1223517067
 21
137.4022424385
 31
0.0
  0
LINE
  5
C0
330
1F
100
AcDbEntity
  8
0
  6
Continuous
 62
     7
370
    15
100
AcDbLine
 10
128.1223517067
 20
140.9222424385
 30
0.0
 11
128.1243517067
 21
140.9222424385
 31
0.0
  0
LINE
  5
C1
330
1F
100
AcDbEntity
  8
0
  6
Continuous
 62
     7
370
    15
100
AcDbLine
 10
128.1223517067
 20
139.8422424385
 30
0.0
 11
128.1223517067
 21
140.9222424385
 31
0.0
  0
LINE
  5
C2
330
1F
100
AcDbEntity
  8
0
  6
Continuous
 62
     7
370
    15
100
AcDbLine
 10
128.1243517067
 20
135.2222424385
 30
0.0
 11
128.1643517067
 21
135.2222424385
 31
0.0
  0
LINE
  5
C3
330
1F
100
AcDbEntity
  8
0
  6
Continuous
 62
     7
370
    15
100
AcDbLine
 10
128.1243517067
 20
135.2222424385
 30
0.0
 11
128.1243517067
 21
142.4222424385
 31
0.0
  0
LINE
  5
C4
330
1F
100
AcDbEntity
  8
0
  6
Continuous
 62
     7
370
    15
100
AcDbLine
 10
128.1243517067
 20
142.4222424385
 30
0.0
 11
128.1643517067
 21
142.4222424385
 31
0.0
  0
LINE
  5
C5
330
1F
100
AcDbEntity
  8
0
  6
Continuous
 62
     7
370
    15
100
AcDbLine
 10
128.1643517067
 20
132.8222424385
 30
0.0
 11
128.1243517067
 21
132.8222424385
 31
0.0
  0
LINE
  5
C6
330
1F
100
AcDbEntity
  8
0
  6
Continuous
 62
     7
370
    15
100
AcDbLine
 10
128.1643517067
 20
125.2222424385
 30
0.0
 11
128.1243517067
 21
125.2222424385
 31
0.0
  0
LINE
  5
C7
330
1F
100
AcDbEntity
  8
0
  6
Continuous
 62
     7
370
    15
100
AcDbLine
 10
128.1243517067
 20
132.8222424385
 30
0.0
 11
128.1243517067
 21
125.2222424385
 31
0.0
  0
LINE
  5
C8
330
1F
100
AcDbEntity
  8
0
  6
Continuous
 62
     7
370
    15
100
AcDbLine
 10
128.1243517067
 20
155.0222424385
 30
0.0
 11
128.1643517067
 21
155.0222424385
 31
0.0
  0
LINE
  5
C9
330
1F
100
AcDbEntity
  8
0
  6
Continuous
 62
     7
370
    15
100
AcDbLine
 10
128.1243517067
 20
142.4222424385
 30
0.0
 11
128.1243517067
 21
155.0222424385
 31
0.0
  0
LINE
  5
CA
330
1F
100
AcDbEntity
  8
0
  6
Continuous
 62
     7
370
    15
100
AcDbLine
 10
128.1243517067
 20
155.2222424385
 30
0.0
 11
128.1643517067
 21
155.2222424385
 31
0.0
  0
LINE
  5
CB
330
1F
100
AcDbEntity
  8
0
  6
Continuous
 62
     7
370
    15
100
AcDbLine
 10
128.1243517067
 20
155.0222424385
 30
0.0
 11
128.1243517067
 21
155.2222424385
 31
0.0
  0
LINE
  5
CC
330
1F
100
AcDbEntity
  8
0
  6
Continuous
 62
     7
370
    15
100
AcDbLine
 10
128.1243517067
 20
132.8222424385
 30
0.0
 11
128.1243517067
 21
135.2222424385
 31
0.0
  0
LINE
  5
CD
330
1F
100
AcDbEntity
  8
0
  6
Continuous
 62
     7
370
    15
100
AcDbLine
 10
285.5995057349
 20
140.6921981014
 30
0.0
 11
285.5995057349
 21
141.6522424385
 31
0.0
  0
SPLINE
  5
CE
330
1F
100
AcDbEntity
  8
0
  6
Continuous
 62
     7
370
    15
100
AcDbSpline
210
0.0
220
0.0
230
1.0
 70
     8
 71
     3
 72
     9
 73
     5
 74
     0
 42
0.00000001
 43
0.00000001
 12
1.0
 22
0.0
 32
0.0
 13
1.0
 23
0.0
 33
0.0
 40
0.0
 40
0.0
 40
0.0
 40
0.0
 40
0.5209744652335242
 40
1.0
 40
1.0
 40
1.0
 40
1.0
 10
285.4737838701217
 20
140.4712557798584
 30
0.0
 10
285.4794022762104
 20
140.5200083206015
 30
0.0
 10
285.4901866936123
 20
140.6135878412815
 30
0.0
 10
285.5640995765672
 20
140.6667378771064
 30
0.0
 10
285.5995057348508
 20
140.6921981014402
 30
0.0
  0
LINE
  5
CF
330
1F
100
AcDbEntity
  8
0
  6
Continuous
 62
     7
370
    15
100
AcDbLine
 10
285.4737838701
 20
131.4332290972
 30
0.0
 11
285.4737838701
 21
140.4712557799
 31
0.0
  0
SPLINE
  5
D0
330
1F
100
AcDbEntity
  8
0
  6
Continuous
 62
     7
370
    15
100
AcDbSpline
210
0.0
220
0.0
230
1.0
 70
     8
 71
     3
 72
     9
 73
     5
 74
     0
 42
0.00000001
 43
0.00000001
 12
1.0
 22
0.0
 32
0.0
 13
1.0
 23
0.0
 33
0.0
 40
0.0
 40
0.0
 40
0.0
 40
0.0
 40
0.479025534766474
 40
1.0
 40
1.0
 40
1.0
 40
1.0
 10
285.5995057348508
 20
131.212286775601
 30
0.0
 10
285.5640995765672
 20
131.2377469999348
 30
0.0
 10
285.4901866936123
 20
131.2908970357597
 30
0.0
 10
285.4794022762105
 20
131.3844765564397
 30
0.0
 10
285.4737838701217
 20
131.4332290971828
 30
0.0
  0
LINE
  5
D1
330
1F
100
AcDbEntity
  8
0
  6
Continuous
 62
     7
370
    15
100
AcDbLine
 10
285.5995057349
 20
130.2522424385
 30
0.0
 11
285.5995057349
 21
131.2122867756
 31
0.0
  0
SPLINE
  5
D2
330
1F
100
AcDbEntity
  8
0
  6
Continuous
 62
     7
370
    15
100
AcDbSpline
210
0.0
220
0.0
230
1.0
 70
     8
 71
     3
 72
    16
 73
    12
 74
     0
 42
0.00000001
 43
0.00000001
 12
1.0
 22
0.0
 32
0.0
 13
1.0
 23
0.0
 33
0.0
 40
0.0
 40
0.0
 40
0.0
 40
0.0
 40
0.0000533626820374
 40
0.1251138821712298
 40
0.2500827922204669
 40
0.3750495712342504
 40
0.500014628448635
 40
0.6249778304954864
 40
0.7499408549700275
 40
0.8749031490732546
 40
1.0
 40
1.0
 40
1.0
 40
1.0
 10
284.0637721191322
 20
142.2665346440845
 30
0.0
 10
284.0637672315859
 20
142.2665370126682
 30
0.0
 10
284.0523079145678
 20
142.2720903822938
 30
0.0
 10
284.0925503411698
 20
142.2524343075542
 30
0.0
 10
284.1864120936727
 20
142.2076432508394
 30
0.0
 10
284.3399810559134
 20
142.1380809536904
 30
0.0
 10
284.5204174071371
 20
142.06240040129
 30
0.0
 10
284.7041039673941
 20
141.9920047940361
 30
0.0
 10
284.8602300222693
 20
141.9374143573208
 30
0.0
 10
284.9704625286054
 20
141.9018829467204
 30
0.0
 10
284.9849654223187
 20
141.8973994024315
 30
0.0
 10
284.9922207711787
 20
141.8951564239894
 30
0.0
  0
LINE
  5
D3
330
1F
100
AcDbEntity
  8
0
  6
Continuous
 62
     7
370
    15
100
AcDbLine
 10
284.28359245
 20
131.3482575158
 30
0.0
 11
284.2836714008
 21
131.4415976242
 31
0.0
  0
LINE
  5
D4
330
1F
100
AcDbEntity
  8
0
  6
Continuous
 62
     7
370
    15
100
AcDbLine
 10
284.2836714008
 20
131.4415976242
 30
0.0
 11
284.9312178803
 21
131.6307817459
 31
0.0
  0
SPLINE
  5
D5
330
1F
100
AcDbEntity
  8
0
  6
Continuous
 62
     7
370
    15
100
AcDbSpline
210
0.0
220
0.0
230
1.0
 70
     8
 71
     3
 72
    12
 73
     8
 74
     0
 42
0.00000001
 43
0.00000001
 12
1.0
 22
0.0
 32
0.0
 13
1.0
 23
0.0
 33
0.0
 40
0.0
 40
0.0
 40
0.0
 40
0.0
 40
0.2494779209368466
 40
0.3726460399310855
 40
0.5001131821705795
 40
0.7495966662344684
 40
1.0
 40
1.0
 40
1.0
 40
1.0
 10
284.3286073383054
 20
129.9382727280478
 30
0.0
 10
284.3305479687767
 20
129.9336527194089
 30
0.0
 10
284.3334466952746
 20
129.9267517964043
 30
0.0
 10
284.3535666503561
 20
129.9255377233193
 30
0.0
 10
284.3804636236545
 20
129.9284479532467
 30
0.0
 10
284.4256546541161
 20
129.939634226373
 30
0.0
 10
284.4657899904802
 20
129.9539199148855
 30
0.0
 10
284.4858945854984
 20
129.9610759028033
 30
0.0
  0
LINE
  5
D6
330
1F
100
AcDbEntity
  8
0
  6
Continuous
 62
     7
370
    15
100
AcDbLine
 10
284.8680177164
 20
130.2085064995
 30
0.0
 11
284.9306358453
 21
130.2328177025
 31
0.0
  0
LINE
  5
D7
330
1F
100
AcDbEntity
  8
0
  6
Continuous
 62
     7
370
    15
100
AcDbLine
 10
284.8694377057
 20
130.1253772134
 30
0.0
 11
284.8680177164
 21
130.2085064995
 31
0.0
  0
LINE
  5
D8
330
1F
100
AcDbEntity
  8
0
  6
Continuous
 62
     7
370
    15
100
AcDbLine
 10
284.6951504152
 20
130.100821314
 30
0.0
 11
284.8694377057
 21
130.1253772134
 31
0.0
  0
SPLINE
  5
D9
330
1F
100
AcDbEntity
  8
0
  6
Continuous
 62
     7
370
    15
100
AcDbSpline
210
0.0
220
0.0
230
1.0
 70
     8
 71
     3
 72
    10
 73
     6
 74
     0
 42
0.00000001
 43
0.00000001
 12
1.0
 22
0.0
 32
0.0
 13
1.0
 23
0.0
 33
0.0
 40
0.0
 40
0.0
 40
0.0
 40
0.0
 40
0.2495336986082604
 40
0.4992525961164122
 40
1.0
 40
1.0
 40
1.0
 40
1.0
 10
284.4593614332096
 20
130.0472481997098
 30
0.0
 10
284.4823812851013
 20
130.0555787291464
 30
0.0
 10
284.5284380737564
 20
130.0722459707713
 30
0.0
 10
284.6101100090723
 20
130.0899107925443
 30
0.0
 10
284.6611164508582
 20
130.0964548214509
 30
0.0
 10
284.6951504151524
 20
130.1008213139634
 30
0.0
  0
SPLINE
  5
DA
330
1F
100
AcDbEntity
  8
0
  6
Continuous
 62
     7
370
    15
100
AcDbSpline
210
0.0
220
0.0
230
1.0
 70
     8
 71
     3
 72
    12
 73
     8
 74
     0
 42
0.00000001
 43
0.00000001
 12
1.0
 22
0.0
 32
0.0
 13
1.0
 23
0.0
 33
0.0
 40
0.0
 40
0.0
 40
0.0
 40
0.0
 40
0.2500062002788343
 40
0.3754016731436336
 40
0.5007801154597021
 40
0.7504324754888545
 40
1.0
 40
1.0
 40
1.0
 40
1.0
 10
284.2666909948175
 20
129.9152181030564
 30
0.0
 10
284.2687136214473
 20
129.9230994490066
 30
0.0
 10
284.2717507358074
 20
129.9349338373259
 30
0.0
 10
284.2951052954714
 20
129.9573916516473
 30
0.0
 10
284.3273381284039
 20
129.9815882153298
 30
0.0
 10
284.3814723746715
 20
130.0144371112213
 30
0.0
 10
284.4334013552344
 20
130.0363124093485
 30
0.0
 10
284.4593614332096
 20
130.0472481997098
 30
0.0
  0
LINE
  5
DB
330
1F
100
AcDbEntity
  8
0
  6
Continuous
 62
     7
370
    15
100
AcDbLine
 10
285.0855251387
 20
132.8748946989
 30
0.0
 11
284.1561608609
 21
132.669834159
 31
0.0
  0
LINE
  5
DC
330
1F
100
AcDbEntity
  8
0
  6
Continuous
 62
     7
370
    15
100
AcDbLine
 10
284.1561608609
 20
132.669834159
 30
0.0
 11
284.1564097472
 21
132.3358156762
 31
0.0
  0
LINE
  5
DD
330
1F
100
AcDbEntity
  8
0
  6
Continuous
 62
     7
370
    15
100
AcDbLine
 10
285.0870142974
 20
130.9030846061
 30
0.0
 11
284.1576417854
 21
130.585007884
 31
0.0
  0
LINE
  5
DE
330
1F
100
AcDbEntity
  8
0
  6
Continuous
 62
     7
370
    15
100
AcDbLine
 10
284.1576417854
 20
130.585007884
 30
0.0
 11
284.1577731194
 21
130.3886982837
 31
0.0
  0
LINE
  5
DF
330
1F
100
AcDbEntity
  8
0
  6
Continuous
 62
     7
370
    15
100
AcDbLine
 10
285.0876101046
 20
130.0508711256
 30
0.0
 11
284.1582377889
 21
129.6789216112
 31
0.0
  0
LINE
  5
E0
330
1F
100
AcDbEntity
  8
0
  6
Continuous
 62
     7
370
    15
100
AcDbLine
 10
284.1582377889
 20
129.6789216112
 30
0.0
 11
284.1582377842
 21
129.678921623
 31
0.0
  0
LINE
  5
E1
330
1F
100
AcDbEntity
  8
0
  6
Continuous
 62
     7
370
    15
100
AcDbLine
 10
283.5995057349
 20
129.4522424385
 30
0.0
 11
283.5995057349
 21
134.8802893865
 31
0.0
  0
LINE
  5
E2
330
1F
100
AcDbEntity
  8
0
  6
Continuous
 62
     7
370
    15
100
AcDbLine
 10
283.5995057349
 20
137.0322424385
 30
0.0
 11
283.5995057349
 21
142.4522424385
 31
0.0
  0
LINE
  5
E3
330
1F
100
AcDbEntity
  8
0
  6
Continuous
 62
     7
370
    15
100
AcDbLine
 10
285.5995057349
 20
140.3253222889
 30
0.0
 11
285.5995057349
 21
131.5791625881
 31
0.0
  0
ARC
  5
E4
330
1F
100
AcDbEntity
  8
0
  6
Continuous
 62
     7
370
    15
100
AcDbCircle
 10
285.4371422615
 20
131.5919173924
 30
0.0
 40
0.1628636930762265
100
AcDbArc
 50
283.0018952571
 51
355.508234223
  0
ARC
  5
E5
330
1F
100
AcDbEntity
  8
0
  6
Continuous
 62
     7
370
    15
100
AcDbCircle
 10
285.4371422615
 20
140.3125674846
 30
0.0
 40
0.1628636930761282
100
AcDbArc
 50
4.491765777
 51
76.998104743
  0
LINE
  5
E6
330
1F
100
AcDbEntity
  8
0
  6
Continuous
 62
     7
370
    15
100
AcDbLine
 10
285.0855251387
 20
132.8748946989
 30
0.0
 11
285.0862679201
 21
132.8739270582
 31
0.0
  0
LINE
  5
E7
330
1F
100
AcDbEntity
  8
0
  6
Continuous
 62
     7
370
    15
100
AcDbLine
 10
285.0862679201
 20
132.8739270582
 30
0.0
 11
284.1569036422
 21
132.6688631616
 31
0.0
  0
LINE
  5
E8
330
1F
100
AcDbEntity
  8
0
  6
Continuous
 62
     7
370
    15
100
AcDbLine
 10
284.1561608609
 20
132.669834159
 30
0.0
 11
284.1569036422
 21
132.6688631616
 31
0.0
  0
LINE
  5
E9
330
1F
100
AcDbEntity
  8
0
  6
Continuous
 62
     7
370
    15
100
AcDbLine
 10
284.1571525286
 20
132.3347458529
 30
0.0
 11
285.0865324736
 21
132.5397883231
 31
0.0
  0
LINE
  5
EA
330
1F
100
AcDbEntity
  8
0
  6
Continuous
 62
     7
370
    15
100
AcDbLine
 10
284.1569036422
 20
132.6688631616
 30
0.0
 11
284.1571525286
 21
132.3347458529
 31
0.0
  0
LINE
  5
EB
330
1F
100
AcDbEntity
  8
0
  6
Continuous
 62
     7
370
    15
100
AcDbLine
 10
285.0865324736
 20
132.5397883231
 30
0.0
 11
285.0862679201
 21
132.8739270582
 31
0.0
  0
LINE
  5
EC
330
1F
100
AcDbEntity
  8
0
  6
Continuous
 62
     7
370
    15
100
AcDbLine
 10
284.1564097472
 20
132.3358156762
 30
0.0
 11
284.1571525286
 21
132.3347458529
 31
0.0
  0
LINE
  5
ED
330
1F
100
AcDbEntity
  8
0
  6
Continuous
 62
     7
370
    15
100
AcDbLine
 10
284.9319606617
 20
131.6294369617
 30
0.0
 11
284.9312178803
 21
131.6307817459
 31
0.0
  0
LINE
  5
EE
330
1F
100
AcDbEntity
  8
0
  6
Continuous
 62
     7
370
    15
100
AcDbLine
 10
284.2844141821
 20
131.440252361
 30
0.0
 11
284.9319606617
 21
131.6294369617
 31
0.0
  0
LINE
  5
EF
330
1F
100
AcDbEntity
  8
0
  6
Continuous
 62
     7
370
    15
100
AcDbLine
 10
284.2844141821
 20
131.440252361
 30
0.0
 11
284.2836714008
 21
131.4415976242
 31
0.0
  0
LINE
  5
F0
330
1F
100
AcDbEntity
  8
0
  6
Continuous
 62
     7
370
    15
100
AcDbLine
 10
284.2843352313
 20
131.3468844217
 30
0.0
 11
284.2844141821
 21
131.440252361
 31
0.0
  0
LINE
  5
F1
330
1F
100
AcDbEntity
  8
0
  6
Continuous
 62
     7
370
    15
100
AcDbLine
 10
284.9319606617
 20
131.6294369617
 30
0.0
 11
284.9320274429
 21
131.5820481788
 31
0.0
  0
LINE
  5
F2
330
1F
100
AcDbEntity
  8
0
  6
Continuous
 62
     7
370
    15
100
AcDbLine
 10
284.9320274429
 20
131.5820481788
 30
0.0
 11
284.3478932742
 21
131.4113233095
 31
0.0
  0
LINE
  5
F3
330
1F
100
AcDbEntity
  8
0
  6
Continuous
 62
     7
370
    15
100
AcDbLine
 10
284.3478932742
 20
131.4113233095
 30
0.0
 11
284.3475093094
 21
131.337279838
 31
0.0
  0
LINE
  5
F4
330
1F
100
AcDbEntity
  8
0
  6
Continuous
 62
     7
370
    15
100
AcDbLine
 10
284.3475093094
 20
131.337279838
 30
0.0
 11
284.2843352313
 21
131.3468844217
 31
0.0
  0
LINE
  5
F5
330
1F
100
AcDbEntity
  8
0
  6
Continuous
 62
     7
370
    15
100
AcDbLine
 10
284.2843352313
 20
131.3468844217
 30
0.0
 11
284.28359245
 21
131.3482575158
 31
0.0
  0
SPLINE
  5
F6
330
1F
100
AcDbEntity
  8
0
  6
Continuous
 62
     7
370
    15
100
AcDbSpline
210
0.0
220
0.0
230
1.0
 70
     8
 71
     3
 72
     9
 73
     5
 74
     0
 42
0.00000001
 43
0.00000001
 12
1.0
 22
0.0
 32
0.0
 13
1.0
 23
0.0
 33
0.0
 40
0.0
 40
0.0
 40
0.0
 40
0.0
 40
0.5315589426747934
 40
0.9999999999999999
 40
0.9999999999999999
 40
0.9999999999999999
 40
0.9999999999999999
 10
285.5995057348508
 20
131.5791625881307
 30
0.0
 10
285.6036415089566
 20
131.5394784548668
 30
0.0
 10
285.6114219708652
 20
131.4648223253616
 30
0.0
 10
285.6655105009774
 20
131.4268180738936
 30
0.0
 10
285.6908477892123
 20
131.409015322153
 30
0.0
  0
SPLINE
  5
F7
330
1F
100
AcDbEntity
  8
0
  6
Continuous
 62
     7
370
    15
100
AcDbSpline
210
0.0
220
0.0
230
1.0
 70
     8
 71
     3
 72
    12
 73
     8
 74
     0
 42
0.00000001
 43
0.00000001
 12
1.0
 22
0.0
 32
0.0
 13
1.0
 23
0.0
 33
0.0
 40
0.0
 40
0.0
 40
0.0
 40
0.0
 40
0.0304717459459351
 40
0.0888135668586052
 40
0.3925556175487448
 40
0.6962774394174099
 40
1.0
 40
1.0
 40
1.0
 40
1.0
 10
285.6908477892123
 20
131.409015322153
 30
0.0
 10
285.6908967161438
 20
131.4068947626203
 30
0.0
 10
285.6910393195675
 20
131.4007141369292
 30
0.0
 10
285.6902648326128
 20
131.3731058083328
 30
0.0
 10
285.6804841922867
 20
131.3251134525204
 30
0.0
 10
285.6497565773851
 20
131.2632685192183
 30
0.0
 10
285.6179971204198
 20
131.2329817042557
 30
0.0
 10
285.6021173726259
 20
131.2178382783585
 30
0.0
  0
SPLINE
  5
F8
330
1F
100
AcDbEntity
  8
0
  6
Continuous
 62
     7
370
    15
100
AcDbSpline
210
0.0
220
0.0
230
1.0
 70
     8
 71
     3
 72
    10
 73
     6
 74
     0
 42
0.00000001
 43
0.00000001
 12
1.0
 22
0.0
 32
0.0
 13
1.0
 23
0.0
 33
0.0
 40
0.0
 40
0.0
 40
0.0
 40
0.0
 40
0.2117958997118989
 40
0.4880069094704864
 40
1.0
 40
1.0
 40
1.0
 40
1.0
 10
285.6021173726259
 20
131.2178382783585
 30
0.0
 10
285.6016836519908
 20
131.2174358262407
 30
0.0
 10
285.60068429994
 20
131.2165085211583
 30
0.0
 10
285.5996672357332
 20
131.214518599246
 30
0.0
 10
285.5995693308472
 20
131.213165625589
 30
0.0
 10
285.5995057348507
 20
131.2122867756009
 30
0.0
  0
SPLINE
  5
F9
330
1F
100
AcDbEntity
  8
0
  6
Continuous
 62
     7
370
    15
100
AcDbSpline
210
0.0
220
0.0
230
1.0
 70
     8
 71
     3
 72
    12
 73
     8
 74
     0
 42
0.00000001
 43
0.00000001
 12
1.0
 22
0.0
 32
0.0
 13
1.0
 23
0.0
 33
0.0
 40
0.0
 40
0.0
 40
0.0
 40
0.0
 40
0.0304717459515768
 40
0.0888135668586229
 40
0.392555617548769
 40
0.6962774394174279
 40
1.0
 40
1.0
 40
1.0
 40
1.0
 10
285.6908477892123
 20
140.4954695548882
 30
0.0
 10
285.6908967161437
 20
140.4975901144213
 30
0.0
 10
285.6910393195669
 20
140.5037707401121
 30
0.0
 10
285.6902648326143
 20
140.5313790687096
 30
0.0
 10
285.680484192286
 20
140.5793714245205
 30
0.0
 10
285.6497565773852
 20
140.641216357823
 30
0.0
 10
285.6179971204199
 20
140.6715031727855
 30
0.0
 10
285.6021173726259
 20
140.6866465986827
 30
0.0
  0
SPLINE
  5
FA
330
1F
100
AcDbEntity
  8
0
  6
Continuous
 62
     7
370
    15
100
AcDbSpline
210
0.0
220
0.0
230
1.0
 70
     8
 71
     3
 72
     9
 73
     5
 74
     0
 42
0.00000001
 43
0.00000001
 12
1.0
 22
0.0
 32
0.0
 13
1.0
 23
0.0
 33
0.0
 40
0.0
 40
0.0
 40
0.0
 40
0.0
 40
0.4684410573252053
 40
0.9999999999999999
 40
0.9999999999999999
 40
0.9999999999999999
 40
0.9999999999999999
 10
285.6908477892124
 20
140.4954695548882
 30
0.0
 10
285.6655105009775
 20
140.4776668031476
 30
0.0
 10
285.6114219708652
 20
140.4396625516796
 30
0.0
 10
285.6036415089565
 20
140.3650064221744
 30
0.0
 10
285.5995057348508
 20
140.3253222889105
 30
0.0
  0
SPLINE
  5
FB
330
1F
100
AcDbEntity
  8
0
  6
Continuous
 62
     7
370
    15
100
AcDbSpline
210
0.0
220
0.0
230
1.0
 70
     8
 71
     3
 72
    11
 73
     7
 74
     0
 42
0.00000001
 43
0.00000001
 12
1.0
 22
0.0
 32
0.0
 13
1.0
 23
0.0
 33
0.0
 40
0.0
 40
0.0
 40
0.0
 40
0.0
 40
0.3704320937880194
 40
0.7442498469293501
 40
0.944248053769239
 40
1.0
 40
1.0
 40
1.0
 40
1.0
 10
285.5995057348508
 20
140.6921981014402
 30
0.0
 10
285.5995401631416
 20
140.691567010387
 30
0.0
 10
285.5996093343894
 20
140.6902990602617
 30
0.0
 10
285.6003601264613
 20
140.6884700163395
 30
0.0
 10
285.6014351313341
 20
140.6872151493969
 30
0.0
 10
285.6019952666115
 20
140.6867483566128
 30
0.0
 10
285.6021173726259
 20
140.6866465986827
 30
0.0
  0
SPLINE
  5
FC
330
1F
100
AcDbEntity
  8
0
  6
Continuous
 62
     7
370
    15
100
AcDbSpline
210
0.0
220
0.0
230
1.0
 70
     8
 71
     3
 72
    11
 73
     7
 74
     0
 42
0.00000001
 43
0.00000001
 12
1.0
 22
0.0
 32
0.0
 13
1.0
 23
0.0
 33
0.0
 40
0.0
 40
0.0
 40
0.0
 40
0.0
 40
0.3658281109894397
 40
0.7252591430831273
 40
0.9820690181776804
 40
1.0
 40
1.0
 40
1.0
 40
1.0
 10
286.1890342909884
 20
140.3839445824916
 30
0.0
 10
286.1208207037064
 20
140.4176198621047
 30
0.0
 10
285.9855863508158
 20
140.4843815561944
 30
0.0
 10
285.8135796022264
 20
140.52086335078
 30
0.0
 10
285.7242792587537
 20
140.509767382489
 30
0.0
 10
285.6928960186396
 20
140.4963455328706
 30
0.0
 10
285.6908477892123
 20
140.4954695548882
 30
0.0
  0
LINE
  5
FD
330
1F
100
AcDbEntity
  8
0
  6
Continuous
 62
     7
370
    15
100
AcDbLine
 10
286.189034291
 20
140.3839445825
 30
0.0
 11
286.189034291
 21
131.5205402945
 31
0.0
  0
SPLINE
  5
FE
330
1F
100
AcDbEntity
  8
0
  6
Continuous
 62
     7
370
    15
100
AcDbSpline
210
0.0
220
0.0
230
1.0
 70
     8
 71
     3
 72
    11
 73
     7
 74
     0
 42
0.00000001
 43
0.00000001
 12
1.0
 22
0.0
 32
0.0
 13
1.0
 23
0.0
 33
0.0
 40
0.0
 40
0.0
 40
0.0
 40
0.0
 40
0.2357948537758727
 40
0.274901996804477
 40
0.6342531696138376
 40
0.9999999999999999
 40
0.9999999999999999
 40
0.9999999999999999
 40
0.9999999999999999
 10
285.6908477892123
 20
131.409015322153
 30
0.0
 10
285.7204095050096
 20
131.4003463039915
 30
0.0
 10
285.754874102398
 20
131.3902395083394
 30
0.0
 10
285.8515046640735
 20
131.3920503030213
 30
0.0
 10
285.9856688565613
 20
131.4199646779948
 30
0.0
 10
286.1208483668661
 20
131.4868185296967
 30
0.0
 10
286.1890342909884
 20
131.5205402945496
 30
0.0
  0
LINE
  5
FF
330
1F
100
AcDbEntity
  8
0
  6
Continuous
 62
     7
370
    15
100
AcDbLine
 10
284.1585159007
 20
130.3870523147
 30
0.0
 11
285.0878884279
 21
130.7167175994
 31
0.0
  0
LINE
  5
100
330
1F
100
AcDbEntity
  8
0
  6
Continuous
 62
     7
370
    15
100
AcDbLine
 10
284.1583845667
 20
130.5834200063
 30
0.0
 11
284.1585159007
 21
130.3870523147
 31
0.0
  0
LINE
  5
101
330
1F
100
AcDbEntity
  8
0
  6
Continuous
 62
     7
370
    15
100
AcDbLine
 10
285.0877570788
 20
130.9014967897
 30
0.0
 11
284.1583845667
 21
130.5834200063
 31
0.0
  0
LINE
  5
102
330
1F
100
AcDbEntity
  8
0
  6
Continuous
 62
     7
370
    15
100
AcDbLine
 10
285.0878884279
 20
130.7167175994
 30
0.0
 11
285.0877570788
 21
130.9014967897
 31
0.0
  0
LINE
  5
103
330
1F
100
AcDbEntity
  8
0
  6
Continuous
 62
     7
370
    15
100
AcDbLine
 10
285.0870142974
 20
130.9030846061
 30
0.0
 11
285.0877570788
 21
130.9014967897
 31
0.0
  0
LINE
  5
104
330
1F
100
AcDbEntity
  8
0
  6
Continuous
 62
     7
370
    15
100
AcDbLine
 10
284.1576417854
 20
130.585007884
 30
0.0
 11
284.1583845667
 21
130.5834200063
 31
0.0
  0
LINE
  5
105
330
1F
100
AcDbEntity
  8
0
  6
Continuous
 62
     7
370
    15
100
AcDbLine
 10
284.1577731194
 20
130.3886982837
 30
0.0
 11
284.1585159007
 21
130.3870523147
 31
0.0
  0
SPLINE
  5
106
330
1F
100
AcDbEntity
  8
0
  6
Continuous
 62
     7
370
    15
100
AcDbSpline
210
0.0
220
0.0
230
1.0
 70
     8
 71
     3
 72
    10
 73
     6
 74
     0
 42
0.00000001
 43
0.00000001
 12
1.0
 22
0.0
 32
0.0
 13
1.0
 23
0.0
 33
0.0
 40
0.0
 40
0.0
 40
0.0
 40
0.0
 40
0.3554439450437202
 40
0.7142330220663424
 40
1.0
 40
1.0
 40
1.0
 40
1.0
 10
286.2676167451668
 20
131.2907380481685
 30
0.0
 10
286.176520399399
 20
131.2576927149397
 30
0.0
 10
285.993470387592
 20
131.1912910542945
 30
0.0
 10
285.7553785913511
 20
131.1657169873346
 30
0.0
 10
285.6491945638392
 20
131.2018282008958
 30
0.0
 10
285.6021173726259
 20
131.2178382783585
 30
0.0
  0
ARC
  5
107
330
1F
100
AcDbEntity
  8
0
  6
Continuous
 62
     7
370
    15
100
AcDbCircle
 10
285.4433349107
 20
131.1372062495
 30
0.0
 40
0.8384584401607553
100
AcDbArc
 50
10.5510775206
 51
27.2058723479
  0
LINE
  5
108
330
1F
100
AcDbEntity
  8
0
  6
Continuous
 62
     7
370
    15
100
AcDbLine
 10
289.4815786703
 20
132.688110843
 30
0.0
 11
286.2676167452
 21
131.2907380482
 31
0.0
  0
SPLINE
  5
109
330
1F
100
AcDbEntity
  8
0
  6
Continuous
 62
     7
370
    15
100
AcDbSpline
210
0.0
220
0.0
230
1.0
 70
     8
 71
     3
 72
    10
 73
     6
 74
     0
 42
0.00000001
 43
0.00000001
 12
1.0
 22
0.0
 32
0.0
 13
1.0
 23
0.0
 33
0.0
 40
0.0
 40
0.0
 40
0.0
 40
0.0
 40
0.285766977933652
 40
0.6445560549562772
 40
1.0
 40
1.0
 40
1.0
 40
1.0
 10
285.6021173726259
 20
140.6866465986827
 30
0.0
 10
285.6491945638393
 20
140.7026566761454
 30
0.0
 10
285.7553785913511
 20
140.7387678897066
 30
0.0
 10
285.993470387592
 20
140.7131938227467
 30
0.0
 10
286.176520399399
 20
140.6467921621015
 30
0.0
 10
286.2676167451668
 20
140.6137468288727
 30
0.0
  0
ARC
  5
10A
330
1F
100
AcDbEntity
  8
0
  6
Continuous
 62
     7
370
    15
100
AcDbCircle
 10
285.4433349107
 20
140.7672786275
 30
0.0
 40
0.8384584401588294
100
AcDbArc
 50
332.794127652
 51
349.4489224795
  0
SPLINE
  5
10B
330
1F
100
AcDbEntity
  8
0
  6
Continuous
 62
     7
370
    15
100
AcDbSpline
210
0.0
220
0.0
230
1.0
 70
     8
 71
     3
 72
    12
 73
     8
 74
     0
 42
0.00000001
 43
0.00000001
 12
1.0
 22
0.0
 32
0.0
 13
1.0
 23
0.0
 33
0.0
 40
0.0
 40
0.0
 40
0.0
 40
0.0
 40
0.2238925571850872
 40
0.4477848984198517
 40
0.671682486203218
 40
0.8955821585469039
 40
1.0
 40
1.0
 40
1.0
 40
1.0
 10
285.7332582584224
 20
141.5918045320895
 30
0.0
 10
285.728178547481
 20
141.5940992049229
 30
0.0
 10
285.7180191304977
 20
141.5986885483764
 30
0.0
 10
285.7049242804733
 20
141.6046616188438
 30
0.0
 10
285.6953997580469
 20
141.6090304425563
 30
0.0
 10
285.6911619960522
 20
141.6109857583297
 30
0.0
 10
285.690809628394
 20
141.6111522883641
 30
0.0
 10
285.6906975616636
 20
141.611205251444
 30
0.0
  0
LINE
  5
10C
330
1F
100
AcDbEntity
  8
0
  6
Continuous
 62
     7
370
    15
100
AcDbLine
 10
285.7332582584
 20
141.5918045321
 30
0.0
 11
289.212005297
 21
140.015557987
 31
0.0
  0
LINE
  5
10D
330
1F
100
AcDbEntity
  8
0
  6
Continuous
 62
     7
370
    15
100
AcDbLine
 10
289.212005297
 20
140.015557987
 30
0.0
 11
289.4815786703
 21
139.893909614
 31
0.0
  0
LINE
  5
10E
330
1F
100
AcDbEntity
  8
0
  6
Continuous
 62
     7
370
    15
100
AcDbLine
 10
289.4815786703
 20
139.216374034
 30
0.0
 11
289.4815786703
 21
139.893909614
 31
0.0
  0
LINE
  5
10F
330
1F
100
AcDbEntity
  8
0
  6
Continuous
 62
     7
370
    15
100
AcDbLine
 10
286.2676167452
 20
140.6137468289
 30
0.0
 11
289.4815786703
 21
139.216374034
 31
0.0
  0
LINE
  5
110
330
1F
100
AcDbEntity
  8
0
  6
Continuous
 62
     7
370
    15
100
AcDbLine
 10
286.189034291
 20
131.5205402945
 30
0.0
 11
289.4029962161
 21
132.8884930491
 31
0.0
  0
ARC
  5
111
330
1F
100
AcDbEntity
  8
0
  6
Continuous
 62
     7
370
    15
100
AcDbCircle
 10
288.3947948657
 20
132.3775142863
 30
0.0
 40
1.130296093515998
100
AcDbArc
 50
15.9496313683
 51
26.8769008127
  0
LINE
  5
112
330
1F
100
AcDbEntity
  8
0
  6
Continuous
 62
     7
370
    15
100
AcDbLine
 10
289.4029962161
 20
139.015991828
 30
0.0
 11
286.189034291
 21
140.3839445825
 31
0.0
  0
ARC
  5
113
330
1F
100
AcDbEntity
  8
0
  6
Continuous
 62
     7
370
    15
100
AcDbCircle
 10
288.3947948657
 20
139.5269705907
 30
0.0
 40
1.130296093517166
100
AcDbArc
 50
333.1230991873
 51
344.0503686318
  0
LINE
  5
114
330
1F
100
AcDbEntity
  8
0
  6
Continuous
 62
     7
370
    15
100
AcDbLine
 10
289.4029962161
 20
132.8884930491
 30
0.0
 11
289.4029962161
 21
139.015991828
 31
0.0
  0
ARC
  5
115
330
1F
100
AcDbEntity
  8
0
  6
Continuous
 62
     7
370
    15
100
AcDbCircle
 10
289.4483349982
 20
139.2497574546
 30
0.0
 40
0.2381217615814527
100
AcDbArc
 50
259.0237736414
 51
309.4085911735
  0
ARC
  5
116
330
1F
100
AcDbEntity
  8
0
  6
Continuous
 62
     7
370
    15
100
AcDbCircle
 10
289.4326093468
 20
139.0565573155
 30
0.0
 40
0.1671507647680983
100
AcDbArc
 50
3.1613837536
 51
72.9644501975
  0
ARC
  5
117
330
1F
100
AcDbEntity
  8
0
  6
Continuous
 62
     7
370
    15
100
AcDbCircle
 10
289.4483349982
 20
132.6547274225
 30
0.0
 40
0.2381217615813147
100
AcDbArc
 50
50.5914088265
 51
100.9762263586
  0
ARC
  5
118
330
1F
100
AcDbEntity
  8
0
  6
Continuous
 62
     7
370
    15
100
AcDbCircle
 10
289.4326093468
 20
132.8479275615
 30
0.0
 40
0.1671507647680398
100
AcDbArc
 50
287.0355498025
 51
356.8386162464
  0
LINE
  5
119
330
1F
100
AcDbEntity
  8
0
  6
Continuous
 62
     7
370
    15
100
AcDbLine
 10
289.5995057349
 20
139.0657754399
 30
0.0
 11
289.5995057349
 21
132.8387094371
 31
0.0
  0
LINE
  5
11A
330
1F
100
AcDbEntity
  8
0
  6
Continuous
 62
     7
370
    15
100
AcDbLine
 10
289.5995057349
 20
132.8387094371
 30
0.0
 11
289.5995057349
 21
132.1815595605
 31
0.0
  0
LINE
  5
11B
330
1F
100
AcDbEntity
  8
0
  6
Continuous
 62
     7
370
    15
100
AcDbLine
 10
289.5995057349
 20
139.7109721929
 30
0.0
 11
289.5995057349
 21
139.0657754399
 31
0.0
  0
SPLINE
  5
11C
330
1F
100
AcDbEntity
  8
0
  6
Continuous
 62
     7
370
    15
100
AcDbSpline
210
0.0
220
0.0
230
1.0
 70
     8
 71
     3
 72
    11
 73
     7
 74
     0
 42
0.00000001
 43
0.00000001
 12
1.0
 22
0.0
 32
0.0
 13
1.0
 23
0.0
 33
0.0
 40
0.0
 40
0.0
 40
0.0
 40
0.0
 40
0.2933118760927316
 40
0.586599120141979
 40
0.880502146150293
 40
1.0
 40
1.0
 40
1.0
 40
1.0
 10
289.4815786703166
 20
139.8939096139689
 30
0.0
 10
289.5011896257088
 20
139.8826308487441
 30
0.0
 10
289.5404098895844
 20
139.8600742654743
 30
0.0
 10
289.5806237059122
 20
139.8039829812044
 30
0.0
 10
289.5978266096981
 20
139.7516935080344
 30
0.0
 10
289.5991292058043
 20
139.7201035896516
 30
0.0
 10
289.5995057348508
 20
139.7109721929035
 30
0.0
  0
LINE
  5
11D
330
1F
100
AcDbEntity
  8
0
  6
Continuous
 62
     7
370
    15
100
AcDbLine
 10
284.4601042146
 20
130.0454669788
 30
0.0
 11
284.4593614332
 21
130.0472481997
 31
0.0
  0
SPLINE
  5
11E
330
1F
100
AcDbEntity
  8
0
  6
Continuous
 62
     7
370
    15
100
AcDbSpline
210
0.0
220
0.0
230
1.0
 70
     8
 71
     3
 72
    12
 73
     8
 74
     0
 42
0.00000001
 43
0.00000001
 12
1.0
 22
0.0
 32
0.0
 13
1.0
 23
0.0
 33
0.0
 40
0.0
 40
0.0
 40
0.0
 40
0.0
 40
0.2500403286072527
 40
0.3754467373643525
 40
0.500829023500816
 40
0.7504676482365547
 40
1.0
 40
1.0
 40
1.0
 40
1.0
 10
284.2674337761702
 20
129.9134195716385
 30
0.0
 10
284.2694562571877
 20
129.9213028842128
 30
0.0
 10
284.2724931028983
 20
129.9331400306527
 30
0.0
 10
284.2958474597995
 20
129.9556019111772
 30
0.0
 10
284.328079136701
 20
129.9798012325334
 30
0.0
 10
284.3822117527347
 20
130.0126533853194
 30
0.0
 10
284.4341437460419
 20
130.0345306668254
 30
0.0
 10
284.4601042145623
 20
130.0454669787534
 30
0.0
  0
LINE
  5
11F
330
1F
100
AcDbEntity
  8
0
  6
Continuous
 62
     7
370
    15
100
AcDbLine
 10
284.2674337762
 20
129.9134195716
 30
0.0
 11
284.2666909948
 21
129.9152181031
 31
0.0
  0
LINE
  5
120
330
1F
100
AcDbEntity
  8
0
  6
Continuous
 62
     7
370
    15
100
AcDbLine
 10
284.4866373669
 20
129.9592655672
 30
0.0
 11
284.485964814
 21
129.944430702
 31
0.0
  0
SPLINE
  5
121
330
1F
100
AcDbEntity
  8
0
  6
Continuous
 62
     7
370
    15
100
AcDbSpline
210
0.0
220
0.0
230
1.0
 70
     8
 71
     3
 72
    12
 73
     8
 74
     0
 42
0.00000001
 43
0.00000001
 12
1.0
 22
0.0
 32
0.0
 13
1.0
 23
0.0
 33
0.0
 40
0.0
 40
0.0
 40
0.0
 40
0.0
 40
0.2499896861594406
 40
0.4995082410264814
 40
0.6264005431185244
 40
0.7503171154053704
 40
1.0
 40
1.0
 40
1.0
 40
1.0
 10
284.485964814012
 20
129.9444307020003
 30
0.0
 10
284.4573423102385
 20
129.9340247224318
 30
0.0
 10
284.4001512447458
 20
129.9132323744342
 30
0.0
 10
284.3387440214644
 20
129.8990297842998
 30
0.0
 10
284.3021404010262
 20
129.8954025982204
 30
0.0
 10
284.2740607922696
 20
129.8970540591311
 30
0.0
 10
284.2700885462706
 20
129.9068633700574
 30
0.0
 10
284.2674338265674
 20
129.9134190997375
 30
0.0
  0
SPLINE
  5
122
330
1F
100
AcDbEntity
  8
0
  6
Continuous
 62
     7
370
    15
100
AcDbSpline
210
0.0
220
0.0
230
1.0
 70
     8
 71
     3
 72
    10
 73
     6
 74
     0
 42
0.00000001
 43
0.00000001
 12
1.0
 22
0.0
 32
0.0
 13
1.0
 23
0.0
 33
0.0
 40
0.0
 40
0.0
 40
0.0
 40
0.0
 40
0.249515991133856
 40
0.4992305809326569
 40
0.9999999999999999
 40
0.9999999999999999
 40
0.9999999999999999
 40
0.9999999999999999
 10
284.4601042145623
 20
130.0454669787534
 30
0.0
 10
284.4831243047604
 20
130.0537974079817
 30
0.0
 10
284.5291828076664
 20
130.0704648969238
 30
0.0
 10
284.6108554770939
 20
130.0881253677733
 30
0.0
 10
284.6618598916624
 20
130.094665085516
 30
0.0
 10
284.6958931965051
 20
130.0990287902935
 30
0.0
  0
LINE
  5
123
330
1F
100
AcDbEntity
  8
0
  6
Continuous
 62
     7
370
    15
100
AcDbLine
 10
284.6958931965
 20
130.0990287903
 30
0.0
 11
284.8701804871
 21
130.1235714444
 31
0.0
  0
LINE
  5
124
330
1F
100
AcDbEntity
  8
0
  6
Continuous
 62
     7
370
    15
100
AcDbLine
 10
284.8701804871
 20
130.1235714444
 30
0.0
 11
284.8687604978
 21
130.2067266613
 31
0.0
  0
LINE
  5
125
330
1F
100
AcDbEntity
  8
0
  6
Continuous
 62
     7
370
    15
100
AcDbLine
 10
284.8687604978
 20
130.2067266613
 30
0.0
 11
284.9313785267
 21
130.2310379201
 31
0.0
  0
LINE
  5
126
330
1F
100
AcDbEntity
  8
0
  6
Continuous
 62
     7
370
    15
100
AcDbLine
 10
284.9313786266
 20
130.2310379589
 30
0.0
 11
284.9314391898
 21
130.1137557984
 31
0.0
  0
LINE
  5
127
330
1F
100
AcDbEntity
  8
0
  6
Continuous
 62
     7
370
    15
100
AcDbLine
 10
284.9314391421
 20
130.1137557686
 30
0.0
 11
284.6650838331
 21
130.0719847672
 31
0.0
  0
SPLINE
  5
128
330
1F
100
AcDbEntity
  8
0
  6
Continuous
 62
     7
370
    15
100
AcDbSpline
210
0.0
220
0.0
230
1.0
 70
     8
 71
     3
 72
    10
 73
     6
 74
     0
 42
0.00000001
 43
0.00000001
 12
1.0
 22
0.0
 32
0.0
 13
1.0
 23
0.0
 33
0.0
 40
0.0
 40
0.0
 40
0.0
 40
0.0
 40
0.5010363440408022
 40
0.750858116204703
 40
1.0
 40
1.0
 40
1.0
 40
1.0
 10
284.6650838330547
 20
130.0719847671682
 30
0.0
 10
284.635558947782
 20
130.0680163403887
 30
0.0
 10
284.5913126570675
 20
130.0620692160107
 30
0.0
 10
284.5230911815609
 20
130.0490904832539
 30
0.0
 10
284.4826098542219
 20
130.0346812159471
 30
0.0
 10
284.4623967705007
 20
130.0274863993346
 30
0.0
  0
SPLINE
  5
129
330
1F
100
AcDbEntity
  8
0
  6
Continuous
 62
     7
370
    15
100
AcDbSpline
210
0.0
220
0.0
230
1.0
 70
     8
 71
     3
 72
    12
 73
     8
 74
     0
 42
0.00000001
 43
0.00000001
 12
1.0
 22
0.0
 32
0.0
 13
1.0
 23
0.0
 33
0.0
 40
0.0
 40
0.0
 40
0.0
 40
0.0
 40
0.125390227649575
 40
0.2507278601691831
 40
0.5003015664364657
 40
0.7500419907056194
 40
1.0
 40
1.0
 40
1.0
 40
1.0
 10
284.4623967705007
 20
130.0274863993346
 30
0.0
 10
284.4534026319101
 20
130.0238526531452
 30
0.0
 10
284.435418127335
 20
130.0165866849471
 30
0.0
 10
284.4010557917164
 20
129.9999543060566
 30
0.0
 10
284.3647442865004
 20
129.9779405051756
 30
0.0
 10
284.3341409578975
 20
129.9529959168404
 30
0.0
 10
284.3309475292456
 20
129.9419828491941
 30
0.0
 10
284.3293501196581
 20
129.9364739176461
 30
0.0
  0
SPLINE
  5
12A
330
1F
100
AcDbEntity
  8
0
  6
Continuous
 62
     7
370
    15
100
AcDbSpline
210
0.0
220
0.0
230
1.0
 70
     8
 71
     3
 72
    12
 73
     8
 74
     0
 42
0.00000001
 43
0.00000001
 12
1.0
 22
0.0
 32
0.0
 13
1.0
 23
0.0
 33
0.0
 40
0.0
 40
0.0
 40
0.0
 40
0.0
 40
0.2495139638126142
 40
0.3726780772387522
 40
0.500162704075391
 40
0.7496296318123691
 40
1.0
 40
1.0
 40
1.0
 40
1.0
 10
284.3293501196581
 20
129.9364739176461
 30
0.0
 10
284.3312905775132
 20
129.9318523081104
 30
0.0
 10
284.3341888766357
 20
129.9249493976312
 30
0.0
 10
284.3543081725267
 20
129.9237321630314
 30
0.0
 10
284.3812037483602
 20
129.9266396437758
 30
0.0
 10
284.4263954577278
 20
129.937823846953
 30
0.0
 10
284.4665325482935
 20
129.9521097200204
 30
0.0
 10
284.4866373668511
 20
129.959265567191
 30
0.0
  0
LINE
  5
12B
330
1F
100
AcDbEntity
  8
0
  6
Continuous
 62
     7
370
    15
100
AcDbLine
 10
284.6958931965
 20
130.0990287903
 30
0.0
 11
284.6951504152
 21
130.100821314
 31
0.0
  0
LINE
  5
12C
330
1F
100
AcDbEntity
  8
0
  6
Continuous
 62
     7
370
    15
100
AcDbLine
 10
284.9313786266
 20
130.2310379589
 30
0.0
 11
284.9306358453
 21
130.2328177025
 31
0.0
  0
LINE
  5
12D
330
1F
100
AcDbEntity
  8
0
  6
Continuous
 62
     7
370
    15
100
AcDbLine
 10
284.8687604978
 20
130.2067266613
 30
0.0
 11
284.8680177164
 21
130.2085064995
 31
0.0
  0
LINE
  5
12E
330
1F
100
AcDbEntity
  8
0
  6
Continuous
 62
     7
370
    15
100
AcDbLine
 10
284.8701804871
 20
130.1235714444
 30
0.0
 11
284.8694377057
 21
130.1253772134
 31
0.0
  0
LINE
  5
12F
330
1F
100
AcDbEntity
  8
0
  6
Continuous
 62
     7
370
    15
100
AcDbLine
 10
284.4866373669
 20
129.9592655672
 30
0.0
 11
284.4858945855
 21
129.9610759028
 31
0.0
  0
LINE
  5
130
330
1F
100
AcDbEntity
  8
0
  6
Continuous
 62
     7
370
    15
100
AcDbLine
 10
284.3293501197
 20
129.9364739176
 30
0.0
 11
284.3286073383
 21
129.938272728
 31
0.0
  0
LINE
  5
131
330
1F
100
AcDbEntity
  8
0
  6
Continuous
 62
     7
370
    15
100
AcDbLine
 10
283.1995057349
 20
134.8722424385
 30
0.0
 11
283.1995057349
 21
134.7578623972
 31
0.0
  0
LINE
  5
132
330
1F
100
AcDbEntity
  8
0
  6
Continuous
 62
     7
370
    15
100
AcDbLine
 10
283.1995057349
 20
134.7578623972
 30
0.0
 11
283.1995057349
 21
134.5470280481
 31
0.0
  0
LINE
  5
133
330
1F
100
AcDbEntity
  8
0
  6
Continuous
 62
     7
370
    15
100
AcDbLine
 10
283.1995057349
 20
134.5470280481
 30
0.0
 11
283.1995057349
 21
134.5298804831
 31
0.0
  0
SPLINE
  5
134
330
1F
100
AcDbEntity
  8
0
  6
Continuous
 62
     7
370
    15
100
AcDbSpline
210
0.0
220
0.0
230
1.0
 70
     8
 71
     3
 72
    16
 73
    12
 74
     0
 42
0.00000001
 43
0.00000001
 12
1.0
 22
0.0
 32
0.0
 13
1.0
 23
0.0
 33
0.0
 40
0.0
 40
0.0
 40
0.0
 40
0.0
 40
0.0001752464039582
 40
0.12521442100657
 40
0.2502435855708495
 40
0.3752580360337665
 40
0.5002621062641157
 40
0.6252646105096301
 40
0.7502654112533487
 40
0.8753601771999043
 40
1.0
 40
1.0
 40
1.0
 40
1.0
 10
284.0645482111481
 20
142.2683754444624
 30
0.0
 10
284.064532188426
 20
142.268383209935
 30
0.0
 10
284.0530838744131
 20
142.2739316784341
 30
0.0
 10
284.0933400596069
 20
142.2542675913986
 30
0.0
 10
284.1872829681201
 20
142.2094368730573
 30
0.0
 10
284.3409724809677
 20
142.1398228531352
 30
0.0
 10
284.5215315061411
 20
142.0641005959072
 30
0.0
 10
284.7052817703059
 20
141.993696366499
 30
0.0
 10
284.8614055643718
 20
141.9391228156755
 30
0.0
 10
284.9713373388766
 20
141.9036990772526
 30
0.0
 10
284.9857635747695
 20
141.8992392358242
 30
0.0
 10
284.9929635525314
 20
141.8970133773712
 30
0.0
  0
LINE
  5
135
330
1F
100
AcDbEntity
  8
0
  6
Continuous
 62
     7
370
    15
100
AcDbLine
 10
285.088352886
 20
130.0490152373
 30
0.0
 11
284.1589805702
 21
129.6770656005
 31
0.0
  0
LINE
  5
136
330
1F
100
AcDbEntity
  8
0
  6
Continuous
 62
     7
370
    15
100
AcDbLine
 10
284.1582377889
 20
129.6789216112
 30
0.0
 11
284.1589805702
 21
129.6770656005
 31
0.0
  0
LINE
  5
137
330
1F
100
AcDbEntity
  8
0
  6
Continuous
 62
     7
370
    15
100
AcDbLine
 10
285.0876100946
 20
130.0508711215
 30
0.0
 11
285.0883528759
 21
130.0490152333
 31
0.0
  0
LINE
  5
138
330
1F
100
AcDbEntity
  8
0
  6
Continuous
 62
     7
370
    15
100
AcDbLine
 10
285.0883528809
 20
130.0490152499
 30
0.0
 11
285.088352886
 21
130.0490152373
 31
0.0
  0
LINE
  5
139
330
1F
100
AcDbEntity
  8
0
  6
Continuous
 62
     7
370
    15
100
AcDbLine
 10
284.1589805702
 20
129.6770656005
 30
0.0
 11
284.1589805655
 21
129.6770656123
 31
0.0
  0
LINE
  5
13A
330
1F
100
AcDbEntity
  8
0
  6
Continuous
 62
     7
370
    15
100
AcDbLine
 10
285.0876100946
 20
130.0508711507
 30
0.0
 11
285.0883528759
 21
130.0490152625
 31
0.0
  0
LINE
  5
13B
330
1F
100
AcDbEntity
  8
0
  6
Continuous
 62
     7
370
    15
100
AcDbLine
 10
124.0443517067
 20
132.4222424385
 30
0.0
 11
124.0443517067
 21
136.8222424385
 31
0.0
  0
LINE
  5
13C
330
1F
100
AcDbEntity
  8
0
  6
Continuous
 62
     7
370
    15
100
AcDbLine
 10
123.6443517067
 20
132.8222424385
 30
0.0
 11
123.6443517067
 21
136.4222424385
 31
0.0
  0
LINE
  5
13D
330
1F
100
AcDbEntity
  8
0
  6
Continuous
 62
     7
370
    15
100
AcDbLine
 10
123.2443517067
 20
132.4222424385
 30
0.0
 11
123.2443517067
 21
136.8222424385
 31
0.0
  0
LINE
  5
13E
330
1F
100
AcDbEntity
  8
0
  6
Continuous
 62
     7
370
    15
100
AcDbLine
 10
122.8443517067
 20
132.8222424385
 30
0.0
 11
122.8443517067
 21
136.4222424385
 31
0.0
  0
LINE
  5
13F
330
1F
100
AcDbEntity
  8
0
  6
Continuous
 62
     7
370
    15
100
AcDbLine
 10
122.4443517067
 20
132.4222424385
 30
0.0
 11
122.4443517067
 21
136.8222424385
 31
0.0
  0
LINE
  5
140
330
1F
100
AcDbEntity
  8
0
  6
Continuous
 62
     7
370
    15
100
AcDbLine
 10
122.0443517067
 20
132.8222424385
 30
0.0
 11
122.0443517067
 21
136.4222424385
 31
0.0
  0
LINE
  5
141
330
1F
100
AcDbEntity
  8
0
  6
Continuous
 62
     7
370
    15
100
AcDbLine
 10
121.6443517067
 20
132.4222424385
 30
0.0
 11
121.6443517067
 21
136.8222424385
 31
0.0
  0
LINE
  5
142
330
1F
100
AcDbEntity
  8
0
  6
Continuous
 62
     7
370
    15
100
AcDbLine
 10
121.2443517067
 20
132.8222424385
 30
0.0
 11
121.2443517067
 21
136.4222424385
 31
0.0
  0
LINE
  5
143
330
1F
100
AcDbEntity
  8
0
  6
Continuous
 62
     7
370
    15
100
AcDbLine
 10
124.4443517067
 20
136.8222424385
 30
0.0
 11
124.4443517067
 21
132.4222424385
 31
0.0
  0
LINE
  5
144
330
1F
100
AcDbEntity
  8
0
  6
Continuous
 62
     7
370
    15
100
AcDbLine
 10
269.8457659203
 20
123.0622424385
 30
0.0
 11
281.1043517067
 21
123.0622424385
 31
0.0
  0
SPLINE
  5
145
330
1F
100
AcDbEntity
  8
0
  6
Continuous
 62
     7
370
    15
100
AcDbSpline
210
0.0
220
0.0
230
1.0
 70
     8
 71
     3
 72
    11
 73
     7
 74
     0
 42
0.00000001
 43
0.00000001
 12
1.0
 22
0.0
 32
0.0
 13
1.0
 23
0.0
 33
0.0
 40
0.0
 40
0.0
 40
0.0
 40
0.0
 40
0.2499999999999978
 40
0.499999999999995
 40
0.7499999999999984
 40
1.0
 40
1.0
 40
1.0
 40
1.0
 10
269.8457659202599
 20
123.0622424385207
 30
0.0
 10
269.866481402463
 20
123.0684053833635
 30
0.0
 10
269.9079123668693
 20
123.0807312730491
 30
0.0
 10
269.9700588134787
 20
123.1755434504292
 30
0.0
 10
270.032205260088
 20
123.311066874639
 30
0.0
 10
270.0736362244943
 20
123.4185172505601
 30
0.0
 10
270.0943517066974
 20
123.4722424385207
 30
0.0
  0
LINE
  5
146
330
1F
100
AcDbEntity
  8
0
  6
Continuous
 62
     7
370
    15
100
AcDbLine
 10
270.0943517067
 20
123.4722424385
 30
0.0
 11
281.1943517067
 21
123.4722424385
 31
0.0
  0
SPLINE
  5
147
330
1F
100
AcDbEntity
  8
0
  6
Continuous
 62
     7
370
    15
100
AcDbSpline
210
0.0
220
0.0
230
1.0
 70
     8
 71
     3
 72
    11
 73
     7
 74
     0
 42
0.00000001
 43
0.00000001
 12
1.0
 22
0.0
 32
0.0
 13
1.0
 23
0.0
 33
0.0
 40
0.0
 40
0.0
 40
0.0
 40
0.0
 40
0.2500000000000003
 40
0.5000000000000032
 40
0.7500000000000036
 40
1.0
 40
1.0
 40
1.0
 40
1.0
 10
281.1943517066974
 20
123.4722424385207
 30
0.0
 10
281.1868517066974
 20
123.4185172505601
 30
0.0
 10
281.1718517066975
 20
123.311066874639
 30
0.0
 10
281.1493517066974
 20
123.1755434504292
 30
0.0
 10
281.1268517066974
 20
123.0807312730491
 30
0.0
 10
281.1118517066975
 20
123.0684053833635
 30
0.0
 10
281.1043517066975
 20
123.0622424385207
 30
0.0
  0
SPLINE
  5
148
330
1F
100
AcDbEntity
  8
0
  6
Continuous
 62
     7
370
    15
100
AcDbSpline
210
0.0
220
0.0
230
1.0
 70
     8
 71
     3
 72
    11
 73
     7
 74
     0
 42
0.00000001
 43
0.00000001
 12
1.0
 22
0.0
 32
0.0
 13
1.0
 23
0.0
 33
0.0
 40
0.0
 40
0.0
 40
0.0
 40
0.0
 40
0.2499999999999868
 40
0.4999999999999928
 40
0.7499999999999951
 40
1.0
 40
1.0
 40
1.0
 40
1.0
 10
269.8457659202599
 20
123.2222424385207
 30
0.0
 10
269.866481402463
 20
123.2260003317175
 30
0.0
 10
269.9079123668693
 20
123.2335161181111
 30
0.0
 10
269.9700588134787
 20
123.2913284213918
 30
0.0
 10
270.032205260088
 20
123.373964655666
 30
0.0
 10
270.0736362244943
 20
123.4394831775691
 30
0.0
 10
270.0943517066974
 20
123.4722424385207
 30
0.0
  0
LINE
  5
149
330
1F
100
AcDbEntity
  8
0
  6
Continuous
 62
     7
370
    15
100
AcDbLine
 10
269.8457659203
 20
123.2222424385
 30
0.0
 11
269.8457659203
 21
123.0622424385
 31
0.0
  0
SPLINE
  5
14A
330
1F
100
AcDbEntity
  8
0
  6
Continuous
 62
     7
370
    15
100
AcDbSpline
210
0.0
220
0.0
230
1.0
 70
     8
 71
     3
 72
    24
 73
    20
 74
     0
 42
0.00000001
 43
0.00000001
 12
1.0
 22
0.0
 32
0.0
 13
1.0
 23
0.0
 33
0.0
 40
0.0
 40
0.0
 40
0.0
 40
0.0
 40
0.0855966434534412
 40
0.1717837417070274
 40
0.2599174759871485
 40
0.3487770536709596
 40
0.403623740622446
 40
0.4587384228578965
 40
0.514832484406024
 40
0.5713296783515972
 40
0.6171169531365355
 40
0.6631795218401471
 40
0.7101786598980386
 40
0.757536728847173
 40
0.8033377143833856
 40
0.8495253645755897
 40
0.8970091836663033
 40
0.9449735991629251
 40
1.0
 40
1.0
 40
1.0
 40
1.0
 10
270.0943517066974
 20
123.4722424385207
 30
0.0
 10
270.0847521397229
 20
123.4626770871486
 30
0.0
 10
270.0654867869343
 20
123.4434804015878
 30
0.0
 10
270.0364569258118
 20
123.4147085067583
 30
0.0
 10
270.0075988958792
 20
123.3858752947013
 30
0.0
 10
269.9828972599623
 20
123.3609220696416
 30
0.0
 10
269.9623039235393
 20
123.3401576063215
 30
0.0
 10
269.9453702526251
 20
123.3236110440794
 30
0.0
 10
269.9287438548064
 20
123.3078091096267
 30
0.0
 10
269.9137145817734
 20
123.2938484170228
 30
0.0
 10
269.9004280749897
 20
123.2816726865253
 30
0.0
 10
269.8888103471306
 20
123.2710841506269
 30
0.0
 10
269.8780668579586
 20
123.2612622417176
 30
0.0
 10
269.8685342266805
 20
123.2524169417214
 30
0.0
 10
269.860400479468
 20
123.2446242304938
 30
0.0
 10
269.8537294755999
 20
123.2378448761634
 30
0.0
 10
269.8486733410764
 20
123.2320836547833
 30
0.0
 10
269.8450907678402
 20
123.2270894519246
 30
0.0
 10
269.8446090702647
 20
123.2248520573905
 30
0.0
 10
269.8443517066974
 20
123.223656652083
 30
0.0
  0
LINE
  5
14B
330
1F
100
AcDbEntity
  8
0
  6
Continuous
 62
     7
370
    15
100
AcDbLine
 10
269.6843517067
 20
123.2236566521
 30
0.0
 11
269.8443517067
 21
123.2236566521
 31
0.0
  0
SPLINE
  5
14C
330
1F
100
AcDbEntity
  8
0
  6
Continuous
 62
     7
370
    15
100
AcDbSpline
210
0.0
220
0.0
230
1.0
 70
     8
 71
     3
 72
    24
 73
    20
 74
     0
 42
0.00000001
 43
0.00000001
 12
1.0
 22
0.0
 32
0.0
 13
1.0
 23
0.0
 33
0.0
 40
0.0
 40
0.0
 40
0.0
 40
0.0
 40
0.0579697334229363
 40
0.1162463638633488
 40
0.1754916858707809
 40
0.2350758039839637
 40
0.3007257150189789
 40
0.3668809887450034
 40
0.4348517604245838
 40
0.5035660543070377
 40
0.5612486081740674
 40
0.6194456183999413
 40
0.6793578897140764
 40
0.7399026954177444
 40
0.7895911178371059
 40
0.8396614541386287
 40
0.8909625823257199
 40
0.942699514610809
 40
0.9999999999999999
 40
0.9999999999999999
 40
0.9999999999999999
 40
0.9999999999999999
 10
270.0943517066974
 20
123.4722424385207
 30
0.0
 10
270.0828209736549
 20
123.4652302661749
 30
0.0
 10
270.059698462825
 20
123.4511687984081
 30
0.0
 10
270.0249189866645
 20
123.4301430481098
 30
0.0
 10
269.9902221419004
 20
123.40911083849
 30
0.0
 10
269.9547417672059
 20
123.3874800200012
 30
0.0
 10
269.9188996363088
 20
123.3654669841884
 30
0.0
 10
269.8828303141859
 20
123.3431817216991
 30
0.0
 10
269.8476517652643
 20
123.3221710124778
 30
0.0
 10
269.8158493917466
 20
123.3038580932254
 30
0.0
 10
269.7878531582261
 20
123.288095912458
 30
0.0
 10
269.7634789417039
 20
123.274536636189
 30
0.0
 10
269.7414516751173
 20
123.2622841442723
 30
0.0
 10
269.7234800945242
 20
123.2521245382565
 30
0.0
 10
269.709420285024
 20
123.2438735316963
 30
0.0
 10
269.698759002289
 20
123.2372084258989
 30
0.0
 10
269.6908411898942
 20
123.2316205872489
 30
0.0
 10
269.6854309484626
 20
123.2268896212104
 30
0.0
 10
269.6847234865255
 20
123.2247703531508
 30
0.0
 10
269.6843517066974
 20
123.223656652083
 30
0.0
  0
LINE
  5
14D
330
1F
100
AcDbEntity
  8
0
  6
Continuous
 62
     7
370
    15
100
AcDbLine
 10
281.1943517067
 20
147.7122424385
 30
0.0
 11
270.0943517067
 21
147.7122424385
 31
0.0
  0
LINE
  5
14E
330
1F
100
AcDbEntity
  8
0
  6
Continuous
 62
     7
370
    15
100
AcDbLine
 10
281.1943517067
 20
147.7122424385
 30
0.0
 11
281.1943517067
 21
123.4722424385
 31
0.0
  0
LINE
  5
14F
330
1F
100
AcDbEntity
  8
0
  6
Continuous
 62
     7
370
    15
100
AcDbLine
 10
270.0943517067
 20
147.7122424385
 30
0.0
 11
270.0943517067
 21
123.4722424385
 31
0.0
  0
LINE
  5
150
330
1F
100
AcDbEntity
  8
0
  6
Continuous
 62
     7
370
    15
100
AcDbLine
 10
269.6843517067
 20
147.960828225
 30
0.0
 11
269.6843517067
 21
123.2236566521
 31
0.0
  0
SPLINE
  5
151
330
1F
100
AcDbEntity
  8
0
  6
Continuous
 62
     7
370
    15
100
AcDbSpline
210
0.0
220
0.0
230
1.0
 70
     8
 71
     3
 72
    12
 73
     8
 74
     0
 42
0.00000001
 43
0.00000001
 12
1.0
 22
0.0
 32
0.0
 13
1.0
 23
0.0
 33
0.0
 40
0.0
 40
0.0
 40
0.0
 40
0.0
 40
0.1538940712090183
 40
0.2930211668956584
 40
0.5279230560690217
 40
0.7279788382892182
 40
0.9999999999999999
 40
0.9999999999999999
 40
0.9999999999999999
 40
0.9999999999999999
 10
269.6843517066974
 20
147.9608282249583
 30
0.0
 10
269.6870223353093
 20
147.9556238064291
 30
0.0
 10
269.6921073311511
 20
147.9457143617152
 30
0.0
 10
269.7377738642362
 20
147.920282520934
 30
0.0
 10
269.8204522594618
 20
147.8799423316523
 30
0.0
 10
269.9466949349721
 20
147.8027918109701
 30
0.0
 10
270.0403725791138
 20
147.745344720732
 30
0.0
 10
270.0943517066974
 20
147.7122424385207
 30
0.0
  0
SPLINE
  5
152
330
1F
100
AcDbEntity
  8
0
  6
Continuous
 62
     7
370
    15
100
AcDbSpline
210
0.0
220
0.0
230
1.0
 70
     8
 71
     3
 72
    11
 73
     7
 74
     0
 42
0.00000001
 43
0.00000001
 12
1.0
 22
0.0
 32
0.0
 13
1.0
 23
0.0
 33
0.0
 40
0.0
 40
0.0
 40
0.0
 40
0.0
 40
0.2543030279684516
 40
0.5087793961833637
 40
0.7632567853905039
 40
1.0
 40
1.0
 40
1.0
 40
1.0
 10
270.0943517066974
 20
147.7122424385207
 30
0.0
 10
270.0732763409893
 20
147.7455692760527
 30
0.0
 10
270.0311112439985
 20
147.8122456676464
 30
0.0
 10
269.9678601968602
 20
147.8958360097706
 30
0.0
 10
269.9060467489791
 20
147.9518641862503
 30
0.0
 10
269.8653700225642
 20
147.9588672971437
 30
0.0
 10
269.8457659202598
 20
147.9622424385207
 30
0.0
  0
LINE
  5
153
330
1F
100
AcDbEntity
  8
0
  6
Continuous
 62
     7
370
    15
100
AcDbLine
 10
269.8457659203
 20
147.9622424385
 30
0.0
 11
269.8457659203
 21
148.1222424385
 31
0.0
  0
SPLINE
  5
154
330
1F
100
AcDbEntity
  8
0
  6
Continuous
 62
     7
370
    15
100
AcDbSpline
210
0.0
220
0.0
230
1.0
 70
     8
 71
     3
 72
    16
 73
    12
 74
     0
 42
0.00000001
 43
0.00000001
 12
1.0
 22
0.0
 32
0.0
 13
1.0
 23
0.0
 33
0.0
 40
0.0
 40
0.0
 40
0.0
 40
0.0
 40
0.1134728652176512
 40
0.2302336312469023
 40
0.3437467097331502
 40
0.4605512941173739
 40
0.5740645592542637
 40
0.6908693481067967
 40
0.8043825358866379
 40
0.9211872475724395
 40
0.9999999999999999
 40
0.9999999999999999
 40
0.9999999999999999
 40
0.9999999999999999
 10
270.0943517066974
 20
147.7122424385207
 30
0.0
 10
270.0849491171854
 20
147.736601913736
 30
0.0
 10
270.0658714960967
 20
147.7860266852295
 30
0.0
 10
270.0373847132228
 20
147.857457878209
 30
0.0
 10
270.0086253676466
 20
147.9247857166855
 30
0.0
 10
269.9801321007673
 20
147.9846166033587
 30
0.0
 10
269.9513685801399
 20
148.036044626993
 30
0.0
 10
269.9228753225872
 20
148.0765483381622
 30
0.0
 10
269.8941133053445
 20
148.1052646731561
 30
0.0
 10
269.8684898012281
 20
148.1200807367103
 30
0.0
 10
269.8522919203028
 20
148.1216216261635
 30
0.0
 10
269.8457659202598
 20
148.1222424385207
 30
0.0
  0
LWPOLYLINE
  5
155
330
1F
100
AcDbEntity
  8
0
  6
Continuous
 62
     7
370
    15
100
AcDbPolyline
 90
        2
 70
   128
 43
0.0
 10
270.0943517067
 20
147.7122424385
 10
270.0943517067
 20
147.7122424385
  0
SPLINE
  5
156
330
1F
100
AcDbEntity
  8
0
  6
Continuous
 62
     7
370
    15
100
AcDbSpline
210
0.0
220
0.0
230
1.0
 70
     8
 71
     3
 72
    13
 73
     9
 74
     0
 42
0.00000001
 43
0.00000001
 12
1.0
 22
0.0
 32
0.0
 13
1.0
 23
0.0
 33
0.0
 40
0.0
 40
0.0
 40
0.0
 40
0.0
 40
0.1407614611615126
 40
0.270012990632003
 40
0.3888157369304743
 40
0.4985455706535479
 40
0.7066269795456
 40
1.0
 40
1.0
 40
1.0
 40
1.0
 10
269.8443517066975
 20
147.9608282249583
 30
0.0
 10
269.8459914499472
 20
147.9556146328615
 30
0.0
 10
269.8491368561906
 20
147.9456137591679
 30
0.0
 10
269.8715433860729
 20
147.9252107001228
 30
0.0
 10
269.9003637038815
 20
147.9016041321194
 30
0.0
 10
269.9421821414995
 20
147.8651412759702
 30
0.0
 10
270.0057253932505
 20
147.801343291789
 30
0.0
 10
270.061639488122
 20
147.7451298110629
 30
0.0
 10
270.0943517066974
 20
147.7122424385207
 30
0.0
  0
LINE
  5
157
330
1F
100
AcDbEntity
  8
0
  6
Continuous
 62
     7
370
    15
100
AcDbLine
 10
269.6843517067
 20
147.960828225
 30
0.0
 11
269.8443517067
 21
147.960828225
 31
0.0
  0
SPLINE
  5
158
330
1F
100
AcDbEntity
  8
0
  6
Continuous
 62
     7
370
    15
100
AcDbSpline
210
0.0
220
0.0
230
1.0
 70
     8
 71
     3
 72
    11
 73
     7
 74
     0
 42
0.00000001
 43
0.00000001
 12
1.0
 22
0.0
 32
0.0
 13
1.0
 23
0.0
 33
0.0
 40
0.0
 40
0.0
 40
0.0
 40
0.0
 40
0.249999999999994
 40
0.5000000000000029
 40
0.7499999999999974
 40
0.9999999999999999
 40
0.9999999999999999
 40
0.9999999999999999
 40
0.9999999999999999
 10
281.1359050233096
 20
148.1222424385207
 30
0.0
 10
281.1407755802586
 20
148.1160794936779
 30
0.0
 10
281.1505166941566
 20
148.1037536039923
 30
0.0
 10
281.1651283650035
 20
148.0089414266121
 30
0.0
 10
281.1797400358504
 20
147.8734180024024
 30
0.0
 10
281.1894811497484
 20
147.7659676264812
 30
0.0
 10
281.1943517066974
 20
147.7122424385207
 30
0.0
  0
LINE
  5
159
330
1F
100
AcDbEntity
  8
0
  6
Continuous
 62
     7
370
    15
100
AcDbLine
 10
269.8457659203
 20
148.1222424385
 30
0.0
 11
281.1359050233
 21
148.1222424385
 31
0.0
  0
LINE
  5
15A
330
1F
100
AcDbEntity
  8
0
  6
Continuous
 62
     7
370
    15
100
AcDbLine
 10
281.6043517067
 20
123.4722424385
 30
0.0
 11
281.1943517067
 21
123.4722424385
 31
0.0
  0
LINE
  5
15B
330
1F
100
AcDbEntity
  8
0
  6
Continuous
 62
     7
370
    15
100
AcDbLine
 10
281.1943517067
 20
147.7122424385
 30
0.0
 11
281.6043517067
 21
147.7122424385
 31
0.0
  0
LINE
  5
15C
330
1F
100
AcDbEntity
  8
0
  6
Continuous
 62
     7
370
    15
100
AcDbLine
 10
281.6043517067
 20
147.7122424385
 30
0.0
 11
281.6043517067
 21
123.4722424385
 31
0.0
  0
SPLINE
  5
15D
330
1F
100
AcDbEntity
  8
0
  6
Continuous
 62
     7
370
    15
100
AcDbSpline
210
0.0
220
0.0
230
1.0
 70
     8
 71
     3
 72
    12
 73
     8
 74
     0
 42
0.00000001
 43
0.00000001
 12
1.0
 22
0.0
 32
0.0
 13
1.0
 23
0.0
 33
0.0
 40
0.0
 40
0.0
 40
0.0
 40
0.0
 40
0.198631237004904
 40
0.4263119925236865
 40
0.654015242417837
 40
0.8817181517859972
 40
1.0
 40
1.0
 40
1.0
 40
1.0
 10
281.4443517066974
 20
147.7122424385207
 30
0.0
 10
281.4419759101195
 20
147.7382180616302
 30
0.0
 10
281.436876860301
 20
147.7939682035105
 30
0.0
 10
281.3942091883125
 20
147.8708638905718
 30
0.0
 10
281.3264820464795
 20
147.930611905289
 30
0.0
 10
281.2549052692439
 20
147.9588655637718
 30
0.0
 10
281.2097790219609
 20
147.9613821074491
 30
0.0
 10
281.1943517066974
 20
147.9622424385207
 30
0.0
  0
LINE
  5
15E
330
1F
100
AcDbEntity
  8
0
  6
Continuous
 62
     7
370
    15
100
AcDbLine
 10
281.1943517067
 20
147.9622424385
 30
0.0
 11
281.1943517067
 21
148.1222424385
 31
0.0
  0
SPLINE
  5
15F
330
1F
100
AcDbEntity
  8
0
  6
Continuous
 62
     7
370
    15
100
AcDbSpline
210
0.0
220
0.0
230
1.0
 70
     8
 71
     3
 72
    12
 73
     8
 74
     0
 42
0.00000001
 43
0.00000001
 12
1.0
 22
0.0
 32
0.0
 13
1.0
 23
0.0
 33
0.0
 40
0.0
 40
0.0
 40
0.0
 40
0.0
 40
0.2196136201280557
 40
0.4392502024697504
 40
0.6588868351486505
 40
0.878523327578589
 40
0.9999999999999999
 40
0.9999999999999999
 40
0.9999999999999999
 40
0.9999999999999999
 10
281.6043517066975
 20
147.7122424385207
 30
0.0
 10
281.5996072049352
 20
147.7593938641675
 30
0.0
 10
281.5901177053382
 20
147.8537016454884
 30
0.0
 10
281.5162340338628
 20
147.9786482688094
 30
0.0
 10
281.4079286485902
 20
148.0715186069131
 30
0.0
 10
281.2932931806286
 20
148.116594840847
 30
0.0
 10
281.2203338620524
 20
148.1207593722764
 30
0.0
 10
281.1943517066974
 20
148.1222424385207
 30
0.0
  0
SPLINE
  5
160
330
1F
100
AcDbEntity
  8
0
  6
Continuous
 62
     7
370
    15
100
AcDbSpline
210
0.0
220
0.0
230
1.0
 70
     8
 71
     3
 72
    11
 73
     7
 74
     0
 42
0.00000001
 43
0.00000001
 12
1.0
 22
0.0
 32
0.0
 13
1.0
 23
0.0
 33
0.0
 40
0.0
 40
0.0
 40
0.0
 40
0.0
 40
0.2500000000000097
 40
0.5000000000000047
 40
0.7500000000000002
 40
1.0
 40
1.0
 40
1.0
 40
1.0
 10
281.1943517066974
 20
123.0622424385207
 30
0.0
 10
281.248076894658
 20
123.0684053833635
 30
0.0
 10
281.3555272705791
 20
123.0807312730491
 30
0.0
 10
281.4910506947888
 20
123.1755434504292
 30
0.0
 10
281.585862872169
 20
123.311066874639
 30
0.0
 10
281.5981887618546
 20
123.4185172505601
 30
0.0
 10
281.6043517066975
 20
123.4722424385207
 30
0.0
  0
LINE
  5
161
330
1F
100
AcDbEntity
  8
0
  6
Continuous
 62
     7
370
    15
100
AcDbLine
 10
281.1943517067
 20
123.2222424385
 30
0.0
 11
281.1943517067
 21
123.0622424385
 31
0.0
  0
SPLINE
  5
162
330
1F
100
AcDbEntity
  8
0
  6
Continuous
 62
     7
370
    15
100
AcDbSpline
210
0.0
220
0.0
230
1.0
 70
     8
 71
     3
 72
    11
 73
     7
 74
     0
 42
0.00000001
 43
0.00000001
 12
1.0
 22
0.0
 32
0.0
 13
1.0
 23
0.0
 33
0.0
 40
0.0
 40
0.0
 40
0.0
 40
0.0
 40
0.2500000000000097
 40
0.500000000000007
 40
0.750000000000005
 40
1.0
 40
1.0
 40
1.0
 40
1.0
 10
281.1943517066974
 20
123.2222424385207
 30
0.0
 10
281.227110967649
 20
123.2260003317175
 30
0.0
 10
281.2926294895522
 20
123.2335161181112
 30
0.0
 10
281.3752657238264
 20
123.2913284213918
 30
0.0
 10
281.4330780271069
 20
123.373964655666
 30
0.0
 10
281.4405938135006
 20
123.4394831775691
 30
0.0
 10
281.4443517066974
 20
123.4722424385207
 30
0.0
  0
LINE
  5
163
330
1F
100
AcDbEntity
  8
0
  6
Continuous
 62
     7
370
    15
100
AcDbLine
 10
281.1943517067
 20
123.0622424385
 30
0.0
 11
281.1043517067
 21
123.0622424385
 31
0.0
  0
LINE
  5
164
330
1F
100
AcDbEntity
  8
0
  6
Continuous
 62
     7
370
    15
100
AcDbLine
 10
281.1359050233
 20
148.1222424385
 30
0.0
 11
281.1943517067
 21
148.1222424385
 31
0.0
  0
LINE
  5
165
330
1F
100
AcDbEntity
  8
0
  6
Continuous
 62
     7
370
    15
100
AcDbLine
 10
269.9219139787
 20
148.4019011659
 30
0.0
 11
281.8507278388
 21
148.4019011659
 31
0.0
  0
LINE
  5
166
330
1F
100
AcDbEntity
  8
0
  6
Continuous
 62
     7
370
    15
100
AcDbLine
 10
281.8507278388
 20
148.4019011659
 30
0.0
 11
281.8507278388
 21
148.3019011659
 31
0.0
  0
LINE
  5
167
330
1F
100
AcDbEntity
  8
0
  6
Continuous
 62
     7
370
    15
100
AcDbLine
 10
269.9219139787
 20
148.4019011659
 30
0.0
 11
269.9219139787
 21
148.3019011659
 31
0.0
  0
ARC
  5
168
330
1F
100
AcDbEntity
  8
0
  6
Continuous
 62
     7
370
    15
100
AcDbCircle
 10
273.4060732682
 20
172.2394360714
 30
0.0
 40
0.1000000000000075
100
AcDbArc
 50
18.0
 51
90.0
  0
LINE
  5
169
330
1F
100
AcDbEntity
  8
0
  6
Continuous
 62
     7
370
    15
100
AcDbLine
 10
281.9656345053
 20
148.4554830245
 30
0.0
 11
284.4493749346
 21
151.4154896042
 31
0.0
  0
ARC
  5
16A
330
1F
100
AcDbEntity
  8
0
  6
Continuous
 62
     7
370
    15
100
AcDbCircle
 10
281.8507278388
 20
148.5519011659
 30
0.0
 40
0.1499999999999935
100
AcDbArc
 50
270.0
 51
320.0
  0
ARC
  5
16B
330
1F
100
AcDbEntity
  8
0
  6
Continuous
 62
     7
370
    15
100
AcDbCircle
 10
269.9219139787
 20
148.5019011659
 30
0.0
 40
0.1000000000000796
100
AcDbArc
 50
180.0
 51
270.0
  0
LINE
  5
16C
330
1F
100
AcDbEntity
  8
0
  6
Continuous
 62
     7
370
    15
100
AcDbLine
 10
269.8219139787
 20
172.2394360714
 30
0.0
 11
269.8219139787
 21
148.5019011659
 31
0.0
  0
ARC
  5
16D
330
1F
100
AcDbEntity
  8
0
  6
Continuous
 62
     7
370
    15
100
AcDbCircle
 10
269.9219139787
 20
172.2394360714
 30
0.0
 40
0.1000000000000796
100
AcDbArc
 50
90.0
 51
180.0
  0
LINE
  5
16E
330
1F
100
AcDbEntity
  8
0
  6
Continuous
 62
     7
370
    15
100
AcDbLine
 10
273.4060732682
 20
172.3394360714
 30
0.0
 11
269.9219139787
 21
172.3394360714
 31
0.0
  0
LINE
  5
16F
330
1F
100
AcDbEntity
  8
0
  6
Continuous
 62
     7
370
    15
100
AcDbLine
 10
278.37722801
 20
157.2634017597
 30
0.0
 11
273.5011789199
 21
172.2703377708
 31
0.0
  0
ARC
  5
170
330
1F
100
AcDbEntity
  8
0
  6
Continuous
 62
     7
370
    15
100
AcDbCircle
 10
280.5266157368
 20
157.961780167
 30
0.0
 40
2.260000000000018
100
AcDbArc
 50
198.0
 51
250.0
  0
LINE
  5
171
330
1F
100
AcDbEntity
  8
0
  6
Continuous
 62
     7
370
    15
100
AcDbLine
 10
283.643728765
 20
154.4222020421
 30
0.0
 11
279.7536502129
 21
155.838074844
 31
0.0
  0
ARC
  5
172
330
1F
100
AcDbEntity
  8
0
  6
Continuous
 62
     7
370
    15
100
AcDbCircle
 10
282.9938904927
 20
152.6367860626
 30
0.0
 40
1.900000000000034
100
AcDbArc
 50
320.0
 51
70.0
  0
LINE
  5
173
330
1F
100
AcDbEntity
  8
0
  6
Continuous
 62
     7
370
    15
100
AcDbLine
 10
279.7878522272
 20
155.9320441061
 30
0.0
 11
279.7536502129
 21
155.838074844
 31
0.0
  0
LINE
  5
174
330
1F
100
AcDbEntity
  8
0
  6
Continuous
 62
     7
370
    15
100
AcDbLine
 10
278.4723336616
 20
157.2943034591
 30
0.0
 11
278.37722801
 21
157.2634017597
 31
0.0
  0
LINE
  5
175
330
1F
100
AcDbEntity
  8
0
  6
Continuous
 62
     7
370
    15
100
AcDbLine
 10
283.643728765
 20
154.4222020421
 30
0.0
 11
283.6779307793
 21
154.5161713042
 31
0.0
  0
LINE
  5
176
330
1F
100
AcDbEntity
  8
0
  6
Continuous
 62
     7
370
    15
100
AcDbLine
 10
269.7219139787
 20
148.5019011659
 30
0.0
 11
269.7219139787
 21
172.2394360714
 31
0.0
  0
LINE
  5
177
330
1F
100
AcDbEntity
  8
0
  6
Continuous
 62
     7
370
    15
100
AcDbLine
 10
269.7219139787
 20
172.2394360714
 30
0.0
 11
269.8219139787
 21
172.2394360714
 31
0.0
  0
LINE
  5
178
330
1F
100
AcDbEntity
  8
0
  6
Continuous
 62
     7
370
    15
100
AcDbLine
 10
269.8219139787
 20
148.5019011659
 30
0.0
 11
269.7219139787
 21
148.5019011659
 31
0.0
  0
LINE
  5
179
330
1F
100
AcDbEntity
  8
0
  6
Continuous
 62
     7
370
    15
100
AcDbLine
 10
281.9656345053
 20
148.4554830245
 30
0.0
 11
282.0422389496
 21
148.3912042635
 31
0.0
  0
LINE
  5
17A
330
1F
100
AcDbEntity
  8
0
  6
Continuous
 62
     7
370
    15
100
AcDbLine
 10
284.4493749346
 20
151.4154896042
 30
0.0
 11
284.5259793789
 21
151.3512108432
 31
0.0
  0
ARC
  5
17B
330
1F
100
AcDbEntity
  8
0
  6
Continuous
 62
     7
370
    15
100
AcDbCircle
 10
269.9219139787
 20
172.2394360714
 30
0.0
 40
0.2000000000000455
100
AcDbArc
 50
90.0
 51
180.0
  0
LINE
  5
17C
330
1F
100
AcDbEntity
  8
0
  6
Continuous
 62
     7
370
    15
100
AcDbLine
 10
269.9219139787
 20
172.4394360714
 30
0.0
 11
269.9219139787
 21
172.3394360714
 31
0.0
  0
ARC
  5
17D
330
1F
100
AcDbEntity
  8
0
  6
Continuous
 62
     7
370
    15
100
AcDbCircle
 10
269.9219139787
 20
148.5019011659
 30
0.0
 40
0.2000000000000455
100
AcDbArc
 50
180.0
 51
270.0
  0
ARC
  5
17E
330
1F
100
AcDbEntity
  8
0
  6
Continuous
 62
     7
370
    15
100
AcDbCircle
 10
273.3697461418
 20
172.1894360714
 30
0.0
 40
0.4100000000000236
100
AcDbArc
 50
18.0
 51
90.0
  0
LINE
  5
17F
330
1F
100
AcDbEntity
  8
0
  6
Continuous
 62
     7
370
    15
100
AcDbLine
 10
273.6075102709
 20
172.26669032
 30
0.0
 11
273.7596793135
 21
172.3161330391
 31
0.0
  0
ARC
  5
180
330
1F
100
AcDbEntity
  8
0
  6
Continuous
 62
     7
370
    15
100
AcDbCircle
 10
273.3697461418
 20
172.1894360714
 30
0.0
 40
0.2500000000000188
100
AcDbArc
 50
18.0
 51
90.0
  0
LINE
  5
181
330
1F
100
AcDbEntity
  8
0
  6
Continuous
 62
     7
370
    15
100
AcDbLine
 10
273.3697461418
 20
172.4394360714
 30
0.0
 11
273.3697461418
 21
172.5994360714
 31
0.0
  0
ARC
  5
182
330
1F
100
AcDbEntity
  8
0
  6
Continuous
 62
     7
370
    15
100
AcDbCircle
 10
282.9938904927
 20
152.6367860626
 30
0.0
 40
2.000000000000073
100
AcDbArc
 50
320.0
 51
70.0
  0
LINE
  5
183
330
1F
100
AcDbEntity
  8
0
  6
Continuous
 62
     7
370
    15
100
AcDbLine
 10
283.6779307793
 20
154.5161713042
 30
0.0
 11
283.7326540022
 21
154.6665221235
 31
0.0
  0
ARC
  5
184
330
1F
100
AcDbEntity
  8
0
  6
Continuous
 62
     7
370
    15
100
AcDbCircle
 10
282.9938904927
 20
152.6367860626
 30
0.0
 40
2.160000000000024
100
AcDbArc
 50
320.0
 51
70.0
  0
LINE
  5
185
330
1F
100
AcDbEntity
  8
0
  6
Continuous
 62
     7
370
    15
100
AcDbLine
 10
284.6485464898
 20
151.2483648257
 30
0.0
 11
284.5259793789
 21
151.3512108432
 31
0.0
  0
ARC
  5
186
330
1F
100
AcDbEntity
  8
0
  6
Continuous
 62
     7
370
    15
100
AcDbCircle
 10
281.8507278388
 20
148.5519011659
 30
0.0
 40
0.25
100
AcDbArc
 50
270.0
 51
320.0
  0
LINE
  5
187
330
1F
100
AcDbEntity
  8
0
  6
Continuous
 62
     7
370
    15
100
AcDbLine
 10
282.0422389496
 20
148.3912042635
 30
0.0
 11
282.1648060605
 21
148.288358246
 31
0.0
  0
LINE
  5
188
330
1F
100
AcDbEntity
  8
0
  6
Continuous
 62
     7
370
    15
100
AcDbLine
 10
281.8507278388
 20
148.1419011659
 30
0.0
 11
281.8507278388
 21
148.3019011659
 31
0.0
  0
ARC
  5
189
330
1F
100
AcDbEntity
  8
0
  6
Continuous
 62
     7
370
    15
100
AcDbCircle
 10
281.8507278388
 20
148.5519011659
 30
0.0
 40
0.4100000000000083
100
AcDbArc
 50
270.0
 51
320.0
  0
LINE
  5
18A
330
1F
100
AcDbEntity
  8
0
  6
Continuous
 62
     7
370
    15
100
AcDbLine
 10
270.1219139787
 20
148.3019011659
 30
0.0
 11
270.1219139787
 21
148.1419011659
 31
0.0
  0
LINE
  5
18B
330
1F
100
AcDbEntity
  8
0
  6
Continuous
 62
     7
370
    15
100
AcDbLine
 10
270.1219139787
 20
148.1419011659
 30
0.0
 11
269.7219139787
 21
148.1419011659
 31
0.0
  0
LINE
  5
18C
330
1F
100
AcDbEntity
  8
0
  6
Continuous
 62
     7
370
    15
100
AcDbLine
 10
269.7219139787
 20
148.1419011659
 30
0.0
 11
269.7219139787
 21
148.3019011659
 31
0.0
  0
LINE
  5
18D
330
1F
100
AcDbEntity
  8
0
  6
Continuous
 62
     7
370
    15
100
AcDbLine
 10
269.7219139787
 20
148.3019011659
 30
0.0
 11
270.1219139787
 21
148.3019011659
 31
0.0
  0
LINE
  5
18E
330
1F
100
AcDbEntity
  8
0
  6
Continuous
 62
     7
370
    15
100
AcDbLine
 10
278.4723336616
 20
157.2943034591
 30
0.0
 11
278.6245027042
 21
157.3437461782
 31
0.0
  0
LINE
  5
18F
330
1F
100
AcDbEntity
  8
0
  6
Continuous
 62
     7
370
    15
100
AcDbLine
 10
278.4723336616
 20
157.2943034591
 30
0.0
 11
273.6075102709
 21
172.26669032
 31
0.0
  0
LINE
  5
190
330
1F
100
AcDbEntity
  8
0
  6
Continuous
 62
     7
370
    15
100
AcDbLine
 10
278.6245027042
 20
157.3437461782
 30
0.0
 11
273.7596793135
 21
172.3161330391
 31
0.0
  0
LINE
  5
191
330
1F
100
AcDbEntity
  8
0
  6
Continuous
 62
     7
370
    15
100
AcDbLine
 10
270.1219139787
 20
172.5994360714
 30
0.0
 11
270.1219139787
 21
172.4394360714
 31
0.0
  0
LINE
  5
192
330
1F
100
AcDbEntity
  8
0
  6
Continuous
 62
     7
370
    15
100
AcDbLine
 10
270.1219139787
 20
172.4394360714
 30
0.0
 11
269.7219139787
 21
172.4394360714
 31
0.0
  0
LINE
  5
193
330
1F
100
AcDbEntity
  8
0
  6
Continuous
 62
     7
370
    15
100
AcDbLine
 10
269.7219139787
 20
172.4394360714
 30
0.0
 11
269.7219139787
 21
172.5994360714
 31
0.0
  0
LINE
  5
194
330
1F
100
AcDbEntity
  8
0
  6
Continuous
 62
     7
370
    15
100
AcDbLine
 10
269.7219139787
 20
172.5994360714
 30
0.0
 11
270.1219139787
 21
172.5994360714
 31
0.0
  0
ARC
  5
195
330
1F
100
AcDbEntity
  8
0
  6
Continuous
 62
     7
370
    15
100
AcDbCircle
 10
280.5266157368
 20
157.961780167
 30
0.0
 40
2.160000000000002
100
AcDbArc
 50
198.0
 51
250.0
  0
LINE
  5
196
330
1F
100
AcDbEntity
  8
0
  6
Continuous
 62
     7
370
    15
100
AcDbLine
 10
279.8425754502
 20
156.0823949254
 30
0.0
 11
279.7878522272
 21
155.9320441061
 31
0.0
  0
ARC
  5
197
330
1F
100
AcDbEntity
  8
0
  6
Continuous
 62
     7
370
    15
100
AcDbCircle
 10
280.5266157368
 20
157.961780167
 30
0.0
 40
1.999999999999997
100
AcDbArc
 50
198.0
 51
250.0
  0
LINE
  5
198
330
1F
100
AcDbEntity
  8
0
  6
Continuous
 62
     7
370
    15
100
AcDbLine
 10
282.0422389496
 20
148.3912042635
 30
0.0
 11
284.5259793789
 21
151.3512108432
 31
0.0
  0
LINE
  5
199
330
1F
100
AcDbEntity
  8
0
  6
Continuous
 62
     7
370
    15
100
AcDbLine
 10
282.1648060605
 20
148.288358246
 30
0.0
 11
284.6485464898
 21
151.2483648257
 31
0.0
  0
LINE
  5
19A
330
1F
100
AcDbEntity
  8
0
  6
Continuous
 62
     7
370
    15
100
AcDbLine
 10
270.1219139787
 20
148.1419011659
 30
0.0
 11
281.8507278388
 21
148.1419011659
 31
0.0
  0
LINE
  5
19B
330
1F
100
AcDbEntity
  8
0
  6
Continuous
 62
     7
370
    15
100
AcDbLine
 10
270.1219139787
 20
148.3019011659
 30
0.0
 11
281.8507278388
 21
148.3019011659
 31
0.0
  0
LINE
  5
19C
330
1F
100
AcDbEntity
  8
0
  6
Continuous
 62
     7
370
    15
100
AcDbLine
 10
283.7326540022
 20
154.6665221235
 30
0.0
 11
279.8425754502
 21
156.0823949254
 31
0.0
  0
LINE
  5
19D
330
1F
100
AcDbEntity
  8
0
  6
Continuous
 62
     7
370
    15
100
AcDbLine
 10
283.6779307793
 20
154.5161713042
 30
0.0
 11
279.7878522272
 21
155.9320441061
 31
0.0
  0
LINE
  5
19E
330
1F
100
AcDbEntity
  8
0
  6
Continuous
 62
     7
370
    15
100
AcDbLine
 10
270.1219139787
 20
172.4394360714
 30
0.0
 11
273.3697461418
 21
172.4394360714
 31
0.0
  0
LINE
  5
19F
330
1F
100
AcDbEntity
  8
0
  6
Continuous
 62
     7
370
    15
100
AcDbLine
 10
270.1219139787
 20
172.5994360714
 30
0.0
 11
273.3697461418
 21
172.5994360714
 31
0.0
  0
LINE
  5
1A0
330
1F
100
AcDbEntity
  8
0
  6
Continuous
 62
     7
370
    15
100
AcDbLine
 10
273.6810185369
 20
172.5582260164
 30
0.0
 11
273.7596793135
 21
172.3161330391
 31
0.0
  0
ARC
  5
1A1
330
1F
100
AcDbEntity
  8
0
  6
Continuous
 62
     7
370
    15
100
AcDbCircle
 10
273.9187826659
 20
172.635480265
 30
0.0
 40
0.2500000000000817
100
AcDbArc
 50
160.9635637679
 51
198.0
  0
ARC
  5
1A2
330
1F
100
AcDbEntity
  8
0
  6
Continuous
 62
     7
370
    15
100
AcDbCircle
 10
273.9187826659
 20
172.635480265
 30
0.0
 40
0.4100000000000315
100
AcDbArc
 50
170.8287831944
 51
188.7082306827
  0
SPLINE
  5
1A3
330
1F
100
AcDbEntity
  8
0
  6
Continuous
 62
     7
370
    15
100
AcDbSpline
210
0.0
220
0.0
230
1.0
 70
     8
 71
     3
 72
    13
 73
     9
 74
     0
 42
0.00000001
 43
0.00000001
 12
1.0
 22
0.0
 32
0.0
 13
1.0
 23
0.0
 33
0.0
 40
0.0
 40
0.0
 40
0.0
 40
0.0
 40
0.2855736611911981
 40
0.4687816519730996
 40
0.5799019872658557
 40
0.7049799529613652
 40
0.8448237717350904
 40
1.0
 40
1.0
 40
1.0
 40
1.0
 10
128.5743517066962
 20
123.4708282249577
 30
0.0
 10
128.5170228245715
 20
123.436938092566
 30
0.0
 10
128.4229149577741
 20
123.3813059583494
 30
0.0
 10
128.321327885795
 20
123.3162373617917
 30
0.0
 10
128.2564987159718
 20
123.2807752977003
 30
0.0
 10
128.2091995781067
 20
123.2569945850169
 30
0.0
 10
128.1722052096557
 20
123.2367387440227
 30
0.0
 10
128.1670586970353
 20
123.2272391080508
 30
0.0
 10
128.1643517066962
 20
123.2222424385201
 30
0.0
  0
LINE
  5
1A4
330
1F
100
AcDbEntity
  8
0
  6
Continuous
 62
     7
370
    15
100
AcDbLine
 10
128.1643517067
 20
176.0194140114
 30
0.0
 11
128.1643517067
 21
123.2222424385
 31
0.0
  0
SPLINE
  5
1A5
330
1F
100
AcDbEntity
  8
0
  6
Continuous
 62
     7
370
    15
100
AcDbSpline
210
0.0
220
0.0
230
1.0
 70
     8
 71
     3
 72
    12
 73
     8
 74
     0
 42
0.00000001
 43
0.00000001
 12
1.0
 22
0.0
 32
0.0
 13
1.0
 23
0.0
 33
0.0
 40
0.0
 40
0.0
 40
0.0
 40
0.0
 40
0.1873991481876499
 40
0.3754402809627894
 40
0.5704452508045884
 40
0.7798271242805752
 40
0.9999999999999999
 40
0.9999999999999999
 40
0.9999999999999999
 40
0.9999999999999999
 10
128.164351706696
 20
176.0194140113954
 30
0.0
 10
128.1684180611753
 20
176.0148206449138
 30
0.0
 10
128.1765647004903
 20
176.0056181761775
 30
0.0
 10
128.2388125662915
 20
175.9713131501695
 30
0.0
 10
128.3304198100811
 20
175.9202919998201
 30
0.0
 10
128.4450373017913
 20
175.8489458206089
 30
0.0
 10
128.5305309988978
 20
175.7972998955767
 30
0.0
 10
128.574351706696
 20
175.7708282249577
 30
0.0
  0
LINE
  5
1A6
330
1F
100
AcDbEntity
  8
0
  6
Continuous
 62
     7
370
    15
100
AcDbLine
 10
128.5743517067
 20
175.770828225
 30
0.0
 11
128.5743517067
 21
123.470828225
 31
0.0
  0
LINE
  5
1A7
330
1F
100
AcDbEntity
  8
0
  6
Continuous
 62
     7
370
    15
100
AcDbLine
 10
269.5229374931
 20
123.060828225
 30
0.0
 11
128.3257659203
 21
123.060828225
 31
0.0
  0
SPLINE
  5
1A8
330
1F
100
AcDbEntity
  8
0
  6
Continuous
 62
     7
370
    15
100
AcDbSpline
210
0.0
220
0.0
230
1.0
 70
     8
 71
     3
 72
    12
 73
     8
 74
     0
 42
0.00000001
 43
0.00000001
 12
1.0
 22
0.0
 32
0.0
 13
1.0
 23
0.0
 33
0.0
 40
0.0
 40
0.0
 40
0.0
 40
0.0
 40
0.2301699461467426
 40
0.4604227344550523
 40
0.6906759109412022
 40
0.9209289349059828
 40
1.0
 40
1.0
 40
1.0
 40
1.0
 10
128.3257659202585
 20
123.0608282249577
 30
0.0
 10
128.344843880716
 20
123.0660437121202
 30
0.0
 10
128.3830066681205
 20
123.0764765635896
 30
0.0
 10
128.4402650632068
 20
123.1574187471101
 30
0.0
 10
128.4974880892509
 20
123.2750244007235
 30
0.0
 10
128.5423110033987
 20
123.3878292429961
 30
0.0
 10
128.5678287300086
 20
123.4539309546513
 30
0.0
 10
128.5743517066961
 20
123.4708282249577
 30
0.0
  0
LINE
  5
1A9
330
1F
100
AcDbEntity
  8
0
  6
Continuous
 62
     7
370
    15
100
AcDbLine
 10
128.5743517067
 20
123.470828225
 30
0.0
 11
269.2743517067
 21
123.470828225
 31
0.0
  0
SPLINE
  5
1AA
330
1F
100
AcDbEntity
  8
0
  6
Continuous
 62
     7
370
    15
100
AcDbSpline
210
0.0
220
0.0
230
1.0
 70
     8
 71
     3
 72
    12
 73
     8
 74
     0
 42
0.00000001
 43
0.00000001
 12
1.0
 22
0.0
 32
0.0
 13
1.0
 23
0.0
 33
0.0
 40
0.0
 40
0.0
 40
0.0
 40
0.0
 40
0.235374346226284
 40
0.5035736495639858
 40
0.739813949359711
 40
0.9425302092433042
 40
1.0
 40
1.0
 40
1.0
 40
1.0
 10
269.274351706696
 20
123.4708282249582
 30
0.0
 10
269.3026872974228
 20
123.424087518457
 30
0.0
 10
269.3633101183191
 20
123.324087715873
 30
0.0
 10
269.4454650987914
 20
123.1901787568098
 30
0.0
 10
269.496582045868
 20
123.0949338144836
 30
0.0
 10
269.5168736384667
 20
123.0630439836034
 30
0.0
 10
269.5218404301696
 20
123.0612290964962
 30
0.0
 10
269.5229374931336
 20
123.0608282249581
 30
0.0
  0
SPLINE
  5
1AB
330
1F
100
AcDbEntity
  8
0
  6
Continuous
 62
     7
370
    15
100
AcDbSpline
210
0.0
220
0.0
230
1.0
 70
     8
 71
     3
 72
    12
 73
     8
 74
     0
 42
0.00000001
 43
0.00000001
 12
1.0
 22
0.0
 32
0.0
 13
1.0
 23
0.0
 33
0.0
 40
0.0
 40
0.0
 40
0.0
 40
0.0
 40
0.173990589302834
 40
0.3320996353074286
 40
0.5068893755812048
 40
0.7762307950593288
 40
1.0
 40
1.0
 40
1.0
 40
1.0
 10
128.324351706696
 20
176.0194140113953
 30
0.0
 10
128.3270036931011
 20
176.0146282205678
 30
0.0
 10
128.3320655974346
 20
176.005493477161
 30
0.0
 10
128.3674909112611
 20
175.9733263318343
 30
0.0
 10
128.4231510025103
 20
175.9227205287588
 30
0.0
 10
128.4940165776354
 20
175.8504429854268
 30
0.0
 10
128.5492756378453
 20
175.7956794356099
 30
0.0
 10
128.574351706696
 20
175.7708282249577
 30
0.0
  0
LWPOLYLINE
  5
1AC
330
1F
100
AcDbEntity
  8
0
  6
Continuous
 62
     7
370
    15
100
AcDbPolyline
 90
        2
 70
   128
 43
0.0
 10
128.5743517067
 20
175.770828225
 10
128.5743517067
 20
175.770828225
  0
LINE
  5
1AD
330
1F
100
AcDbEntity
  8
0
  6
Continuous
 62
     7
370
    15
100
AcDbLine
 10
128.1643517067
 20
176.0194140114
 30
0.0
 11
128.3243517067
 21
176.0194140114
 31
0.0
  0
SPLINE
  5
1AE
330
1F
100
AcDbEntity
  8
0
  6
Continuous
 62
     7
370
    15
100
AcDbSpline
210
0.0
220
0.0
230
1.0
 70
     8
 71
     3
 72
    12
 73
     8
 74
     0
 42
0.00000001
 43
0.00000001
 12
1.0
 22
0.0
 32
0.0
 13
1.0
 23
0.0
 33
0.0
 40
0.0
 40
0.0
 40
0.0
 40
0.0
 40
0.3486243090424538
 40
0.5715639950853617
 40
0.7575575393399934
 40
0.944515445525889
 40
1.0
 40
1.0
 40
1.0
 40
1.0
 10
269.274351706696
 20
123.4708282249582
 30
0.0
 10
269.3135379728653
 20
123.4318108912146
 30
0.0
 10
269.3777832313377
 20
123.3678425947601
 30
0.0
 10
269.4531238372326
 20
123.2906803030647
 30
0.0
 10
269.4968395822473
 20
123.2416121959493
 30
0.0
 10
269.516569978151
 20
123.2223295793657
 30
0.0
 10
269.5217516364843
 20
123.2211078302849
 30
0.0
 10
269.5229374931336
 20
123.2208282249581
 30
0.0
  0
LINE
  5
1AF
330
1F
100
AcDbEntity
  8
0
  6
Continuous
 62
     7
370
    15
100
AcDbLine
 10
269.5229374931
 20
123.060828225
 30
0.0
 11
269.5229374931
 21
123.220828225
 31
0.0
  0
SPLINE
  5
1B0
330
1F
100
AcDbEntity
  8
0
  6
Continuous
 62
     7
370
    15
100
AcDbSpline
210
0.0
220
0.0
230
1.0
 70
     8
 71
     3
 72
    13
 73
     9
 74
     0
 42
0.00000001
 43
0.00000001
 12
1.0
 22
0.0
 32
0.0
 13
1.0
 23
0.0
 33
0.0
 40
0.0
 40
0.0
 40
0.0
 40
0.0
 40
0.3066612243329662
 40
0.4984645921074842
 40
0.608814714648133
 40
0.7281608253576715
 40
0.858136818219265
 40
1.0
 40
1.0
 40
1.0
 40
1.0
 10
128.5743517066962
 20
123.4708282249577
 30
0.0
 10
128.5395123005405
 20
123.4370830128577
 30
0.0
 10
128.4828823486563
 20
123.3822316262123
 30
0.0
 10
128.4213337545028
 20
123.3174651655403
 30
0.0
 10
128.3811535748136
 20
123.2812877627646
 30
0.0
 10
128.3520308309563
 20
123.2572677780522
 30
0.0
 10
128.3292385926434
 20
123.2368802113536
 30
0.0
 10
128.3260274747423
 20
123.2272618951321
 30
0.0
 10
128.3243517066962
 20
123.2222424385201
 30
0.0
  0
LINE
  5
1B1
330
1F
100
AcDbEntity
  8
0
  6
Continuous
 62
     7
370
    15
100
AcDbLine
 10
128.1643517067
 20
123.2222424385
 30
0.0
 11
128.3243517067
 21
123.2222424385
 31
0.0
  0
LINE
  5
1B2
330
1F
100
AcDbEntity
  8
0
  6
Continuous
 62
     7
370
    15
100
AcDbLine
 10
269.2743517067
 20
175.770828225
 30
0.0
 11
128.5743517067
 21
175.770828225
 31
0.0
  0
LINE
  5
1B3
330
1F
100
AcDbEntity
  8
0
  6
Continuous
 62
     7
370
    15
100
AcDbLine
 10
269.2743517067
 20
123.470828225
 30
0.0
 11
269.2743517067
 21
175.770828225
 31
0.0
  0
SPLINE
  5
1B4
330
1F
100
AcDbEntity
  8
0
  6
Continuous
 62
     7
370
    15
100
AcDbSpline
210
0.0
220
0.0
230
1.0
 70
     8
 71
     3
 72
    11
 73
     7
 74
     0
 42
0.00000001
 43
0.00000001
 12
1.0
 22
0.0
 32
0.0
 13
1.0
 23
0.0
 33
0.0
 40
0.0
 40
0.0
 40
0.0
 40
0.0
 40
0.250000000000011
 40
0.5000000000000061
 40
0.7500000000000068
 40
1.0
 40
1.0
 40
1.0
 40
1.0
 10
128.5743517066959
 20
175.7708282249577
 30
0.0
 10
128.5536362244928
 20
175.8035874859092
 30
0.0
 10
128.5122052600866
 20
175.8691060078123
 30
0.0
 10
128.4500588134771
 20
175.9517422420866
 30
0.0
 10
128.3879123668677
 20
176.0095545453672
 30
0.0
 10
128.3464814024615
 20
176.0170703317608
 30
0.0
 10
128.3257659202584
 20
176.0208282249577
 30
0.0
  0
LINE
  5
1B5
330
1F
100
AcDbEntity
  8
0
  6
Continuous
 62
     7
370
    15
100
AcDbLine
 10
128.3257659203
 20
176.020828225
 30
0.0
 11
128.3257659203
 21
176.180828225
 31
0.0
  0
SPLINE
  5
1B6
330
1F
100
AcDbEntity
  8
0
  6
Continuous
 62
     7
370
    15
100
AcDbSpline
210
0.0
220
0.0
230
1.0
 70
     8
 71
     3
 72
    10
 73
     6
 74
     0
 42
0.00000001
 43
0.00000001
 12
1.0
 22
0.0
 32
0.0
 13
1.0
 23
0.0
 33
0.0
 40
0.0
 40
0.0
 40
0.0
 40
0.0
 40
0.342817458585602
 40
0.6856349171712016
 40
1.0
 40
1.0
 40
1.0
 40
1.0
 10
128.5743517066959
 20
175.7708282249577
 30
0.0
 10
128.5536362244928
 20
175.8242314539779
 30
0.0
 10
128.5122052600865
 20
175.9310379120182
 30
0.0
 10
128.4517781094723
 20
176.0675078270324
 30
0.0
 10
128.4120664410612
 20
176.1180604511999
 30
0.0
 10
128.3930702548533
 20
176.1422424385203
 30
0.0
  0
SPLINE
  5
1B7
330
1F
100
AcDbEntity
  8
0
  6
Continuous
 62
     7
370
    15
100
AcDbSpline
210
0.0
220
0.0
230
1.0
 70
     8
 71
     3
 72
    11
 73
     7
 74
     0
 42
0.00000001
 43
0.00000001
 12
1.0
 22
0.0
 32
0.0
 13
1.0
 23
0.0
 33
0.0
 40
0.0
 40
0.0
 40
0.0
 40
0.0
 40
0.2542997317784924
 40
0.5087760894400026
 40
0.7632534766320106
 40
1.0
 40
1.0
 40
1.0
 40
1.0
 10
128.3257659202585
 20
123.2208282249577
 30
0.0
 10
128.3468410095657
 20
123.2247198587053
 30
0.0
 10
128.3890058260494
 20
123.2325058291655
 30
0.0
 10
128.4522566027192
 20
123.2922993811403
 30
0.0
 10
128.5140703209113
 20
123.3754937256664
 30
0.0
 10
128.5547473273928
 20
123.4398240657057
 30
0.0
 10
128.5743517066961
 20
123.4708282249577
 30
0.0
  0
LINE
  5
1B8
330
1F
100
AcDbEntity
  8
0
  6
Continuous
 62
     7
370
    15
100
AcDbLine
 10
128.3257659203
 20
123.060828225
 30
0.0
 11
128.3257659203
 21
123.220828225
 31
0.0
  0
SPLINE
  5
1B9
330
1F
100
AcDbEntity
  8
0
  6
Continuous
 62
     7
370
    15
100
AcDbSpline
210
0.0
220
0.0
230
1.0
 70
     8
 71
     3
 72
    11
 73
     7
 74
     0
 42
0.00000001
 43
0.00000001
 12
1.0
 22
0.0
 32
0.0
 13
1.0
 23
0.0
 33
0.0
 40
0.0
 40
0.0
 40
0.0
 40
0.0
 40
0.2499999999999905
 40
0.4999999999999948
 40
0.7500000000000069
 40
1.0
 40
1.0
 40
1.0
 40
1.0
 10
269.6843517066961
 20
123.2222424385205
 30
0.0
 10
269.6781887618533
 20
123.2429579207237
 30
0.0
 10
269.6658628721677
 20
123.2843888851299
 30
0.0
 10
269.5710506947875
 20
123.3465353317393
 30
0.0
 10
269.4355272705778
 20
123.4086817783487
 30
0.0
 10
269.3280768946567
 20
123.450112742755
 30
0.0
 10
269.2743517066961
 20
123.4708282249581
 30
0.0
  0
SPLINE
  5
1BA
330
1F
100
AcDbEntity
  8
0
  6
Continuous
 62
     7
370
    15
100
AcDbSpline
210
0.0
220
0.0
230
1.0
 70
     8
 71
     3
 72
    12
 73
     8
 74
     0
 42
0.00000001
 43
0.00000001
 12
1.0
 22
0.0
 32
0.0
 13
1.0
 23
0.0
 33
0.0
 40
0.0
 40
0.0
 40
0.0
 40
0.0
 40
0.2301693782019706
 40
0.4604221642957177
 40
0.6906753391241961
 40
0.9209283614222614
 40
1.0
 40
1.0
 40
1.0
 40
1.0
 10
269.274351706696
 20
175.7708282249582
 30
0.0
 10
269.3237674445082
 20
175.7899061379089
 30
0.0
 10
269.4226168272172
 20
175.828068877191
 30
0.0
 10
269.5518422614377
 20
175.8853272257107
 30
0.0
 10
269.6446315206752
 20
175.9425502517178
 30
0.0
 10
269.6811934568269
 20
175.9873732131997
 30
0.0
 10
269.6837087345756
 20
176.0128909873138
 30
0.0
 10
269.684351706696
 20
176.0194140113958
 30
0.0
  0
LINE
  5
1BB
330
1F
100
AcDbEntity
  8
0
  6
Continuous
 62
     7
370
    15
100
AcDbLine
 10
269.6843517067
 20
123.2222424385
 30
0.0
 11
269.6843517067
 21
176.0194140114
 31
0.0
  0
LINE
  5
1BC
330
1F
100
AcDbEntity
  8
0
  6
Continuous
 62
     7
370
    15
100
AcDbLine
 10
269.6843517067
 20
123.2222424385
 30
0.0
 11
269.5243517067
 21
123.2222424385
 31
0.0
  0
SPLINE
  5
1BD
330
1F
100
AcDbEntity
  8
0
  6
Continuous
 62
     7
370
    15
100
AcDbSpline
210
0.0
220
0.0
230
1.0
 70
     8
 71
     3
 72
    11
 73
     7
 74
     0
 42
0.00000001
 43
0.00000001
 12
1.0
 22
0.0
 32
0.0
 13
1.0
 23
0.0
 33
0.0
 40
0.0
 40
0.0
 40
0.0
 40
0.0
 40
0.2499999999999842
 40
0.5000000000000018
 40
0.7499999999999902
 40
1.0
 40
1.0
 40
1.0
 40
1.0
 10
269.5243517066962
 20
123.2222424385205
 30
0.0
 10
269.5205938134993
 20
123.2429579207237
 30
0.0
 10
269.5130780271057
 20
123.2843888851299
 30
0.0
 10
269.4552657238251
 20
123.3465353317393
 30
0.0
 10
269.3726294895508
 20
123.4086817783487
 30
0.0
 10
269.3071109676477
 20
123.450112742755
 30
0.0
 10
269.2743517066961
 20
123.4708282249581
 30
0.0
  0
LINE
  5
1BE
330
1F
100
AcDbEntity
  8
0
  6
Continuous
 62
     7
370
    15
100
AcDbLine
 10
269.5229374931
 20
176.180828225
 30
0.0
 11
269.5229374931
 21
176.020828225
 31
0.0
  0
SPLINE
  5
1BF
330
1F
100
AcDbEntity
  8
0
  6
Continuous
 62
     7
370
    15
100
AcDbSpline
210
0.0
220
0.0
230
1.0
 70
     8
 71
     3
 72
    13
 73
     9
 74
     0
 42
0.00000001
 43
0.00000001
 12
1.0
 22
0.0
 32
0.0
 13
1.0
 23
0.0
 33
0.0
 40
0.0
 40
0.0
 40
0.0
 40
0.0
 40
0.1349095770614288
 40
0.2621660746723241
 40
0.383195107333445
 40
0.4996559876613124
 40
0.6858308172201644
 40
1.0
 40
1.0
 40
1.0
 40
1.0
 10
269.5229374931334
 20
176.0208282249581
 30
0.0
 10
269.5184913398591
 20
176.0192984272527
 30
0.0
 10
269.5098512523522
 20
176.0163256134007
 30
0.0
 10
269.490007998009
 20
175.9947380936446
 30
0.0
 10
269.4654661489417
 20
175.9659087758983
 30
0.0
 10
269.4295841710925
 20
175.9255620837812
 30
0.0
 10
269.3640626463971
 20
175.8633907972813
 30
0.0
 10
269.3089544765235
 20
175.8065309095519
 30
0.0
 10
269.2743517066958
 20
175.7708282249581
 30
0.0
  0
LWPOLYLINE
  5
1C0
330
1F
100
AcDbEntity
  8
0
  6
Continuous
 62
     7
370
    15
100
AcDbPolyline
 90
        2
 70
   128
 43
0.0
 10
269.2743517067
 20
175.770828225
 10
269.2743517067
 20
175.770828225
  0
SPLINE
  5
1C1
330
1F
100
AcDbEntity
  8
0
  6
Continuous
 62
     7
370
    15
100
AcDbSpline
210
0.0
220
0.0
230
1.0
 70
     8
 71
     3
 72
    13
 73
     9
 74
     0
 42
0.00000001
 43
0.00000001
 12
1.0
 22
0.0
 32
0.0
 13
1.0
 23
0.0
 33
0.0
 40
0.0
 40
0.0
 40
0.0
 40
0.0
 40
0.1479045755688338
 40
0.2849701318473787
 40
0.4118464865003833
 40
0.5293584963083463
 40
0.7073737284241348
 40
1.0
 40
1.0
 40
1.0
 40
1.0
 10
269.5229374931334
 20
176.1808282249581
 30
0.0
 10
269.5185134667213
 20
176.1783591739746
 30
0.0
 10
269.5099896236617
 20
176.1736020136122
 30
0.0
 10
269.490302231691
 20
176.138600720065
 30
0.0
 10
269.4659546259678
 20
176.0917218875795
 30
0.0
 10
269.4308366535401
 20
176.0267229205595
 30
0.0
 10
269.3650304073614
 20
175.9241074076757
 30
0.0
 10
269.3091166619932
 20
175.8295933362365
 30
0.0
 10
269.2743517066958
 20
175.7708282249581
 30
0.0
  0
LINE
  5
1C2
330
1F
100
AcDbEntity
  8
0
  6
Continuous
 62
     7
370
    15
100
AcDbLine
 10
258.1843517067
 20
176.180828225
 30
0.0
 11
258.0543517067
 21
176.180828225
 31
0.0
  0
SPLINE
  5
1C3
330
1F
100
AcDbEntity
  8
0
  6
Continuous
 62
     7
370
    15
100
AcDbSpline
210
0.0
220
0.0
230
1.0
 70
     8
 71
     3
 72
    11
 73
     7
 74
     0
 42
0.00000001
 43
0.00000001
 12
1.0
 22
0.0
 32
0.0
 13
1.0
 23
0.0
 33
0.0
 40
0.0
 40
0.0
 40
0.0
 40
0.0
 40
0.2543030279684128
 40
0.5087793961833192
 40
0.7632567853904231
 40
1.0
 40
1.0
 40
1.0
 40
1.0
 10
269.2743517066959
 20
175.7708282249582
 30
0.0
 10
269.3076785442281
 20
175.7919035906663
 30
0.0
 10
269.3743549358216
 20
175.8340686876571
 30
0.0
 10
269.4579452779458
 20
175.8973197347954
 30
0.0
 10
269.5139734544255
 20
175.9591331826765
 30
0.0
 10
269.5209765653189
 20
175.9998099090914
 30
0.0
 10
269.524351706696
 20
176.0194140113958
 30
0.0
  0
LINE
  5
1C4
330
1F
100
AcDbEntity
  8
0
  6
Continuous
 62
     7
370
    15
100
AcDbLine
 10
269.5243517067
 20
176.0194140114
 30
0.0
 11
269.6843517067
 21
176.0194140114
 31
0.0
  0
LINE
  5
1C5
330
1F
100
AcDbEntity
  8
0
  6
Continuous
 62
     7
370
    15
100
AcDbLine
 10
258.0543517067
 20
177.780828225
 30
0.0
 11
258.1843517067
 21
177.780828225
 31
0.0
  0
LINE
  5
1C6
330
1F
100
AcDbEntity
  8
0
  6
Continuous
 62
     7
370
    15
100
AcDbLine
 10
269.7219139787
 20
167.4194140114
 30
0.0
 11
269.6843517067
 21
167.4194140114
 31
0.0
  0
LINE
  5
1C7
330
1F
100
AcDbEntity
  8
0
  6
Continuous
 62
     7
370
    15
100
AcDbLine
 10
269.6843517067
 20
151.4194140114
 30
0.0
 11
269.7219139787
 21
151.4194140114
 31
0.0
  0
LINE
  5
1C8
330
1F
100
AcDbEntity
  8
0
  6
Continuous
 62
     7
370
    15
100
AcDbLine
 10
128.3243517067
 20
221.2039398137
 30
0.0
 11
128.3243517067
 21
221.1239398137
 31
0.0
  0
LINE
  5
1C9
330
1F
100
AcDbEntity
  8
0
  6
Continuous
 62
     7
370
    15
100
AcDbLine
 10
128.1643517067
 20
221.2039398137
 30
0.0
 11
128.1643517067
 21
221.1239398137
 31
0.0
  0
LINE
  5
1CA
330
1F
100
AcDbEntity
  8
0
  6
Continuous
 62
     7
370
    15
100
AcDbLine
 10
128.1643517067
 20
176.0222424385
 30
0.0
 11
128.1643517067
 21
176.0194140114
 31
0.0
  0
LINE
  5
1CB
330
1F
100
AcDbEntity
  8
0
  6
Continuous
 62
     7
370
    15
100
AcDbLine
 10
128.1643517067
 20
179.3422424385
 30
0.0
 11
128.1643517067
 21
179.0881003029
 31
0.0
  0
LINE
  5
1CC
330
1F
100
AcDbEntity
  8
0
  6
Continuous
 62
     7
370
    15
100
AcDbLine
 10
128.1643517067
 20
176.4222424385
 30
0.0
 11
128.1643517067
 21
176.0222424385
 31
0.0
  0
LINE
  5
1CD
330
1F
100
AcDbEntity
  8
0
  6
Continuous
 62
     7
370
    15
100
AcDbLine
 10
277.8114248935
 20
159.8461423706
 30
0.0
 11
277.818120403
 21
159.912957664
 31
0.0
  0
LINE
  5
1CE
330
1F
100
AcDbEntity
  8
0
  6
Continuous
 62
     7
370
    15
100
AcDbLine
 10
277.8052109877
 20
159.9901330341
 30
0.0
 11
274.2724161118
 21
170.862957664
 31
0.0
  0
LINE
  5
1CF
330
1F
100
AcDbEntity
  8
0
  6
Continuous
 62
     7
370
    15
100
AcDbLine
 10
274.2724161118
 20
170.862957664
 30
0.0
 11
274.231844615
 21
170.862957664
 31
0.0
  0
SPLINE
  5
1D0
330
1F
100
AcDbEntity
  8
0
  6
Continuous
 62
     7
370
    15
100
AcDbSpline
210
0.0
220
0.0
230
1.0
 70
     8
 71
     3
 72
     9
 73
     5
 74
     0
 42
0.00000001
 43
0.00000001
 12
1.0
 22
0.0
 32
0.0
 13
1.0
 23
0.0
 33
0.0
 40
0.0
 40
0.0
 40
0.0
 40
0.0
 40
0.5598889471544095
 40
1.0
 40
1.0
 40
1.0
 40
1.0
 10
277.8181204029994
 20
159.9129576639863
 30
0.0
 10
277.8173034965996
 20
159.9276423383247
 30
0.0
 10
277.815844445829
 20
159.9538701722782
 30
0.0
 10
277.8084606693721
 20
159.9790507732525
 30
0.0
 10
277.8052109877416
 20
159.9901330340586
 30
0.0
  0
ARC
  5
1D1
330
1F
100
AcDbEntity
  8
0
  6
Continuous
 62
     7
370
    15
100
AcDbCircle
 10
277.5689082216
 20
159.912957664
 30
0.0
 40
0.4099999999999959
100
AcDbArc
 50
1.9812139356
 51
18.0
  0
LINE
  5
1D2
330
1F
100
AcDbEntity
  8
0
  6
Continuous
 62
     7
370
    15
100
AcDbLine
 10
277.8187587756
 20
159.921600618
 30
0.0
 11
277.9786631302
 21
159.9271321085
 31
0.0
  0
LINE
  5
1D3
330
1F
100
AcDbEntity
  8
0
  6
Continuous
 62
     7
370
    15
100
AcDbLine
 10
277.9588413933
 20
160.0396546317
 30
0.0
 11
277.8066723507
 21
159.9902119126
 31
0.0
  0
SPLINE
  5
1D4
330
1F
100
AcDbEntity
  8
0
  6
Continuous
 62
     7
370
    15
100
AcDbSpline
210
0.0
220
0.0
230
1.0
 70
     8
 71
     3
 72
     9
 73
     5
 74
     0
 42
0.00000001
 43
0.00000001
 12
1.0
 22
0.0
 32
0.0
 13
1.0
 23
0.0
 33
0.0
 40
0.0
 40
0.0
 40
0.0
 40
0.0
 40
0.63985914515795
 40
0.9999999999999999
 40
0.9999999999999999
 40
0.9999999999999999
 40
0.9999999999999999
 10
277.8187587756455
 20
159.9216006179587
 30
0.0
 10
277.8185539194726
 20
159.9026305214644
 30
0.0
 10
277.8182337612404
 20
159.8729832207453
 30
0.0
 10
277.8088727827464
 20
159.8463323661549
 30
0.0
 10
277.8055015119496
 20
159.8367343046004
 30
0.0
  0
SPLINE
  5
1D5
330
1F
100
AcDbEntity
  8
0
  6
Continuous
 62
     7
370
    15
100
AcDbSpline
210
0.0
220
0.0
230
1.0
 70
     8
 71
     3
 72
    11
 73
     7
 74
     0
 42
0.00000001
 43
0.00000001
 12
1.0
 22
0.0
 32
0.0
 13
1.0
 23
0.0
 33
0.0
 40
0.0
 40
0.0
 40
0.0
 40
0.0
 40
0.2919490711391911
 40
0.5769133317937666
 40
0.8558266892313577
 40
1.0
 40
1.0
 40
1.0
 40
1.0
 10
277.9786631302215
 20
159.927132108501
 30
0.0
 10
277.9777545880734
 20
159.8963900690538
 30
0.0
 10
277.9759592404269
 20
159.8356414859725
 30
0.0
 10
277.9480819078989
 20
159.7507670953052
 30
0.0
 10
277.9142200384962
 20
159.6860672385062
 30
0.0
 10
277.8862545842188
 20
159.6555639930252
 30
0.0
 10
277.8767249241437
 20
159.6451695414372
 30
0.0
  0
LINE
  5
1D6
330
1F
100
AcDbEntity
  8
0
  6
Continuous
 62
     7
370
    15
100
AcDbLine
 10
274.4298059214
 20
170.9009090057
 30
0.0
 11
274.2776368788
 21
170.8514662866
 31
0.0
  0
LINE
  5
1D7
330
1F
100
AcDbEntity
  8
0
  6
Continuous
 62
     7
370
    15
100
AcDbLine
 10
277.8066723507
 20
159.9902119126
 30
0.0
 11
274.2776368788
 21
170.8514662866
 31
0.0
  0
ARC
  5
1D8
330
1F
100
AcDbEntity
  8
0
  6
Continuous
 62
     7
370
    15
100
AcDbCircle
 10
274.8955007455
 20
171.2474850997
 30
0.0
 40
0.5500000000000502
100
AcDbArc
 50
108.0
 51
198.0
  0
LINE
  5
1D9
330
1F
100
AcDbEntity
  8
0
  6
Continuous
 62
     7
370
    15
100
AcDbLine
 10
274.7255413986
 20
171.7705661837
 30
0.0
 11
274.8182464969
 21
171.4852492288
 31
0.0
  0
ARC
  5
1DA
330
1F
100
AcDbEntity
  8
0
  6
Continuous
 62
     7
370
    15
100
AcDbCircle
 10
274.8955007455
 20
171.2474850997
 30
0.0
 40
0.2500000000000729
100
AcDbArc
 50
108.0
 51
198.0
  0
LINE
  5
1DB
330
1F
100
AcDbEntity
  8
0
  6
Continuous
 62
     7
370
    15
100
AcDbLine
 10
274.6577366165
 20
171.1702308511
 30
0.0
 11
274.3724196616
 21
171.0775257528
 31
0.0
  0
LINE
  5
1DC
330
1F
100
AcDbEntity
  8
0
  6
Continuous
 62
     7
370
    15
100
AcDbLine
 10
274.7255413986
 20
171.7705661837
 30
0.0
 11
275.6290450891
 21
172.0641323283
 31
0.0
  0
LINE
  5
1DD
330
1F
100
AcDbEntity
  8
0
  6
Continuous
 62
     7
370
    15
100
AcDbLine
 10
275.7217501874
 20
171.7788153734
 30
0.0
 11
275.6290450891
 21
172.0641323283
 31
0.0
  0
LINE
  5
1DE
330
1F
100
AcDbEntity
  8
0
  6
Continuous
 62
     7
370
    15
100
AcDbLine
 10
274.8182464969
 20
171.4852492288
 30
0.0
 11
275.7217501874
 21
171.7788153734
 31
0.0
  0
LINE
  5
1DF
330
1F
100
AcDbEntity
  8
0
  6
Continuous
 62
     7
370
    15
100
AcDbLine
 10
281.8034052914
 20
168.9181386709
 30
0.0
 11
281.5180883365
 21
168.8254335726
 31
0.0
  0
ARC
  5
1E0
330
1F
100
AcDbEntity
  8
0
  6
Continuous
 62
     7
370
    15
100
AcDbCircle
 10
277.1432283615
 20
167.4039553985
 30
0.0
 40
4.600000000000031
100
AcDbArc
 50
18.0
 51
108.0
  0
ARC
  5
1E1
330
1F
100
AcDbEntity
  8
0
  6
Continuous
 62
     7
370
    15
100
AcDbCircle
 10
277.1432283615
 20
167.4039553985
 30
0.0
 40
4.900000000000026
100
AcDbArc
 50
18.0
 51
108.0
  0
LINE
  5
1E2
330
1F
100
AcDbEntity
  8
0
  6
Continuous
 62
     7
370
    15
100
AcDbLine
 10
278.3123863398
 20
158.9515551701
 30
0.0
 11
278.5977032947
 21
159.0442602684
 31
0.0
  0
LINE
  5
1E3
330
1F
100
AcDbEntity
  8
0
  6
Continuous
 62
     7
370
    15
100
AcDbLine
 10
278.9067202891
 20
158.0932037521
 30
0.0
 11
278.6214033342
 21
158.0004986538
 31
0.0
  0
LINE
  5
1E4
330
1F
100
AcDbEntity
  8
0
  6
Continuous
 62
     7
370
    15
100
AcDbLine
 10
278.6214033342
 20
158.0004986538
 30
0.0
 11
278.3123863398
 21
158.9515551701
 31
0.0
  0
LINE
  5
1E5
330
1F
100
AcDbEntity
  8
0
  6
Continuous
 62
     7
370
    15
100
AcDbLine
 10
278.5977032947
 20
159.0442602684
 30
0.0
 11
278.9067202891
 21
158.0932037521
 31
0.0
  0
LINE
  5
1E6
330
1F
100
AcDbEntity
  8
0
  6
Continuous
 62
     7
370
    15
100
AcDbLine
 10
278.3123863398
 20
158.9515551701
 30
0.0
 11
274.3724196616
 21
171.0775257528
 31
0.0
  0
LINE
  5
1E7
330
1F
100
AcDbEntity
  8
0
  6
Continuous
 62
     7
370
    15
100
AcDbLine
 10
278.5977032947
 20
159.0442602684
 30
0.0
 11
274.6577366165
 21
171.1702308511
 31
0.0
  0
LINE
  5
1E8
330
1F
100
AcDbEntity
  8
0
  6
Continuous
 62
     7
370
    15
100
AcDbLine
 10
281.9507121286
 20
167.4939544498
 30
0.0
 11
282.2360290835
 21
167.5866595481
 31
0.0
  0
LINE
  5
1E9
330
1F
100
AcDbEntity
  8
0
  6
Continuous
 62
     7
370
    15
100
AcDbLine
 10
282.8540630723
 20
165.6845465155
 30
0.0
 11
282.5687461174
 21
165.5918414172
 31
0.0
  0
LINE
  5
1EA
330
1F
100
AcDbEntity
  8
0
  6
Continuous
 62
     7
370
    15
100
AcDbLine
 10
282.5687461174
 20
165.5918414172
 30
0.0
 11
281.9507121286
 21
167.4939544498
 31
0.0
  0
LINE
  5
1EB
330
1F
100
AcDbEntity
  8
0
  6
Continuous
 62
     7
370
    15
100
AcDbLine
 10
282.2360290835
 20
167.5866595481
 30
0.0
 11
282.8540630723
 21
165.6845465155
 31
0.0
  0
LINE
  5
1EC
330
1F
100
AcDbEntity
  8
0
  6
Continuous
 62
     7
370
    15
100
AcDbLine
 10
281.5180883365
 20
168.8254335726
 30
0.0
 11
281.9507121286
 21
167.4939544498
 31
0.0
  0
LINE
  5
1ED
330
1F
100
AcDbEntity
  8
0
  6
Continuous
 62
     7
370
    15
100
AcDbLine
 10
281.8034052914
 20
168.9181386709
 30
0.0
 11
282.2360290835
 21
167.5866595481
 31
0.0
  0
SPLINE
  5
1EE
330
1F
100
AcDbEntity
  8
0
  6
Continuous
 62
     7
370
    15
100
AcDbSpline
210
0.0
220
0.0
230
1.0
 70
     8
 71
     3
 72
    13
 73
     9
 74
     0
 42
0.00000001
 43
0.00000001
 12
1.0
 22
0.0
 32
0.0
 13
1.0
 23
0.0
 33
0.0
 40
0.0
 40
0.0
 40
0.0
 40
0.0
 40
0.1695411050600853
 40
0.3386458383076886
 40
0.5184804584266011
 40
0.7277236211485488
 40
0.9924537768853997
 40
1.0
 40
1.0
 40
1.0
 40
1.0
 10
125.4943517066968
 20
137.9135233298727
 30
0.0
 10
125.4894294772395
 20
137.9134333316254
 30
0.0
 10
125.4795976873598
 20
137.9132535667721
 30
0.0
 10
125.4663705286837
 20
137.9118937383466
 30
0.0
 10
125.4552362080628
 20
137.9098566000243
 30
0.0
 10
125.4466924522083
 20
137.9069570970686
 30
0.0
 10
125.444375320286
 20
137.9046341053829
 30
0.0
 10
125.4443523435053
 20
137.903345460345
 30
0.0
 10
125.4443517066968
 20
137.9033097451536
 30
0.0
  0
LINE
  5
1EF
330
1F
100
AcDbEntity
  8
0
  6
Continuous
 62
     7
370
    15
100
AcDbLine
 10
125.4443517067
 20
137.9033097452
 30
0.0
 11
125.4443517067
 21
139.2444328032
 31
0.0
  0
SPLINE
  5
1F0
330
1F
100
AcDbEntity
  8
0
  6
Continuous
 62
     7
370
    15
100
AcDbSpline
210
0.0
220
0.0
230
1.0
 70
     8
 71
     3
 72
    13
 73
     9
 74
     0
 42
0.00000001
 43
0.00000001
 12
1.0
 22
0.0
 32
0.0
 13
1.0
 23
0.0
 33
0.0
 40
0.0
 40
0.0
 40
0.0
 40
0.0
 40
0.0075462231145745
 40
0.2722763788514181
 40
0.4815195415734054
 40
0.6613541616923903
 40
0.8304588949399437
 40
1.0
 40
1.0
 40
1.0
 40
1.0
 10
125.6843517066968
 20
137.9033097451536
 30
0.0
 10
125.6843510698883
 20
137.903345460345
 30
0.0
 10
125.6843280931075
 20
137.9046341053828
 30
0.0
 10
125.6820109611853
 20
137.9069570970687
 30
0.0
 10
125.6734672053307
 20
137.9098566000243
 30
0.0
 10
125.6623328847099
 20
137.9118937383467
 30
0.0
 10
125.6491057260338
 20
137.9132535667721
 30
0.0
 10
125.6392739361542
 20
137.9134333316254
 30
0.0
 10
125.6343517066968
 20
137.9135233298727
 30
0.0
  0
LINE
  5
1F1
330
1F
100
AcDbEntity
  8
0
  6
Continuous
 62
     7
370
    15
100
AcDbLine
 10
125.6843517067
 20
139.1868907319
 30
0.0
 11
125.6843517067
 21
137.9033097452
 31
0.0
  0
LINE
  5
1F2
330
1F
100
AcDbEntity
  8
0
  6
Continuous
 62
     7
370
    15
100
AcDbLine
 10
125.6343517067
 20
137.9135233299
 30
0.0
 11
125.4943517067
 21
137.9135233299
 31
0.0
  0
SPLINE
  5
1F3
330
1F
100
AcDbEntity
  8
0
  6
Continuous
 62
     7
370
    15
100
AcDbSpline
210
0.0
220
0.0
230
1.0
 70
     8
 71
     3
 72
    12
 73
     8
 74
     0
 42
0.00000001
 43
0.00000001
 12
1.0
 22
0.0
 32
0.0
 13
1.0
 23
0.0
 33
0.0
 40
0.0
 40
0.0
 40
0.0
 40
0.0
 40
0.2028202020467086
 40
0.4049472449426968
 40
0.6098312030740953
 40
0.8226939241827076
 40
1.0
 40
1.0
 40
1.0
 40
1.0
 10
125.7343517066967
 20
137.6512387188834
 30
0.0
 10
125.7029235385896
 20
137.6533641089308
 30
0.0
 10
125.6401746114112
 20
137.6576076252838
 30
0.0
 10
125.5560953613172
 20
137.6905242760864
 30
0.0
 10
125.4906796542293
 20
137.7392786900539
 30
0.0
 10
125.4510378009762
 20
137.7976593374312
 30
0.0
 10
125.4464407597918
 20
137.8386499366649
 30
0.0
 10
125.4443517066968
 20
137.8572774700627
 30
0.0
  0
LINE
  5
1F4
330
1F
100
AcDbEntity
  8
0
  6
Continuous
 62
     7
370
    15
100
AcDbLine
 10
125.7343517067
 20
137.6512387189
 30
0.0
 11
125.7343517067
 21
136.7962640361
 31
0.0
  0
SPLINE
  5
1F5
330
1F
100
AcDbEntity
  8
0
  6
Continuous
 62
     7
370
    15
100
AcDbSpline
210
0.0
220
0.0
230
1.0
 70
     8
 71
     3
 72
    12
 73
     8
 74
     0
 42
0.00000001
 43
0.00000001
 12
1.0
 22
0.0
 32
0.0
 13
1.0
 23
0.0
 33
0.0
 40
0.0
 40
0.0
 40
0.0
 40
0.0
 40
0.2289440738515833
 40
0.4594214300241349
 40
0.6825355698157604
 40
0.8947175231628776
 40
1.0
 40
1.0
 40
1.0
 40
1.0
 10
125.4443517066968
 20
137.0232580491373
 30
0.0
 10
125.4478186036123
 20
136.9964396458134
 30
0.0
 10
125.4547756159162
 20
136.942623231181
 30
0.0
 10
125.5095495850786
 20
136.8721018200926
 30
0.0
 10
125.5889568919752
 20
136.8214999063592
 30
0.0
 10
125.6691320898457
 20
136.7988313373861
 30
0.0
 10
125.7181091684632
 20
136.79690340647
 30
0.0
 10
125.7343517066968
 20
136.7962640361257
 30
0.0
  0
LINE
  5
1F6
330
1F
100
AcDbEntity
  8
0
  6
Continuous
 62
     7
370
    15
100
AcDbLine
 10
125.4443517067
 20
137.0232580491
 30
0.0
 11
125.4443517067
 21
137.8572774701
 31
0.0
  0
LINE
  5
1F7
330
1F
100
AcDbEntity
  8
0
  6
Continuous
 62
     7
370
    15
100
AcDbLine
 10
126.8043517067
 20
137.6750378297
 30
0.0
 11
126.8043517067
 21
136.8410184087
 31
0.0
  0
ARC
  5
1F8
330
1F
100
AcDbEntity
  8
0
  6
Continuous
 62
     7
370
    15
100
AcDbCircle
 10
126.7568369374
 20
136.8437949315
 30
0.0
 40
0.0475958231748647
100
AcDbArc
 50
267.006921984
 51
356.6557275501
  0
LINE
  5
1F9
330
1F
100
AcDbEntity
  8
0
  6
Continuous
 62
     7
370
    15
100
AcDbLine
 10
126.7543517067
 20
136.7962640361
 30
0.0
 11
126.7543517067
 21
137.6512387189
 31
0.0
  0
LWPOLYLINE
  5
1FA
330
1F
100
AcDbEntity
  8
0
  6
Continuous
 62
     7
370
    15
100
AcDbPolyline
 90
        9
 70
   128
 43
0.0
 10
126.8043517067
 20
137.6750378297
 10
126.8033909707
 20
137.6703948535
 10
126.8005456833
 20
137.6659303043
 10
126.7959251873
 20
137.6618157521
 10
126.7897070458
 20
137.658209317
 10
126.7821302183
 20
137.6552495922
 10
126.7734858783
 20
137.6530503183
 10
126.7641062228
 20
137.6516960121
 10
126.7543517067
 20
137.6512387189
  0
LINE
  5
1FB
330
1F
100
AcDbEntity
  8
0
  6
Continuous
 62
     7
370
    15
100
AcDbLine
 10
126.7543517067
 20
137.6512387189
 30
0.0
 11
125.7343517067
 21
137.6512387189
 31
0.0
  0
LINE
  5
1FC
330
1F
100
AcDbEntity
  8
0
  6
Continuous
 62
     7
370
    15
100
AcDbLine
 10
125.7343517067
 20
136.7962640361
 30
0.0
 11
126.7543517067
 21
136.7962640361
 31
0.0
  0
SPLINE
  5
1FD
330
1F
100
AcDbEntity
  8
0
  6
Continuous
 62
     7
370
    15
100
AcDbSpline
210
0.0
220
0.0
230
1.0
 70
     8
 71
     3
 72
    12
 73
     8
 74
     0
 42
0.00000001
 43
0.00000001
 12
1.0
 22
0.0
 32
0.0
 13
1.0
 23
0.0
 33
0.0
 40
0.0
 40
0.0
 40
0.0
 40
0.0
 40
0.1789601577904808
 40
0.3929009169382047
 40
0.5976976172813075
 40
0.7987833678438357
 40
0.9999999999999999
 40
0.9999999999999999
 40
0.9999999999999999
 40
0.9999999999999999
 10
125.4943517066968
 20
137.8920282792679
 30
0.0
 10
125.4960741006675
 20
137.8754255533655
 30
0.0
 10
125.4998555578299
 20
137.8389748354445
 30
0.0
 10
125.5325627628603
 20
137.7873366740399
 30
0.0
 10
125.5866772252134
 20
137.7443447984041
 30
0.0
 10
125.6563032491254
 20
137.7153872617435
 30
0.0
 10
125.7083299122041
 20
137.7116552512039
 30
0.0
 10
125.7343517066967
 20
137.709788638864
 30
0.0
  0
LINE
  5
1FE
330
1F
100
AcDbEntity
  8
0
  6
Continuous
 62
     7
370
    15
100
AcDbLine
 10
125.7343517067
 20
137.7097886389
 30
0.0
 11
125.7343517067
 21
137.6512387189
 31
0.0
  0
ARC
  5
1FF
330
1F
100
AcDbEntity
  8
0
  6
Continuous
 62
     7
370
    15
100
AcDbCircle
 10
125.4878898004
 20
137.8479799797
 30
0.0
 40
0.0445197588819342
100
AcDbArc
 50
81.6542123666
 51
167.94563917
  0
LINE
  5
200
330
1F
100
AcDbEntity
  8
0
  6
Continuous
 62
     7
370
    15
100
AcDbLine
 10
125.7343517067
 20
137.7097886389
 30
0.0
 11
126.7543517067
 21
137.7097886389
 31
0.0
  0
LINE
  5
201
330
1F
100
AcDbEntity
  8
0
  6
Continuous
 62
     7
370
    15
100
AcDbLine
 10
126.7543517067
 20
137.7097886389
 30
0.0
 11
126.7543517067
 21
137.6512387189
 31
0.0
  0
ARC
  5
202
330
1F
100
AcDbEntity
  8
0
  6
Continuous
 62
     7
370
    15
100
AcDbCircle
 10
126.760813613
 20
137.6657403393
 30
0.0
 40
0.0445197588819846
100
AcDbArc
 50
12.0543608301
 51
98.3457876333
  0
LINE
  5
203
330
1F
100
AcDbEntity
  8
0
  6
Continuous
 62
     7
370
    15
100
AcDbLine
 10
126.7543517067
 20
137.8157632978
 30
0.0
 11
125.7343517067
 21
137.8157632978
 31
0.0
  0
LINE
  5
204
330
1F
100
AcDbEntity
  8
0
  6
Continuous
 62
     7
370
    15
100
AcDbLine
 10
126.7543517067
 20
137.7097886389
 30
0.0
 11
126.7543517067
 21
137.8157632978
 31
0.0
  0
LINE
  5
205
330
1F
100
AcDbEntity
  8
0
  6
Continuous
 62
     7
370
    15
100
AcDbLine
 10
125.4943517067
 20
137.9135233299
 30
0.0
 11
125.4943517067
 21
137.8920282793
 31
0.0
  0
LINE
  5
206
330
1F
100
AcDbEntity
  8
0
  6
Continuous
 62
     7
370
    15
100
AcDbLine
 10
125.6343517067
 20
137.8920282793
 30
0.0
 11
125.6343517067
 21
137.9135233299
 31
0.0
  0
SPLINE
  5
207
330
1F
100
AcDbEntity
  8
0
  6
Continuous
 62
     7
370
    15
100
AcDbSpline
210
0.0
220
0.0
230
1.0
 70
     8
 71
     3
 72
    12
 73
     8
 74
     0
 42
0.00000001
 43
0.00000001
 12
1.0
 22
0.0
 32
0.0
 13
1.0
 23
0.0
 33
0.0
 40
0.0
 40
0.0
 40
0.0
 40
0.0
 40
0.1818603118645089
 40
0.3964966430180549
 40
0.6005836871110792
 40
0.8002123703308414
 40
0.9999999999999999
 40
0.9999999999999999
 40
0.9999999999999999
 40
0.9999999999999999
 10
125.6343517066968
 20
137.8920282792679
 30
0.0
 10
125.6350952570155
 20
137.8849838871537
 30
0.0
 10
125.6367163650093
 20
137.8696255178825
 30
0.0
 10
125.6505473048106
 20
137.8479985292765
 30
0.0
 10
125.6731151862014
 20
137.8301207867973
 30
0.0
 10
125.7019994063504
 20
137.8180922743197
 30
0.0
 10
125.7235647459619
 20
137.8165398292329
 30
0.0
 10
125.7343517066967
 20
137.8157632977942
 30
0.0
  0
ARC
  5
208
330
1F
100
AcDbEntity
  8
0
  6
Continuous
 62
     7
370
    15
100
AcDbCircle
 10
126.760813613
 20
137.7717149982
 30
0.0
 40
0.0445197588819402
100
AcDbArc
 50
12.05436083
 51
98.3457876334
  0
LINE
  5
209
330
1F
100
AcDbEntity
  8
0
  6
Continuous
 62
     7
370
    15
100
AcDbLine
 10
126.8043517067
 20
137.7810124886
 30
0.0
 11
126.8043517067
 21
137.6750378297
 31
0.0
  0
ARC
  5
20A
330
1F
100
AcDbEntity
  8
0
  6
Continuous
 62
     7
370
    15
100
AcDbCircle
 10
125.640813613
 20
137.8479799797
 30
0.0
 40
0.0445197588819325
100
AcDbArc
 50
12.05436083
 51
98.3457876334
  0
LINE
  5
20B
330
1F
100
AcDbEntity
  8
0
  6
Continuous
 62
     7
370
    15
100
AcDbLine
 10
125.4443517067
 20
137.8572774701
 30
0.0
 11
125.4443517067
 21
137.9033097452
 31
0.0
  0
LINE
  5
20C
330
1F
100
AcDbEntity
  8
0
  6
Continuous
 62
     7
370
    15
100
AcDbLine
 10
125.6843517067
 20
137.9033097452
 30
0.0
 11
125.6843517067
 21
137.8572774701
 31
0.0
  0
LINE
  5
20D
330
1F
100
AcDbEntity
  8
0
  6
Continuous
 62
     7
370
    15
100
AcDbLine
 10
125.7343517067
 20
136.7962640361
 30
0.0
 11
125.7343517067
 21
136.7910184087
 31
0.0
  0
LINE
  5
20E
330
1F
100
AcDbEntity
  8
0
  6
Continuous
 62
     7
370
    15
100
AcDbLine
 10
125.4443517067
 20
136.9322424385
 30
0.0
 11
125.4443517067
 21
137.0232580491
 31
0.0
  0
LINE
  5
20F
330
1F
100
AcDbEntity
  8
0
  6
Continuous
 62
     7
370
    15
100
AcDbLine
 10
126.7543517067
 20
140.4382172775
 30
0.0
 11
125.7343517067
 21
140.4382172775
 31
0.0
  0
LINE
  5
210
330
1F
100
AcDbEntity
  8
0
  6
Continuous
 62
     7
370
    15
100
AcDbLine
 10
126.7543517067
 20
140.3322426186
 30
0.0
 11
126.7543517067
 21
140.4382172775
 31
0.0
  0
SPLINE
  5
211
330
1F
100
AcDbEntity
  8
0
  6
Continuous
 62
     7
370
    15
100
AcDbSpline
210
0.0
220
0.0
230
1.0
 70
     8
 71
     3
 72
    11
 73
     7
 74
     0
 42
0.00000001
 43
0.00000001
 12
1.0
 22
0.0
 32
0.0
 13
1.0
 23
0.0
 33
0.0
 40
0.0
 40
0.0
 40
0.0
 40
0.0
 40
0.0796332959754787
 40
0.459498197890494
 40
0.8207504115405597
 40
0.9999999999999999
 40
0.9999999999999999
 40
0.9999999999999999
 40
0.9999999999999999
 10
125.5040498326915
 20
140.3557716376934
 30
0.0
 10
125.5074423787757
 20
140.3605842706054
 30
0.0
 10
125.527017969524
 20
140.3883540134384
 30
0.0
 10
125.5906861849324
 20
140.4222030725147
 30
0.0
 10
125.6689459191143
 20
140.4457377165733
 30
0.0
 10
125.7180628038053
 20
140.4476024343061
 30
0.0
 10
125.7343517066968
 20
140.4482208409144
 30
0.0
  0
LINE
  5
212
330
1F
100
AcDbEntity
  8
0
  6
Continuous
 62
     7
370
    15
100
AcDbLine
 10
126.7543517067
 20
140.2522147994
 30
0.0
 11
126.7543517067
 21
140.3322426186
 31
0.0
  0
ARC
  5
213
330
1F
100
AcDbEntity
  8
0
  6
Continuous
 62
     7
370
    15
100
AcDbCircle
 10
126.760813613
 20
140.288194319
 30
0.0
 40
0.0445197588819342
100
AcDbArc
 50
12.05436083
 51
98.3457876334
  0
ARC
  5
214
330
1F
100
AcDbEntity
  8
0
  6
Continuous
 62
     7
370
    15
100
AcDbCircle
 10
126.7566016685
 20
140.2999764719
 30
0.0
 40
0.0478146389137673
100
AcDbArc
 50
267.3028984187
 51
357.0213133886
  0
LINE
  5
215
330
1F
100
AcDbEntity
  8
0
  6
Continuous
 62
     7
370
    15
100
AcDbLine
 10
126.8043517067
 20
140.4034664683
 30
0.0
 11
126.8043517067
 21
140.2974918094
 31
0.0
  0
ARC
  5
216
330
1F
100
AcDbEntity
  8
0
  6
Continuous
 62
     7
370
    15
100
AcDbCircle
 10
126.760813613
 20
140.3941689779
 30
0.0
 40
0.0445197588820792
100
AcDbArc
 50
12.05436083
 51
98.3457876332
  0
LINE
  5
217
330
1F
100
AcDbEntity
  8
0
  6
Continuous
 62
     7
370
    15
100
AcDbLine
 10
126.8043517067
 20
140.2974918094
 30
0.0
 11
126.8043517067
 21
139.75027949
 31
0.0
  0
SPLINE
  5
218
330
1F
100
AcDbEntity
  8
0
  6
Continuous
 62
     7
370
    15
100
AcDbSpline
210
0.0
220
0.0
230
1.0
 70
     8
 71
     3
 72
    13
 73
     9
 74
     0
 42
0.00000001
 43
0.00000001
 12
1.0
 22
0.0
 32
0.0
 13
1.0
 23
0.0
 33
0.0
 40
0.0
 40
0.0
 40
0.0
 40
0.0
 40
0.1695411050600407
 40
0.3386458383077413
 40
0.5184804584270366
 40
0.7277236211487202
 40
0.9924537768853684
 40
0.9999999999999999
 40
0.9999999999999999
 40
0.9999999999999999
 40
0.9999999999999999
 10
125.7343517066967
 20
139.168443489444
 30
0.0
 10
125.7294294772394
 20
139.1685840501231
 30
0.0
 10
125.7195976873597
 20
139.1688648097003
 30
0.0
 10
125.7063705286836
 20
139.1709923948388
 30
0.0
 10
125.6952362080628
 20
139.1741909277046
 30
0.0
 10
125.6866924522082
 20
139.1787661767204
 30
0.0
 10
125.6843753202862
 20
139.1824590965577
 30
0.0
 10
125.6843523435053
 20
139.1845175650855
 30
0.0
 10
125.6843517066967
 20
139.1845746161703
 30
0.0
  0
LINE
  5
219
330
1F
100
AcDbEntity
  8
0
  6
Continuous
 62
     7
370
    15
100
AcDbLine
 10
125.6843517067
 20
137.9033097452
 30
0.0
 11
125.6843517067
 21
139.1845746162
 31
0.0
  0
SPLINE
  5
21A
330
1F
100
AcDbEntity
  8
0
  6
Continuous
 62
     7
370
    15
100
AcDbSpline
210
0.0
220
0.0
230
1.0
 70
     8
 71
     3
 72
    13
 73
     9
 74
     0
 42
0.00000001
 43
0.00000001
 12
1.0
 22
0.0
 32
0.0
 13
1.0
 23
0.0
 33
0.0
 40
0.0
 40
0.0
 40
0.0
 40
0.0
 40
0.0075462231145299
 40
0.2722763788514239
 40
0.4815195415730457
 40
0.6613541616925595
 40
0.8304588949399297
 40
0.9999999999999999
 40
0.9999999999999999
 40
0.9999999999999999
 40
0.9999999999999999
 10
125.9243517066967
 20
139.1845746161703
 30
0.0
 10
125.9243510698882
 20
139.1845175650855
 30
0.0
 10
125.9243280931075
 20
139.1824590965575
 30
0.0
 10
125.9220109611853
 20
139.1787661767204
 30
0.0
 10
125.9134672053306
 20
139.1741909277046
 30
0.0
 10
125.9023328847099
 20
139.1709923948388
 30
0.0
 10
125.8891057260337
 20
139.1688648097003
 30
0.0
 10
125.8792739361541
 20
139.1685840501231
 30
0.0
 10
125.8743517066968
 20
139.1684434894441
 30
0.0
  0
LINE
  5
21B
330
1F
100
AcDbEntity
  8
0
  6
Continuous
 62
     7
370
    15
100
AcDbLine
 10
125.9243517067
 20
139.1845746162
 30
0.0
 11
125.9243517067
 21
137.8310124886
 31
0.0
  0
LINE
  5
21C
330
1F
100
AcDbEntity
  8
0
  6
Continuous
 62
     7
370
    15
100
AcDbLine
 10
125.7343517067
 20
139.1684434894
 30
0.0
 11
125.8743517067
 21
139.1684434894
 31
0.0
  0
SPLINE
  5
21D
330
1F
100
AcDbEntity
  8
0
  6
Continuous
 62
     7
370
    15
100
AcDbSpline
210
0.0
220
0.0
230
1.0
 70
     8
 71
     3
 72
    12
 73
     8
 74
     0
 42
0.00000001
 43
0.00000001
 12
1.0
 22
0.0
 32
0.0
 13
1.0
 23
0.0
 33
0.0
 40
0.0
 40
0.0
 40
0.0
 40
0.0
 40
0.2289440738516356
 40
0.4594214300241902
 40
0.6825355698157464
 40
0.8947175231628387
 40
1.0
 40
1.0
 40
1.0
 40
1.0
 10
125.9243517066968
 20
140.1420679122753
 30
0.0
 10
125.9208848097813
 20
140.1664300951481
 30
0.0
 10
125.9139277974775
 20
140.2153176190995
 30
0.0
 10
125.8591538283149
 20
140.2793055713781
 30
0.0
 10
125.7797465214184
 20
140.3251948694769
 30
0.0
 10
125.6995713235478
 20
140.3457441113514
 30
0.0
 10
125.6505942449304
 20
140.3474917780023
 30
0.0
 10
125.6343517066968
 20
140.3480713663159
 30
0.0
  0
SPLINE
  5
21E
330
1F
100
AcDbEntity
  8
0
  6
Continuous
 62
     7
370
    15
100
AcDbSpline
210
0.0
220
0.0
230
1.0
 70
     8
 71
     3
 72
    12
 73
     8
 74
     0
 42
0.00000001
 43
0.00000001
 12
1.0
 22
0.0
 32
0.0
 13
1.0
 23
0.0
 33
0.0
 40
0.0
 40
0.0
 40
0.0
 40
0.0
 40
0.2028202020467412
 40
0.4049472449426641
 40
0.6098312030740541
 40
0.8226939241827645
 40
1.0
 40
1.0
 40
1.0
 40
1.0
 10
125.6343517066967
 20
139.4089096520115
 30
0.0
 10
125.6657798748038
 20
139.407019319027
 30
0.0
 10
125.7285288019823
 20
139.4032451134677
 30
0.0
 10
125.8126080520762
 20
139.3739758917464
 30
0.0
 10
125.8780237591641
 20
139.3306485649436
 30
0.0
 10
125.9176656124174
 20
139.2788029528647
 30
0.0
 10
125.9222626536018
 20
139.2424464902878
 30
0.0
 10
125.9243517066967
 20
139.2259248674392
 30
0.0
  0
LINE
  5
21F
330
1F
100
AcDbEntity
  8
0
  6
Continuous
 62
     7
370
    15
100
AcDbLine
 10
125.6343517067
 20
139.408909652
 30
0.0
 11
125.6343517067
 21
140.3480713663
 31
0.0
  0
LINE
  5
220
330
1F
100
AcDbEntity
  8
0
  6
Continuous
 62
     7
370
    15
100
AcDbLine
 10
125.9243517067
 20
140.1420679123
 30
0.0
 11
125.9243517067
 21
139.2259248674
 31
0.0
  0
LINE
  5
221
330
1F
100
AcDbEntity
  8
0
  6
Continuous
 62
     7
370
    15
100
AcDbLine
 10
125.6343517067
 20
140.3480713663
 30
0.0
 11
124.6143517067
 21
140.3480713663
 31
0.0
  0
LINE
  5
222
330
1F
100
AcDbEntity
  8
0
  6
Continuous
 62
     7
370
    15
100
AcDbLine
 10
124.6143517067
 20
139.408909652
 30
0.0
 11
125.6343517067
 21
139.408909652
 31
0.0
  0
LINE
  5
223
330
1F
100
AcDbEntity
  8
0
  6
Continuous
 62
     7
370
    15
100
AcDbLine
 10
124.6143517067
 20
140.3480713663
 30
0.0
 11
124.6143517067
 21
139.408909652
 31
0.0
  0
LWPOLYLINE
  5
224
330
1F
100
AcDbEntity
  8
0
  6
Continuous
 62
     7
370
    15
100
AcDbPolyline
 90
        9
 70
   128
 43
0.0
 10
124.6143517067
 20
139.408909652
 10
124.6045971906
 20
139.4085391719
 10
124.5952175351
 20
139.4074419688
 10
124.586573195
 20
139.4056602076
 10
124.5789963676
 20
139.4032623605
 10
124.5727782261
 20
139.4003405754
 10
124.5681577301
 20
139.3970071348
 10
124.5653124427
 20
139.3933901409
 10
124.5643517067
 20
139.3896285929
  0
LINE
  5
225
330
1F
100
AcDbEntity
  8
0
  6
Continuous
 62
     7
370
    15
100
AcDbLine
 10
124.5643517067
 20
139.3896285929
 30
0.0
 11
124.5643517067
 21
140.3057716377
 31
0.0
  0
ARC
  5
226
330
1F
100
AcDbEntity
  8
0
  6
Continuous
 62
     7
370
    15
100
AcDbCircle
 10
124.6107980419
 20
140.3015710613
 30
0.0
 40
0.04663589707379
100
AcDbArc
 50
85.6298138039
 51
174.8322658057
  0
SPLINE
  5
227
330
1F
100
AcDbEntity
  8
0
  6
Continuous
 62
     7
370
    15
100
AcDbSpline
210
0.0
220
0.0
230
1.0
 70
     8
 71
     3
 72
    12
 73
     8
 74
     0
 42
0.00000001
 43
0.00000001
 12
1.0
 22
0.0
 32
0.0
 13
1.0
 23
0.0
 33
0.0
 40
0.0
 40
0.0
 40
0.0
 40
0.0
 40
0.1789601577903902
 40
0.3929009169381332
 40
0.5976976172812756
 40
0.7987833678438233
 40
1.0
 40
1.0
 40
1.0
 40
1.0
 10
125.8743517066968
 20
139.1877522405711
 30
0.0
 10
125.872629312726
 20
139.202666273963
 30
0.0
 10
125.8688478555636
 20
139.2354095251273
 30
0.0
 10
125.8361406505332
 20
139.2817954781337
 30
0.0
 10
125.7820261881801
 20
139.3204145743341
 30
0.0
 10
125.7124001642681
 20
139.3464267889092
 30
0.0
 10
125.6603735011894
 20
139.34977921008
 30
0.0
 10
125.6343517066967
 20
139.3514559659892
 30
0.0
  0
LINE
  5
228
330
1F
100
AcDbEntity
  8
0
  6
Continuous
 62
     7
370
    15
100
AcDbLine
 10
125.6343517067
 20
139.351455966
 30
0.0
 11
125.6343517067
 21
139.408909652
 31
0.0
  0
ARC
  5
229
330
1F
100
AcDbEntity
  8
0
  6
Continuous
 62
     7
370
    15
100
AcDbCircle
 10
125.8795659595
 20
139.2327546997
 30
0.0
 40
0.045303529247144
100
AcDbArc
 50
263.3908406059
 51
351.329191247
  0
ARC
  5
22A
330
1F
100
AcDbEntity
  8
0
  6
Continuous
 62
     7
370
    15
100
AcDbCircle
 10
124.6091374539
 20
139.3964584251
 30
0.0
 40
0.0453035292470731
100
AcDbArc
 50
188.6708087528
 51
276.6091593941
  0
LINE
  5
22B
330
1F
100
AcDbEntity
  8
0
  6
Continuous
 62
     7
370
    15
100
AcDbLine
 10
124.6143517067
 20
139.351455966
 30
0.0
 11
124.6143517067
 21
139.408909652
 31
0.0
  0
LINE
  5
22C
330
1F
100
AcDbEntity
  8
0
  6
Continuous
 62
     7
370
    15
100
AcDbLine
 10
125.6343517067
 20
139.351455966
 30
0.0
 11
124.6143517067
 21
139.351455966
 31
0.0
  0
LINE
  5
22D
330
1F
100
AcDbEntity
  8
0
  6
Continuous
 62
     7
370
    15
100
AcDbLine
 10
124.6143517067
 20
139.2562601764
 30
0.0
 11
125.6343517067
 21
139.2562601764
 31
0.0
  0
LINE
  5
22E
330
1F
100
AcDbEntity
  8
0
  6
Continuous
 62
     7
370
    15
100
AcDbLine
 10
124.6143517067
 20
139.351455966
 30
0.0
 11
124.6143517067
 21
139.2562601764
 31
0.0
  0
LINE
  5
22F
330
1F
100
AcDbEntity
  8
0
  6
Continuous
 62
     7
370
    15
100
AcDbLine
 10
125.8743517067
 20
139.1684434894
 30
0.0
 11
125.8743517067
 21
139.1877522406
 31
0.0
  0
LINE
  5
230
330
1F
100
AcDbEntity
  8
0
  6
Continuous
 62
     7
370
    15
100
AcDbLine
 10
125.7343517067
 20
139.1877522406
 30
0.0
 11
125.7343517067
 21
139.1684434894
 31
0.0
  0
SPLINE
  5
231
330
1F
100
AcDbEntity
  8
0
  6
Continuous
 62
     7
370
    15
100
AcDbSpline
210
0.0
220
0.0
230
1.0
 70
     8
 71
     3
 72
    12
 73
     8
 74
     0
 42
0.00000001
 43
0.00000001
 12
1.0
 22
0.0
 32
0.0
 13
1.0
 23
0.0
 33
0.0
 40
0.0
 40
0.0
 40
0.0
 40
0.0
 40
0.1818603118646006
 40
0.3964966430177341
 40
0.6005836871107422
 40
0.8002123703305234
 40
1.0
 40
1.0
 40
1.0
 40
1.0
 10
125.7343517066968
 20
139.1877522405711
 30
0.0
 10
125.733608156378
 20
139.1940801351491
 30
0.0
 10
125.7319870483842
 20
139.2078763776157
 30
0.0
 10
125.7181561085829
 20
139.2273036470973
 30
0.0
 10
125.6955882271922
 20
139.2433630128833
 30
0.0
 10
125.6667040070431
 20
139.2541680841588
 30
0.0
 10
125.6451386674316
 20
139.25556262732
 30
0.0
 10
125.6343517066967
 20
139.2562601763777
 30
0.0
  0
ARC
  5
232
330
1F
100
AcDbEntity
  8
0
  6
Continuous
 62
     7
370
    15
100
AcDbCircle
 10
124.6091374539
 20
139.3012626355
 30
0.0
 40
0.0453035292470892
100
AcDbArc
 50
188.6708087528
 51
276.6091593941
  0
LINE
  5
233
330
1F
100
AcDbEntity
  8
0
  6
Continuous
 62
     7
370
    15
100
AcDbLine
 10
124.5643517067
 20
139.2944328032
 30
0.0
 11
124.5643517067
 21
139.3896285929
 31
0.0
  0
ARC
  5
234
330
1F
100
AcDbEntity
  8
0
  6
Continuous
 62
     7
370
    15
100
AcDbCircle
 10
125.7291374539
 20
139.2327546997
 30
0.0
 40
0.0453035292471988
100
AcDbArc
 50
188.6708087531
 51
276.609159394
  0
LINE
  5
235
330
1F
100
AcDbEntity
  8
0
  6
Continuous
 62
     7
370
    15
100
AcDbLine
 10
125.6843517067
 20
139.1845746162
 30
0.0
 11
125.6843517067
 21
139.2259248674
 31
0.0
  0
LINE
  5
236
330
1F
100
AcDbEntity
  8
0
  6
Continuous
 62
     7
370
    15
100
AcDbLine
 10
125.9243517067
 20
139.2259248674
 30
0.0
 11
125.9243517067
 21
139.1845746162
 31
0.0
  0
LINE
  5
237
330
1F
100
AcDbEntity
  8
0
  6
Continuous
 62
     7
370
    15
100
AcDbLine
 10
125.6343517067
 20
140.3480713663
 30
0.0
 11
125.6343517067
 21
140.3557716377
 31
0.0
  0
LINE
  5
238
330
1F
100
AcDbEntity
  8
0
  6
Continuous
 62
     7
370
    15
100
AcDbLine
 10
125.9243517067
 20
140.3122424385
 30
0.0
 11
125.9243517067
 21
140.1420679123
 31
0.0
  0
LINE
  5
239
330
1F
100
AcDbEntity
  8
0
  6
Continuous
 62
     7
370
    15
100
AcDbLine
 10
124.6143517067
 20
136.9957364021
 30
0.0
 11
124.6143517067
 21
136.9005406125
 31
0.0
  0
LINE
  5
23A
330
1F
100
AcDbEntity
  8
0
  6
Continuous
 62
     7
370
    15
100
AcDbLine
 10
124.6143517067
 20
137.0768369589
 30
0.0
 11
124.6143517067
 21
136.9957364021
 31
0.0
  0
ARC
  5
23B
330
1F
100
AcDbEntity
  8
0
  6
Continuous
 62
     7
370
    15
100
AcDbCircle
 10
124.6091374539
 20
137.0407388612
 30
0.0
 40
0.0453035292471843
100
AcDbArc
 50
188.6708087529
 51
276.609159394
  0
ARC
  5
23C
330
1F
100
AcDbEntity
  8
0
  6
Continuous
 62
     7
370
    15
100
AcDbCircle
 10
124.6110657426
 20
137.0300817257
 30
0.0
 40
0.0468705600259467
100
AcDbArc
 50
85.9798550466
 51
175.316190911
  0
LINE
  5
23D
330
1F
100
AcDbEntity
  8
0
  6
Continuous
 62
     7
370
    15
100
AcDbLine
 10
124.5643517067
 20
137.033909029
 30
0.0
 11
124.5643517067
 21
137.4762848312
 31
0.0
  0
LINE
  5
23E
330
1F
100
AcDbEntity
  8
0
  6
Continuous
 62
     7
370
    15
100
AcDbLine
 10
124.5643517067
 20
136.9387132393
 30
0.0
 11
124.5643517067
 21
137.033909029
 31
0.0
  0
ARC
  5
23F
330
1F
100
AcDbEntity
  8
0
  6
Continuous
 62
     7
370
    15
100
AcDbCircle
 10
124.6091374539
 20
136.9455430716
 30
0.0
 40
0.0453035292470957
100
AcDbArc
 50
188.6708087529
 51
276.6091593942
  0
LINE
  5
240
330
1F
100
AcDbEntity
  8
0
  6
Continuous
 62
     7
370
    15
100
AcDbLine
 10
125.3550353092
 20
139.0723966854
 30
0.0
 11
125.4443517067
 21
138.4994178818
 31
0.0
  0
SPLINE
  5
241
330
1F
100
AcDbEntity
  8
0
  6
Continuous
 62
     7
370
    15
100
AcDbSpline
210
0.0
220
0.0
230
1.0
 70
     8
 71
     3
 72
     9
 73
     5
 74
     0
 42
0.00000001
 43
0.00000001
 12
1.0
 22
0.0
 32
0.0
 13
1.0
 23
0.0
 33
0.0
 40
0.0
 40
0.0
 40
0.0
 40
0.0
 40
0.0702005767034412
 40
1.0
 40
1.0
 40
1.0
 40
1.0
 10
125.4443517066968
 20
138.4994178817948
 30
0.0
 10
125.4442624834433
 20
138.4858348938685
 30
0.0
 10
125.4429915073672
 20
138.2923466269029
 30
0.0
 10
125.3974136109881
 20
138.1027375181366
 30
0.0
 10
125.3550353092198
 20
137.9264390781539
 30
0.0
  0
LINE
  5
242
330
1F
100
AcDbEntity
  8
0
  6
Continuous
 62
     7
370
    15
100
AcDbLine
 10
125.3550353092
 20
137.9264390782
 30
0.0
 11
124.4936681042
 21
137.9264390782
 31
0.0
  0
SPLINE
  5
243
330
1F
100
AcDbEntity
  8
0
  6
Continuous
 62
     7
370
    15
100
AcDbSpline
210
0.0
220
0.0
230
1.0
 70
     8
 71
     3
 72
     9
 73
     5
 74
     0
 42
0.00000001
 43
0.00000001
 12
1.0
 22
0.0
 32
0.0
 13
1.0
 23
0.0
 33
0.0
 40
0.0
 40
0.0
 40
0.0
 40
0.0
 40
0.0702005767034304
 40
1.0
 40
1.0
 40
1.0
 40
1.0
 10
124.4043517066968
 20
138.4994178817948
 30
0.0
 10
124.4044409299503
 20
138.4858348938685
 30
0.0
 10
124.4057119060265
 20
138.2923466269029
 30
0.0
 10
124.4512898024056
 20
138.1027375181366
 30
0.0
 10
124.4936681041738
 20
137.9264390781539
 30
0.0
  0
LINE
  5
244
330
1F
100
AcDbEntity
  8
0
  6
Continuous
 62
     7
370
    15
100
AcDbLine
 10
124.4936681042
 20
139.0723966854
 30
0.0
 11
124.4043517067
 21
138.4994178818
 31
0.0
  0
LINE
  5
245
330
1F
100
AcDbEntity
  8
0
  6
Continuous
 62
     7
370
    15
100
AcDbLine
 10
125.3550353092
 20
139.0723966854
 30
0.0
 11
124.4936681042
 21
139.0723966854
 31
0.0
  0
LINE
  5
246
330
1F
100
AcDbEntity
  8
0
  6
Continuous
 62
     7
370
    15
100
AcDbLine
 10
125.4109033579
 20
139.2444328032
 30
0.0
 11
125.3550353092
 21
139.0723966854
 31
0.0
  0
SPLINE
  5
247
330
1F
100
AcDbEntity
  8
0
  6
Continuous
 62
     7
370
    15
100
AcDbSpline
210
0.0
220
0.0
230
1.0
 70
     8
 71
     3
 72
     9
 73
     5
 74
     0
 42
0.00000001
 43
0.00000001
 12
1.0
 22
0.0
 32
0.0
 13
1.0
 23
0.0
 33
0.0
 40
0.0
 40
0.0
 40
0.0
 40
0.0
 40
0.2686336050555688
 40
1.0
 40
1.0
 40
1.0
 40
1.0
 10
124.4043517066968
 20
139.4202983656187
 30
0.0
 10
124.4056774972137
 20
139.3886643679612
 30
0.0
 10
124.4106128087009
 20
139.2709054686191
 30
0.0
 10
124.4585837614209
 20
139.1562510640038
 30
0.0
 10
124.4936681041738
 20
139.0723966854357
 30
0.0
  0
LINE
  5
248
330
1F
100
AcDbEntity
  8
0
  6
Continuous
 62
     7
370
    15
100
AcDbLine
 10
124.4043517067
 20
138.4994178818
 30
0.0
 11
124.4043517067
 21
139.4202983656
 31
0.0
  0
LINE
  5
249
330
1F
100
AcDbEntity
  8
0
  6
Continuous
 62
     7
370
    15
100
AcDbLine
 10
125.3550353092
 20
137.9264390782
 30
0.0
 11
125.4443517067
 21
137.7013619547
 31
0.0
  0
LINE
  5
24A
330
1F
100
AcDbEntity
  8
0
  6
Continuous
 62
     7
370
    15
100
AcDbLine
 10
124.4936681042
 20
137.9264390782
 30
0.0
 11
124.4043517067
 21
137.7013619547
 31
0.0
  0
LINE
  5
24B
330
1F
100
AcDbEntity
  8
0
  6
Continuous
 62
     7
370
    15
100
AcDbLine
 10
124.4043517067
 20
137.7013619547
 30
0.0
 11
124.4043517067
 21
138.4994178818
 31
0.0
  0
SPLINE
  5
24C
330
1F
100
AcDbEntity
  8
0
  6
Continuous
 62
     7
370
    15
100
AcDbSpline
210
0.0
220
0.0
230
1.0
 70
     8
 71
     3
 72
     9
 73
     5
 74
     0
 42
0.00000001
 43
0.00000001
 12
1.0
 22
0.0
 32
0.0
 13
1.0
 23
0.0
 33
0.0
 40
0.0
 40
0.0
 40
0.0
 40
0.0
 40
0.2575513451038006
 40
1.0
 40
1.0
 40
1.0
 40
1.0
 10
124.4936681041738
 20
139.7682000458018
 30
0.0
 10
124.4801850596189
 20
139.7389930952966
 30
0.0
 10
124.4278341602301
 20
139.6255906570622
 30
0.0
 10
124.4143574626716
 20
139.5077723839863
 30
0.0
 10
124.4043517066968
 20
139.4202983656187
 30
0.0
  0
LINE
  5
24D
330
1F
100
AcDbEntity
  8
0
  6
Continuous
 62
     7
370
    15
100
AcDbLine
 10
124.5643517067
 20
139.7682000458
 30
0.0
 11
124.4936681042
 21
139.7682000458
 31
0.0
  0
LINE
  5
24E
330
1F
100
AcDbEntity
  8
0
  6
Continuous
 62
     7
370
    15
100
AcDbLine
 10
125.3550353092
 20
137.4762848312
 30
0.0
 11
124.4936681042
 21
137.4762848312
 31
0.0
  0
SPLINE
  5
24F
330
1F
100
AcDbEntity
  8
0
  6
Continuous
 62
     7
370
    15
100
AcDbSpline
210
0.0
220
0.0
230
1.0
 70
     8
 71
     3
 72
     9
 73
     5
 74
     0
 42
0.00000001
 43
0.00000001
 12
1.0
 22
0.0
 32
0.0
 13
1.0
 23
0.0
 33
0.0
 40
0.0
 40
0.0
 40
0.0
 40
0.0
 40
0.0702005767034295
 40
1.0
 40
1.0
 40
1.0
 40
1.0
 10
124.4043517066968
 20
137.7013619546961
 30
0.0
 10
124.4044409299503
 20
137.6960262951027
 30
0.0
 10
124.4057119060264
 20
137.6200203725892
 30
0.0
 10
124.4512898024055
 20
137.5455382582224
 30
0.0
 10
124.4936681041738
 20
137.4762848312382
 30
0.0
  0
LINE
  5
250
330
1F
100
AcDbEntity
  8
0
  6
Continuous
 62
     7
370
    15
100
AcDbLine
 10
124.4682821754
 20
139.7084498729
 30
0.0
 11
124.4936681042
 21
139.7682000458
 31
0.0
  0
LINE
  5
251
330
1F
100
AcDbEntity
  8
0
  6
Continuous
 62
     7
370
    15
100
AcDbLine
 10
124.4043517067
 20
139.4202983656
 30
0.0
 11
124.4043517067
 21
139.6222424385
 31
0.0
  0
LINE
  5
252
330
1F
100
AcDbEntity
  8
0
  6
Continuous
 62
     7
370
    15
100
AcDbLine
 10
124.4043517067
 20
137.6222424385
 30
0.0
 11
124.4043517067
 21
137.7013619547
 31
0.0
  0
LINE
  5
253
330
1F
100
AcDbEntity
  8
0
  6
Continuous
 62
     7
370
    15
100
AcDbLine
 10
126.8750353092
 20
139.3999179507
 30
0.0
 11
126.9643517067
 21
138.835899425
 31
0.0
  0
SPLINE
  5
254
330
1F
100
AcDbEntity
  8
0
  6
Continuous
 62
     7
370
    15
100
AcDbSpline
210
0.0
220
0.0
230
1.0
 70
     8
 71
     3
 72
     9
 73
     5
 74
     0
 42
0.00000001
 43
0.00000001
 12
1.0
 22
0.0
 32
0.0
 13
1.0
 23
0.0
 33
0.0
 40
0.0
 40
0.0
 40
0.0
 40
0.0
 40
0.0702005767034371
 40
0.9999999999999999
 40
0.9999999999999999
 40
0.9999999999999999
 40
0.9999999999999999
 10
126.9643517066968
 20
138.8358994249628
 30
0.0
 10
126.9642624834433
 20
138.82252884864
 30
0.0
 10
126.9629915073672
 20
138.6320663631361
 30
0.0
 10
126.9174136109881
 20
138.4454223733161
 30
0.0
 10
126.8750353092198
 20
138.2718808992197
 30
0.0
  0
LINE
  5
255
330
1F
100
AcDbEntity
  8
0
  6
Continuous
 62
     7
370
    15
100
AcDbLine
 10
126.8750353092
 20
138.2718808992
 30
0.0
 11
126.0136681042
 21
138.2718808992
 31
0.0
  0
SPLINE
  5
256
330
1F
100
AcDbEntity
  8
0
  6
Continuous
 62
     7
370
    15
100
AcDbSpline
210
0.0
220
0.0
230
1.0
 70
     8
 71
     3
 72
     9
 73
     5
 74
     0
 42
0.00000001
 43
0.00000001
 12
1.0
 22
0.0
 32
0.0
 13
1.0
 23
0.0
 33
0.0
 40
0.0
 40
0.0
 40
0.0
 40
0.0
 40
0.070200576703432
 40
1.0
 40
1.0
 40
1.0
 40
1.0
 10
125.9243517066968
 20
138.8358994249628
 30
0.0
 10
125.9244409299503
 20
138.82252884864
 30
0.0
 10
125.9257119060263
 20
138.6320663631361
 30
0.0
 10
125.9712898024055
 20
138.4454223733161
 30
0.0
 10
126.0136681041738
 20
138.2718808992197
 30
0.0
  0
LINE
  5
257
330
1F
100
AcDbEntity
  8
0
  6
Continuous
 62
     7
370
    15
100
AcDbLine
 10
126.0136681042
 20
139.3999179507
 30
0.0
 11
125.9243517067
 21
138.835899425
 31
0.0
  0
LINE
  5
258
330
1F
100
AcDbEntity
  8
0
  6
Continuous
 62
     7
370
    15
100
AcDbLine
 10
126.8750353092
 20
139.3999179507
 30
0.0
 11
126.0136681042
 21
139.3999179507
 31
0.0
  0
LINE
  5
259
330
1F
100
AcDbEntity
  8
0
  6
Continuous
 62
     7
370
    15
100
AcDbLine
 10
126.8750353092
 20
138.2718808992
 30
0.0
 11
126.9643517067
 21
137.8830431431
 31
0.0
  0
LINE
  5
25A
330
1F
100
AcDbEntity
  8
0
  6
Continuous
 62
     7
370
    15
100
AcDbLine
 10
126.9643517067
 20
138.835899425
 30
0.0
 11
126.9643517067
 21
137.8830431431
 31
0.0
  0
LINE
  5
25B
330
1F
100
AcDbEntity
  8
0
  6
Continuous
 62
     7
370
    15
100
AcDbLine
 10
126.0136681042
 20
138.2718808992
 30
0.0
 11
125.9243517067
 21
137.8830431431
 31
0.0
  0
SPLINE
  5
25C
330
1F
100
AcDbEntity
  8
0
  6
Continuous
 62
     7
370
    15
100
AcDbSpline
210
0.0
220
0.0
230
1.0
 70
     8
 71
     3
 72
     9
 73
     5
 74
     0
 42
0.00000001
 43
0.00000001
 12
1.0
 22
0.0
 32
0.0
 13
1.0
 23
0.0
 33
0.0
 40
0.0
 40
0.0
 40
0.0
 40
0.0
 40
0.2686336050555744
 40
1.0
 40
1.0
 40
1.0
 40
1.0
 10
126.9643517066968
 20
139.575098720356
 30
0.0
 10
126.9630259161799
 20
139.5591698865146
 30
0.0
 10
126.9580906046927
 20
139.4998741262613
 30
0.0
 10
126.9101196519726
 20
139.4421415886267
 30
0.0
 10
126.8750353092198
 20
139.3999179507059
 30
0.0
  0
LINE
  5
25D
330
1F
100
AcDbEntity
  8
0
  6
Continuous
 62
     7
370
    15
100
AcDbLine
 10
126.9643517067
 20
139.5750987204
 30
0.0
 11
126.9643517067
 21
138.835899425
 31
0.0
  0
SPLINE
  5
25E
330
1F
100
AcDbEntity
  8
0
  6
Continuous
 62
     7
370
    15
100
AcDbSpline
210
0.0
220
0.0
230
1.0
 70
     8
 71
     3
 72
     9
 73
     5
 74
     0
 42
0.00000001
 43
0.00000001
 12
1.0
 22
0.0
 32
0.0
 13
1.0
 23
0.0
 33
0.0
 40
0.0
 40
0.0
 40
0.0
 40
0.0
 40
0.2686336050555667
 40
1.0
 40
1.0
 40
1.0
 40
1.0
 10
125.9243517066968
 20
139.575098720356
 30
0.0
 10
125.9256774972137
 20
139.5591698865146
 30
0.0
 10
125.9306128087009
 20
139.4998741262612
 30
0.0
 10
125.978583761421
 20
139.4421415886267
 30
0.0
 10
126.0136681041739
 20
139.3999179507059
 30
0.0
  0
SPLINE
  5
25F
330
1F
100
AcDbEntity
  8
0
  6
Continuous
 62
     7
370
    15
100
AcDbSpline
210
0.0
220
0.0
230
1.0
 70
     8
 71
     3
 72
     9
 73
     5
 74
     0
 42
0.00000001
 43
0.00000001
 12
1.0
 22
0.0
 32
0.0
 13
1.0
 23
0.0
 33
0.0
 40
0.0
 40
0.0
 40
0.0
 40
0.0
 40
0.0702005767034232
 40
1.0
 40
1.0
 40
1.0
 40
1.0
 10
126.9643517066968
 20
137.8830431431268
 30
0.0
 10
126.9642624834433
 20
137.8738253875785
 30
0.0
 10
126.9629915073672
 20
137.7425194071842
 30
0.0
 10
126.9174136109881
 20
137.6138459206277
 30
0.0
 10
126.8750353092198
 20
137.4942053870339
 30
0.0
  0
LINE
  5
260
330
1F
100
AcDbEntity
  8
0
  6
Continuous
 62
     7
370
    15
100
AcDbLine
 10
126.8750353092
 20
137.494205387
 30
0.0
 11
126.8043517067
 21
137.494205387
 31
0.0
  0
SPLINE
  5
261
330
1F
100
AcDbEntity
  8
0
  6
Continuous
 62
     7
370
    15
100
AcDbSpline
210
0.0
220
0.0
230
1.0
 70
     8
 71
     3
 72
     9
 73
     5
 74
     0
 42
0.00000001
 43
0.00000001
 12
1.0
 22
0.0
 32
0.0
 13
1.0
 23
0.0
 33
0.0
 40
0.0
 40
0.0
 40
0.0
 40
0.0
 40
0.5278771639355619
 40
1.0
 40
1.0
 40
1.0
 40
1.0
 10
125.9243517066968
 20
137.8830431431268
 30
0.0
 10
125.9239664152344
 20
137.8737971943063
 30
0.0
 10
125.9232365267514
 20
137.8562818527606
 30
0.0
 10
125.9283988639028
 20
137.8391165975573
 30
0.0
 10
125.9308361211595
 20
137.831012488589
 30
0.0
  0
SPLINE
  5
262
330
1F
100
AcDbEntity
  8
0
  6
Continuous
 62
     7
370
    15
100
AcDbSpline
210
0.0
220
0.0
230
1.0
 70
     8
 71
     3
 72
     9
 73
     5
 74
     0
 42
0.00000001
 43
0.00000001
 12
1.0
 22
0.0
 32
0.0
 13
1.0
 23
0.0
 33
0.0
 40
0.0
 40
0.0
 40
0.0
 40
0.0
 40
0.2575513451038095
 40
1.0
 40
1.0
 40
1.0
 40
1.0
 10
126.8750353092197
 20
139.7502794900062
 30
0.0
 10
126.8885183537747
 20
139.7355727600302
 30
0.0
 10
126.9408692531635
 20
139.6784706316368
 30
0.0
 10
126.954345950722
 20
139.6191449746137
 30
0.0
 10
126.9643517066968
 20
139.575098720356
 30
0.0
  0
SPLINE
  5
263
330
1F
100
AcDbEntity
  8
0
  6
Continuous
 62
     7
370
    15
100
AcDbSpline
210
0.0
220
0.0
230
1.0
 70
     8
 71
     3
 72
     9
 73
     5
 74
     0
 42
0.00000001
 43
0.00000001
 12
1.0
 22
0.0
 32
0.0
 13
1.0
 23
0.0
 33
0.0
 40
0.0
 40
0.0
 40
0.0
 40
0.0
 40
0.5569342110491996
 40
0.9999999999999999
 40
0.9999999999999999
 40
0.9999999999999999
 40
0.9999999999999999
 10
126.0136681041739
 20
139.7502794900062
 30
0.0
 10
125.999185908925
 20
139.7356299095039
 30
0.0
 10
125.9731824870458
 20
139.7093259400013
 30
0.0
 10
125.9651562387225
 20
139.6819937111854
 30
0.0
 10
125.9616000826768
 20
139.6698837356613
 30
0.0
  0
LINE
  5
264
330
1F
100
AcDbEntity
  8
0
  6
Continuous
 62
     7
370
    15
100
AcDbLine
 10
126.8750353092
 20
139.75027949
 30
0.0
 11
126.0136681042
 21
139.75027949
 31
0.0
  0
LINE
  5
265
330
1F
100
AcDbEntity
  8
0
  6
Continuous
 62
     7
370
    15
100
AcDbLine
 10
126.927135937
 20
137.5749900636
 30
0.0
 11
126.8750353092
 21
137.494205387
 31
0.0
  0
LINE
  5
266
330
1F
100
AcDbEntity
  8
0
  6
Continuous
 62
     7
370
    15
100
AcDbLine
 10
126.9643517067
 20
137.6222424385
 30
0.0
 11
126.9643517067
 21
137.8830431431
 31
0.0
  0
LINE
  5
267
330
1F
100
AcDbEntity
  8
0
  6
Continuous
 62
     7
370
    15
100
AcDbLine
 10
126.9643517067
 20
139.6222424385
 30
0.0
 11
126.9643517067
 21
139.5750987204
 31
0.0
  0
LINE
  5
268
330
1F
100
AcDbEntity
  8
0
  6
Continuous
 62
     7
370
    15
100
AcDbLine
 10
127.9650353092
 20
138.8375463209
 30
0.0
 11
128.0543517067
 21
138.2924889439
 31
0.0
  0
SPLINE
  5
269
330
1F
100
AcDbEntity
  8
0
  6
Continuous
 62
     7
370
    15
100
AcDbSpline
210
0.0
220
0.0
230
1.0
 70
     8
 71
     3
 72
     9
 73
     5
 74
     0
 42
0.00000001
 43
0.00000001
 12
1.0
 22
0.0
 32
0.0
 13
1.0
 23
0.0
 33
0.0
 40
0.0
 40
0.0
 40
0.0
 40
0.0
 40
0.0702005767034291
 40
1.0
 40
1.0
 40
1.0
 40
1.0
 10
128.0543517066968
 20
138.2924889438968
 30
0.0
 10
128.0542624834433
 20
138.2795678589904
 30
0.0
 10
128.0529915073672
 20
138.0955083325134
 30
0.0
 10
128.0074136109881
 20
137.9151389317091
 30
0.0
 10
127.9650353092198
 20
137.7474315668609
 30
0.0
  0
LINE
  5
26A
330
1F
100
AcDbEntity
  8
0
  6
Continuous
 62
     7
370
    15
100
AcDbLine
 10
127.9650353092
 20
137.7474315669
 30
0.0
 11
127.1036681042
 21
137.7474315669
 31
0.0
  0
SPLINE
  5
26B
330
1F
100
AcDbEntity
  8
0
  6
Continuous
 62
     7
370
    15
100
AcDbSpline
210
0.0
220
0.0
230
1.0
 70
     8
 71
     3
 72
     9
 73
     5
 74
     0
 42
0.00000001
 43
0.00000001
 12
1.0
 22
0.0
 32
0.0
 13
1.0
 23
0.0
 33
0.0
 40
0.0
 40
0.0
 40
0.0
 40
0.0
 40
0.0702005767034289
 40
0.9999999999999999
 40
0.9999999999999999
 40
0.9999999999999999
 40
0.9999999999999999
 10
127.0143517066968
 20
138.2924889438968
 30
0.0
 10
127.0144409299503
 20
138.2795678589904
 30
0.0
 10
127.0157119060264
 20
138.0955083325134
 30
0.0
 10
127.0612898024055
 20
137.9151389317091
 30
0.0
 10
127.1036681041738
 20
137.7474315668609
 30
0.0
  0
LINE
  5
26C
330
1F
100
AcDbEntity
  8
0
  6
Continuous
 62
     7
370
    15
100
AcDbLine
 10
127.1036681042
 20
138.8375463209
 30
0.0
 11
127.0143517067
 21
138.2924889439
 31
0.0
  0
LINE
  5
26D
330
1F
100
AcDbEntity
  8
0
  6
Continuous
 62
     7
370
    15
100
AcDbLine
 10
127.9650353092
 20
138.8375463209
 30
0.0
 11
127.1036681042
 21
138.8375463209
 31
0.0
  0
SPLINE
  5
26E
330
1F
100
AcDbEntity
  8
0
  6
Continuous
 62
     7
370
    15
100
AcDbSpline
210
0.0
220
0.0
230
1.0
 70
     8
 71
     3
 72
     9
 73
     5
 74
     0
 42
0.00000001
 43
0.00000001
 12
1.0
 22
0.0
 32
0.0
 13
1.0
 23
0.0
 33
0.0
 40
0.0
 40
0.0
 40
0.0
 40
0.0
 40
0.0702005767034409
 40
1.0
 40
1.0
 40
1.0
 40
1.0
 10
128.0543517066968
 20
139.2749517567623
 30
0.0
 10
128.0542624834433
 20
139.2645826598323
 30
0.0
 10
128.0529915073673
 20
139.1168759397892
 30
0.0
 10
128.0074136109882
 20
138.9721305245484
 30
0.0
 10
127.9650353092198
 20
138.8375463209327
 30
0.0
  0
SPLINE
  5
26F
330
1F
100
AcDbEntity
  8
0
  6
Continuous
 62
     7
370
    15
100
AcDbSpline
210
0.0
220
0.0
230
1.0
 70
     8
 71
     3
 72
     9
 73
     5
 74
     0
 42
0.00000001
 43
0.00000001
 12
1.0
 22
0.0
 32
0.0
 13
1.0
 23
0.0
 33
0.0
 40
0.0
 40
0.0
 40
0.0
 40
0.0
 40
0.0702005767034337
 40
1.0
 40
1.0
 40
1.0
 40
1.0
 10
127.0143517066968
 20
139.2749517567623
 30
0.0
 10
127.0144409299503
 20
139.2645826598323
 30
0.0
 10
127.0157119060264
 20
139.1168759397893
 30
0.0
 10
127.0612898024055
 20
138.9721305245484
 30
0.0
 10
127.1036681041738
 20
138.8375463209327
 30
0.0
  0
LINE
  5
270
330
1F
100
AcDbEntity
  8
0
  6
Continuous
 62
     7
370
    15
100
AcDbLine
 10
127.0143517067
 20
138.2924889439
 30
0.0
 11
127.0143517067
 21
139.2749517568
 31
0.0
  0
LINE
  5
271
330
1F
100
AcDbEntity
  8
0
  6
Continuous
 62
     7
370
    15
100
AcDbLine
 10
127.9650353092
 20
139.7123571926
 30
0.0
 11
128.0543517067
 21
139.2749517568
 31
0.0
  0
LINE
  5
272
330
1F
100
AcDbEntity
  8
0
  6
Continuous
 62
     7
370
    15
100
AcDbLine
 10
127.1036681042
 20
139.7123571926
 30
0.0
 11
127.0143517067
 21
139.2749517568
 31
0.0
  0
LINE
  5
273
330
1F
100
AcDbEntity
  8
0
  6
Continuous
 62
     7
370
    15
100
AcDbLine
 10
127.9650353092
 20
139.7123571926
 30
0.0
 11
127.1036681042
 21
139.7123571926
 31
0.0
  0
SPLINE
  5
274
330
1F
100
AcDbEntity
  8
0
  6
Continuous
 62
     7
370
    15
100
AcDbSpline
210
0.0
220
0.0
230
1.0
 70
     8
 71
     3
 72
     9
 73
     5
 74
     0
 42
0.00000001
 43
0.00000001
 12
1.0
 22
0.0
 32
0.0
 13
1.0
 23
0.0
 33
0.0
 40
0.0
 40
0.0
 40
0.0
 40
0.0
 40
0.2686336050555542
 40
1.0
 40
1.0
 40
1.0
 40
1.0
 10
127.0143517066968
 20
137.6397796256546
 30
0.0
 10
127.0156774972137
 20
137.6495681994096
 30
0.0
 10
127.0206128087009
 20
137.6860065807989
 30
0.0
 10
127.068583761421
 20
137.7214843319216
 30
0.0
 10
127.1036681041738
 20
137.7474315668609
 30
0.0
  0
LINE
  5
275
330
1F
100
AcDbEntity
  8
0
  6
Continuous
 62
     7
370
    15
100
AcDbLine
 10
127.0143517067
 20
137.6397796257
 30
0.0
 11
127.0143517067
 21
138.2924889439
 31
0.0
  0
SPLINE
  5
276
330
1F
100
AcDbEntity
  8
0
  6
Continuous
 62
     7
370
    15
100
AcDbSpline
210
0.0
220
0.0
230
1.0
 70
     8
 71
     3
 72
     9
 73
     5
 74
     0
 42
0.00000001
 43
0.00000001
 12
1.0
 22
0.0
 32
0.0
 13
1.0
 23
0.0
 33
0.0
 40
0.0
 40
0.0
 40
0.0
 40
0.0
 40
0.2686336050555536
 40
1.0
 40
1.0
 40
1.0
 40
1.0
 10
128.0543517066968
 20
137.6397796256546
 30
0.0
 10
128.0530259161799
 20
137.6495681994096
 30
0.0
 10
128.0480906046926
 20
137.6860065807989
 30
0.0
 10
128.0001196519726
 20
137.7214843319216
 30
0.0
 10
127.9650353092198
 20
137.7474315668609
 30
0.0
  0
SPLINE
  5
277
330
1F
100
AcDbEntity
  8
0
  6
Continuous
 62
     7
370
    15
100
AcDbSpline
210
0.0
220
0.0
230
1.0
 70
     8
 71
     3
 72
     9
 73
     5
 74
     0
 42
0.00000001
 43
0.00000001
 12
1.0
 22
0.0
 32
0.0
 13
1.0
 23
0.0
 33
0.0
 40
0.0
 40
0.0
 40
0.0
 40
0.0
 40
0.2686336050555685
 40
1.0
 40
1.0
 40
1.0
 40
1.0
 10
127.0143517066968
 20
139.6047052513855
 30
0.0
 10
127.0156774972137
 20
139.6144938251405
 30
0.0
 10
127.0206128087009
 20
139.6509322065298
 30
0.0
 10
127.0685837614209
 20
139.6864099576525
 30
0.0
 10
127.1036681041738
 20
139.7123571925918
 30
0.0
  0
LINE
  5
278
330
1F
100
AcDbEntity
  8
0
  6
Continuous
 62
     7
370
    15
100
AcDbLine
 10
127.0143517067
 20
139.2749517568
 30
0.0
 11
127.0143517067
 21
139.620637881
 31
0.0
  0
LINE
  5
279
330
1F
100
AcDbEntity
  8
0
  6
Continuous
 62
     7
370
    15
100
AcDbLine
 10
128.0409931428
 20
139.6399812822
 30
0.0
 11
127.9650353092
 21
139.7123571926
 31
0.0
  0
SPLINE
  5
27A
330
1F
100
AcDbEntity
  8
0
  6
Continuous
 62
     7
370
    15
100
AcDbSpline
210
0.0
220
0.0
230
1.0
 70
     8
 71
     3
 72
     9
 73
     5
 74
     0
 42
0.00000001
 43
0.00000001
 12
1.0
 22
0.0
 32
0.0
 13
1.0
 23
0.0
 33
0.0
 40
0.0
 40
0.0
 40
0.0
 40
0.0
 40
0.3810450695520174
 40
1.0
 40
1.0
 40
1.0
 40
1.0
 10
127.9650353092198
 20
137.5321276844483
 30
0.0
 10
127.9789304977366
 20
137.5411507653783
 30
0.0
 10
128.0153964951398
 20
137.5648305913388
 30
0.0
 10
128.0255871152419
 20
137.5894339784093
 30
0.0
 10
128.0318946497984
 20
137.6046623661423
 30
0.0
  0
LINE
  5
27B
330
1F
100
AcDbEntity
  8
0
  6
Continuous
 62
     7
370
    15
100
AcDbLine
 10
127.9650353092
 20
137.5321276844
 30
0.0
 11
127.1036681042
 21
137.5321276844
 31
0.0
  0
SPLINE
  5
27C
330
1F
100
AcDbEntity
  8
0
  6
Continuous
 62
     7
370
    15
100
AcDbSpline
210
0.0
220
0.0
230
1.0
 70
     8
 71
     3
 72
     9
 73
     5
 74
     0
 42
0.00000001
 43
0.00000001
 12
1.0
 22
0.0
 32
0.0
 13
1.0
 23
0.0
 33
0.0
 40
0.0
 40
0.0
 40
0.0
 40
0.0
 40
0.2575513451038167
 40
1.0
 40
1.0
 40
1.0
 40
1.0
 10
127.1036681041738
 20
137.5321276844483
 30
0.0
 10
127.0901850596189
 20
137.54116525195
 30
0.0
 10
127.0378341602301
 20
137.5762556045088
 30
0.0
 10
127.0243574626715
 20
137.6127123580363
 30
0.0
 10
127.0143517066968
 20
137.6397796256546
 30
0.0
  0
LINE
  5
27D
330
1F
100
AcDbEntity
  8
0
  6
Continuous
 62
     7
370
    15
100
AcDbLine
 10
127.1036681042
 20
137.5321276844
 30
0.0
 11
127.0143517067
 21
137.9695331203
 31
0.0
  0
LINE
  5
27E
330
1F
100
AcDbEntity
  8
0
  6
Continuous
 62
     7
370
    15
100
AcDbLine
 10
127.9650353092
 20
137.5321276844
 30
0.0
 11
128.0543517067
 21
137.9695331203
 31
0.0
  0
LINE
  5
27F
330
1F
100
AcDbEntity
  8
0
  6
Continuous
 62
     7
370
    15
100
AcDbLine
 10
128.0543517067
 20
139.8422424385
 30
0.0
 11
128.0543517067
 21
137.4022424385
 31
0.0
  0
LINE
  5
280
330
1F
100
AcDbEntity
  8
0
  6
Continuous
 62
     7
370
    15
100
AcDbLine
 10
281.6043517067
 20
141.1733668626
 30
0.0
 11
281.9243517067
 21
141.1733668626
 31
0.0
  0
LINE
  5
281
330
1F
100
AcDbEntity
  8
0
  6
Continuous
 62
     7
370
    15
100
AcDbLine
 10
281.9243517067
 20
129.9710391045
 30
0.0
 11
281.9243517067
 21
141.1733668626
 31
0.0
  0
LINE
  5
282
330
1F
100
AcDbEntity
  8
0
  6
Continuous
 62
     7
370
    15
100
AcDbLine
 10
281.6043517067
 20
129.9710391045
 30
0.0
 11
281.9243517067
 21
129.9710391045
 31
0.0
  0
LINE
  5
283
330
1F
100
AcDbEntity
  8
0
  6
Continuous
 62
     7
370
    15
100
AcDbLine
 10
281.6043517067
 20
141.5722424385
 30
0.0
 11
281.9243517067
 21
141.5722424385
 31
0.0
  0
SPLINE
  5
284
330
1F
100
AcDbEntity
  8
0
  6
Continuous
 62
     7
370
    15
100
AcDbSpline
210
0.0
220
0.0
230
1.0
 70
    24
 71
     3
 72
    11
 73
     7
 74
     0
 42
0.00000001
 43
0.00000001
 12
1.0
 22
0.0
 32
0.0
 13
1.0
 23
0.0
 33
0.0
 40
0.0
 40
0.0
 40
0.0
 40
0.0
 40
0.2833534124411238
 40
0.5581116990962655
 40
0.7754835424211791
 40
1.0
 40
1.0
 40
1.0
 40
1.0
 10
281.9243517066975
 20
141.1733668625753
 30
0.0
 10
281.9243517066975
 20
141.2327765775367
 30
0.0
 10
281.9243517066975
 20
141.3497938976184
 30
0.0
 10
281.9243517066974
 20
141.4794158516999
 30
0.0
 10
281.9243517066975
 20
141.5581969321223
 30
0.0
 10
281.9243517066975
 20
141.5675104084724
 30
0.0
 10
281.9243517066975
 20
141.5722424385206
 30
0.0
  0
LINE
  5
285
330
1F
100
AcDbEntity
  8
0
  6
Continuous
 62
     7
370
    15
100
AcDbLine
 10
281.6043517067
 20
129.5722424385
 30
0.0
 11
281.9243517067
 21
129.5722424385
 31
0.0
  0
SPLINE
  5
286
330
1F
100
AcDbEntity
  8
0
  6
Continuous
 62
     7
370
    15
100
AcDbSpline
210
0.0
220
0.0
230
1.0
 70
    24
 71
     3
 72
    11
 73
     7
 74
     0
 42
0.00000001
 43
0.00000001
 12
1.0
 22
0.0
 32
0.0
 13
1.0
 23
0.0
 33
0.0
 40
0.0
 40
0.0
 40
0.0
 40
0.0
 40
0.2832771686238255
 40
0.5580022489005113
 40
0.7754022428539237
 40
1.0
 40
1.0
 40
1.0
 40
1.0
 10
281.9243517066975
 20
129.5722424385206
 30
0.0
 10
281.9243517066975
 20
129.579899204956
 30
0.0
 10
281.9243517066974
 20
129.5949815813826
 30
0.0
 10
281.9243517066975
 20
129.7015693146068
 30
0.0
 10
281.9243517066974
 20
129.8316542005862
 30
0.0
 10
281.9243517066975
 20
129.9240757865494
 30
0.0
 10
281.9243517066975
 20
129.971039104502
 30
0.0
  0
SPLINE
  5
287
330
1F
100
AcDbEntity
  8
0
  6
Continuous
 62
     7
370
    15
100
AcDbSpline
210
0.0
220
0.0
230
1.0
 70
     8
 71
     3
 72
    11
 73
     7
 74
     0
 42
0.00000001
 43
0.00000001
 12
1.0
 22
0.0
 32
0.0
 13
1.0
 23
0.0
 33
0.0
 40
0.0
 40
0.0
 40
0.0
 40
0.0
 40
0.2371516183832001
 40
0.4978002014464022
 40
0.7485397230460176
 40
1.0
 40
1.0
 40
1.0
 40
1.0
 10
281.9243517066975
 20
141.1733668625753
 30
0.0
 10
281.9633494753587
 20
141.1672243577051
 30
0.0
 10
282.0452089086948
 20
141.1543307490398
 30
0.0
 10
282.1339267028149
 20
141.1277261540589
 30
0.0
 10
282.1933761043001
 20
141.0970465259055
 30
0.0
 10
282.200689673762
 20
141.0754920448749
 30
0.0
 10
282.2043517066974
 20
141.0646993369027
 30
0.0
  0
LINE
  5
288
330
1F
100
AcDbEntity
  8
0
  6
Continuous
 62
     7
370
    15
100
AcDbLine
 10
282.2043517067
 20
141.0646993369
 30
0.0
 11
282.2043517067
 21
130.0797855401
 31
0.0
  0
SPLINE
  5
289
330
1F
100
AcDbEntity
  8
0
  6
Continuous
 62
     7
370
    15
100
AcDbSpline
210
0.0
220
0.0
230
1.0
 70
     8
 71
     3
 72
    11
 73
     7
 74
     0
 42
0.00000001
 43
0.00000001
 12
1.0
 22
0.0
 32
0.0
 13
1.0
 23
0.0
 33
0.0
 40
0.0
 40
0.0
 40
0.0
 40
0.0
 40
0.2371429336589574
 40
0.4977971043283281
 40
0.7485377110304098
 40
1.0
 40
1.0
 40
1.0
 40
1.0
 10
281.9243517066975
 20
129.971039104502
 30
0.0
 10
281.9633485230249
 20
129.9771859832669
 30
0.0
 10
282.0452084458418
 20
129.9900891653378
 30
0.0
 10
282.133926480013
 20
130.0167127446761
 30
0.0
 10
282.1933761482533
 20
130.0474149366906
 30
0.0
 10
282.2006896839513
 20
130.0689850066866
 30
0.0
 10
282.2043517066974
 20
130.0797855401386
 30
0.0
  0
SPLINE
  5
28A
330
1F
100
AcDbEntity
  8
0
  6
Continuous
 62
     7
370
    15
100
AcDbSpline
210
0.0
220
0.0
230
1.0
 70
     8
 71
     3
 72
    11
 73
     7
 74
     0
 42
0.00000001
 43
0.00000001
 12
1.0
 22
0.0
 32
0.0
 13
1.0
 23
0.0
 33
0.0
 40
0.0
 40
0.0
 40
0.0
 40
0.0
 40
0.2371941589275936
 40
0.4978619749471087
 40
0.7485798819786941
 40
1.0
 40
1.0
 40
1.0
 40
1.0
 10
281.9243517066975
 20
141.5722424385206
 30
0.0
 10
281.9633475549083
 20
141.5436587377732
 30
0.0
 10
282.045198432235
 20
141.4836625820089
 30
0.0
 10
282.1339214348438
 20
141.3589883529439
 30
0.0
 10
282.1933751067912
 20
141.2158450585615
 30
0.0
 10
282.2006894305092
 20
141.1151281930263
 30
0.0
 10
282.2043517066974
 20
141.0646993369027
 30
0.0
  0
SPLINE
  5
28B
330
1F
100
AcDbEntity
  8
0
  6
Continuous
 62
     7
370
    15
100
AcDbSpline
210
0.0
220
0.0
230
1.0
 70
    24
 71
     3
 72
    13
 73
     9
 74
     0
 42
0.00000001
 43
0.00000001
 12
1.0
 22
0.0
 32
0.0
 13
1.0
 23
0.0
 33
0.0
 40
0.0
 40
0.0
 40
0.0
 40
0.0
 40
0.1275360740474341
 40
0.2545887198592393
 40
0.4999418984797865
 40
0.7453299828649759
 40
0.8725055605771155
 40
0.9999999999999999
 40
0.9999999999999999
 40
0.9999999999999999
 40
0.9999999999999999
 10
281.9243517066975
 20
141.5722424385206
 30
0.0
 10
281.9243517066975
 20
141.5707889897464
 30
0.0
 10
281.9243517066975
 20
141.5678876015268
 30
0.0
 10
281.9243517066974
 20
141.5357893765315
 30
0.0
 10
281.9243517066975
 20
141.4626334954574
 30
0.0
 10
281.9243517066975
 20
141.3531184974095
 30
0.0
 10
281.9243517066975
 20
141.2531491006222
 30
0.0
 10
281.9243517066975
 20
141.199983130889
 30
0.0
 10
281.9243517066975
 20
141.1733668625753
 30
0.0
  0
SPLINE
  5
28C
330
1F
100
AcDbEntity
  8
0
  6
Continuous
 62
     7
370
    15
100
AcDbSpline
210
0.0
220
0.0
230
1.0
 70
     8
 71
     3
 72
    11
 73
     7
 74
     0
 42
0.00000001
 43
0.00000001
 12
1.0
 22
0.0
 32
0.0
 13
1.0
 23
0.0
 33
0.0
 40
0.0
 40
0.0
 40
0.0
 40
0.0
 40
0.2514201137491404
 40
0.5021380165204816
 40
0.7627995894819177
 40
1.0
 40
1.0
 40
1.0
 40
1.0
 10
282.2043517066974
 20
130.0797855401386
 30
0.0
 10
282.200689432367
 20
130.0293566846932
 30
0.0
 10
282.1933751123596
 20
129.9286398205125
 30
0.0
 10
282.1339218985198
 20
129.7854976865605
 30
0.0
 10
282.0451993720828
 20
129.6608233011958
 30
0.0
 10
281.963348553868
 20
129.6008269738773
 30
0.0
 10
281.9243517066975
 20
129.5722424385206
 30
0.0
  0
SPLINE
  5
28D
330
1F
100
AcDbEntity
  8
0
  6
Continuous
 62
     7
370
    15
100
AcDbSpline
210
0.0
220
0.0
230
1.0
 70
    24
 71
     3
 72
    13
 73
     9
 74
     0
 42
0.00000001
 43
0.00000001
 12
1.0
 22
0.0
 32
0.0
 13
1.0
 23
0.0
 33
0.0
 40
0.0
 40
0.0
 40
0.0
 40
0.0
 40
0.1275872441294498
 40
0.2546759233236671
 40
0.5000487292309094
 40
0.7453982611490075
 40
0.872539756542471
 40
1.0
 40
1.0
 40
1.0
 40
1.0
 10
281.9243517066975
 20
129.971039104502
 30
0.0
 10
281.9243517066975
 20
129.9444048042116
 30
0.0
 10
281.9243517066975
 20
129.8912402808707
 30
0.0
 10
281.9243517066975
 20
129.7912915142429
 30
0.0
 10
281.9243517066975
 20
129.6818108391986
 30
0.0
 10
281.9243517066975
 20
129.6086602839629
 30
0.0
 10
281.9243517066975
 20
129.5766082163267
 30
0.0
 10
281.9243517066975
 20
129.5736989118883
 30
0.0
 10
281.9243517066975
 20
129.5722424385206
 30
0.0
  0
SPLINE
  5
28E
330
1F
100
AcDbEntity
  8
0
  6
Continuous
 62
     7
370
    15
100
AcDbSpline
210
0.0
220
0.0
230
1.0
 70
     8
 71
     3
 72
    12
 73
     8
 74
     0
 42
0.00000001
 43
0.00000001
 12
1.0
 22
0.0
 32
0.0
 13
1.0
 23
0.0
 33
0.0
 40
0.0
 40
0.0
 40
0.0
 40
0.0
 40
0.1459841730187557
 40
0.2775401121342696
 40
0.4978906251292662
 40
0.7102348393175466
 40
1.0
 40
1.0
 40
1.0
 40
1.0
 10
128.0843517066959
 20
176.3836566520826
 30
0.0
 10
128.0871145216898
 20
176.3879379765035
 30
0.0
 10
128.0923670909741
 20
176.396077483926
 30
0.0
 10
128.1397694053889
 20
176.4178811285669
 30
0.0
 10
128.2300839873105
 20
176.455352618577
 30
0.0
 10
128.3820403724529
 20
176.5343941744052
 30
0.0
 10
128.5039805529763
 20
176.5964375013732
 30
0.0
 10
128.5743517066958
 20
176.6322424385203
 30
0.0
  0
SPLINE
  5
28F
330
1F
100
AcDbEntity
  8
0
  6
Continuous
 62
     7
370
    15
100
AcDbSpline
210
0.0
220
0.0
230
1.0
 70
     8
 71
     3
 72
    12
 73
     8
 74
     0
 42
0.00000001
 43
0.00000001
 12
1.0
 22
0.0
 32
0.0
 13
1.0
 23
0.0
 33
0.0
 40
0.0
 40
0.0
 40
0.0
 40
0.0
 40
0.1304380492153597
 40
0.2500477496216157
 40
0.4602320054262505
 40
0.6821816548419526
 40
1.0
 40
1.0
 40
1.0
 40
1.0
 10
128.3243517066959
 20
176.3836566520826
 30
0.0
 10
128.325782596764
 20
176.3879609895496
 30
0.0
 10
128.3285255911866
 20
176.3962123387816
 30
0.0
 10
128.3533555255836
 20
176.4184451530289
 30
0.0
 10
128.4018355390803
 20
176.4582661384551
 30
0.0
 10
128.4782591722767
 20
176.5365432882334
 30
0.0
 10
128.5387401666605
 20
176.5967766851983
 30
0.0
 10
128.5743517066958
 20
176.6322424385203
 30
0.0
  0
LINE
  5
290
330
1F
100
AcDbEntity
  8
0
  6
Continuous
 62
     7
370
    15
100
AcDbLine
 10
128.0843517067
 20
176.3836566521
 30
0.0
 11
128.3243517067
 21
176.3836566521
 31
0.0
  0
SPLINE
  5
291
330
1F
100
AcDbEntity
  8
0
  6
Continuous
 62
     7
370
    15
100
AcDbSpline
210
0.0
220
0.0
230
1.0
 70
     8
 71
     3
 72
    12
 73
     8
 74
     0
 42
0.00000001
 43
0.00000001
 12
1.0
 22
0.0
 32
0.0
 13
1.0
 23
0.0
 33
0.0
 40
0.0
 40
0.0
 40
0.0
 40
0.0
 40
0.2256471098599508
 40
0.4513366839867355
 40
0.6770264566946238
 40
0.9027160158546434
 40
1.0
 40
1.0
 40
1.0
 40
1.0
 10
128.5743517066959
 20
176.6322424385202
 30
0.0
 10
128.5556476851728
 20
176.574343119506
 30
0.0
 10
128.5182361222385
 20
176.4585335854722
 30
0.0
 10
128.4621080510217
 20
176.3062523530138
 30
0.0
 10
128.4060120599177
 20
176.1952399761951
 30
0.0
 10
128.3604458274203
 20
176.1472130781654
 30
0.0
 10
128.3337938538897
 20
176.1433930749678
 30
0.0
 10
128.3257659202582
 20
176.1422424385203
 30
0.0
  0
LINE
  5
292
330
1F
100
AcDbEntity
  8
0
  6
Continuous
 62
     7
370
    15
100
AcDbLine
 10
128.3257659203
 20
176.3822424385
 30
0.0
 11
128.3257659203
 21
176.1422424385
 31
0.0
  0
SPLINE
  5
293
330
1F
100
AcDbEntity
  8
0
  6
Continuous
 62
     7
370
    15
100
AcDbSpline
210
0.0
220
0.0
230
1.0
 70
     8
 71
     3
 72
    11
 73
     7
 74
     0
 42
0.00000001
 43
0.00000001
 12
1.0
 22
0.0
 32
0.0
 13
1.0
 23
0.0
 33
0.0
 40
0.0
 40
0.0
 40
0.0
 40
0.0
 40
0.2657210447342644
 40
0.5202381807570151
 40
0.7747258001506706
 40
1.0
 40
1.0
 40
1.0
 40
1.0
 10
128.5743517066959
 20
176.6322424385202
 30
0.0
 10
128.5523183565238
 20
176.597403904263
 30
0.0
 10
128.5091806742188
 20
176.5291957738144
 30
0.0
 10
128.4449932216157
 20
176.4454216159721
 30
0.0
 10
128.3841171361804
 20
176.3918138126745
 30
0.0
 10
128.344410391067
 20
176.3853006988015
 30
0.0
 10
128.3257659202582
 20
176.3822424385203
 30
0.0
  0
LINE
  5
294
330
1F
100
AcDbEntity
  8
0
  6
Continuous
 62
     7
370
    15
100
AcDbLine
 10
128.0843517067
 20
178.8522424385
 30
0.0
 11
128.0843517067
 21
176.3836566521
 31
0.0
  0
LINE
  5
295
330
1F
100
AcDbEntity
  8
0
  6
Continuous
 62
     7
370
    15
100
AcDbLine
 10
128.5743517067
 20
178.8522424385
 30
0.0
 11
128.0843517067
 21
178.8522424385
 31
0.0
  0
LINE
  5
296
330
1F
100
AcDbEntity
  8
0
  6
Continuous
 62
     7
370
    15
100
AcDbLine
 10
128.5743517067
 20
178.8522424385
 30
0.0
 11
128.5743517067
 21
176.6322424385
 31
0.0
  0
LINE
  5
297
330
1F
100
AcDbEntity
  8
0
  6
Continuous
 62
     7
370
    15
100
AcDbLine
 10
128.3417450496
 20
176.1422424385
 30
0.0
 11
128.3257659203
 21
176.1422424385
 31
0.0
  0
LINE
  5
298
330
1F
100
AcDbEntity
  8
0
  6
Continuous
 62
     7
370
    15
100
AcDbLine
 10
128.5743517067
 20
176.6322424385
 30
0.0
 11
258.0543517067
 21
176.6322424385
 31
0.0
  0
LINE
  5
299
330
1F
100
AcDbEntity
  8
0
  6
Continuous
 62
     7
370
    15
100
AcDbLine
 10
258.0543517067
 20
176.1542183555
 30
0.0
 11
258.0543517067
 21
176.6322424385
 31
0.0
  0
LINE
  5
29A
330
1F
100
AcDbEntity
  8
0
  6
Continuous
 62
     7
370
    15
100
AcDbLine
 10
257.7543517067
 20
178.8422424385
 30
0.0
 11
257.7543517067
 21
178.8522424385
 31
0.0
  0
LINE
  5
29B
330
1F
100
AcDbEntity
  8
0
  6
Continuous
 62
     7
370
    15
100
AcDbLine
 10
258.0543517067
 20
178.8422424385
 30
0.0
 11
257.7543517067
 21
178.8422424385
 31
0.0
  0
LINE
  5
29C
330
1F
100
AcDbEntity
  8
0
  6
Continuous
 62
     7
370
    15
100
AcDbLine
 10
258.0543517067
 20
176.6322424385
 30
0.0
 11
258.0543517067
 21
178.8422424385
 31
0.0
  0
LINE
  5
29D
330
1F
100
AcDbEntity
  8
0
  6
Continuous
 62
     7
370
    15
100
AcDbLine
 10
257.7543517067
 20
178.8522424385
 30
0.0
 11
128.5743517067
 21
178.8522424385
 31
0.0
  0
LINE
  5
29E
330
1F
100
AcDbEntity
  8
0
  6
Continuous
 62
     7
370
    15
100
AcDbLine
 10
257.7543517067
 20
179.3422424385
 30
0.0
 11
257.7543517067
 21
178.8522424385
 31
0.0
  0
LINE
  5
29F
330
1F
100
AcDbEntity
  8
0
  6
Continuous
 62
     7
370
    15
100
AcDbLine
 10
128.5743517067
 20
179.3422424385
 30
0.0
 11
128.5743517067
 21
178.8522424385
 31
0.0
  0
LINE
  5
2A0
330
1F
100
AcDbEntity
  8
0
  6
Continuous
 62
     7
370
    15
100
AcDbLine
 10
138.8843517067
 20
179.3422424385
 30
0.0
 11
257.7543517067
 21
179.3422424385
 31
0.0
  0
LINE
  5
2A1
330
1F
100
AcDbEntity
  8
0
  6
Continuous
 62
     7
370
    15
100
AcDbLine
 10
258.0043517067
 20
183.1322424385
 30
0.0
 11
258.0043517067
 21
179.5922424385
 31
0.0
  0
LINE
  5
2A2
330
1F
100
AcDbEntity
  8
0
  6
Continuous
 62
     7
370
    15
100
AcDbLine
 10
258.0043517067
 20
179.5922424385
 30
0.0
 11
258.1843517067
 21
179.5922424385
 31
0.0
  0
ARC
  5
2A3
330
1F
100
AcDbEntity
  8
0
  6
Continuous
 62
     7
370
    15
100
AcDbCircle
 10
276.7577134064
 20
178.9622424385
 30
0.0
 40
4.660000000000021
100
AcDbArc
 50
293.5
 51
90.0
  0
LINE
  5
2A4
330
1F
100
AcDbEntity
  8
0
  6
Continuous
 62
     7
370
    15
100
AcDbLine
 10
273.9191044132
 20
172.8176021368
 30
0.0
 11
273.981663517
 21
172.6737260482
 31
0.0
  0
LINE
  5
2A5
330
1F
100
AcDbEntity
  8
0
  6
Continuous
 62
     7
370
    15
100
AcDbLine
 10
273.981663517
 20
172.6737260482
 30
0.0
 11
278.6158840676
 21
174.6887424919
 31
0.0
  0
ARC
  5
2A6
330
1F
100
AcDbEntity
  8
0
  6
Continuous
 62
     7
370
    15
100
AcDbCircle
 10
258.4943517067
 20
183.1322424385
 30
0.0
 40
0.4899999999999807
100
AcDbArc
 50
90.0
 51
180.0
  0
LINE
  5
2A7
330
1F
100
AcDbEntity
  8
0
  6
Continuous
 62
     7
370
    15
100
AcDbLine
 10
276.7577134064
 20
183.6222424385
 30
0.0
 11
258.4943517067
 21
183.6222424385
 31
0.0
  0
LINE
  5
2A8
330
1F
100
AcDbEntity
  8
0
  6
Continuous
 62
     7
370
    15
100
AcDbLine
 10
128.0843517067
 20
179.100828225
 30
0.0
 11
128.3243517067
 21
179.100828225
 31
0.0
  0
LINE
  5
2A9
330
1F
100
AcDbEntity
  8
0
  6
Continuous
 62
     7
370
    15
100
AcDbLine
 10
128.3243517067
 20
178.8522424385
 30
0.0
 11
128.3243517067
 21
179.100828225
 31
0.0
  0
LINE
  5
2AA
330
1F
100
AcDbEntity
  8
0
  6
Continuous
 62
     7
370
    15
100
AcDbLine
 10
128.0843517067
 20
178.8522424385
 30
0.0
 11
128.0843517067
 21
179.100828225
 31
0.0
  0
LINE
  5
2AB
330
1F
100
AcDbEntity
  8
0
  6
Continuous
 62
     7
370
    15
100
AcDbLine
 10
128.3257659203
 20
179.3422424385
 30
0.0
 11
128.3257659203
 21
179.1022424385
 31
0.0
  0
LINE
  5
2AC
330
1F
100
AcDbEntity
  8
0
  6
Continuous
 62
     7
370
    15
100
AcDbLine
 10
128.3257659203
 20
179.1022424385
 30
0.0
 11
128.5743517067
 21
179.1022424385
 31
0.0
  0
ARC
  5
2AD
330
1F
100
AcDbEntity
  8
0
  6
Continuous
 62
     7
370
    15
100
AcDbCircle
 10
257.7543517067
 20
179.5922424385
 30
0.0
 40
0.4900000000000338
100
AcDbArc
 50
270.0
 51
331.3483409721
  0
ARC
  5
2AE
330
1F
100
AcDbEntity
  8
0
  6
Continuous
 62
     7
370
    15
100
AcDbCircle
 10
257.7543517067
 20
179.5922424385
 30
0.0
 40
0.2500000000000568
100
AcDbArc
 50
270.0
 51
0.0000000001
  0
LWPOLYLINE
  5
2AF
330
1F
100
AcDbEntity
  8
0
  6
Continuous
 62
     7
370
    15
100
AcDbPolyline
 90
        3
 70
   128
 43
0.0
 10
138.8843517067
 20
179.3590043627
 10
138.9255791262
 20
179.3470461184
 10
138.9743517067
 20
179.3422424385
  0
LINE
  5
2B0
330
1F
100
AcDbEntity
  8
0
  6
Continuous
 62
     7
370
    15
100
AcDbLine
 10
257.8043517067
 20
182.6569900035
 30
0.0
 11
257.7971577726
 21
182.6569900035
 31
0.0
  0
LINE
  5
2B1
330
1F
100
AcDbEntity
  8
0
  6
Continuous
 62
     7
370
    15
100
AcDbLine
 10
257.8043517067
 20
182.6569900035
 30
0.0
 11
257.8043517067
 21
182.6422424385
 31
0.0
  0
LINE
  5
2B2
330
1F
100
AcDbEntity
  8
0
  6
Continuous
 62
     7
370
    15
100
AcDbLine
 10
248.1881060243
 20
179.4169900035
 30
0.0
 11
245.9757603453
 21
179.4169900035
 31
0.0
  0
LINE
  5
2B3
330
1F
100
AcDbEntity
  8
0
  6
Continuous
 62
     7
370
    15
100
AcDbLine
 10
254.0004517034
 20
179.4169900035
 30
0.0
 11
251.7881060243
 21
179.4169900035
 31
0.0
  0
LINE
  5
2B4
330
1F
100
AcDbEntity
  8
0
  6
Continuous
 62
     7
370
    15
100
AcDbLine
 10
251.7881060243
 20
179.4169900035
 30
0.0
 11
248.1881060243
 21
179.4169900035
 31
0.0
  0
SPLINE
  5
2B5
330
1F
100
AcDbEntity
  8
0
  6
Continuous
 62
     7
370
    15
100
AcDbSpline
210
0.0
220
0.0
230
1.0
 70
     8
 71
     3
 72
     9
 73
     5
 74
     0
 42
0.00000001
 43
0.00000001
 12
1.0
 22
0.0
 32
0.0
 13
1.0
 23
0.0
 33
0.0
 40
0.0
 40
0.0
 40
0.0
 40
0.0
 40
0.6413012924013758
 40
1.0
 40
1.0
 40
1.0
 40
1.0
 10
254.0281060243445
 20
179.4176353327108
 30
0.0
 10
254.0262002463242
 20
179.417492151221
 30
0.0
 10
254.0232285105068
 20
179.4172688841055
 30
0.0
 10
254.0064648181425
 20
179.4170636284393
 30
0.0
 10
254.0004517033568
 20
179.4169900034971
 30
0.0
  0
LINE
  5
2B6
330
1F
100
AcDbEntity
  8
0
  6
Continuous
 62
     7
370
    15
100
AcDbLine
 10
254.0281060243
 20
179.4176353327
 30
0.0
 11
254.0281060243
 21
179.3422424385
 31
0.0
  0
LINE
  5
2B7
330
1F
100
AcDbEntity
  8
0
  6
Continuous
 62
     7
370
    15
100
AcDbLine
 10
245.9481060243
 20
179.3422424385
 30
0.0
 11
245.9481060243
 21
179.4176353327
 31
0.0
  0
SPLINE
  5
2B8
330
1F
100
AcDbEntity
  8
0
  6
Continuous
 62
     7
370
    15
100
AcDbSpline
210
0.0
220
0.0
230
1.0
 70
     8
 71
     3
 72
     9
 73
     5
 74
     0
 42
0.00000001
 43
0.00000001
 12
1.0
 22
0.0
 32
0.0
 13
1.0
 23
0.0
 33
0.0
 40
0.0
 40
0.0
 40
0.0
 40
0.0
 40
0.358698707598628
 40
1.0
 40
1.0
 40
1.0
 40
1.0
 10
245.9757603453321
 20
179.4169900034971
 30
0.0
 10
245.9697472305465
 20
179.4170636284393
 30
0.0
 10
245.9529835381821
 20
179.4172688841055
 30
0.0
 10
245.9500118023648
 20
179.417492151221
 30
0.0
 10
245.9481060243445
 20
179.4176353327108
 30
0.0
  0
LWPOLYLINE
  5
2B9
330
1F
100
AcDbEntity
  8
0
  6
Continuous
 62
     7
370
    15
100
AcDbPolyline
 90
        3
 70
   128
 43
0.0
 10
254.0822570793
 20
179.7422424385
 10
254.0464544949
 20
179.6083190363
 10
254.0281060243
 20
179.4176353327
  0
LINE
  5
2BA
330
1F
100
AcDbEntity
  8
0
  6
Continuous
 62
     7
370
    15
100
AcDbLine
 10
254.8985582868
 20
186.9674327471
 30
0.0
 11
140.9043517067
 21
215.3076591052
 31
0.0
  0
ARC
  5
2BB
330
1F
100
AcDbEntity
  8
0
  6
Continuous
 62
     7
370
    15
100
AcDbCircle
 10
254.4160245987
 20
185.0265151188
 30
0.0
 40
2.000000000000181
100
AcDbArc
 50
26.0033458445
 51
76.0386774171
  0
LINE
  5
2BC
330
1F
100
AcDbEntity
  8
0
  6
Continuous
 62
     7
370
    15
100
AcDbLine
 10
257.8043517067
 20
182.6422424385
 30
0.0
 11
256.21356149
 21
185.9033623828
 31
0.0
  0
LINE
  5
2BD
330
1F
100
AcDbEntity
  8
0
  6
Continuous
 62
     7
370
    15
100
AcDbLine
 10
257.8043517067
 20
179.7422424385
 30
0.0
 11
257.8043517067
 21
182.6422424385
 31
0.0
  0
LINE
  5
2BE
330
1F
100
AcDbEntity
  8
0
  6
Continuous
 62
     7
370
    15
100
AcDbLine
 10
140.9043517067
 20
179.7422424385
 30
0.0
 11
257.8043517067
 21
179.7422424385
 31
0.0
  0
LINE
  5
2BF
330
1F
100
AcDbEntity
  8
0
  6
Continuous
 62
     7
370
    15
100
AcDbLine
 10
140.9043517067
 20
179.7422424385
 30
0.0
 11
140.9043517067
 21
215.3076591052
 31
0.0
  0
CIRCLE
  5
2C0
330
1F
100
AcDbEntity
  8
0
  6
Continuous
 62
     7
370
    15
100
AcDbCircle
 10
234.1043517067
 20
187.9422424385
 30
0.0
 40
1.400000000000006
  0
CIRCLE
  5
2C1
330
1F
100
AcDbEntity
  8
0
  6
Continuous
 62
     7
370
    15
100
AcDbCircle
 10
150.1043517067
 20
204.9422424385
 30
0.0
 40
1.400000000000034
  0
SPLINE
  5
2C2
330
1F
100
AcDbEntity
  8
0
  6
Continuous
 62
     7
370
    15
100
AcDbSpline
210
0.0
220
0.0
230
1.0
 70
     8
 71
     3
 72
    11
 73
     7
 74
     0
 42
0.00000001
 43
0.00000001
 12
1.0
 22
0.0
 32
0.0
 13
1.0
 23
0.0
 33
0.0
 40
0.0
 40
0.0
 40
0.0
 40
0.0
 40
0.2500000000000004
 40
0.4999999999999975
 40
0.7499999999999987
 40
1.0
 40
1.0
 40
1.0
 40
1.0
 10
140.2043517066959
 20
215.3822424385203
 30
0.0
 10
140.214873807647
 20
215.3760271607425
 30
0.0
 10
140.2359180095493
 20
215.3635966051869
 30
0.0
 10
140.3977924587349
 20
215.3449507718536
 30
0.0
 10
140.6291739147028
 20
215.3263049385203
 30
0.0
 10
140.8126257760316
 20
215.3138743829647
 30
0.0
 10
140.9043517066959
 20
215.3076591051869
 30
0.0
  0
LINE
  5
2C3
330
1F
100
AcDbEntity
  8
0
  6
Continuous
 62
     7
370
    15
100
AcDbLine
 10
140.9043517067
 20
179.7422424385
 30
0.0
 11
140.2043517067
 21
179.7422424385
 31
0.0
  0
LINE
  5
2C4
330
1F
100
AcDbEntity
  8
0
  6
Continuous
 62
     7
370
    15
100
AcDbLine
 10
140.2043517067
 20
179.7422424385
 30
0.0
 11
140.2043517067
 21
215.3822424385
 31
0.0
  0
LINE
  5
2C5
330
1F
100
AcDbEntity
  8
0
  6
Continuous
 62
     7
370
    15
100
AcDbLine
 10
140.6043517067
 20
215.3822424385
 30
0.0
 11
140.2043517067
 21
215.3822424385
 31
0.0
  0
SPLINE
  5
2C6
330
1F
100
AcDbEntity
  8
0
  6
Continuous
 62
     7
370
    15
100
AcDbSpline
210
0.0
220
0.0
230
1.0
 70
     8
 71
     3
 72
    11
 73
     7
 74
     0
 42
0.00000001
 43
0.00000001
 12
1.0
 22
0.0
 32
0.0
 13
1.0
 23
0.0
 33
0.0
 40
0.0
 40
0.0
 40
0.0
 40
0.0
 40
0.2499999999999999
 40
0.5000000000000051
 40
0.7499999999999911
 40
1.0
 40
1.0
 40
1.0
 40
1.0
 10
140.6043517066959
 20
215.3822424385203
 30
0.0
 10
140.608861178532
 20
215.3760271607425
 30
0.0
 10
140.6178801222045
 20
215.363596605187
 30
0.0
 10
140.6872548861412
 20
215.3449507718536
 30
0.0
 10
140.7864183672703
 20
215.3263049385203
 30
0.0
 10
140.865040593554
 20
215.3138743829647
 30
0.0
 10
140.9043517066959
 20
215.3076591051869
 30
0.0
  0
ARC
  5
2C7
330
1F
100
AcDbEntity
  8
0
  6
Continuous
 62
     7
370
    15
100
AcDbCircle
 10
139.9043517067
 20
215.3822424385
 30
0.0
 40
0.2999999999999731
100
AcDbArc
 50
0.0
 51
25.0
  0
LINE
  5
2C8
330
1F
100
AcDbEntity
  8
0
  6
Continuous
 62
     7
370
    15
100
AcDbLine
 10
140.1762440428
 20
215.509027917
 30
0.0
 11
140.5387671576
 21
215.6780752217
 31
0.0
  0
ARC
  5
2C9
330
1F
100
AcDbEntity
  8
0
  6
Continuous
 62
     7
370
    15
100
AcDbCircle
 10
139.9043517067
 20
215.3822424385
 30
0.0
 40
0.6999999999999889
100
AcDbArc
 50
0.0
 51
25.0
  0
LINE
  5
2CA
330
1F
100
AcDbEntity
  8
0
  6
Continuous
 62
     7
370
    15
100
AcDbLine
 10
139.2990200363
 20
218.3367215031
 30
0.0
 11
138.9364969215
 21
218.1676741984
 31
0.0
  0
LINE
  5
2CB
330
1F
100
AcDbEntity
  8
0
  6
Continuous
 62
     7
370
    15
100
AcDbLine
 10
139.721638298
 20
217.4304137161
 30
0.0
 11
139.3591151832
 21
217.2613664114
 31
0.0
  0
LINE
  5
2CC
330
1F
100
AcDbEntity
  8
0
  6
Continuous
 62
     7
370
    15
100
AcDbLine
 10
139.721638298
 20
217.4304137161
 30
0.0
 11
139.2990200363
 21
218.3367215031
 31
0.0
  0
LINE
  5
2CD
330
1F
100
AcDbEntity
  8
0
  6
Continuous
 62
     7
370
    15
100
AcDbLine
 10
139.3591151832
 20
217.2613664114
 30
0.0
 11
138.9364969215
 21
218.1676741984
 31
0.0
  0
LINE
  5
2CE
330
1F
100
AcDbEntity
  8
0
  6
Continuous
 62
     7
370
    15
100
AcDbLine
 10
140.5387671576
 20
215.6780752217
 30
0.0
 11
139.721638298
 21
217.4304137161
 31
0.0
  0
LINE
  5
2CF
330
1F
100
AcDbEntity
  8
0
  6
Continuous
 62
     7
370
    15
100
AcDbLine
 10
140.1762440428
 20
215.509027917
 30
0.0
 11
139.3591151832
 21
217.2613664114
 31
0.0
  0
LINE
  5
2D0
330
1F
100
AcDbEntity
  8
0
  6
Continuous
 62
     7
370
    15
100
AcDbLine
 10
128.0643517067
 20
221.2039398137
 30
0.0
 11
128.0643517067
 21
223.2181334705
 31
0.0
  0
ARC
  5
2D1
330
1F
100
AcDbEntity
  8
0
  6
Continuous
 62
     7
370
    15
100
AcDbCircle
 10
128.2943517067
 20
223.2181334705
 30
0.0
 40
0.2300000000000182
100
AcDbArc
 50
75.0
 51
180.0
  0
LINE
  5
2D2
330
1F
100
AcDbEntity
  8
0
  6
Continuous
 62
     7
370
    15
100
AcDbLine
 10
128.3538800871
 20
223.4402964105
 30
0.0
 11
135.0132705513
 21
221.6559181135
 31
0.0
  0
ARC
  5
2D3
330
1F
100
AcDbEntity
  8
0
  6
Continuous
 62
     7
370
    15
100
AcDbCircle
 10
133.7243517067
 20
216.8456074986
 30
0.0
 40
4.980000000000047
100
AcDbArc
 50
0.0
 51
75.0
  0
LINE
  5
2D4
330
1F
100
AcDbEntity
  8
0
  6
Continuous
 62
     7
370
    15
100
AcDbLine
 10
138.7043517067
 20
216.8456074986
 30
0.0
 11
138.4643517067
 21
216.8456074986
 31
0.0
  0
LINE
  5
2D5
330
1F
100
AcDbEntity
  8
0
  6
Continuous
 62
     7
370
    15
100
AcDbLine
 10
138.4643517067
 20
216.8456074986
 30
0.0
 11
138.4643517067
 21
216.7456074986
 31
0.0
  0
LINE
  5
2D6
330
1F
100
AcDbEntity
  8
0
  6
Continuous
 62
     7
370
    15
100
AcDbLine
 10
138.4643517067
 20
216.7456074986
 30
0.0
 11
138.4743517067
 21
216.7456074986
 31
0.0
  0
LINE
  5
2D7
330
1F
100
AcDbEntity
  8
0
  6
Continuous
 62
     7
370
    15
100
AcDbLine
 10
138.4743517067
 20
216.7456074986
 30
0.0
 11
138.4743517067
 21
179.3422424385
 31
0.0
  0
LINE
  5
2D8
330
1F
100
AcDbEntity
  8
0
  6
Continuous
 62
     7
370
    15
100
AcDbLine
 10
138.4743517067
 20
179.3422424385
 30
0.0
 11
128.2943517067
 21
179.3422424385
 31
0.0
  0
LINE
  5
2D9
330
1F
100
AcDbEntity
  8
0
  6
Continuous
 62
     7
370
    15
100
AcDbLine
 10
128.2943517067
 20
221.1239398137
 30
0.0
 11
128.2943517067
 21
179.3422424385
 31
0.0
  0
LINE
  5
2DA
330
1F
100
AcDbEntity
  8
0
  6
Continuous
 62
     7
370
    15
100
AcDbLine
 10
128.2943517067
 20
221.1239398137
 30
0.0
 11
128.3743517067
 21
221.1239398137
 31
0.0
  0
LINE
  5
2DB
330
1F
100
AcDbEntity
  8
0
  6
Continuous
 62
     7
370
    15
100
AcDbLine
 10
128.3743517067
 20
221.1239398137
 30
0.0
 11
128.3743517067
 21
221.2039398137
 31
0.0
  0
ARC
  5
2DC
330
1F
100
AcDbEntity
  8
0
  6
Continuous
 62
     7
370
    15
100
AcDbCircle
 10
133.0643517067
 20
219.0723008028
 30
0.0
 40
0.5200000000000193
100
AcDbArc
 50
190.4998591652
 51
349.5001408348
  0
ARC
  5
2DD
330
1F
100
AcDbEntity
  8
0
  6
Continuous
 62
     7
370
    15
100
AcDbCircle
 10
132.5032635194
 20
218.9723008028
 30
0.0
 40
0.0500702202186574
100
AcDbArc
 50
6.005776495
 51
190.1054407084
  0
ARC
  5
2DE
330
1F
100
AcDbEntity
  8
0
  6
Continuous
 62
     7
370
    15
100
AcDbCircle
 10
133.0643517067
 20
219.0723008028
 30
0.0
 40
0.6200000000000161
100
AcDbArc
 50
190.1054407084
 51
349.8945592916
  0
ARC
  5
2DF
330
1F
100
AcDbEntity
  8
0
  6
Continuous
 62
     7
370
    15
100
AcDbCircle
 10
133.625439894
 20
218.9723008028
 30
0.0
 40
0.0500702202186574
100
AcDbArc
 50
349.8945592916
 51
173.994223505
  0
ARC
  5
2E0
330
1F
100
AcDbEntity
  8
0
  6
Continuous
 62
     7
370
    15
100
AcDbCircle
 10
133.6240143363
 20
219.1799633382
 30
0.0
 40
0.0500758993631961
100
AcDbArc
 50
186.6269392398
 51
10.8889929003
  0
ARC
  5
2E1
330
1F
100
AcDbEntity
  8
0
  6
Continuous
 62
     7
370
    15
100
AcDbCircle
 10
133.0643517067
 20
219.0723008028
 30
0.0
 40
0.620000000000022
100
AcDbArc
 50
10.8889929003
 51
169.1108926947
  0
ARC
  5
2E2
330
1F
100
AcDbEntity
  8
0
  6
Continuous
 62
     7
370
    15
100
AcDbCircle
 10
132.5046951011
 20
219.1799633382
 30
0.0
 40
0.050081814935408
100
AcDbArc
 50
169.1108926947
 51
353.5357377927
  0
ARC
  5
2E3
330
1F
100
AcDbEntity
  8
0
  6
Continuous
 62
     7
370
    15
100
AcDbCircle
 10
133.0643517067
 20
219.0723008028
 30
0.0
 40
0.5200000000000226
100
AcDbArc
 50
11.299052931
 51
168.6851502045
  0
LINE
  5
2E4
330
1F
100
AcDbEntity
  8
0
  6
Continuous
 62
     7
370
    15
100
AcDbLine
 10
128.3743517067
 20
221.2039398137
 30
0.0
 11
128.0643517067
 21
221.2039398137
 31
0.0
  0
LINE
  5
2E5
330
1F
100
AcDbEntity
  8
0
  6
Continuous
 62
     7
370
    15
100
AcDbLine
 10
128.2943517067
 20
179.3422424385
 30
0.0
 11
127.8843517067
 21
179.3422424385
 31
0.0
  0
LINE
  5
2E6
330
1F
100
AcDbEntity
  8
0
  6
Continuous
 62
     7
370
    15
100
AcDbLine
 10
127.8843517067
 20
179.3422424385
 30
0.0
 11
127.8843517067
 21
221.1239398137
 31
0.0
  0
LINE
  5
2E7
330
1F
100
AcDbEntity
  8
0
  6
Continuous
 62
     7
370
    15
100
AcDbLine
 10
127.8843517067
 20
221.1239398137
 30
0.0
 11
128.2943517067
 21
221.1239398137
 31
0.0
  0
LINE
  5
2E8
330
1F
100
AcDbEntity
  8
0
  6
Continuous
 62
     7
370
    15
100
AcDbLine
 10
138.8843517067
 20
216.7456074986
 30
0.0
 11
138.8843517067
 21
179.3422424385
 31
0.0
  0
LINE
  5
2E9
330
1F
100
AcDbEntity
  8
0
  6
Continuous
 62
     7
370
    15
100
AcDbLine
 10
138.8843517067
 20
179.3422424385
 30
0.0
 11
138.4743517067
 21
179.3422424385
 31
0.0
  0
LINE
  5
2EA
330
1F
100
AcDbEntity
  8
0
  6
Continuous
 62
     7
370
    15
100
AcDbLine
 10
138.4743517067
 20
216.7456074986
 30
0.0
 11
138.8843517067
 21
216.7456074986
 31
0.0
  0
LINE
  5
2EB
330
1F
100
AcDbEntity
  8
0
  6
Continuous
 62
     7
370
    15
100
AcDbLine
 10
127.8843517067
 20
221.1439398137
 30
0.0
 11
128.0443517067
 21
221.1439398137
 31
0.0
  0
LINE
  5
2EC
330
1F
100
AcDbEntity
  8
0
  6
Continuous
 62
     7
370
    15
100
AcDbLine
 10
127.8843517067
 20
221.1439398137
 30
0.0
 11
127.8843517067
 21
223.2181334705
 31
0.0
  0
LINE
  5
2ED
330
1F
100
AcDbEntity
  8
0
  6
Continuous
 62
     7
370
    15
100
AcDbLine
 10
128.0443517067
 20
223.2181334705
 30
0.0
 11
127.8843517067
 21
223.2181334705
 31
0.0
  0
LINE
  5
2EE
330
1F
100
AcDbEntity
  8
0
  6
Continuous
 62
     7
370
    15
100
AcDbLine
 10
128.0443517067
 20
221.1439398137
 30
0.0
 11
128.0443517067
 21
223.2181334705
 31
0.0
  0
LINE
  5
2EF
330
1F
100
AcDbEntity
  8
0
  6
Continuous
 62
     7
370
    15
100
AcDbLine
 10
138.7243517067
 20
216.8456074986
 30
0.0
 11
138.7243517067
 21
216.8256074986
 31
0.0
  0
LINE
  5
2F0
330
1F
100
AcDbEntity
  8
0
  6
Continuous
 62
     7
370
    15
100
AcDbLine
 10
138.8843517067
 20
216.8456074986
 30
0.0
 11
138.7243517067
 21
216.8456074986
 31
0.0
  0
LINE
  5
2F1
330
1F
100
AcDbEntity
  8
0
  6
Continuous
 62
     7
370
    15
100
AcDbLine
 10
138.8843517067
 20
216.8456074986
 30
0.0
 11
138.8843517067
 21
216.8256074986
 31
0.0
  0
LINE
  5
2F2
330
1F
100
AcDbEntity
  8
0
  6
Continuous
 62
     7
370
    15
100
AcDbLine
 10
138.7243517067
 20
216.8256074986
 30
0.0
 11
138.8843517067
 21
216.8256074986
 31
0.0
  0
LINE
  5
2F3
330
1F
100
AcDbEntity
  8
0
  6
Continuous
 62
     7
370
    15
100
AcDbLine
 10
128.4004675152
 20
223.6141630593
 30
0.0
 11
128.359056468
 21
223.459614927
 31
0.0
  0
ARC
  5
2F4
330
1F
100
AcDbEntity
  8
0
  6
Continuous
 62
     7
370
    15
100
AcDbCircle
 10
128.2943517067
 20
223.2181334705
 30
0.0
 40
0.2500000000000284
100
AcDbArc
 50
75.0
 51
180.0
  0
ARC
  5
2F5
330
1F
100
AcDbEntity
  8
0
  6
Continuous
 62
     7
370
    15
100
AcDbCircle
 10
128.2943517067
 20
223.2181334705
 30
0.0
 40
0.410000000000025
100
AcDbArc
 50
75.0
 51
180.0
  0
LINE
  5
2F6
330
1F
100
AcDbEntity
  8
0
  6
Continuous
 62
     7
370
    15
100
AcDbLine
 10
135.0184469322
 20
221.6752366301
 30
0.0
 11
135.0598579794
 21
221.8297847623
 31
0.0
  0
ARC
  5
2F7
330
1F
100
AcDbEntity
  8
0
  6
Continuous
 62
     7
370
    15
100
AcDbCircle
 10
133.7243517067
 20
216.8456074986
 30
0.0
 40
5.000000000000028
100
AcDbArc
 50
0.0
 51
75.0
  0
ARC
  5
2F8
330
1F
100
AcDbEntity
  8
0
  6
Continuous
 62
     7
370
    15
100
AcDbCircle
 10
133.7243517067
 20
216.8456074986
 30
0.0
 40
5.159999999999997
100
AcDbArc
 50
0.0
 51
75.0
  0
LINE
  5
2F9
330
1F
100
AcDbEntity
  8
0
  6
Continuous
 62
     7
370
    15
100
AcDbLine
 10
128.359056468
 20
223.459614927
 30
0.0
 11
135.0184469322
 21
221.6752366301
 31
0.0
  0
LINE
  5
2FA
330
1F
100
AcDbEntity
  8
0
  6
Continuous
 62
     7
370
    15
100
AcDbLine
 10
128.4004675152
 20
223.6141630593
 30
0.0
 11
135.0598579794
 21
221.8297847623
 31
0.0
  0
LINE
  5
2FB
330
1F
100
AcDbEntity
  8
0
  6
Continuous
 62
     7
370
    15
100
AcDbLine
 10
138.7243517067
 20
216.8256074986
 30
0.0
 11
138.7243517067
 21
216.7456074986
 31
0.0
  0
LINE
  5
2FC
330
1F
100
AcDbEntity
  8
0
  6
Continuous
 62
     7
370
    15
100
AcDbLine
 10
138.8843517067
 20
216.7456074986
 30
0.0
 11
138.8843517067
 21
216.8256074986
 31
0.0
  0
ARC
  5
2FD
330
1F
100
AcDbEntity
  8
0
  6
Continuous
 62
     7
370
    15
100
AcDbCircle
 10
143.2079929026
 20
180.5022424385
 30
0.0
 40
1.000000000000012
100
AcDbArc
 50
229.4641978887
 51
270.0
  0
ARC
  5
2FE
330
1F
100
AcDbEntity
  8
0
  6
Continuous
 62
     7
370
    15
100
AcDbCircle
 10
233.7279929026
 20
180.5022424385
 30
0.0
 40
1.00000000000003
100
AcDbArc
 50
270.0
 51
310.5358021113
  0
LINE
  5
2FF
330
1F
100
AcDbEntity
  8
0
  6
Continuous
 62
     7
370
    15
100
AcDbLine
 10
232.6843517067
 20
179.7422424385
 30
0.0
 11
232.6843517067
 21
179.3422424385
 31
0.0
  0
LINE
  5
300
330
1F
100
AcDbEntity
  8
0
  6
Continuous
 62
     7
370
    15
100
AcDbLine
 10
144.4843517067
 20
179.7422424385
 30
0.0
 11
144.4843517067
 21
179.3422424385
 31
0.0
  0
ARC
  5
301
330
1F
100
AcDbEntity
  8
0
  6
Continuous
 62
     7
370
    15
100
AcDbCircle
 10
142.4543517067
 20
179.7522424385
 30
0.0
 40
0.4100000000000407
100
AcDbArc
 50
181.3975966282
 51
270.0
  0
ARC
  5
302
330
1F
100
AcDbEntity
  8
0
  6
Continuous
 62
     7
370
    15
100
AcDbCircle
 10
142.4543517067
 20
179.7522424385
 30
0.0
 40
0.2500000000000174
100
AcDbArc
 50
182.292442776
 51
270.0
  0
LINE
  5
303
330
1F
100
AcDbEntity
  8
0
  6
Continuous
 62
     7
370
    15
100
AcDbLine
 10
142.4543517067
 20
179.5022424385
 30
0.0
 11
142.4543517067
 21
179.3422424385
 31
0.0
  0
LINE
  5
304
330
1F
100
AcDbEntity
  8
0
  6
Continuous
 62
     7
370
    15
100
AcDbLine
 10
143.9543517067
 20
179.3422424385
 30
0.0
 11
143.9543517067
 21
179.5022424385
 31
0.0
  0
ARC
  5
305
330
1F
100
AcDbEntity
  8
0
  6
Continuous
 62
     7
370
    15
100
AcDbCircle
 10
143.9543517067
 20
179.7522424385
 30
0.0
 40
0.4100000000000003
100
AcDbArc
 50
270.0
 51
322.4281306803
  0
LINE
  5
306
330
1F
100
AcDbEntity
  8
0
  6
Continuous
 62
     7
370
    15
100
AcDbLine
 10
143.2079929026
 20
179.5022424385
 30
0.0
 11
142.4543517067
 21
179.5022424385
 31
0.0
  0
ARC
  5
307
330
1F
100
AcDbEntity
  8
0
  6
Continuous
 62
     7
370
    15
100
AcDbCircle
 10
232.9743517067
 20
179.7522424385
 30
0.0
 40
0.410000000000025
100
AcDbArc
 50
224.9829578278
 51
270.0
  0
LINE
  5
308
330
1F
100
AcDbEntity
  8
0
  6
Continuous
 62
     7
370
    15
100
AcDbLine
 10
232.9743517067
 20
179.5022424385
 30
0.0
 11
232.9743517067
 21
179.3422424385
 31
0.0
  0
ARC
  5
309
330
1F
100
AcDbEntity
  8
0
  6
Continuous
 62
     7
370
    15
100
AcDbCircle
 10
234.4743517067
 20
179.7522424385
 30
0.0
 40
0.410000000000025
100
AcDbArc
 50
270.0
 51
358.6024033717
  0
LINE
  5
30A
330
1F
100
AcDbEntity
  8
0
  6
Continuous
 62
     7
370
    15
100
AcDbLine
 10
234.4743517067
 20
179.3422424385
 30
0.0
 11
234.4743517067
 21
179.5022424385
 31
0.0
  0
ARC
  5
30B
330
1F
100
AcDbEntity
  8
0
  6
Continuous
 62
     7
370
    15
100
AcDbCircle
 10
234.4743517067
 20
179.7522424385
 30
0.0
 40
0.25
100
AcDbArc
 50
270.0
 51
357.7075572239
  0
LINE
  5
30C
330
1F
100
AcDbEntity
  8
0
  6
Continuous
 62
     7
370
    15
100
AcDbLine
 10
234.4743517067
 20
179.5022424385
 30
0.0
 11
233.7279929026
 21
179.5022424385
 31
0.0
  0
LINE
  5
30D
330
1F
100
AcDbEntity
  8
0
  6
Continuous
 62
     7
370
    15
100
AcDbLine
 10
269.6843517067
 20
176.420828225
 30
0.0
 11
269.6843517067
 21
176.0209385493
 31
0.0
  0
LINE
  5
30E
330
1F
100
AcDbEntity
  8
0
  6
Continuous
 62
     7
370
    15
100
AcDbLine
 10
269.6843517067
 20
176.420828225
 30
0.0
 11
269.6643517067
 21
176.420828225
 31
0.0
  0
LINE
  5
30F
330
1F
100
AcDbEntity
  8
0
  6
Continuous
 62
     7
370
    15
100
AcDbLine
 10
269.6843517067
 20
176.420828225
 30
0.0
 11
269.6843517067
 21
176.670828225
 31
0.0
  0
LINE
  5
310
330
1F
100
AcDbEntity
  8
0
  6
Continuous
 62
     7
370
    15
100
AcDbLine
 10
269.6843517067
 20
176.770828225
 30
0.0
 11
269.6843517067
 21
176.670828225
 31
0.0
  0
LINE
  5
311
330
1F
100
AcDbEntity
  8
0
  6
Continuous
 62
     7
370
    15
100
AcDbLine
 10
262.6460237733
 20
184.1128836819
 30
0.0
 11
262.5839072025
 21
183.8810614836
 31
0.0
  0
LINE
  5
312
330
1F
100
AcDbEntity
  8
0
  6
Continuous
 62
     7
370
    15
100
AcDbLine
 10
262.5839072025
 20
183.8810614836
 30
0.0
 11
262.0361433436
 21
184.0278343673
 31
0.0
  0
LINE
  5
313
330
1F
100
AcDbEntity
  8
0
  6
Continuous
 62
     7
370
    15
100
AcDbLine
 10
262.0361433436
 20
184.0278343673
 30
0.0
 11
262.0982599144
 21
184.2596565656
 31
0.0
  0
LINE
  5
314
330
1F
100
AcDbEntity
  8
0
  6
Continuous
 62
     7
370
    15
100
AcDbLine
 10
262.6460237733
 20
184.1128836819
 30
0.0
 11
262.0982599144
 21
184.2596565656
 31
0.0
  0
ARC
  5
315
330
1F
100
AcDbEntity
  8
0
  6
Continuous
 62
     7
370
    15
100
AcDbCircle
 10
257.2543517067
 20
183.7863529107
 30
0.0
 40
0.4900000000000091
100
AcDbArc
 50
90.0
 51
116.8549121615
  0
LINE
  5
316
330
1F
100
AcDbEntity
  8
0
  6
Continuous
 62
     7
370
    15
100
AcDbLine
 10
257.2543517067
 20
184.0363529107
 30
0.0
 11
257.2543517067
 21
184.2763529107
 31
0.0
  0
ARC
  5
317
330
1F
100
AcDbEntity
  8
0
  6
Continuous
 62
     7
370
    15
100
AcDbCircle
 10
257.2543517067
 20
183.7863529107
 30
0.0
 40
0.25
100
AcDbArc
 50
90.0
 51
117.6725905041
  0
LINE
  5
318
330
1F
100
AcDbEntity
  8
0
  6
Continuous
 62
     7
370
    15
100
AcDbLine
 10
257.2543517067
 20
184.2763529107
 30
0.0
 11
261.9714385823
 21
184.2763529107
 31
0.0
  0
LINE
  5
319
330
1F
100
AcDbEntity
  8
0
  6
Continuous
 62
     7
370
    15
100
AcDbLine
 10
261.9714385823
 20
184.0363529107
 30
0.0
 11
261.9714385823
 21
184.2763529107
 31
0.0
  0
LINE
  5
31A
330
1F
100
AcDbEntity
  8
0
  6
Continuous
 62
     7
370
    15
100
AcDbLine
 10
257.2543517067
 20
184.0363529107
 30
0.0
 11
261.9714385823
 21
184.0363529107
 31
0.0
  0
ARC
  5
31B
330
1F
100
AcDbEntity
  8
0
  6
Continuous
 62
     7
370
    15
100
AcDbCircle
 10
261.9714385823
 20
183.7863529107
 30
0.0
 40
0.4900000000000091
100
AcDbArc
 50
75.0
 51
90.0
  0
ARC
  5
31C
330
1F
100
AcDbEntity
  8
0
  6
Continuous
 62
     7
370
    15
100
AcDbCircle
 10
261.9714385823
 20
183.7863529107
 30
0.0
 40
0.250000000000015
100
AcDbArc
 50
75.0
 51
90.0
  0
LINE
  5
31D
330
1F
100
AcDbEntity
  8
0
  6
Continuous
 62
     7
370
    15
100
AcDbLine
 10
263.6119495996
 20
183.8540646368
 30
0.0
 11
263.5498330288
 21
183.6222424385
 31
0.0
  0
LINE
  5
31E
330
1F
100
AcDbEntity
  8
0
  6
Continuous
 62
     7
370
    15
100
AcDbLine
 10
263.5498330288
 20
183.6222424385
 30
0.0
 11
262.5839072025
 21
183.8810614836
 31
0.0
  0
LINE
  5
31F
330
1F
100
AcDbEntity
  8
0
  6
Continuous
 62
     7
370
    15
100
AcDbLine
 10
263.6119495996
 20
183.8540646368
 30
0.0
 11
262.6460237733
 21
184.1128836819
 31
0.0
  0
LINE
  5
320
330
1F
100
AcDbEntity
  8
0
  6
Continuous
 62
     7
370
    15
100
AcDbLine
 10
269.6643517067
 20
176.670828225
 30
0.0
 11
269.6643517067
 21
176.180828225
 31
0.0
  0
LINE
  5
321
330
1F
100
AcDbEntity
  8
0
  6
Continuous
 62
     7
370
    15
100
AcDbLine
 10
258.1843517067
 20
176.180828225
 30
0.0
 11
269.6643517067
 21
176.180828225
 31
0.0
  0
LINE
  5
322
330
1F
100
AcDbEntity
  8
0
  6
Continuous
 62
     7
370
    15
100
AcDbLine
 10
258.1843517067
 20
176.180828225
 30
0.0
 11
258.1843517067
 21
176.670828225
 31
0.0
  0
LINE
  5
323
330
1F
100
AcDbEntity
  8
0
  6
Continuous
 62
     7
370
    15
100
AcDbLine
 10
258.1843517067
 20
176.670828225
 30
0.0
 11
269.6643517067
 21
176.670828225
 31
0.0
  0
LINE
  5
324
330
1F
100
AcDbEntity
  8
0
  6
Continuous
 62
     7
370
    15
100
AcDbLine
 10
258.1843517067
 20
183.200828225
 30
0.0
 11
258.1843517067
 21
176.670828225
 31
0.0
  0
ARC
  5
325
330
1F
100
AcDbEntity
  8
0
  6
Continuous
 62
     7
370
    15
100
AcDbCircle
 10
258.5843517067
 20
183.200828225
 30
0.0
 40
0.3999999999999773
100
AcDbArc
 50
90.0
 51
180.0
  0
LINE
  5
326
330
1F
100
AcDbEntity
  8
0
  6
Continuous
 62
     7
370
    15
100
AcDbLine
 10
276.7843517067
 20
183.600828225
 30
0.0
 11
258.5843517067
 21
183.600828225
 31
0.0
  0
ARC
  5
327
330
1F
100
AcDbEntity
  8
0
  6
Continuous
 62
     7
370
    15
100
AcDbCircle
 10
276.7843517067
 20
179.000828225
 30
0.0
 40
4.600000000000007
100
AcDbArc
 50
299.5911871723
 51
90.0
  0
LINE
  5
328
330
1F
100
AcDbEntity
  8
0
  6
Continuous
 62
     7
370
    15
100
AcDbLine
 10
273.6443517067
 20
172.700828225
 30
0.0
 11
279.0558690644
 21
175.0008021133
 31
0.0
  0
LINE
  5
329
330
1F
100
AcDbEntity
  8
0
  6
Continuous
 62
     7
370
    15
100
AcDbLine
 10
270.3843517067
 20
172.700828225
 30
0.0
 11
273.6443517067
 21
172.700828225
 31
0.0
  0
ARC
  5
32A
330
1F
100
AcDbEntity
  8
0
  6
Continuous
 62
     7
370
    15
100
AcDbCircle
 10
270.3843517067
 20
173.100828225
 30
0.0
 40
0.4000000000000341
100
AcDbArc
 50
180.0
 51
270.0
  0
LINE
  5
32B
330
1F
100
AcDbEntity
  8
0
  6
Continuous
 62
     7
370
    15
100
AcDbLine
 10
269.9843517067
 20
176.770828225
 30
0.0
 11
269.6643517067
 21
176.770828225
 31
0.0
  0
LINE
  5
32C
330
1F
100
AcDbEntity
  8
0
  6
Continuous
 62
     7
370
    15
100
AcDbLine
 10
269.6643517067
 20
176.770828225
 30
0.0
 11
269.6643517067
 21
176.670828225
 31
0.0
  0
ARC
  5
32D
330
1F
100
AcDbEntity
  8
0
  6
Continuous
 62
     7
370
    15
100
AcDbCircle
 10
274.1766891713
 20
175.9411655954
 30
0.0
 40
0.0500758993631789
100
AcDbArc
 50
259.1110070997
 51
83.3730607603
  0
ARC
  5
32E
330
1F
100
AcDbEntity
  8
0
  6
Continuous
 62
     7
370
    15
100
AcDbCircle
 10
274.2843517067
 20
176.500828225
 30
0.0
 40
0.5200000000000281
100
AcDbArc
 50
101.3148497955
 51
258.700947069
  0
ARC
  5
32F
330
1F
100
AcDbEntity
  8
0
  6
Continuous
 62
     7
370
    15
100
AcDbCircle
 10
274.1766891713
 20
177.0604848305
 30
0.0
 40
0.0500818149354241
100
AcDbArc
 50
276.4642622072
 51
100.8891073054
  0
ARC
  5
330
330
1F
100
AcDbEntity
  8
0
  6
Continuous
 62
     7
370
    15
100
AcDbCircle
 10
274.2843517067
 20
176.500828225
 30
0.0
 40
0.6200000000000165
100
AcDbArc
 50
100.8891073053
 51
259.1110070997
  0
ARC
  5
331
330
1F
100
AcDbEntity
  8
0
  6
Continuous
 62
     7
370
    15
100
AcDbCircle
 10
274.2843517067
 20
176.500828225
 30
0.0
 40
0.520000000000012
100
AcDbArc
 50
280.4998591652
 51
79.5001408348
  0
ARC
  5
332
330
1F
100
AcDbEntity
  8
0
  6
Continuous
 62
     7
370
    15
100
AcDbCircle
 10
274.3843517067
 20
175.9397400377
 30
0.0
 40
0.0500702202186644
100
AcDbArc
 50
96.0057764951
 51
280.1054407084
  0
ARC
  5
333
330
1F
100
AcDbEntity
  8
0
  6
Continuous
 62
     7
370
    15
100
AcDbCircle
 10
274.2843517067
 20
176.500828225
 30
0.0
 40
0.6200000000000131
100
AcDbArc
 50
280.1054407084
 51
79.8945592916
  0
ARC
  5
334
330
1F
100
AcDbEntity
  8
0
  6
Continuous
 62
     7
370
    15
100
AcDbCircle
 10
274.3843517067
 20
177.0619164122
 30
0.0
 40
0.0500702202186525
100
AcDbArc
 50
79.8945592916
 51
263.9942235049
  0
LINE
  5
335
330
1F
100
AcDbEntity
  8
0
  6
Continuous
 62
     7
370
    15
100
AcDbLine
 10
269.9843517067
 20
176.770828225
 30
0.0
 11
269.9843517067
 21
173.100828225
 31
0.0
  0
LINE
  5
336
330
1F
100
AcDbEntity
  8
0
  6
Continuous
 62
     7
370
    15
100
AcDbLine
 10
269.6643517067
 20
176.0198330446
 30
0.0
 11
269.6643517067
 21
176.180828225
 31
0.0
  0
LINE
  5
337
330
1F
100
AcDbEntity
  8
0
  6
Continuous
 62
     7
370
    15
100
AcDbLine
 10
128.3243517067
 20
179.100828225
 30
0.0
 11
128.3243517067
 21
179.3422424385
 31
0.0
  0
LINE
  5
338
330
1F
100
AcDbEntity
  8
0
  6
Continuous
 62
     7
370
    15
100
AcDbLine
 10
257.7543517067
 20
179.0522424385
 30
0.0
 11
257.9243517067
 21
179.0522424385
 31
0.0
  0
LINE
  5
339
330
1F
100
AcDbEntity
  8
0
  6
Continuous
 62
     7
370
    15
100
AcDbLine
 10
257.9243517067
 20
179.0522424385
 30
0.0
 11
257.9243517067
 21
178.8422424385
 31
0.0
  0
LINE
  5
33A
330
1F
100
AcDbEntity
  8
0
  6
Continuous
 62
     7
370
    15
100
AcDbLine
 10
161.7243517067
 20
122.9822424385
 30
0.0
 11
245.7243517067
 21
122.9822424385
 31
0.0
  0
LINE
  5
33B
330
1F
100
AcDbEntity
  8
0
  6
Continuous
 62
     7
370
    15
100
AcDbLine
 10
160.7243517067
 20
122.9822424385
 30
0.0
 11
160.7243517067
 21
123.060828225
 31
0.0
  0
LINE
  5
33C
330
1F
100
AcDbEntity
  8
0
  6
Continuous
 62
     7
370
    15
100
AcDbLine
 10
160.7243517067
 20
122.9822424385
 30
0.0
 11
161.7243517067
 21
122.9822424385
 31
0.0
  0
LINE
  5
33D
330
1F
100
AcDbEntity
  8
0
  6
Continuous
 62
     7
370
    15
100
AcDbLine
 10
246.7243517067
 20
122.9822424385
 30
0.0
 11
246.7243517067
 21
123.060828225
 31
0.0
  0
LINE
  5
33E
330
1F
100
AcDbEntity
  8
0
  6
Continuous
 62
     7
370
    15
100
AcDbLine
 10
245.7243517067
 20
122.9822424385
 30
0.0
 11
246.7243517067
 21
122.9822424385
 31
0.0
  0
LINE
  5
33F
330
1F
100
AcDbEntity
  8
0
  6
Continuous
 62
     7
370
    15
100
AcDbLine
 10
272.7243517067
 20
122.9822424385
 30
0.0
 11
272.7243517067
 21
123.0622424385
 31
0.0
  0
LINE
  5
340
330
1F
100
AcDbEntity
  8
0
  6
Continuous
 62
     7
370
    15
100
AcDbLine
 10
271.7243517067
 20
122.9822424385
 30
0.0
 11
272.7243517067
 21
122.9822424385
 31
0.0
  0
LINE
  5
341
330
1F
100
AcDbEntity
  8
0
  6
Continuous
 62
     7
370
    15
100
AcDbLine
 10
246.7243517067
 20
122.9822424385
 30
0.0
 11
249.5243517067
 21
122.9822424385
 31
0.0
  0
LINE
  5
342
330
1F
100
AcDbEntity
  8
0
  6
Continuous
 62
     7
370
    15
100
AcDbLine
 10
267.5243517067
 20
122.9822424385
 30
0.0
 11
271.7243517067
 21
122.9822424385
 31
0.0
  0
LINE
  5
343
330
1F
100
AcDbEntity
  8
0
  6
Continuous
 62
     7
370
    15
100
AcDbLine
 10
152.7243517067
 20
122.9822424385
 30
0.0
 11
160.7243517067
 21
122.9822424385
 31
0.0
  0
LINE
  5
344
330
1F
100
AcDbEntity
  8
0
  6
Continuous
 62
     7
370
    15
100
AcDbLine
 10
269.7219139787
 20
172.102957664
 30
0.0
 11
269.6843517067
 21
172.102957664
 31
0.0
  0
LINE
  5
345
330
1F
100
AcDbEntity
  8
0
  6
Continuous
 62
     7
370
    15
100
AcDbLine
 10
263.8243517067
 20
93.2222424385
 30
0.0
 11
253.2243517067
 21
93.2222424385
 31
0.0
  0
LINE
  5
346
330
1F
100
AcDbEntity
  8
0
  6
Continuous
 62
     7
370
    15
100
AcDbLine
 10
264.2243517067
 20
94.4222424385
 30
0.0
 11
252.8243517067
 21
94.4222424385
 31
0.0
  0
LINE
  5
347
330
1F
100
AcDbEntity
  8
0
  6
Continuous
 62
     7
370
    15
100
AcDbLine
 10
149.0243517067
 20
93.2222424385
 30
0.0
 11
138.4243517067
 21
93.2222424385
 31
0.0
  0
LINE
  5
348
330
1F
100
AcDbEntity
  8
0
  6
Continuous
 62
     7
370
    15
100
AcDbLine
 10
149.4243517067
 20
94.4222424385
 30
0.0
 11
138.0243517067
 21
94.4222424385
 31
0.0
  0
LINE
  5
349
330
1F
100
AcDbEntity
  8
0
  6
Continuous
 62
     7
370
    15
100
AcDbLine
 10
267.5243517067
 20
122.8222424385
 30
0.0
 11
267.5243517067
 21
123.060828225
 31
0.0
  0
LINE
  5
34A
330
1F
100
AcDbEntity
  8
0
  6
Continuous
 62
     7
370
    15
100
AcDbLine
 10
249.5243517067
 20
122.8222424385
 30
0.0
 11
249.5243517067
 21
123.060828225
 31
0.0
  0
LINE
  5
34B
330
1F
100
AcDbEntity
  8
0
  6
Continuous
 62
     7
370
    15
100
AcDbLine
 10
249.5243517067
 20
122.8222424385
 30
0.0
 11
267.5243517067
 21
122.8222424385
 31
0.0
  0
LINE
  5
34C
330
1F
100
AcDbEntity
  8
0
  6
Continuous
 62
     7
370
    15
100
AcDbLine
 10
264.7162817508
 20
104.0222424385
 30
0.0
 11
252.3324216626
 21
104.0222424385
 31
0.0
  0
LINE
  5
34D
330
1F
100
AcDbEntity
  8
0
  6
Continuous
 62
     7
370
    15
100
AcDbLine
 10
152.7243517067
 20
122.8222424385
 30
0.0
 11
152.7243517067
 21
123.060828225
 31
0.0
  0
LINE
  5
34E
330
1F
100
AcDbEntity
  8
0
  6
Continuous
 62
     7
370
    15
100
AcDbLine
 10
134.7243517067
 20
122.8222424385
 30
0.0
 11
134.7243517067
 21
123.060828225
 31
0.0
  0
LINE
  5
34F
330
1F
100
AcDbEntity
  8
0
  6
Continuous
 62
     7
370
    15
100
AcDbLine
 10
134.7243517067
 20
122.8222424385
 30
0.0
 11
152.7243517067
 21
122.8222424385
 31
0.0
  0
LINE
  5
350
330
1F
100
AcDbEntity
  8
0
  6
Continuous
 62
     7
370
    15
100
AcDbLine
 10
149.9162817508
 20
104.0222424385
 30
0.0
 11
137.5324216626
 21
104.0222424385
 31
0.0
  0
LINE
  5
351
330
1F
100
AcDbEntity
  8
0
  6
Continuous
 62
     8
370
    15
100
AcDbLine
 10
285.0643517067
 20
135.9522424385
 30
0.0
 11
285.0643517067
 21
137.0322424385
 31
0.0
  0
LINE
  5
352
330
1F
100
AcDbEntity
  8
0
  6
Continuous
 62
     8
370
    15
100
AcDbLine
 10
285.0643517067
 20
134.8722424385
 30
0.0
 11
285.0643517067
 21
135.9522424385
 31
0.0
  0
LINE
  5
353
330
1F
100
AcDbEntity
  8
0
  6
Continuous
 62
     8
370
    15
100
AcDbLine
 10
289.4815786703
 20
131.9991752595
 30
0.0
 11
289.4815786703
 21
132.688110843
 31
0.0
  0
LINE
  5
354
330
1F
100
AcDbEntity
  8
0
  6
Continuous
 62
     8
370
    15
100
AcDbLine
 10
283.5995057349
 20
134.7530492694
 30
0.0
 11
283.1995057349
 21
134.7578623972
 31
0.0
  0
LINE
  5
355
330
1F
100
AcDbEntity
  8
0
  6
Continuous
 62
     8
370
    15
100
AcDbLine
 10
283.5995057349
 20
134.5412432696
 30
0.0
 11
283.1995057349
 21
134.5470280481
 31
0.0
  0
LINE
  5
356
330
1F
100
AcDbEntity
  8
0
  6
Continuous
 62
     8
370
    15
100
AcDbLine
 10
273.5937610369
 20
172.3004195242
 30
0.0
 11
273.5011789199
 21
172.2703377708
 31
0.0
  0
LINE
  5
357
330
1F
100
AcDbEntity
  8
0
  6
Continuous
 62
     8
370
    15
100
AcDbLine
 10
273.4060732682
 20
172.4367826701
 30
0.0
 11
273.4060732682
 21
172.3394360714
 31
0.0
  0
LINE
  5
358
330
1F
100
AcDbEntity
  8
0
  6
Continuous
 62
     8
370
    15
100
AcDbLine
 10
273.6810185369
 20
172.5582260164
 30
0.0
 11
273.5967630855
 21
172.5308497607
 31
0.0
  0
LINE
  5
359
330
1F
100
AcDbEntity
  8
0
  6
Continuous
 62
     8
370
    15
100
AcDbLine
 10
258.1843517067
 20
176.430828225
 30
0.0
 11
258.0543517067
 21
176.430828225
 31
0.0
  0
LINE
  5
35A
330
1F
100
AcDbEntity
  8
0
  6
Continuous
 62
     8
370
    15
100
AcDbLine
 10
277.7897152887
 20
159.912957664
 30
0.0
 11
277.818120403
 21
159.912957664
 31
0.0
  0
LINE
  5
35B
330
1F
100
AcDbEntity
  8
0
  6
Continuous
 62
     8
370
    15
100
AcDbLine
 10
125.4943517067
 20
140.3622424385
 30
0.0
 11
125.4943517067
 21
140.3557716377
 31
0.0
  0
LINE
  5
35C
330
1F
100
AcDbEntity
  8
0
  6
Continuous
 62
     8
370
    15
100
AcDbLine
 10
125.4943517067
 20
139.2444328032
 30
0.0
 11
125.4943517067
 21
137.9135233299
 31
0.0
  0
LINE
  5
35D
330
1F
100
AcDbEntity
  8
0
  6
Continuous
 62
     8
370
    15
100
AcDbLine
 10
125.6343517067
 20
137.9135233299
 30
0.0
 11
125.6343517067
 21
139.2444328032
 31
0.0
  0
LINE
  5
35E
330
1F
100
AcDbEntity
  8
0
  6
Continuous
 62
     8
370
    15
100
AcDbLine
 10
125.6343517067
 20
140.3557716377
 30
0.0
 11
125.6343517067
 21
140.3622424385
 31
0.0
  0
LINE
  5
35F
330
1F
100
AcDbEntity
  8
0
  6
Continuous
 62
     8
370
    15
100
AcDbLine
 10
125.7343517067
 20
137.8157632978
 30
0.0
 11
125.7343517067
 21
137.8310099641
 31
0.0
  0
LINE
  5
360
330
1F
100
AcDbEntity
  8
0
  6
Continuous
 62
     8
370
    15
100
AcDbLine
 10
126.7543517067
 20
137.8157632978
 30
0.0
 11
126.7543517067
 21
137.8310124886
 31
0.0
  0
LINE
  5
361
330
1F
100
AcDbEntity
  8
0
  6
Continuous
 62
     8
370
    15
100
AcDbLine
 10
126.7543517067
 20
136.7962640361
 30
0.0
 11
126.7543517067
 21
136.7910184087
 31
0.0
  0
SPLINE
  5
362
330
1F
100
AcDbEntity
  8
0
  6
Continuous
 62
     8
370
    15
100
AcDbSpline
210
0.0
220
0.0
230
1.0
 70
     8
 71
     3
 72
    11
 73
     7
 74
     0
 42
0.00000001
 43
0.00000001
 12
1.0
 22
0.0
 32
0.0
 13
1.0
 23
0.0
 33
0.0
 40
0.0
 40
0.0
 40
0.0
 40
0.0
 40
0.1689135268329217
 40
0.5098334162274987
 40
0.8698760745620069
 40
1.0
 40
1.0
 40
1.0
 40
1.0
 10
125.7343517066968
 20
140.4382172775119
 30
0.0
 10
125.7208773683389
 20
140.4377146652164
 30
0.0
 10
125.6802076358123
 20
140.4361976254123
 30
0.0
 10
125.6149982229706
 20
140.4173912517954
 30
0.0
 10
125.5598189731053
 20
140.387610102481
 30
0.0
 10
125.5421498364934
 20
140.362450679137
 30
0.0
 10
125.5374592323372
 20
140.3557716376934
 30
0.0
  0
LINE
  5
363
330
1F
100
AcDbEntity
  8
0
  6
Continuous
 62
     8
370
    15
100
AcDbLine
 10
125.9201773851
 20
140.3322426186
 30
0.0
 11
126.7543517067
 21
140.3322426186
 31
0.0
  0
LINE
  5
364
330
1F
100
AcDbEntity
  8
0
  6
Continuous
 62
     8
370
    15
100
AcDbLine
 10
125.7343517067
 20
140.4534664683
 30
0.0
 11
125.7343517067
 21
140.4382172775
 31
0.0
  0
LINE
  5
365
330
1F
100
AcDbEntity
  8
0
  6
Continuous
 62
     8
370
    15
100
AcDbLine
 10
126.7543517067
 20
140.2522147994
 30
0.0
 11
125.9243517067
 21
140.2522147994
 31
0.0
  0
LINE
  5
366
330
1F
100
AcDbEntity
  8
0
  6
Continuous
 62
     8
370
    15
100
AcDbLine
 10
126.7543517067
 20
139.75027949
 30
0.0
 11
126.7543517067
 21
140.2522147994
 31
0.0
  0
LINE
  5
367
330
1F
100
AcDbEntity
  8
0
  6
Continuous
 62
     8
370
    15
100
AcDbLine
 10
126.7543517067
 20
140.4534664683
 30
0.0
 11
126.7543517067
 21
140.4382172775
 31
0.0
  0
LINE
  5
368
330
1F
100
AcDbEntity
  8
0
  6
Continuous
 62
     8
370
    15
100
AcDbLine
 10
125.7343517067
 20
139.1684434894
 30
0.0
 11
125.7343517067
 21
137.8277942367
 31
0.0
  0
LINE
  5
369
330
1F
100
AcDbEntity
  8
0
  6
Continuous
 62
     8
370
    15
100
AcDbLine
 10
125.8743517067
 20
137.8310124886
 30
0.0
 11
125.8743517067
 21
139.1684434894
 31
0.0
  0
LINE
  5
36A
330
1F
100
AcDbEntity
  8
0
  6
Continuous
 62
     8
370
    15
100
AcDbLine
 10
125.6343517067
 20
139.2562601764
 30
0.0
 11
125.6343517067
 21
139.2444356954
 31
0.0
  0
LINE
  5
36B
330
1F
100
AcDbEntity
  8
0
  6
Continuous
 62
     8
370
    15
100
AcDbLine
 10
124.6143517067
 20
139.2562601764
 30
0.0
 11
124.6143517067
 21
139.2444328032
 31
0.0
  0
LINE
  5
36C
330
1F
100
AcDbEntity
  8
0
  6
Continuous
 62
     8
370
    15
100
AcDbLine
 10
124.6143517067
 20
140.3480713663
 30
0.0
 11
124.6143517067
 21
140.3557716377
 31
0.0
  0
LINE
  5
36D
330
1F
100
AcDbEntity
  8
0
  6
Continuous
 62
     8
370
    15
100
AcDbLine
 10
125.8743517067
 20
140.2857546401
 30
0.0
 11
125.8743517067
 21
140.3622424385
 31
0.0
  0
LINE
  5
36E
330
1F
100
AcDbEntity
  8
0
  6
Continuous
 62
     8
370
    15
100
AcDbLine
 10
124.6143517067
 20
136.9005406125
 30
0.0
 11
125.4556865515
 21
136.9005406125
 31
0.0
  0
LINE
  5
36F
330
1F
100
AcDbEntity
  8
0
  6
Continuous
 62
     8
370
    15
100
AcDbLine
 10
125.4443517067
 20
136.9957364021
 30
0.0
 11
124.6143517067
 21
136.9957364021
 31
0.0
  0
LINE
  5
370
330
1F
100
AcDbEntity
  8
0
  6
Continuous
 62
     8
370
    15
100
AcDbLine
 10
124.6143517067
 20
137.0768369589
 30
0.0
 11
125.4443517067
 21
137.0768369589
 31
0.0
  0
LINE
  5
371
330
1F
100
AcDbEntity
  8
0
  6
Continuous
 62
     8
370
    15
100
AcDbLine
 10
124.6143517067
 20
137.4762848312
 30
0.0
 11
124.6143517067
 21
137.0768369589
 31
0.0
  0
LINE
  5
372
330
1F
100
AcDbEntity
  8
0
  6
Continuous
 62
     8
370
    15
100
AcDbLine
 10
124.6143517067
 20
136.8887132393
 30
0.0
 11
124.6143517067
 21
136.9005406125
 31
0.0
  0
LINE
  5
373
330
1F
100
AcDbEntity
  8
0
  6
Continuous
 62
     8
370
    15
100
AcDbLine
 10
258.1843517067
 20
183.1322424385
 30
0.0
 11
258.0043517067
 21
183.1322424385
 31
0.0
  0
LINE
  5
374
330
1F
100
AcDbEntity
  8
0
  6
Continuous
 62
     8
370
    15
100
AcDbLine
 10
276.7577134064
 20
183.600828225
 30
0.0
 11
276.7577134064
 21
183.6222424385
 31
0.0
  0
LINE
  5
375
330
1F
100
AcDbEntity
  8
0
  6
Continuous
 62
     8
370
    15
100
AcDbLine
 10
278.6158840676
 20
174.6887424919
 30
0.0
 11
278.56998824
 21
174.7942956688
 31
0.0
  0
LINE
  5
376
330
1F
100
AcDbEntity
  8
0
  6
Continuous
 62
     8
370
    15
100
AcDbLine
 10
258.4943517067
 20
183.6222424385
 30
0.0
 11
258.4943517067
 21
183.5905717304
 31
0.0
  0
LINE
  5
377
330
1F
100
AcDbEntity
  8
0
  6
Continuous
 62
     8
370
    15
100
AcDbLine
 10
248.1881060243
 20
179.7422424385
 30
0.0
 11
248.1881060243
 21
179.4169900035
 31
0.0
  0
LWPOLYLINE
  5
378
330
1F
100
AcDbEntity
  8
0
  6
Continuous
 62
     8
370
    15
100
AcDbPolyline
 90
        3
 70
   128
 43
0.0
 10
245.9220588417
 20
179.7422424385
 10
245.9567828445
 20
179.6120803255
 10
245.9757603453
 20
179.4169900035
  0
LWPOLYLINE
  5
379
330
1F
100
AcDbEntity
  8
0
  6
Continuous
 62
     8
370
    15
100
AcDbPolyline
 90
        3
 70
   128
 43
0.0
 10
254.054153207
 20
179.7422424385
 10
254.0194292042
 20
179.6120803255
 10
254.0004517034
 20
179.4169900035
  0
LINE
  5
37A
330
1F
100
AcDbEntity
  8
0
  6
Continuous
 62
     8
370
    15
100
AcDbLine
 10
251.7881060243
 20
179.7422424385
 30
0.0
 11
251.7881060243
 21
179.4169900035
 31
0.0
  0
LINE
  5
37B
330
1F
100
AcDbEntity
  8
0
  6
Continuous
 62
     8
370
    15
100
AcDbLine
 10
251.7881060243
 20
179.3422424385
 30
0.0
 11
251.7881060243
 21
179.4169900035
 31
0.0
  0
LINE
  5
37C
330
1F
100
AcDbEntity
  8
0
  6
Continuous
 62
     8
370
    15
100
AcDbLine
 10
248.1881060243
 20
179.4169900035
 30
0.0
 11
248.1881060243
 21
179.3422424385
 31
0.0
  0
LINE
  5
37D
330
1F
100
AcDbEntity
  8
0
  6
Continuous
 62
     8
370
    15
100
AcDbLine
 10
144.4079929026
 20
179.7422424385
 30
0.0
 11
144.4079929026
 21
179.5022424385
 31
0.0
  0
LINE
  5
37E
330
1F
100
AcDbEntity
  8
0
  6
Continuous
 62
     8
370
    15
100
AcDbLine
 10
269.6843517067
 20
176.670828225
 30
0.0
 11
269.6643517067
 21
176.670828225
 31
0.0
  0
LINE
  5
37F
330
1F
100
AcDbEntity
  8
0
  6
Continuous
 62
     8
370
    15
100
AcDbLine
 10
269.4333882853
 20
175.930828225
 30
0.0
 11
269.4820135289
 21
175.930828225
 31
0.0
  0
LINE
  5
380
330
1F
100
AcDbEntity
  8
0
  6
Continuous
 62
     8
370
    15
100
AcDbLine
 10
245.7243517067
 20
122.9822424385
 30
0.0
 11
245.7243517067
 21
123.060828225
 31
0.0
  0
LINE
  5
381
330
1F
100
AcDbEntity
  8
0
  6
Continuous
 62
     8
370
    15
100
AcDbLine
 10
161.7243517067
 20
122.9822424385
 30
0.0
 11
161.7243517067
 21
123.060828225
 31
0.0
  0
LINE
  5
382
330
1F
100
AcDbEntity
  8
0
  6
Continuous
 62
     8
370
    15
100
AcDbLine
 10
271.7243517067
 20
122.9822424385
 30
0.0
 11
271.7243517067
 21
123.0622424385
 31
0.0
  0
LINE
  5
383
330
1F
100
AcDbEntity
  8
0
  6
Continuous
 62
     8
370
    15
100
AcDbLine
 10
264.2243517067
 20
93.6222424385
 30
0.0
 11
252.8243517067
 21
93.6222424385
 31
0.0
  0
LINE
  5
384
330
1F
100
AcDbEntity
  8
0
  6
Continuous
 62
     8
370
    15
100
AcDbLine
 10
149.4243517067
 20
93.6222424385
 30
0.0
 11
138.0243517067
 21
93.6222424385
 31
0.0
  0
LINE
  5
385
330
1F
100
AcDbEntity
  8
0
  6
Continuous
 62
     8
370
    15
100
AcDbLine
 10
264.9043517067
 20
122.5222424385
 30
0.0
 11
252.1443517067
 21
122.5222424385
 31
0.0
  0
LINE
  5
386
330
1F
100
AcDbEntity
  8
0
  6
Continuous
 62
     8
370
    15
100
AcDbLine
 10
264.8915690613
 20
105.0742629828
 30
0.0
 11
252.1571343521
 21
105.0742629828
 31
0.0
  0
LINE
  5
387
330
1F
100
AcDbEntity
  8
0
  6
Continuous
 62
     8
370
    15
100
AcDbLine
 10
264.9043517067
 20
105.2287556277
 30
0.0
 11
252.1443517067
 21
105.2287556277
 31
0.0
  0
LINE
  5
388
330
1F
100
AcDbEntity
  8
0
  6
Continuous
 62
     8
370
    15
100
AcDbLine
 10
150.1043517067
 20
122.5222424385
 30
0.0
 11
137.3443517067
 21
122.5222424385
 31
0.0
  0
LINE
  5
389
330
1F
100
AcDbEntity
  8
0
  6
Continuous
 62
     8
370
    15
100
AcDbLine
 10
150.1043517067
 20
105.2287556277
 30
0.0
 11
137.3443517067
 21
105.2287556277
 31
0.0
  0
LINE
  5
38A
330
1F
100
AcDbEntity
  8
0
  6
Continuous
 62
     8
370
    15
100
AcDbLine
 10
150.0915690613
 20
105.0742629828
 30
0.0
 11
137.3571343521
 21
105.0742629828
 31
0.0
  0
ENDSEC
  0
SECTION
  2
OBJECTS
  0
DICTIONARY
  5
C
330
0
100
AcDbDictionary
281
     1
  3
ACAD_GROUP
350
D
  3
ACAD_LAYOUT
350
1A
  3
ACAD_MLINESTYLE
350
17
  3
ACAD_PLOTSETTINGS
350
19
  3
ACAD_PLOTSTYLENAME
350
E
  0
DICTIONARY
  5
D
102
{ACAD_REACTORS
330
C
102
}
330
C
100
AcDbDictionary
281
     1
  0
DICTIONARY
  5
1A
102
{ACAD_REACTORS
330
C
102
}
330
C
100
AcDbDictionary
281
     1
  3
Layout1
350
1E
  3
Layout2
350
26
  3
Model
350
22
  0
DICTIONARY
  5
17
102
{ACAD_REACTORS
330
C
102
}
330
C
100
AcDbDictionary
281
     1
  3
Standard
350
18
  0
DICTIONARY
  5
19
102
{ACAD_REACTORS
330
C
102
}
330
C
100
AcDbDictionary
281
     1
  0
ACDBDICTIONARYWDFLT
  5
E
102
{ACAD_REACTORS
330
C
102
}
330
C
100
AcDbDictionary
281
     1
  3
Normal
350
F
100
AcDbDictionaryWithDefault
340
F
  0
LAYOUT
  5
1E
102
{ACAD_REACTORS
330
1A
102
}
330
1A
100
AcDbPlotSettings
  1

  2
none_device
  4

  6

 40
0.0
 41
0.0
 42
0.0
 43
0.0
 44
0.0
 45
0.0
 46
0.0
 47
0.0
 48
0.0
 49
0.0
140
0.0
141
0.0
142
1.0
143
1.0
 70
   688
 72
     0
 73
     0
 74
     5
  7

 75
    16
147
1.0
148
0.0
149
0.0
100
AcDbLayout
  1
Layout1
 70
     1
 71
     1
 10
0.0
 20
0.0
 11
420.0
 21
297.0
 12
0.0
 22
0.0
 32
0.0
 14
1.0000000000E+20
 24
1.0000000000E+20
 34
1.0000000000E+20
 15
-1.0000000000E+20
 25
-1.0000000000E+20
 35
-1.0000000000E+20
146
0.0
 13
0.0
 23
0.0
 33
0.0
 16
1.0
 26
0.0
 36
0.0
 17
0.0
 27
1.0
 37
0.0
 76
     0
330
1B
  0
LAYOUT
  5
26
102
{ACAD_REACTORS
330
1A
102
}
330
1A
100
AcDbPlotSettings
  1

  2
none_device
  4

  6

 40
0.0
 41
0.0
 42
0.0
 43
0.0
 44
0.0
 45
0.0
 46
0.0
 47
0.0
 48
0.0
 49
0.0
140
0.0
141
0.0
142
1.0
143
1.0
 70
   688
 72
     0
 73
     0
 74
     5
  7

 75
    16
147
1.0
148
0.0
149
0.0
100
AcDbLayout
  1
Layout2
 70
     1
 71
     2
 10
0.0
 20
0.0
 11
0.0
 21
0.0
 12
0.0
 22
0.0
 32
0.0
 14
0.0
 24
0.0
 34
0.0
 15
0.0
 25
0.0
 35
0.0
146
0.0
 13
0.0
 23
0.0
 33
0.0
 16
1.0
 26
0.0
 36
0.0
 17
0.0
 27
1.0
 37
0.0
 76
     0
330
23
  0
LAYOUT
  5
22
102
{ACAD_REACTORS
330
1A
102
}
330
1A
100
AcDbPlotSettings
  1

  2
none_device
  4

  6

 40
0.0
 41
0.0
 42
0.0
 43
0.0
 44
0.0
 45
0.0
 46
0.0
 47
0.0
 48
0.0
 49
0.0
140
0.0
141
0.0
142
1.0
143
1.0
 70
  1712
 72
     0
 73
     0
 74
     0
  7

 75
     0
147
1.0
148
0.0
149
0.0
100
AcDbLayout
  1
Model
 70
     1
 71
     0
 10
0.0
 20
0.0
 11
420.0
 21
297.0
 12
0.0
 22
0.0
 32
0.0
 14
0.0
 24
0.0
 34
0.0
 15
420.0
 25
297.0
 35
0.0
146
0.0
 13
0.0
 23
0.0
 33
0.0
 16
1.0
 26
0.0
 36
0.0
 17
0.0
 27
1.0
 37
0.0
 76
     0
330
1F
331
29
  0
MLINESTYLE
  5
18
102
{ACAD_REACTORS
330
17
102
}
330
17
100
AcDbMlineStyle
  2
Standard
 70
     0
  3

 62
   256
 51
90.0
 52
90.0
 71
     2
 49
0.5
 62
   256
  6
BYLAYER
 49
-0.5
 62
   256
  6
BYLAYER
  0
ACDBPLACEHOLDER
  5
F
102
{ACAD_REACTORS
330
E
102
}
330
E
  0
ENDSEC
  0
EOF
