  0
SECTION
  2
HEADER
  9
$ACADVER
  1
AC1015
  9
$ACADMAINTVER
 70
     6
  9
$DWGCODEPAGE
  3
ANSI_1252
  9
$INSBASE
 10
0.0
 20
0.0
 30
0.0
  9
$EXTMIN
 10
0.0
 20
0.0
 30
0.0
  9
$EXTMAX
 10
420.0
 20
297.0
 30
0.0
  9
$LIMMIN
 10
0.0
 20
0.0
  9
$LIMMAX
 10
420.0
 20
297.0
  9
$ORTHOMODE
 70
     0
  9
$REGENMODE
 70
     1
  9
$FILLMODE
 70
     1
  9
$QTEXTMODE
 70
     0
  9
$MIRRTEXT
 70
     1
  9
$LTSCALE
 40
1.0
  9
$ATTMODE
 70
     1
  9
$TEXTSIZE
 40
3.5
  9
$TRACEWID
 40
1.0
  9
$TEXTSTYLE
  7
Standard
  9
$CLAYER
  8
0
  9
$CELTYPE
  6
ByLayer
  9
$CECOLOR
 62
   256
  9
$CELTSCALE
 40
1.0
  9
$DISPSILH
 70
     0
  9
$DIMSCALE
 40
1.0
  9
$DIMASZ
 40
3.302
  9
$DIMEXO
 40
1.0
  9
$DIMDLI
 40
3.75
  9
$DIMRND
 40
0.0
  9
$DIMDLE
 40
0.0
  9
$DIMEXE
 40
1.0
  9
$DIMTP
 40
0.0
  9
$DIMTM
 40
0.0
  9
$DIMTXT
 40
3.5
  9
$DIMCEN
 40
2.5
  9
$DIMTSZ
 40
0.0
  9
$DIMTOL
 70
     0
  9
$DIMLIM
 70
     0
  9
$DIMTIH
 70
     1
  9
$DIMTOH
 70
     1
  9
$DIMSE1
 70
     0
  9
$DIMSE2
 70
     0
  9
$DIMTAD
 70
     1
  9
$DIMZIN
 70
     0
  9
$DIMBLK
  1

  9
$DIMASO
 70
     1
  9
$DIMSHO
 70
     1
  9
$DIMPOST
  1

  9
$DIMAPOST
  1

  9
$DIMALT
 70
     0
  9
$DIMALTD
 70
     3
  9
$DIMALTF
 40
0.0393700787
  9
$DIMLFAC
 40
5.0
  9
$DIMTOFL
 70
     1
  9
$DIMTVP
 40
0.0
  9
$DIMTIX
 70
     0
  9
$DIMSOXD
 70
     0
  9
$DIMSAH
 70
     0
  9
$DIMBLK1
  1

  9
$DIMBLK2
  1

  9
$DIMSTYLE
  2
ISO-25
  9
$DIMCLRD
 70
     0
  9
$DIMCLRE
 70
     0
  9
$DIMCLRT
 70
     0
  9
$DIMTFAC
 40
1.0
  9
$DIMGAP
 40
1.524
  9
$DIMJUST
 70
     0
  9
$DIMSD1
 70
     0
  9
$DIMSD2
 70
     0
  9
$DIMTOLJ
 70
     0
  9
$DIMTZIN
 70
     0
  9
$DIMALTZ
 70
     0
  9
$DIMALTTZ
 70
     0
  9
$DIMUPT
 70
     0
  9
$DIMDEC
 70
     1
  9
$DIMTDEC
 70
     1
  9
$DIMALTU
 70
     2
  9
$DIMALTTD
 70
     3
  9
$DIMTXSTY
  7
Standard
  9
$DIMAUNIT
 70
     0
  9
$DIMADEC
 70
     1
  9
$DIMALTRND
 40
0.0
  9
$DIMAZIN
 70
     0
  9
$DIMDSEP
 70
    44
  9
$DIMATFIT
 70
     3
  9
$DIMFRAC
 70
     0
  9
$DIMLDRBLK
  1

  9
$DIMLUNIT
 70
     2
  9
$DIMLWD
 70
    -2
  9
$DIMLWE
 70
    -2
  9
$DIMTMOVE
 70
     0
  9
$LUNITS
 70
     2
  9
$LUPREC
 70
     1
  9
$SKETCHINC
 40
1.0
  9
$FILLETRAD
 40
10.0
  9
$AUNITS
 70
     0
  9
$AUPREC
 70
     1
  9
$MENU
  1
.
  9
$ELEVATION
 40
0.0
  9
$PELEVATION
 40
0.0
  9
$THICKNESS
 40
0.0
  9
$LIMCHECK
 70
     0
  9
$CHAMFERA
 40
10.0
  9
$CHAMFERB
 40
10.0
  9
$CHAMFERC
 40
20.0
  9
$CHAMFERD
 40
0.0
  9
$SKPOLY
 70
     0
  9
$TDCREATE
 40
2456191.342110023
  9
$TDUCREATE
 40
2456191.300443356
  9
$TDUPDATE
 40
2456191.342114363
  9
$TDUUPDATE
 40
2456191.300447697
  9
$TDINDWG
 40
0.0000000116
  9
$TDUSRTIMER
 40
0.0000000116
  9
$USRTIMER
 70
     1
  9
$ANGBASE
 50
0.0
  9
$ANGDIR
 70
     0
  9
$PDMODE
 70
     0
  9
$PDSIZE
 40
-1.0
  9
$PLINEWID
 40
0.0
  9
$SPLFRAME
 70
     0
  9
$SPLINETYPE
 70
     6
  9
$SPLINESEGS
 70
     8
  9
$HANDSEED
  5
3A0
  9
$SURFTAB1
 70
     6
  9
$SURFTAB2
 70
     6
  9
$SURFTYPE
 70
     6
  9
$SURFU
 70
     6
  9
$SURFV
 70
     6
  9
$UCSBASE
  2

  9
$UCSNAME
  2

  9
$UCSORG
 10
0.0
 20
0.0
 30
0.0
  9
$UCSXDIR
 10
1.0
 20
0.0
 30
0.0
  9
$UCSYDIR
 10
0.0
 20
1.0
 30
0.0
  9
$UCSORTHOREF
  2

  9
$UCSORTHOVIEW
 70
     0
  9
$UCSORGTOP
 10
0.0
 20
0.0
 30
0.0
  9
$UCSORGBOTTOM
 10
0.0
 20
0.0
 30
0.0
  9
$UCSORGLEFT
 10
0.0
 20
0.0
 30
0.0
  9
$UCSORGRIGHT
 10
0.0
 20
0.0
 30
0.0
  9
$UCSORGFRONT
 10
0.0
 20
0.0
 30
0.0
  9
$UCSORGBACK
 10
0.0
 20
0.0
 30
0.0
  9
$PUCSBASE
  2

  9
$PUCSNAME
  2

  9
$PUCSORG
 10
0.0
 20
0.0
 30
0.0
  9
$PUCSXDIR
 10
1.0
 20
0.0
 30
0.0
  9
$PUCSYDIR
 10
0.0
 20
1.0
 30
0.0
  9
$PUCSORTHOREF
  2

  9
$PUCSORTHOVIEW
 70
     0
  9
$PUCSORGTOP
 10
0.0
 20
0.0
 30
0.0
  9
$PUCSORGBOTTOM
 10
0.0
 20
0.0
 30
0.0
  9
$PUCSORGLEFT
 10
0.0
 20
0.0
 30
0.0
  9
$PUCSORGRIGHT
 10
0.0
 20
0.0
 30
0.0
  9
$PUCSORGFRONT
 10
0.0
 20
0.0
 30
0.0
  9
$PUCSORGBACK
 10
0.0
 20
0.0
 30
0.0
  9
$USERI1
 70
     0
  9
$USERI2
 70
     0
  9
$USERI3
 70
     0
  9
$USERI4
 70
     0
  9
$USERI5
 70
     0
  9
$USERR1
 40
0.0
  9
$USERR2
 40
0.0
  9
$USERR3
 40
0.0
  9
$USERR4
 40
0.0
  9
$USERR5
 40
0.0
  9
$WORLDVIEW
 70
     1
  9
$SHADEDGE
 70
     3
  9
$SHADEDIF
 70
    70
  9
$TILEMODE
 70
     1
  9
$MAXACTVP
 70
    64
  9
$PINSBASE
 10
0.0
 20
0.0
 30
0.0
  9
$PLIMCHECK
 70
     0
  9
$PEXTMIN
 10
1.0000000000E+20
 20
1.0000000000E+20
 30
1.0000000000E+20
  9
$PEXTMAX
 10
-1.0000000000E+20
 20
-1.0000000000E+20
 30
-1.0000000000E+20
  9
$PLIMMIN
 10
0.0
 20
0.0
  9
$PLIMMAX
 10
420.0
 20
297.0
  9
$UNITMODE
 70
     0
  9
$VISRETAIN
 70
     1
  9
$PLINEGEN
 70
     0
  9
$PSLTSCALE
 70
     1
  9
$TREEDEPTH
 70
  3020
  9
$CMLSTYLE
  2
Standard
  9
$CMLJUST
 70
     0
  9
$CMLSCALE
 40
20.0
  9
$PROXYGRAPHICS
 70
     1
  9
$MEASUREMENT
 70
     1
  9
$CELWEIGHT
370
    -1
  9
$ENDCAPS
280
     0
  9
$JOINSTYLE
280
     0
  9
$LWDISPLAY
290
     1
  9
$INSUNITS
 70
     4
  9
$HYPERLINKBASE
  1

  9
$STYLESHEET
  1

  9
$XEDIT
290
     1
  9
$CEPSNTYPE
380
     0
  9
$PSTYLEMODE
290
     1
  9
$FINGERPRINTGUID
  2
{EFAB39BE-AFC9-428A-9E0D-9D0CF47F30F7}
  9
$VERSIONGUID
  2
{FAEB1C32-E019-11D5-929B-00C0DF256EC4}
  9
$EXTNAMES
290
     1
  9
$PSVPSCALE
 40
0.0
  9
$OLESTARTUP
290
     0
  0
ENDSEC
  0
SECTION
  2
CLASSES
  0
CLASS
  1
ACDBDICTIONARYWDFLT
  2
AcDbDictionaryWithDefault
  3
ObjectDBX Classes
 90
        0
280
     0
281
     0
  0
CLASS
  1
VISUALSTYLE
  2
AcDbVisualStyle
  3
ObjectDBX Classes
 90
     4095
280
     0
281
     0
  0
CLASS
  1
MATERIAL
  2
AcDbMaterial
  3
ObjectDBX Classes
 90
     1153
280
     0
281
     0
  0
CLASS
  1
ACDBPLACEHOLDER
  2
AcDbPlaceHolder
  3
ObjectDBX Classes
 90
        0
280
     0
281
     0
  0
CLASS
  1
LAYOUT
  2
AcDbLayout
  3
ObjectDBX Classes
 90
        0
280
     0
281
     0
  0
ENDSEC
  0
SECTION
  2
TABLES
  0
TABLE
  2
VPORT
  5
8
330
0
100
AcDbSymbolTable
 70
     1
  0
VPORT
  5
29
330
8
100
AcDbSymbolTableRecord
100
AcDbViewportTableRecord
  2
*Active
 70
     0
 10
0.0
 20
0.0
 11
1.0
 21
1.0
 12
210.0
 22
148.5
 13
0.0
 23
0.0
 14
10.0
 24
10.0
 15
10.0
 25
10.0
 16
0.0
 26
0.0
 36
1.0
 17
0.0
 27
0.0
 37
0.0
 40
297.0
 41
1.4141414141
 42
50.0
 43
0.0
 44
0.0
 50
0.0
 51
0.0
 71
     0
 72
  2000
 73
     1
 74
     3
 75
     0
 76
     0
 77
     0
 78
     0
281
     0
 65
     1
110
0.0
120
0.0
130
0.0
111
1.0
121
0.0
131
0.0
112
0.0
122
1.0
132
0.0
 79
     0
146
0.0
  0
ENDTAB
  0
TABLE
  2
LTYPE
  5
5
330
0
100
AcDbSymbolTable
 70
     6
  0
LTYPE
  5
14
330
5
100
AcDbSymbolTableRecord
100
AcDbLinetypeTableRecord
  2
ByBlock
 70
     0
  3

 72
    65
 73
     0
 40
0.0
  0
LTYPE
  5
15
330
5
100
AcDbSymbolTableRecord
100
AcDbLinetypeTableRecord
  2
ByLayer
 70
     0
  3

 72
    65
 73
     0
 40
0.0
  0
LTYPE
  5
16
330
5
100
AcDbSymbolTableRecord
100
AcDbLinetypeTableRecord
  2
Continuous
 70
     0
  3
Solid line
 72
    65
 73
     0
 40
0.0
  0
LTYPE
  5
3F
330
5
100
AcDbSymbolTableRecord
100
AcDbLinetypeTableRecord
  2
HIDDEN
 70
     0
  3
Hidden __ __ __ __ __ __ __ __ __ __ __ __ __ __
 72
    65
 73
     2
 40
1.905
 49
1.27
 74
     0
 49
-0.635
 74
     0
  0
LTYPE
  5
40
330
5
100
AcDbSymbolTableRecord
100
AcDbLinetypeTableRecord
  2
PHANTOM
 70
     0
  3
Phantom ______  __  __  ______  __  __  ______
 72
    65
 73
     6
 40
12.7
 49
6.35
 74
     0
 49
-1.27
 74
     0
 49
1.27
 74
     0
 49
-1.27
 74
     0
 49
1.27
 74
     0
 49
-1.27
 74
     0
  0
LTYPE
  5
41
330
5
100
AcDbSymbolTableRecord
100
AcDbLinetypeTableRecord
  2
CENTER
 70
     0
  3
Center ____ _ ____ _ ____ _ ____ _ ____ _ ____
 72
    65
 73
     4
 40
10.16
 49
6.35
 74
     0
 49
-1.27
 74
     0
 49
1.27
 74
     0
 49
-1.27
 74
     0
  0
LTYPE
  5
42
330
5
100
AcDbSymbolTableRecord
100
AcDbLinetypeTableRecord
  2
CENTERX2
 70
     0
  3
Center (2x) ________  __  ________  __  _____
 72
    65
 73
     4
 40
20.32
 49
12.7
 74
     0
 49
-2.54
 74
     0
 49
2.54
 74
     0
 49
-2.54
 74
     0
  0
LTYPE
  5
43
330
5
100
AcDbSymbolTableRecord
100
AcDbLinetypeTableRecord
  2
DOT2
 70
     0
  3
Dot (.5x) ........................................
 72
    65
 73
     2
 40
0.635
 49
0.0
 74
     0
 49
-0.635
 74
     0
  0
ENDTAB
  0
TABLE
  2
LAYER
  5
2
330
0
100
AcDbSymbolTable
 70
     4
  0
LAYER
  5
10
330
2
100
AcDbSymbolTableRecord
100
AcDbLayerTableRecord
  2
0
 70
     0
 62
     7
  6
Continuous
370
    -3
390
F
  0
LAYER
  5
44
330
2
100
AcDbSymbolTableRecord
100
AcDbLayerTableRecord
  2
FORMAT
 70
     0
 62
     7
  6
Continuous
370
    -3
390
F
  0
LAYER
  5
45
330
2
100
AcDbSymbolTableRecord
100
AcDbLayerTableRecord
  2
SLD-0
 70
     0
 62
     1
  6
Continuous
370
    -3
390
F
  0
LAYER
  5
46
330
2
100
AcDbSymbolTableRecord
100
AcDbLayerTableRecord
  2
WATERMARK
 70
     0
 62
    20
  6
Continuous
370
    -3
390
F
  0
ENDTAB
  0
TABLE
  2
STYLE
  5
3
330
0
100
AcDbSymbolTable
 70
     1
  0
STYLE
  5
11
330
3
100
AcDbSymbolTableRecord
100
AcDbTextStyleTableRecord
  2
Standard
 70
     0
 40
0.0
 41
1.0
 50
0.0
 71
     0
 42
3.5
  3
txt
  4

  0
ENDTAB
  0
TABLE
  2
VIEW
  5
6
330
0
100
AcDbSymbolTable
 70
     0
  0
ENDTAB
  0
TABLE
  2
UCS
  5
7
330
0
100
AcDbSymbolTable
 70
     0
  0
ENDTAB
  0
TABLE
  2
APPID
  5
9
330
0
100
AcDbSymbolTable
 70
     1
  0
APPID
  5
12
330
9
100
AcDbSymbolTableRecord
100
AcDbRegAppTableRecord
  2
ACAD
 70
     0
  0
ENDTAB
  0
TABLE
  2
DIMSTYLE
  5
A
330
0
100
AcDbSymbolTable
 70
     1
100
AcDbDimStyleTable
  0
DIMSTYLE
105
27
330
A
100
AcDbSymbolTableRecord
100
AcDbDimStyleTableRecord
  2
ISO-25
 70
     0
 41
2.5
 42
0.625
 43
3.75
 44
1.25
 73
     0
 74
     0
 77
     1
 78
     8
140
2.5
141
2.5
143
0.0393700787
147
0.625
171
     3
172
     1
178
     0
271
     2
272
     2
274
     3
278
    44
283
     0
284
     8
340
11
  0
ENDTAB
  0
TABLE
  2
BLOCK_RECORD
  5
1
330
0
100
AcDbSymbolTable
 70
     1
  0
BLOCK_RECORD
  5
1F
330
1
100
AcDbSymbolTableRecord
100
AcDbBlockTableRecord
  2
*Model_Space
340
22
  0
BLOCK_RECORD
  5
1B
330
1
100
AcDbSymbolTableRecord
100
AcDbBlockTableRecord
  2
*Paper_Space
340
1E
  0
BLOCK_RECORD
  5
23
330
1
100
AcDbSymbolTableRecord
100
AcDbBlockTableRecord
  2
*Paper_Space0
340
26
  0
ENDTAB
  0
ENDSEC
  0
SECTION
  2
BLOCKS
  0
BLOCK
  5
20
330
1F
100
AcDbEntity
  8
0
100
AcDbBlockBegin
  2
*Model_Space
 70
     0
 10
0.0
 20
0.0
 30
0.0
  3
*Model_Space
  1

  0
ENDBLK
  5
21
330
1F
100
AcDbEntity
  8
0
100
AcDbBlockEnd
  0
BLOCK
  5
1C
330
1B
100
AcDbEntity
 67
     1
  8
0
100
AcDbBlockBegin
  2
*Paper_Space
 70
     0
 10
0.0
 20
0.0
 30
0.0
  3
*Paper_Space
  1

  0
ENDBLK
  5
1D
330
1B
100
AcDbEntity
 67
     1
  8
0
100
AcDbBlockEnd
  0
BLOCK
  5
24
330
23
100
AcDbEntity
  8
0
100
AcDbBlockBegin
  2
*Paper_Space0
 70
     0
 10
0.0
 20
0.0
 30
0.0
  3
*Paper_Space0
  1

  0
ENDBLK
  5
25
330
23
100
AcDbEntity
  8
0
100
AcDbBlockEnd
  0
ENDSEC
  0
SECTION
  2
ENTITIES
  0
LINE
  5
47
330
1F
100
AcDbEntity
  8
0
  6
Continuous
 62
     7
370
    15
100
AcDbLine
 10
236.3464741302
 20
121.7822424321
 30
0.0
 11
236.3964734864
 21
121.6622424264
 31
0.0
  0
LINE
  5
48
330
1F
100
AcDbEntity
  8
0
  6
Continuous
 62
     7
370
    15
100
AcDbLine
 10
238.1764738154
 20
121.6622424264
 30
0.0
 11
238.2264731717
 21
121.7822424321
 31
0.0
  0
LINE
  5
49
330
1F
100
AcDbEntity
  8
0
  6
Continuous
 62
     7
370
    15
100
AcDbLine
 10
236.3464741302
 20
122.8222424582
 30
0.0
 11
236.3464741302
 21
121.7822424321
 31
0.0
  0
LINE
  5
4A
330
1F
100
AcDbEntity
  8
0
  6
Continuous
 62
     7
370
    15
100
AcDbLine
 10
238.2264731717
 20
121.7822424321
 30
0.0
 11
238.2264731717
 21
122.8222424582
 31
0.0
  0
LINE
  5
4B
330
1F
100
AcDbEntity
  8
0
  6
Continuous
 62
     7
370
    15
100
AcDbLine
 10
212.5103445989
 20
172.6737262633
 30
0.0
 11
212.5170523566
 21
172.5994350341
 31
0.0
  0
LINE
  5
4C
330
1F
100
AcDbEntity
  8
0
  6
Continuous
 62
     7
370
    15
100
AcDbLine
 10
212.8953924668
 20
168.4093357947
 30
0.0
 11
213.5237505925
 21
161.4502968219
 31
0.0
  0
LINE
  5
4D
330
1F
100
AcDbEntity
  8
0
  6
Continuous
 62
     7
370
    15
100
AcDbLine
 10
214.7254152489
 20
148.1418998864
 30
0.0
 11
214.7271907222
 21
148.1222422746
 31
0.0
  0
LINE
  5
4E
330
1F
100
AcDbEntity
  8
0
  6
Continuous
 62
     7
370
    15
100
AcDbLine
 10
214.9280039859
 20
148.1222422746
 30
0.0
 11
214.9262292576
 21
148.1418998864
 31
0.0
  0
LINE
  5
4F
330
1F
100
AcDbEntity
  8
0
  6
Continuous
 62
     7
370
    15
100
AcDbLine
 10
213.7245638561
 20
161.4502968219
 30
0.0
 11
213.0962064755
 21
168.4093357947
 31
0.0
  0
LINE
  5
50
330
1F
100
AcDbEntity
  8
0
  6
Continuous
 62
     7
370
    15
100
AcDbLine
 10
212.7178659928
 20
172.5994350341
 30
0.0
 11
212.7111582351
 21
172.6737262633
 31
0.0
  0
LINE
  5
51
330
1F
100
AcDbEntity
  8
0
  6
Continuous
 62
     7
370
    15
100
AcDbLine
 10
226.3864724231
 20
148.1222422746
 30
0.0
 11
226.3864724231
 21
148.1418998864
 31
0.0
  0
LINE
  5
52
330
1F
100
AcDbEntity
  8
0
  6
Continuous
 62
     7
370
    15
100
AcDbLine
 10
225.586472292
 20
148.1418998864
 30
0.0
 11
225.586472292
 21
148.1222422746
 31
0.0
  0
LINE
  5
53
330
1F
100
AcDbEntity
  8
0
  6
Continuous
 62
     7
370
    15
100
AcDbLine
 10
226.3364730668
 20
148.1222422746
 30
0.0
 11
226.3364730668
 21
148.1418998864
 31
0.0
  0
LINE
  5
54
330
1F
100
AcDbEntity
  8
0
  6
Continuous
 62
     7
370
    15
100
AcDbLine
 10
225.6364731383
 20
148.1418998864
 30
0.0
 11
225.6364731383
 21
148.1222422746
 31
0.0
  0
LINE
  5
55
330
1F
100
AcDbEntity
  8
0
  6
Continuous
 62
     7
370
    15
100
AcDbLine
 10
207.6320485477
 20
148.1418998864
 30
0.0
 11
207.6373435822
 21
148.1222422746
 31
0.0
  0
LINE
  5
56
330
1F
100
AcDbEntity
  8
0
  6
Continuous
 62
     7
370
    15
100
AcDbLine
 10
210.2264387798
 20
148.1222422746
 30
0.0
 11
210.2211436522
 21
148.1418998864
 31
0.0
  0
LINE
  5
57
330
1F
100
AcDbEntity
  8
0
  6
Continuous
 62
     7
370
    15
100
AcDbLine
 10
221.358842988
 20
161.4502968219
 30
0.0
 11
212.5588437808
 21
161.4502968219
 31
0.0
  0
SPLINE
  5
58
330
1F
100
AcDbEntity
  8
0
  6
Continuous
 62
     7
370
    15
100
AcDbSpline
210
0.0
220
0.0
230
1.0
 70
     8
 71
     3
 72
    13
 73
     9
 74
     0
 42
0.00000001
 43
0.00000001
 12
1.0
 22
0.0
 32
0.0
 13
1.0
 23
0.0
 33
0.0
 40
0.0
 40
0.0
 40
0.0
 40
0.0
 40
0.0836850117401758
 40
0.2803303668303059
 40
0.4779413771477661
 40
0.6777246621797033
 40
0.8819130905147093
 40
1.0
 40
1.0
 40
1.0
 40
1.0
 10
212.5588437807614
 20
161.4502968218949
 30
0.0
 10
212.5318895528812
 20
161.4513144900496
 30
0.0
 10
212.4415975348466
 20
161.4547235029801
 30
0.0
 10
212.2919266070149
 20
161.4979715048142
 30
0.0
 10
212.1348904715057
 20
161.5986071651077
 30
0.0
 10
212.0210088295532
 20
161.7383022995956
 30
0.0
 10
211.9659844312516
 20
161.8786264974582
 30
0.0
 10
211.9607585353941
 20
161.9680856438598
 30
0.0
 10
211.9588436824137
 20
162.0008649256851
 30
0.0
  0
SPLINE
  5
59
330
1F
100
AcDbEntity
  8
0
  6
Continuous
 62
     7
370
    15
100
AcDbSpline
210
0.0
220
0.0
230
1.0
 70
     8
 71
     3
 72
    13
 73
     9
 74
     0
 42
0.00000001
 43
0.00000001
 12
1.0
 22
0.0
 32
0.0
 13
1.0
 23
0.0
 33
0.0
 40
0.0
 40
0.0
 40
0.0
 40
0.0
 40
0.0830037395990047
 40
0.296524827842115
 40
0.5078173166171386
 40
0.7134512433338828
 40
0.9144313480358035
 40
1.0
 40
1.0
 40
1.0
 40
1.0
 10
221.9588442039544
 20
162.0008649256851
 30
0.0
 10
221.9578772069049
 20
161.9778462888804
 30
0.0
 10
221.9544226802172
 20
161.895613881658
 30
0.0
 10
221.9083442424707
 20
161.757216530956
 30
0.0
 10
221.7940096752565
 20
161.6075559829925
 30
0.0
 10
221.6325519776926
 20
161.5004147841506
 30
0.0
 10
221.4786631844062
 20
161.4549191490675
 30
0.0
 10
221.3863957239172
 20
161.4513597291814
 30
0.0
 10
221.3588429880196
 20
161.4502968218949
 30
0.0
  0
LINE
  5
5A
330
1F
100
AcDbEntity
  8
0
  6
Continuous
 62
     7
370
    15
100
AcDbLine
 10
207.1188436621
 20
172.3039569286
 30
0.0
 11
173.1188444686
 21
172.3039569286
 31
0.0
  0
LINE
  5
5B
330
1F
100
AcDbEntity
  8
0
  6
Continuous
 62
     7
370
    15
100
AcDbLine
 10
245.2088443828
 20
223.6281337169
 30
0.0
 11
165.5288426471
 21
223.6281337169
 31
0.0
  0
LINE
  5
5C
330
1F
100
AcDbEntity
  8
0
  6
Continuous
 62
     7
370
    15
100
AcDbLine
 10
165.5288426471
 20
223.4481276897
 30
0.0
 11
165.3688429189
 21
223.4481276897
 31
0.0
  0
LINE
  5
5D
330
1F
100
AcDbEntity
  8
0
  6
Continuous
 62
     7
370
    15
100
AcDbLine
 10
245.368844111
 20
223.4481276897
 30
0.0
 11
245.2088443828
 21
223.4481276897
 31
0.0
  0
LINE
  5
5E
330
1F
100
AcDbEntity
  8
0
  6
Continuous
 62
     7
370
    15
100
AcDbLine
 10
184.8864732575
 20
93.6222435859
 30
0.0
 11
184.8864732575
 21
94.4222422269
 31
0.0
  0
LINE
  5
5F
330
1F
100
AcDbEntity
  8
0
  6
Continuous
 62
     7
370
    15
100
AcDbLine
 10
173.4864739966
 20
94.4222422269
 30
0.0
 11
173.4864739966
 21
93.6222435859
 31
0.0
  0
ARC
  5
60
330
1F
100
AcDbEntity
  8
0
  6
Continuous
 62
     7
370
    15
100
AcDbCircle
 10
184.4864727027
 20
93.6222424385
 30
0.0
 40
0.4000000000000057
100
AcDbArc
 50
270.0
 51
0.0
  0
ARC
  5
61
330
1F
100
AcDbEntity
  8
0
  6
Continuous
 62
     7
370
    15
100
AcDbCircle
 10
173.8864727027
 20
93.6222424385
 30
0.0
 40
0.4000000000000341
100
AcDbArc
 50
180.0
 51
270.0
  0
ARC
  5
62
330
1F
100
AcDbEntity
  8
0
  6
Continuous
 62
     7
370
    15
100
AcDbCircle
 10
237.0864727027
 20
93.6222424385
 30
0.0
 40
0.4000000000000341
100
AcDbArc
 50
270.0
 51
0.0
  0
ARC
  5
63
330
1F
100
AcDbEntity
  8
0
  6
Continuous
 62
     7
370
    15
100
AcDbCircle
 10
226.4864727027
 20
93.6222424385
 30
0.0
 40
0.3999999999999915
100
AcDbArc
 50
180.0
 51
270.0
  0
LINE
  5
64
330
1F
100
AcDbEntity
  8
0
  6
Continuous
 62
     7
370
    15
100
AcDbLine
 10
237.4864725661
 20
93.6222435859
 30
0.0
 11
237.4864725661
 21
94.4222422269
 31
0.0
  0
LINE
  5
65
330
1F
100
AcDbEntity
  8
0
  6
Continuous
 62
     7
370
    15
100
AcDbLine
 10
226.0864733052
 20
94.4222422269
 30
0.0
 11
226.0864733052
 21
93.6222435859
 31
0.0
  0
LINE
  5
66
330
1F
100
AcDbEntity
  8
0
  6
Continuous
 62
     7
370
    15
100
AcDbLine
 10
237.446471889
 20
94.4222422269
 30
0.0
 11
237.446471889
 21
104.0222423103
 31
0.0
  0
LINE
  5
67
330
1F
100
AcDbEntity
  8
0
  6
Continuous
 62
     7
370
    15
100
AcDbLine
 10
226.1264724922
 20
104.0222423103
 30
0.0
 11
226.1264724922
 21
94.4222422269
 31
0.0
  0
LINE
  5
68
330
1F
100
AcDbEntity
  8
0
  6
Continuous
 62
     7
370
    15
100
AcDbLine
 10
184.8464725804
 20
94.4222422269
 30
0.0
 11
184.8464725804
 21
104.0222423103
 31
0.0
  0
LINE
  5
69
330
1F
100
AcDbEntity
  8
0
  6
Continuous
 62
     7
370
    15
100
AcDbLine
 10
173.5264716935
 20
104.0222423103
 30
0.0
 11
173.5264716935
 21
94.4222422269
 31
0.0
  0
ARC
  5
6A
330
1F
100
AcDbEntity
  8
0
  6
Continuous
 62
     7
370
    15
100
AcDbCircle
 10
185.8664727027
 20
122.5222424385
 30
0.0
 40
0.3000000000000114
100
AcDbArc
 50
90.0
 51
180.0
  0
ARC
  5
6B
330
1F
100
AcDbEntity
  8
0
  6
Continuous
 62
     7
370
    15
100
AcDbCircle
 10
172.5064727027
 20
122.5222424385
 30
0.0
 40
0.2999999999999972
100
AcDbArc
 50
0.0
 51
90.0
  0
ARC
  5
6C
330
1F
100
AcDbEntity
  8
0
  6
Continuous
 62
     7
370
    15
100
AcDbCircle
 10
184.6264727027
 20
105.2287556277
 30
0.0
 40
0.9400000000000002
100
AcDbArc
 50
350.5402980318
 51
0.0
  0
ARC
  5
6D
330
1F
100
AcDbEntity
  8
0
  6
Continuous
 62
     7
370
    15
100
AcDbCircle
 10
173.7464727027
 20
105.2287556277
 30
0.0
 40
0.9400000000000002
100
AcDbArc
 50
180.0
 51
189.4597019682
  0
LINE
  5
6E
330
1F
100
AcDbEntity
  8
0
  6
Continuous
 62
     7
370
    15
100
AcDbLine
 10
185.5664728475
 20
105.2287550595
 30
0.0
 11
185.5664728475
 21
122.5222424324
 31
0.0
  0
LINE
  5
6F
330
1F
100
AcDbEntity
  8
0
  6
Continuous
 62
     7
370
    15
100
AcDbLine
 10
172.8064714265
 20
122.5222424324
 30
0.0
 11
172.8064714265
 21
105.2287550595
 31
0.0
  0
LINE
  5
70
330
1F
100
AcDbEntity
  8
0
  6
Continuous
 62
     7
370
    15
100
AcDbLine
 10
172.8192566228
 20
105.0742628005
 30
0.0
 11
172.9945419622
 21
104.0222423103
 31
0.0
  0
LINE
  5
71
330
1F
100
AcDbEntity
  8
0
  6
Continuous
 62
     7
370
    15
100
AcDbLine
 10
185.3784023118
 20
104.0222423103
 30
0.0
 11
185.5536906314
 21
105.0742628005
 31
0.0
  0
ARC
  5
72
330
1F
100
AcDbEntity
  8
0
  6
Continuous
 62
     7
370
    15
100
AcDbCircle
 10
238.4664727027
 20
122.5222424385
 30
0.0
 40
0.3000000000000142
100
AcDbArc
 50
90.0
 51
143.1301023541
  0
ARC
  5
73
330
1F
100
AcDbEntity
  8
0
  6
Continuous
 62
     7
370
    15
100
AcDbCircle
 10
225.1064727027
 20
122.5222424385
 30
0.0
 40
0.3000000000000114
100
AcDbArc
 50
0.0
 51
90.0
  0
ARC
  5
74
330
1F
100
AcDbEntity
  8
0
  6
Continuous
 62
     7
370
    15
100
AcDbCircle
 10
237.2264727027
 20
105.2287556277
 30
0.0
 40
0.9399999999999977
100
AcDbArc
 50
350.5402980318
 51
0.0
  0
ARC
  5
75
330
1F
100
AcDbEntity
  8
0
  6
Continuous
 62
     7
370
    15
100
AcDbCircle
 10
226.3464727027
 20
105.2287556277
 30
0.0
 40
0.9400000000000281
100
AcDbArc
 50
180.0
 51
189.4597019682
  0
LINE
  5
76
330
1F
100
AcDbEntity
  8
0
  6
Continuous
 62
     7
370
    15
100
AcDbLine
 10
238.1664721561
 20
105.2287550595
 30
0.0
 11
238.1664721561
 21
121.6622424264
 31
0.0
  0
LINE
  5
77
330
1F
100
AcDbEntity
  8
0
  6
Continuous
 62
     7
370
    15
100
AcDbLine
 10
225.4064722252
 20
122.5222424324
 30
0.0
 11
225.4064722252
 21
105.2287550595
 31
0.0
  0
LINE
  5
78
330
1F
100
AcDbEntity
  8
0
  6
Continuous
 62
     7
370
    15
100
AcDbLine
 10
225.4192559314
 20
105.0742628005
 30
0.0
 11
225.5945427609
 21
104.0222423103
 31
0.0
  0
LINE
  5
79
330
1F
100
AcDbEntity
  8
0
  6
Continuous
 62
     7
370
    15
100
AcDbLine
 10
237.9784016204
 20
104.0222423103
 30
0.0
 11
238.15368994
 21
105.0742628005
 31
0.0
  0
LINE
  5
7A
330
1F
100
AcDbEntity
  8
0
  6
Continuous
 62
     7
370
    15
100
AcDbLine
 10
225.1019357038
 20
148.1418998864
 30
0.0
 11
225.0904171062
 21
148.1259705451
 31
0.0
  0
LWPOLYLINE
  5
7B
330
1F
100
AcDbEntity
  8
0
  6
Continuous
 62
     7
370
    15
100
AcDbPolyline
 90
        3
 70
   128
 43
0.0
 10
226.885121901
 20
148.1222422746
 10
226.884159286
 20
148.123634043
 10
226.8710090113
 20
148.1418998864
  0
CIRCLE
  5
7C
330
1F
100
AcDbEntity
  8
0
  6
Continuous
 62
     7
370
    15
100
AcDbCircle
 10
209.3264727027
 20
135.9522424385
 30
0.0
 40
1.080000000000013
  0
CIRCLE
  5
7D
330
1F
100
AcDbEntity
  8
0
  6
Continuous
 62
     7
370
    15
100
AcDbCircle
 10
209.3264727027
 20
135.9522424385
 30
0.0
 40
2.285828735049137
  0
CIRCLE
  5
7E
330
1F
100
AcDbEntity
  8
0
  6
Continuous
 62
     7
370
    15
100
AcDbCircle
 10
209.3264727027
 20
135.9522424385
 30
0.0
 40
2.620000000000033
  0
LINE
  5
7F
330
1F
100
AcDbEntity
  8
0
  6
Continuous
 62
     7
370
    15
100
AcDbLine
 10
236.7996929479
 20
121.6622424264
 30
0.0
 11
238.1764738154
 21
121.6622424264
 31
0.0
  0
LINE
  5
80
330
1F
100
AcDbEntity
  8
0
  6
Continuous
 62
     7
370
    15
100
AcDbLine
 10
236.3964734864
 20
121.6622424264
 30
0.0
 11
236.7996929479
 21
121.6622424264
 31
0.0
  0
LINE
  5
81
330
1F
100
AcDbEntity
  8
0
  6
Continuous
 62
     7
370
    15
100
AcDbLine
 10
236.7723463368
 20
121.7822424321
 30
0.0
 11
238.2264731717
 21
121.7822424321
 31
0.0
  0
LINE
  5
82
330
1F
100
AcDbEntity
  8
0
  6
Continuous
 62
     7
370
    15
100
AcDbLine
 10
236.3464741302
 20
121.7822424321
 30
0.0
 11
236.7723463368
 21
121.7822424321
 31
0.0
  0
LINE
  5
83
330
1F
100
AcDbEntity
  8
0
  6
Continuous
 62
     7
370
    15
100
AcDbLine
 10
243.4864728046
 20
125.2622423646
 30
0.0
 11
243.4864728046
 21
126.8622422543
 31
0.0
  0
ARC
  5
84
330
1F
100
AcDbEntity
  8
0
  6
Continuous
 62
     7
370
    15
100
AcDbCircle
 10
235.6864727027
 20
125.2622424385
 30
0.0
 40
0.2000000000000028
100
AcDbArc
 50
180.0
 51
270.0
  0
LINE
  5
85
330
1F
100
AcDbEntity
  8
0
  6
Continuous
 62
     7
370
    15
100
AcDbLine
 10
235.4864714932
 20
126.8622422543
 30
0.0
 11
235.4864714932
 21
125.2622423646
 31
0.0
  0
ARC
  5
86
330
1F
100
AcDbEntity
  8
0
  6
Continuous
 62
     7
370
    15
100
AcDbCircle
 10
235.6864727027
 20
126.8622424385
 30
0.0
 40
0.2000000000000171
100
AcDbArc
 50
90.0
 51
180.0
  0
LINE
  5
87
330
1F
100
AcDbEntity
  8
0
  6
Continuous
 62
     7
370
    15
100
AcDbLine
 10
243.2864723992
 20
127.0622422871
 30
0.0
 11
235.6864718986
 21
127.0622422871
 31
0.0
  0
ARC
  5
88
330
1F
100
AcDbEntity
  8
0
  6
Continuous
 62
     7
370
    15
100
AcDbCircle
 10
243.2864727027
 20
126.8622424385
 30
0.0
 40
0.2000000000000171
100
AcDbArc
 50
0.0
 51
90.0
  0
LINE
  5
89
330
1F
100
AcDbEntity
  8
0
  6
Continuous
 62
     7
370
    15
100
AcDbLine
 10
235.6864718986
 20
125.0622425181
 30
0.0
 11
243.2864723992
 21
125.0622425181
 31
0.0
  0
ARC
  5
8A
330
1F
100
AcDbEntity
  8
0
  6
Continuous
 62
     7
370
    15
100
AcDbCircle
 10
243.2864727027
 20
125.2622424385
 30
0.0
 40
0.2000000000000171
100
AcDbArc
 50
270.0
 51
0.0
  0
SPLINE
  5
8B
330
1F
100
AcDbEntity
  8
0
  6
Continuous
 62
     7
370
    15
100
AcDbSpline
210
0.0
220
0.0
230
1.0
 70
    24
 71
     3
 72
    11
 73
     7
 74
     0
 42
0.00000001
 43
0.00000001
 12
1.0
 22
0.0
 32
0.0
 13
1.0
 23
0.0
 33
0.0
 40
0.0
 40
0.0
 40
0.0
 40
0.0
 40
0.2947400188417535
 40
0.5894902775386633
 40
0.8837915600974182
 40
1.0
 40
1.0
 40
1.0
 40
1.0
 10
220.6264732670838
 20
139.7109718945648
 30
0.0
 10
220.6264732670838
 20
139.7335950678271
 30
0.0
 10
220.6264732670838
 20
139.7788422003258
 30
0.0
 10
220.6264732670838
 20
139.8388105491966
 30
0.0
 10
220.6264732670838
 20
139.8758661426842
 30
0.0
 10
220.6264732670838
 20
139.8899282365088
 30
0.0
 10
220.6264732670838
 20
139.8939089801933
 30
0.0
  0
SPLINE
  5
8C
330
1F
100
AcDbEntity
  8
0
  6
Continuous
 62
     7
370
    15
100
AcDbSpline
210
0.0
220
0.0
230
1.0
 70
    24
 71
     3
 72
    11
 73
     7
 74
     0
 42
0.00000001
 43
0.00000001
 12
1.0
 22
0.0
 32
0.0
 13
1.0
 23
0.0
 33
0.0
 40
0.0
 40
0.0
 40
0.0
 40
0.0
 40
0.2933091451804769
 40
0.586596659377762
 40
0.8805005092469591
 40
1.0
 40
1.0
 40
1.0
 40
1.0
 10
220.0264720511491
 20
139.8939089801933
 30
0.0
 10
220.0264720511491
 20
139.8826303194554
 30
0.0
 10
220.0264720511491
 20
139.860073829759
 30
0.0
 10
220.0264720511491
 20
139.8039840223751
 30
0.0
 10
220.0264720511491
 20
139.7516933806824
 30
0.0
 10
220.0264720511491
 20
139.7201033845237
 30
0.0
 10
220.0264720511491
 20
139.7109718945648
 30
0.0
  0
ARC
  5
8D
330
1F
100
AcDbEntity
  8
0
  6
Continuous
 62
     7
370
    15
100
AcDbCircle
 10
220.3264727027
 20
132.5522424385
 30
0.0
 40
0.3000000000000114
100
AcDbArc
 50
180.0
 51
0.0
  0
LINE
  5
8E
330
1F
100
AcDbEntity
  8
0
  6
Continuous
 62
     7
370
    15
100
AcDbLine
 10
220.0264720511
 20
139.7109718946
 30
0.0
 11
220.0264720511
 21
132.5522424606
 31
0.0
  0
LINE
  5
8F
330
1F
100
AcDbEntity
  8
0
  6
Continuous
 62
     7
370
    15
100
AcDbLine
 10
220.6264732671
 20
132.5522424606
 30
0.0
 11
220.6264732671
 21
139.7109718946
 31
0.0
  0
SPLINE
  5
90
330
1F
100
AcDbEntity
  8
0
  6
Continuous
 62
     7
370
    15
100
AcDbSpline
210
0.0
220
0.0
230
1.0
 70
     8
 71
     3
 72
    14
 73
    10
 74
     0
 42
0.00000001
 43
0.00000001
 12
1.0
 22
0.0
 32
0.0
 13
1.0
 23
0.0
 33
0.0
 40
0.0
 40
0.0
 40
0.0
 40
0.0
 40
0.0450060979563102
 40
0.1924520539741745
 40
0.4101034311805476
 40
0.6281187228148142
 40
0.8446549235483298
 40
0.9597651910947647
 40
1.0
 40
1.0
 40
1.0
 40
1.0
 10
220.2199531984383
 20
139.7169711020615
 30
0.0
 10
220.2159646297284
 20
139.7182037227562
 30
0.0
 10
220.1989089800389
 20
139.7234745726019
 30
0.0
 10
220.1557159788176
 20
139.7336268639348
 30
0.0
 10
220.1016806153282
 20
139.7639649966668
 30
0.0
 10
220.0545670493093
 20
139.8147781568721
 30
0.0
 10
220.0320649330167
 20
139.8685162473082
 30
0.0
 10
220.0267579842397
 20
139.9080141405231
 30
0.0
 10
220.0265308734724
 20
139.9235617185641
 30
0.0
 10
220.0264720511491
 20
139.9275885847237
 30
0.0
  0
SPLINE
  5
91
330
1F
100
AcDbEntity
  8
0
  6
Continuous
 62
     7
370
    15
100
AcDbSpline
210
0.0
220
0.0
230
1.0
 70
     8
 71
     3
 72
     9
 73
     5
 74
     0
 42
0.00000001
 43
0.00000001
 12
1.0
 22
0.0
 32
0.0
 13
1.0
 23
0.0
 33
0.0
 40
0.0
 40
0.0
 40
0.0
 40
0.0
 40
0.8627220330313176
 40
1.0
 40
1.0
 40
1.0
 40
1.0
 10
220.2199531984383
 20
139.7169711020615
 30
0.0
 10
220.2218291838016
 20
139.7161193950035
 30
0.0
 10
220.2240036795157
 20
139.7151321627024
 30
0.0
 10
220.2261744565963
 20
139.7141443553951
 30
0.0
 10
220.2264724564606
 20
139.7140087512161
 30
0.0
  0
SPLINE
  5
92
330
1F
100
AcDbEntity
  8
0
  6
Continuous
 62
     7
370
    15
100
AcDbSpline
210
0.0
220
0.0
230
1.0
 70
     8
 71
     3
 72
     9
 73
     5
 74
     0
 42
0.00000001
 43
0.00000001
 12
1.0
 22
0.0
 32
0.0
 13
1.0
 23
0.0
 33
0.0
 40
0.0
 40
0.0
 40
0.0
 40
0.0
 40
0.1372779669686825
 40
1.0
 40
1.0
 40
1.0
 40
1.0
 10
220.4264728617722
 20
139.7140087512161
 30
0.0
 10
220.4267708616366
 20
139.7141443553951
 30
0.0
 10
220.4289416387172
 20
139.7151321627024
 30
0.0
 10
220.4311161344312
 20
139.7161193950035
 30
0.0
 10
220.4329921197945
 20
139.7169711020615
 30
0.0
  0
SPLINE
  5
93
330
1F
100
AcDbEntity
  8
0
  6
Continuous
 62
     7
370
    15
100
AcDbSpline
210
0.0
220
0.0
230
1.0
 70
     8
 71
     3
 72
    15
 73
    11
 74
     0
 42
0.00000001
 43
0.00000001
 12
1.0
 22
0.0
 32
0.0
 13
1.0
 23
0.0
 33
0.0
 40
0.0
 40
0.0
 40
0.0
 40
0.0
 40
0.0802842381133756
 40
0.229648018414055
 40
0.4389270687777451
 40
0.6497282455370806
 40
0.8665132335589075
 40
0.9462913891982903
 40
0.9895200683835197
 40
1.0
 40
1.0
 40
1.0
 40
1.0
 10
220.6264732670838
 20
139.9275885847237
 30
0.0
 10
220.6262332124913
 20
139.9194023538471
 30
0.0
 10
220.6255465514132
 20
139.8959861548115
 30
0.0
 10
220.614989628628
 20
139.8499970137536
 30
0.0
 10
220.5855582363925
 20
139.7976706341861
 30
0.0
 10
220.5351460479854
 20
139.7524527043375
 30
0.0
 10
220.4851332167923
 20
139.730692184731
 30
0.0
 10
220.4512199040581
 20
139.7220532352903
 30
0.0
 10
220.4380607956791
 20
139.7190171201206
 30
0.0
 10
220.4338196721061
 20
139.7173051512319
 30
0.0
 10
220.4329921197945
 20
139.7169711020615
 30
0.0
  0
SPLINE
  5
94
330
1F
100
AcDbEntity
  8
0
  6
Continuous
 62
     7
370
    15
100
AcDbSpline
210
0.0
220
0.0
230
1.0
 70
     8
 71
     3
 72
    11
 73
     7
 74
     0
 42
0.00000001
 43
0.00000001
 12
1.0
 22
0.0
 32
0.0
 13
1.0
 23
0.0
 33
0.0
 40
0.0
 40
0.0
 40
0.0
 40
0.0
 40
0.3704050551350572
 40
0.7444463234424678
 40
0.9445000469107551
 40
1.0
 40
1.0
 40
1.0
 40
1.0
 10
223.492356975084
 20
131.2122868326332
 30
0.0
 10
223.493273016097
 20
131.2129180692613
 30
0.0
 10
223.4951140907659
 20
131.2141867392766
 30
0.0
 10
223.4972419370112
 20
131.2160151475726
 30
0.0
 10
223.4982434515101
 20
131.2172683582139
 30
0.0
 10
223.498487874366
 20
131.2177365750844
 30
0.0
 10
223.4985409569794
 20
131.217838260236
 30
0.0
  0
ARC
  5
95
330
1F
100
AcDbEntity
  8
0
  6
Continuous
 62
     7
370
    15
100
AcDbCircle
 10
220.3264727027
 20
135.9522424385
 30
0.0
 40
5.700000000000042
100
AcDbArc
 50
236.2604749358
 51
303.7395250642
  0
SPLINE
  5
96
330
1F
100
AcDbEntity
  8
0
  6
Continuous
 62
     7
370
    15
100
AcDbSpline
210
0.0
220
0.0
230
1.0
 70
     8
 71
     3
 72
    10
 73
     6
 74
     0
 42
0.00000001
 43
0.00000001
 12
1.0
 22
0.0
 32
0.0
 13
1.0
 23
0.0
 33
0.0
 40
0.0
 40
0.0
 40
0.0
 40
0.0
 40
0.2116964268712412
 40
0.4879220306836811
 40
1.0
 40
1.0
 40
1.0
 40
1.0
 10
217.1544036161954
 20
131.217838260236
 30
0.0
 10
217.1546538991933
 20
131.2174355826625
 30
0.0
 10
217.1552307563015
 20
131.2165074835808
 30
0.0
 10
217.157380171051
 20
131.2145193048549
 30
0.0
 10
217.1593254469392
 20
131.2131659591085
 30
0.0
 10
217.1605890882069
 20
131.2122868326332
 30
0.0
  0
SPLINE
  5
97
330
1F
100
AcDbEntity
  8
0
  6
Continuous
 62
     7
370
    15
100
AcDbSpline
210
0.0
220
0.0
230
1.0
 70
     8
 71
     3
 72
    10
 73
     6
 74
     0
 42
0.00000001
 43
0.00000001
 12
1.0
 22
0.0
 32
0.0
 13
1.0
 23
0.0
 33
0.0
 40
0.0
 40
0.0
 40
0.0
 40
0.0
 40
0.2116690318263063
 40
0.4878511895979707
 40
1.0
 40
1.0
 40
1.0
 40
1.0
 10
223.4985409569794
 20
140.6866462853577
 30
0.0
 10
223.4982909373677
 20
140.6870489601941
 30
0.0
 10
223.497714696413
 20
140.687977038318
 30
0.0
 10
223.4955657719909
 20
140.6899655494824
 30
0.0
 10
223.4936206483419
 20
140.6913191045142
 30
0.0
 10
223.492356975084
 20
140.6921984580185
 30
0.0
  0
LINE
  5
98
330
1F
100
AcDbEntity
  8
0
  6
Continuous
 62
     7
370
    15
100
AcDbLine
 10
220.3794969511
 20
141.591803911
 30
0.0
 11
220.6264732671
 21
140.0155575898
 31
0.0
  0
SPLINE
  5
99
330
1F
100
AcDbEntity
  8
0
  6
Continuous
 62
     7
370
    15
100
AcDbSpline
210
0.0
220
0.0
230
1.0
 70
     8
 71
     3
 72
    12
 73
     8
 74
     0
 42
0.00000001
 43
0.00000001
 12
1.0
 22
0.0
 32
0.0
 13
1.0
 23
0.0
 33
0.0
 40
0.0
 40
0.0
 40
0.0
 40
0.0
 40
0.2238763470509756
 40
0.4477886786683725
 40
0.6716989865058188
 40
0.8955798597250516
 40
0.9999999999999999
 40
0.9999999999999999
 40
0.9999999999999999
 40
0.9999999999999999
 10
220.3296019029671
 20
141.6112052229073
 30
0.0
 10
220.3352229870318
 20
141.6109714496441
 30
0.0
 10
220.3464660586611
 20
141.6105038655425
 30
0.0
 10
220.361446583952
 20
141.606902002472
 30
0.0
 10
220.3727649964375
 20
141.6016269514161
 30
0.0
 10
220.3782879595036
 20
141.596232164523
 30
0.0
 10
220.3792052087894
 20
141.5928724949156
 30
0.0
 10
220.3794969511086
 20
141.5918039110329
 30
0.0
  0
ELLIPSE
  5
9A
330
1F
100
AcDbEntity
  8
0
  6
Continuous
 62
     7
370
    15
100
AcDbEllipse
 10
220.3264727027
 20
134.5153269335
 30
0.0
 11
2.842170943040401E-13
 21
7.095879037325545
 31
0.0
210
0.0
220
0.0
230
1.0
 40
0.9792822627
 41
6.282735029799782
 42
6.283635584559486
  0
SPLINE
  5
9B
330
1F
100
AcDbEntity
  8
0
  6
Continuous
 62
     7
370
    15
100
AcDbSpline
210
0.0
220
0.0
230
1.0
 70
     8
 71
     3
 72
    12
 73
     8
 74
     0
 42
0.00000001
 43
0.00000001
 12
1.0
 22
0.0
 32
0.0
 13
1.0
 23
0.0
 33
0.0
 40
0.0
 40
0.0
 40
0.0
 40
0.0
 40
0.2239045683587865
 40
0.4477926078098564
 40
0.671702126754839
 40
0.8955911645184785
 40
1.0
 40
1.0
 40
1.0
 40
1.0
 10
220.2734483671242
 20
141.5918039110329
 30
0.0
 10
220.2743623773349
 20
141.5940985949244
 30
0.0
 10
220.2761903302828
 20
141.598687793311
 30
0.0
 10
220.2857613343173
 20
141.6046615333294
 30
0.0
 10
220.2991511156984
 20
141.6090303634867
 30
0.0
 10
220.3125249715818
 20
141.6109863124019
 30
0.0
 10
220.320733007144
 20
141.6111524014685
 30
0.0
 10
220.3233434152657
 20
141.6112052229073
 30
0.0
  0
LINE
  5
9C
330
1F
100
AcDbEntity
  8
0
  6
Continuous
 62
     7
370
    15
100
AcDbLine
 10
220.2734483671
 20
141.591803911
 30
0.0
 11
220.0264720511
 21
140.0155575898
 31
0.0
  0
SPLINE
  5
9D
330
1F
100
AcDbEntity
  8
0
  6
Continuous
 62
     7
370
    15
100
AcDbSpline
210
0.0
220
0.0
230
1.0
 70
     8
 71
     3
 72
    11
 73
     7
 74
     0
 42
0.00000001
 43
0.00000001
 12
1.0
 22
0.0
 32
0.0
 13
1.0
 23
0.0
 33
0.0
 40
0.0
 40
0.0
 40
0.0
 40
0.0
 40
0.370537618276855
 40
0.744358022160848
 40
0.9444798242996421
 40
1.0
 40
1.0
 40
1.0
 40
1.0
 10
217.1605890882069
 20
140.6921984580185
 30
0.0
 10
217.1596725010041
 20
140.6915670053066
 30
0.0
 10
217.1578312060754
 20
140.6902985055147
 30
0.0
 10
217.1557034355446
 20
140.6884698481876
 30
0.0
 10
217.1547026221291
 20
140.6872161311667
 30
0.0
 10
217.1544569673558
 20
140.6867479620529
 30
0.0
 10
217.1544036161954
 20
140.6866462853577
 30
0.0
  0
ARC
  5
9E
330
1F
100
AcDbEntity
  8
0
  6
Continuous
 62
     7
370
    15
100
AcDbCircle
 10
220.3264727027
 20
135.9522424385
 30
0.0
 40
5.700000000000018
100
AcDbArc
 50
56.2604749358
 51
123.7395250642
  0
LINE
  5
9F
330
1F
100
AcDbEntity
  8
0
  6
Continuous
 62
     7
370
    15
100
AcDbLine
 10
220.0264720511
 20
140.0155575898
 30
0.0
 11
220.0264720511
 21
139.8939089802
 31
0.0
  0
LINE
  5
A0
330
1F
100
AcDbEntity
  8
0
  6
Continuous
 62
     7
370
    15
100
AcDbLine
 10
220.6264732671
 20
139.8939089802
 30
0.0
 11
220.6264732671
 21
140.0155575898
 31
0.0
  0
LINE
  5
A1
330
1F
100
AcDbEntity
  8
0
  6
Continuous
 62
     7
370
    15
100
AcDbLine
 10
220.2734483671
 20
141.5443004993
 30
0.0
 11
220.2734483671
 21
141.591803911
 31
0.0
  0
SPLINE
  5
A2
330
1F
100
AcDbEntity
  8
0
  6
Continuous
 62
     7
370
    15
100
AcDbSpline
210
0.0
220
0.0
230
1.0
 70
     8
 71
     3
 72
    12
 73
     8
 74
     0
 42
0.00000001
 43
0.00000001
 12
1.0
 22
0.0
 32
0.0
 13
1.0
 23
0.0
 33
0.0
 40
0.0
 40
0.0
 40
0.0
 40
0.0
 40
0.030473608699215
 40
0.0888165275618521
 40
0.3925538559988565
 40
0.696275029799232
 40
1.0
 40
1.0
 40
1.0
 40
1.0
 10
223.4932406139428
 20
140.495468857589
 30
0.0
 10
223.4939785282347
 20
140.4975897238687
 30
0.0
 10
223.4961292083755
 20
140.5037710718096
 30
0.0
 10
223.5048170519218
 20
140.5313786956666
 30
0.0
 10
223.5143649012141
 20
140.5793715556196
 30
0.0
 10
223.5147506529655
 20
140.6412175497684
 30
0.0
 10
223.5039442114874
 20
140.6715033104015
 30
0.0
 10
223.4985409569794
 20
140.6866462853577
 30
0.0
  0
SPLINE
  5
A3
330
1F
100
AcDbEntity
  8
0
  6
Continuous
 62
     7
370
    15
100
AcDbSpline
210
0.0
220
0.0
230
1.0
 70
     8
 71
     3
 72
    12
 73
     8
 74
     0
 42
0.00000001
 43
0.00000001
 12
1.0
 22
0.0
 32
0.0
 13
1.0
 23
0.0
 33
0.0
 40
0.0
 40
0.0
 40
0.0
 40
0.0
 40
0.3037275468217808
 40
0.6074458822070572
 40
0.9111866116547298
 40
0.9695295611985264
 40
1.0
 40
1.0
 40
1.0
 40
1.0
 10
223.4985409569794
 20
131.217838260236
 30
0.0
 10
223.5039442150023
 20
131.2329815176461
 30
0.0
 10
223.5147505671782
 20
131.2632675732022
 30
0.0
 10
223.5143649125858
 20
131.3251133429688
 30
0.0
 10
223.5048168835463
 20
131.3731062900782
 30
0.0
 10
223.496129403855
 20
131.4007140376735
 30
0.0
 10
223.4939785404357
 20
131.4068950742181
 30
0.0
 10
223.4932406139428
 20
131.4090156880047
 30
0.0
  0
SPLINE
  5
A4
330
1F
100
AcDbEntity
  8
0
  6
Continuous
 62
     7
370
    15
100
AcDbSpline
210
0.0
220
0.0
230
1.0
 70
     8
 71
     3
 72
    12
 73
     8
 74
     0
 42
0.00000001
 43
0.00000001
 12
1.0
 22
0.0
 32
0.0
 13
1.0
 23
0.0
 33
0.0
 40
0.0
 40
0.0
 40
0.0
 40
0.0
 40
0.0304725855305386
 40
0.0888154456788085
 40
0.3925557097221313
 40
0.6962735931407242
 40
1.0
 40
1.0
 40
1.0
 40
1.0
 10
217.1597054493481
 20
131.4090156880047
 30
0.0
 10
217.158966946603
 20
131.4068951015411
 30
0.0
 10
217.1568145053412
 20
131.4007144369017
 30
0.0
 10
217.1481291004239
 20
131.3731058101781
 30
0.0
 10
217.1385787621117
 20
131.3251135282631
 30
0.0
 10
217.1381953377412
 20
131.263267597523
 30
0.0
 10
217.1490008061712
 20
131.2329815143195
 30
0.0
 10
217.1544036161954
 20
131.217838260236
 30
0.0
  0
SPLINE
  5
A5
330
1F
100
AcDbEntity
  8
0
  6
Continuous
 62
     7
370
    15
100
AcDbSpline
210
0.0
220
0.0
230
1.0
 70
     8
 71
     3
 72
    12
 73
     8
 74
     0
 42
0.00000001
 43
0.00000001
 12
1.0
 22
0.0
 32
0.0
 13
1.0
 23
0.0
 33
0.0
 40
0.0
 40
0.0
 40
0.0
 40
0.0
 40
0.0304757552001513
 40
0.0888185846810545
 40
0.3925554477904822
 40
0.6962761696912436
 40
1.0
 40
1.0
 40
1.0
 40
1.0
 10
217.1597054493481
 20
140.495468857589
 30
0.0
 10
217.1589669587983
 20
140.4975896965468
 30
0.0
 10
217.1568147008803
 20
140.5037706726485
 30
0.0
 10
217.1481289318758
 20
140.5313791754511
 30
0.0
 10
217.1385787735464
 20
140.5793713703679
 30
0.0
 10
217.138195251937
 20
140.6412175254353
 30
0.0
 10
217.1490008096779
 20
140.6715033137242
 30
0.0
 10
217.1544036161954
 20
140.6866462853577
 30
0.0
  0
CIRCLE
  5
A6
330
1F
100
AcDbEntity
  8
0
  6
Continuous
 62
     7
370
    15
100
AcDbCircle
 10
220.3264727027
 20
135.9522424385
 30
0.0
 40
6.5
  0
SPLINE
  5
A7
330
1F
100
AcDbEntity
  8
0
  6
Continuous
 62
     7
370
    15
100
AcDbSpline
210
0.0
220
0.0
230
1.0
 70
     8
 71
     3
 72
    12
 73
     8
 74
     0
 42
0.00000001
 43
0.00000001
 12
1.0
 22
0.0
 32
0.0
 13
1.0
 23
0.0
 33
0.0
 40
0.0
 40
0.0
 40
0.0
 40
0.0
 40
0.2435934894036427
 40
0.4872340873769098
 40
0.7308089496829706
 40
0.9743738048071608
 40
1.0
 40
1.0
 40
1.0
 40
1.0
 10
220.3264726591164
 20
141.8951557901528
 30
0.0
 10
220.3917979461567
 20
141.8973811532413
 30
0.0
 10
220.5224611535012
 20
141.9018323097817
 30
0.0
 10
220.6903476153367
 20
141.9373709292323
 30
0.0
 10
220.7951404634051
 20
141.9920327687412
 30
0.0
 10
220.8386152715968
 20
142.0411935748779
 30
0.0
 10
220.8234472728468
 20
142.06841725005
 30
0.0
 10
220.8220033240372
 20
142.0710088637497
 30
0.0
  0
SPLINE
  5
A8
330
1F
100
AcDbEntity
  8
0
  6
Continuous
 62
     7
370
    15
100
AcDbSpline
210
0.0
220
0.0
230
1.0
 70
     8
 71
     3
 72
    12
 73
     8
 74
     0
 42
0.00000001
 43
0.00000001
 12
1.0
 22
0.0
 32
0.0
 13
1.0
 23
0.0
 33
0.0
 40
0.0
 40
0.0
 40
0.0
 40
0.0
 40
0.0248234858711702
 40
0.268554607742025
 40
0.5122848668731507
 40
0.7560103885830398
 40
1.0
 40
1.0
 40
1.0
 40
1.0
 10
219.830834705835
 20
142.0707942870285
 30
0.0
 10
219.8294398381667
 20
142.0682858682752
 30
0.0
 10
219.8143493653195
 20
142.0411483655959
 30
0.0
 10
219.8578365859386
 20
141.9920813027596
 30
0.0
 10
219.9624749767811
 20
141.9373936757278
 30
0.0
 10
220.1304384215719
 20
141.9018877495806
 30
0.0
 10
220.2611043287898
 20
141.897400586537
 30
0.0
 10
220.3264726591164
 20
141.8951557901528
 30
0.0
  0
LINE
  5
A9
330
1F
100
AcDbEntity
  8
0
  6
Continuous
 62
     7
370
    15
100
AcDbLine
 10
225.6639702511
 20
139.0178771642
 30
0.0
 11
225.8282123399
 21
138.7674169567
 31
0.0
  0
LINE
  5
AA
330
1F
100
AcDbEntity
  8
0
  6
Continuous
 62
     7
370
    15
100
AcDbLine
 10
225.7611749959
 20
138.9990659383
 30
0.0
 11
225.8931143475
 21
139.0129895833
 31
0.0
  0
LINE
  5
AB
330
1F
100
AcDbEntity
  8
0
  6
Continuous
 62
     7
370
    15
100
AcDbLine
 10
225.6372837615
 20
139.4534276751
 30
0.0
 11
225.5707485867
 21
139.3373327282
 31
0.0
  0
LINE
  5
AC
330
1F
100
AcDbEntity
  8
0
  6
Continuous
 62
     7
370
    15
100
AcDbLine
 10
225.3600193453
 20
139.6013321307
 30
0.0
 11
225.487841506
 21
139.3468337086
 31
0.0
  0
LINE
  5
AD
330
1F
100
AcDbEntity
  8
0
  6
Continuous
 62
     7
370
    15
100
AcDbLine
 10
225.1709712935
 20
139.409205499
 30
0.0
 11
225.5516095352
 21
139.116198006
 31
0.0
  0
LINE
  5
AE
330
1F
100
AcDbEntity
  8
0
  6
Continuous
 62
     7
370
    15
100
AcDbLine
 10
225.5516095352
 20
139.116198006
 30
0.0
 11
225.6183920693
 21
138.8567598489
 31
0.0
  0
LINE
  5
AF
330
1F
100
AcDbEntity
  8
0
  6
Continuous
 62
     7
370
    15
100
AcDbLine
 10
216.1022475255
 20
131.4126828638
 30
0.0
 11
216.1829887223
 21
131.3386613455
 31
0.0
  0
LINE
  5
B0
330
1F
100
AcDbEntity
  8
0
  6
Continuous
 62
     7
370
    15
100
AcDbLine
 10
216.2113992763
 20
131.6307814744
 30
0.0
 11
216.2617689264
 21
131.5834077027
 31
0.0
  0
LINE
  5
B1
330
1F
100
AcDbEntity
  8
0
  6
Continuous
 62
     7
370
    15
100
AcDbLine
 10
218.9581116927
 20
129.9610758153
 30
0.0
 11
219.0234786165
 21
129.9462454346
 31
0.0
  0
SPLINE
  5
B2
330
1F
100
AcDbEntity
  8
0
  6
Continuous
 62
     7
370
    15
100
AcDbSpline
210
0.0
220
0.0
230
1.0
 70
     8
 71
     3
 72
    12
 73
     8
 74
     0
 42
0.00000001
 43
0.00000001
 12
1.0
 22
0.0
 32
0.0
 13
1.0
 23
0.0
 33
0.0
 40
0.0
 40
0.0
 40
0.0
 40
0.0
 40
0.2494810976431697
 40
0.3726512105221272
 40
0.500117775125732
 40
0.7496018176337275
 40
1.0
 40
1.0
 40
1.0
 40
1.0
 10
218.7850794088894
 20
129.9382725682881
 30
0.0
 10
218.806503798637
 20
129.9336526721578
 30
0.0
 10
218.8385055208096
 20
129.9267519093276
 30
0.0
 10
218.8777167249494
 20
129.9255381056521
 30
0.0
 10
218.9119320901034
 20
129.9284482678163
 30
0.0
 10
218.9437619684558
 20
129.9396344126314
 30
0.0
 10
218.953322623377
 20
129.9539199730012
 30
0.0
 10
218.9581116926724
 20
129.961075815263
 30
0.0
  0
SPLINE
  5
B3
330
1F
100
AcDbEntity
  8
0
  6
Continuous
 62
     7
370
    15
100
AcDbSpline
210
0.0
220
0.0
230
1.0
 70
     8
 71
     3
 72
    11
 73
     7
 74
     0
 42
0.00000001
 43
0.00000001
 12
1.0
 22
0.0
 32
0.0
 13
1.0
 23
0.0
 33
0.0
 40
0.0
 40
0.0
 40
0.0
 40
0.0
 40
0.2497226411699323
 40
0.499649423251086
 40
0.749725510872477
 40
1.0
 40
1.0
 40
1.0
 40
1.0
 10
218.6519002807194
 20
130.0292732146408
 30
0.0
 10
218.6522627629111
 20
130.0216645406529
 30
0.0
 10
218.652988023613
 20
130.0064409728101
 30
0.0
 10
218.6842969145765
 20
129.9796441588017
 30
0.0
 10
218.7289424615182
 20
129.954813597416
 30
0.0
 10
218.7663621471523
 20
129.9437877020117
 30
0.0
 10
218.7850794088894
 20
129.9382725682881
 30
0.0
  0
LINE
  5
B4
330
1F
100
AcDbEntity
  8
0
  6
Continuous
 62
     7
370
    15
100
AcDbLine
 10
218.6235903096
 20
130.2328178611
 30
0.0
 11
219.0836465251
 21
130.1155717996
 31
0.0
  0
LINE
  5
B5
330
1F
100
AcDbEntity
  8
0
  6
Continuous
 62
     7
370
    15
100
AcDbLine
 10
218.743567754
 20
130.1008211401
 30
0.0
 11
218.9293211591
 21
130.1253775087
 31
0.0
  0
SPLINE
  5
B6
330
1F
100
AcDbEntity
  8
0
  6
Continuous
 62
     7
370
    15
100
AcDbSpline
210
0.0
220
0.0
230
1.0
 70
     8
 71
     3
 72
    10
 73
     6
 74
     0
 42
0.00000001
 43
0.00000001
 12
1.0
 22
0.0
 32
0.0
 13
1.0
 23
0.0
 33
0.0
 40
0.0
 40
0.0
 40
0.0
 40
0.0
 40
0.2495343033042223
 40
0.4992552930438043
 40
1.0
 40
1.0
 40
1.0
 40
1.0
 10
218.5863321912343
 20
130.047248485389
 30
0.0
 10
218.5906349653723
 20
130.0555787704138
 30
0.0
 10
218.5992437327232
 20
130.0722455726777
 30
0.0
 10
218.6551898071867
 20
130.0899108297471
 30
0.0
 10
218.7081981719357
 20
130.0964547440608
 30
0.0
 10
218.7435677540356
 20
130.1008211401131
 30
0.0
  0
LINE
  5
B7
330
1F
100
AcDbEntity
  8
0
  6
Continuous
 62
     7
370
    15
100
AcDbLine
 10
221.997022469
 20
130.016291323
 30
0.0
 11
222.0657168222
 21
130.0357343581
 31
0.0
  0
SPLINE
  5
B8
330
1F
100
AcDbEntity
  8
0
  6
Continuous
 62
     7
370
    15
100
AcDbSpline
210
0.0
220
0.0
230
1.0
 70
     8
 71
     3
 72
    12
 73
     8
 74
     0
 42
0.00000001
 43
0.00000001
 12
1.0
 22
0.0
 32
0.0
 13
1.0
 23
0.0
 33
0.0
 40
0.0
 40
0.0
 40
0.0
 40
0.0
 40
0.1253087062006895
 40
0.2504722799752351
 40
0.4996663046140114
 40
0.7494911715590926
 40
1.0
 40
1.0
 40
1.0
 40
1.0
 10
221.87820806027
 20
129.9415597644474
 30
0.0
 10
221.8857455048073
 20
129.9436417074755
 30
0.0
 10
221.9008116640206
 20
129.9478031822271
 30
0.0
 10
221.9293958006979
 20
129.9583673549146
 30
0.0
 10
221.960615454569
 20
129.9747072758918
 30
0.0
 10
221.9836767485415
 20
129.9959410413589
 30
0.0
 10
221.9925698432282
 20
130.0095017165963
 30
0.0
 10
221.9970224690491
 20
130.0162913230087
 30
0.0
  0
SPLINE
  5
B9
330
1F
100
AcDbEntity
  8
0
  6
Continuous
 62
     7
370
    15
100
AcDbSpline
210
0.0
220
0.0
230
1.0
 70
     8
 71
     3
 72
    13
 73
     9
 74
     0
 42
0.00000001
 43
0.00000001
 12
1.0
 22
0.0
 32
0.0
 13
1.0
 23
0.0
 33
0.0
 40
0.0
 40
0.0
 40
0.0
 40
0.0
 40
0.1240831288339825
 40
0.2500184339907027
 40
0.3739366675775451
 40
0.5007483063809225
 40
0.7500951658745637
 40
1.0
 40
1.0
 40
1.0
 40
1.0
 10
221.7434091758782
 20
129.9510890570309
 30
0.0
 10
221.744611873851
 20
129.9483828132146
 30
0.0
 10
221.7470352223477
 20
129.9429299297541
 30
0.0
 10
221.7571079002761
 20
129.9367640050777
 30
0.0
 10
221.77178557789
 20
129.9326858563242
 30
0.0
 10
221.7954649183668
 20
129.9298528853145
 30
0.0
 10
221.8318044845256
 20
129.931052511185
 30
0.0
 10
221.8627286811686
 20
129.9380547380792
 30
0.0
 10
221.87820806027
 20
129.9415597644474
 30
0.0
  0
SPLINE
  5
BA
330
1F
100
AcDbEntity
  8
0
  6
Continuous
 62
     7
370
    15
100
AcDbSpline
210
0.0
220
0.0
230
1.0
 70
     8
 71
     3
 72
    14
 73
    10
 74
     0
 42
0.00000001
 43
0.00000001
 12
1.0
 22
0.0
 32
0.0
 13
1.0
 23
0.0
 33
0.0
 40
0.0
 40
0.0
 40
0.0
 40
0.0
 40
0.0626677126861045
 40
0.1252798555330584
 40
0.2503427919281118
 40
0.3751230473597109
 40
0.5004445006124953
 40
0.7494619125823062
 40
1.0
 40
1.0
 40
1.0
 40
1.0
 10
221.6717047882134
 20
130.0614999559548
 30
0.0
 10
221.6724594214927
 20
130.0593950917231
 30
0.0
 10
221.6739680188893
 20
130.0551872297227
 30
0.0
 10
221.6805731146441
 20
130.0477444974816
 30
0.0
 10
221.6945081290029
 20
130.0404085930647
 30
0.0
 10
221.7177183975419
 20
130.0347136374145
 30
0.0
 10
221.7565450170996
 20
130.0322142012014
 30
0.0
 10
221.8150556710775
 20
130.0395857954381
 30
0.0
 10
221.8613065008097
 20
130.0503447862542
 30
0.0
 10
221.8845023107583
 20
130.0557406571533
 30
0.0
  0
SPLINE
  5
BB
330
1F
100
AcDbEntity
  8
0
  6
Continuous
 62
     7
370
    15
100
AcDbSpline
210
0.0
220
0.0
230
1.0
 70
     8
 71
     3
 72
    12
 73
     8
 74
     0
 42
0.00000001
 43
0.00000001
 12
1.0
 22
0.0
 32
0.0
 13
1.0
 23
0.0
 33
0.0
 40
0.0
 40
0.0
 40
0.0
 40
0.0
 40
0.24980384384268
 40
0.3740192862028364
 40
0.5003417262080834
 40
0.7497000963174673
 40
1.0
 40
1.0
 40
1.0
 40
1.0
 10
221.8158332896287
 20
130.1810594227936
 30
0.0
 10
221.8434459836913
 20
130.1874811349419
 30
0.0
 10
221.8847891430462
 20
130.1970960558213
 30
0.0
 10
221.9365399321674
 20
130.2018292481769
 30
0.0
 10
221.9833386424881
 20
130.2019859301042
 30
0.0
 10
222.0293317431119
 20
130.1922854368097
 30
0.0
 10
222.047035732508
 20
130.1762205020122
 30
0.0
 10
222.0559044075066
 20
130.1681728985932
 30
0.0
  0
SPLINE
  5
BC
330
1F
100
AcDbEntity
  8
0
  6
Continuous
 62
     7
370
    15
100
AcDbSpline
210
0.0
220
0.0
230
1.0
 70
     8
 71
     3
 72
    12
 73
     8
 74
     0
 42
0.00000001
 43
0.00000001
 12
1.0
 22
0.0
 32
0.0
 13
1.0
 23
0.0
 33
0.0
 40
0.0
 40
0.0
 40
0.0
 40
0.0
 40
0.249724879464104
 40
0.4991263462847814
 40
0.6230729297179709
 40
0.7499886398527122
 40
0.9999999999999999
 40
0.9999999999999999
 40
0.9999999999999999
 40
0.9999999999999999
 10
221.6049684476907
 20
130.044190767112
 30
0.0
 10
221.6059633602683
 20
130.0559883841513
 30
0.0
 10
221.6079518969365
 20
130.079568339422
 30
0.0
 10
221.6472322596082
 20
130.1128178563203
 30
0.0
 10
221.6908045605235
 20
130.1371619462675
 30
0.0
 10
221.74210698452
 20
130.1598119174395
 30
0.0
 10
221.7864326133833
 20
130.1725863137043
 30
0.0
 10
221.8158332896287
 20
130.1810594227936
 30
0.0
  0
SPLINE
  5
BD
330
1F
100
AcDbEntity
  8
0
  6
Continuous
 62
     7
370
    15
100
AcDbSpline
210
0.0
220
0.0
230
1.0
 70
     8
 71
     3
 72
    12
 73
     8
 74
     0
 42
0.00000001
 43
0.00000001
 12
1.0
 22
0.0
 32
0.0
 13
1.0
 23
0.0
 33
0.0
 40
0.0
 40
0.0
 40
0.0
 40
0.0
 40
0.1252386504831923
 40
0.2504113570017237
 40
0.4999255120862226
 40
0.749763929886235
 40
1.0
 40
1.0
 40
1.0
 40
1.0
 10
221.6725064706856
 20
129.9347089555886
 30
0.0
 10
221.6720470373205
 20
129.9374276739727
 30
0.0
 10
221.6711284125032
 20
129.9428636792096
 30
0.0
 10
221.6746578787979
 20
129.9547152143499
 30
0.0
 10
221.6867299072992
 20
129.970459816026
 30
0.0
 10
221.7129200446522
 20
129.9893169214567
 30
0.0
 10
221.7355756356632
 20
130.0009175938196
 30
0.0
 10
221.7469124388749
 20
130.0067225423481
 30
0.0
  0
LINE
  5
BE
330
1F
100
AcDbEntity
  8
0
  6
Continuous
 62
     7
370
    15
100
AcDbLine
 10
224.6484441948
 20
131.7508930293
 30
0.0
 11
224.8739017439
 21
131.9950493005
 31
0.0
  0
LINE
  5
BF
330
1F
100
AcDbEntity
  8
0
  6
Continuous
 62
     7
370
    15
100
AcDbLine
 10
224.6048121047
 20
131.7921662655
 30
0.0
 11
224.6484441948
 21
131.7508930293
 31
0.0
  0
LINE
  5
C0
330
1F
100
AcDbEntity
  8
0
  6
Continuous
 62
     7
370
    15
100
AcDbLine
 10
224.5562328291
 20
131.742471638
 30
0.0
 11
224.6048121047
 21
131.7921662655
 31
0.0
  0
LINE
  5
C1
330
1F
100
AcDbEntity
  8
0
  6
Continuous
 62
     7
370
    15
100
AcDbLine
 10
224.540370543
 20
131.6417137113
 30
0.0
 11
224.5998738599
 21
131.7011902061
 31
0.0
  0
LINE
  5
C2
330
1F
100
AcDbEntity
  8
0
  6
Continuous
 62
     7
370
    15
100
AcDbLine
 10
215.5059701097
 20
132.5408609536
 30
0.0
 11
215.2860408914
 21
132.8748950687
 31
0.0
  0
LINE
  5
C3
330
1F
100
AcDbEntity
  8
0
  6
Continuous
 62
     7
370
    15
100
AcDbLine
 10
217.4206419182
 20
130.3886981633
 30
0.0
 11
217.5924508166
 21
130.7183632579
 31
0.0
  0
LINE
  5
C4
330
1F
100
AcDbEntity
  8
0
  6
Continuous
 62
     7
370
    15
100
AcDbLine
 10
217.5924508166
 20
130.7183632579
 30
0.0
 11
217.2646118593
 21
130.9030847576
 31
0.0
  0
LINE
  5
C5
330
1F
100
AcDbEntity
  8
0
  6
Continuous
 62
     7
370
    15
100
AcDbLine
 10
223.2072619987
 20
130.7976635125
 30
0.0
 11
223.388296206
 21
130.4729731706
 31
0.0
  0
LINE
  5
C6
330
1F
100
AcDbEntity
  8
0
  6
Continuous
 62
     7
370
    15
100
AcDbLine
 10
223.5297529292
 20
130.9915693429
 30
0.0
 11
223.2072619987
 21
130.7976635125
 31
0.0
  0
LINE
  5
C7
330
1F
100
AcDbEntity
  8
0
  6
Continuous
 62
     7
370
    15
100
AcDbLine
 10
225.9226454687
 20
133.1080371466
 30
0.0
 11
225.5890174103
 21
133.2720996764
 31
0.0
  0
LINE
  5
C8
330
1F
100
AcDbEntity
  8
0
  6
Continuous
 62
     7
370
    15
100
AcDbLine
 10
225.5890174103
 20
133.2720996764
 30
0.0
 11
225.3954528165
 21
132.9221198288
 31
0.0
  0
LINE
  5
C9
330
1F
100
AcDbEntity
  8
0
  6
Continuous
 62
     7
370
    15
100
AcDbLine
 10
220.5264402819
 20
130.0508709577
 30
0.0
 11
220.1265065265
 21
130.0508709577
 31
0.0
  0
LINE
  5
CA
330
1F
100
AcDbEntity
  8
0
  6
Continuous
 62
     7
370
    15
100
AcDbLine
 10
217.4197821212
 20
130.3870523301
 30
0.0
 11
217.5915910196
 21
130.7167174247
 31
0.0
  0
LINE
  5
CB
330
1F
100
AcDbEntity
  8
0
  6
Continuous
 62
     7
370
    15
100
AcDbLine
 10
217.0712312949
 20
130.5834198323
 30
0.0
 11
217.4197821212
 21
130.3870523301
 31
0.0
  0
LINE
  5
CC
330
1F
100
AcDbEntity
  8
0
  6
Continuous
 62
     7
370
    15
100
AcDbLine
 10
217.2636492443
 20
130.9014970389
 30
0.0
 11
217.0712312949
 21
130.5834198323
 31
0.0
  0
LINE
  5
CD
330
1F
100
AcDbEntity
  8
0
  6
Continuous
 62
     7
370
    15
100
AcDbLine
 10
217.5915910196
 20
130.7167174247
 30
0.0
 11
217.2636492443
 21
130.9014970389
 31
0.0
  0
LINE
  5
CE
330
1F
100
AcDbEntity
  8
0
  6
Continuous
 62
     7
370
    15
100
AcDbLine
 10
217.2646118593
 20
130.9030847576
 30
0.0
 11
217.2636492443
 21
130.9014970389
 31
0.0
  0
LINE
  5
CF
330
1F
100
AcDbEntity
  8
0
  6
Continuous
 62
     7
370
    15
100
AcDbLine
 10
217.5924508166
 20
130.7183632579
 30
0.0
 11
217.5915910196
 21
130.7167174247
 31
0.0
  0
LINE
  5
D0
330
1F
100
AcDbEntity
  8
0
  6
Continuous
 62
     7
370
    15
100
AcDbLine
 10
217.4206419182
 20
130.3886981633
 30
0.0
 11
217.4197821212
 21
130.3870523301
 31
0.0
  0
LINE
  5
D1
330
1F
100
AcDbEntity
  8
0
  6
Continuous
 62
     7
370
    15
100
AcDbLine
 10
220.5265028668
 20
130.049015018
 30
0.0
 11
220.1264439416
 21
130.049015018
 31
0.0
  0
LINE
  5
D2
330
1F
100
AcDbEntity
  8
0
  6
Continuous
 62
     7
370
    15
100
AcDbLine
 10
220.5265028668
 20
129.6770656434
 30
0.0
 11
220.5265028668
 21
130.049015018
 31
0.0
  0
LINE
  5
D3
330
1F
100
AcDbEntity
  8
0
  6
Continuous
 62
     7
370
    15
100
AcDbLine
 10
220.1264424515
 20
129.6770656434
 30
0.0
 11
220.5265028668
 21
129.6770656434
 31
0.0
  0
LINE
  5
D4
330
1F
100
AcDbEntity
  8
0
  6
Continuous
 62
     7
370
    15
100
AcDbLine
 10
220.1264439416
 20
130.049015018
 30
0.0
 11
220.1264424515
 21
129.6770656434
 31
0.0
  0
LINE
  5
D5
330
1F
100
AcDbEntity
  8
0
  6
Continuous
 62
     7
370
    15
100
AcDbLine
 10
220.5264402819
 20
130.0508709577
 30
0.0
 11
220.5265028668
 21
130.049015018
 31
0.0
  0
LINE
  5
D6
330
1F
100
AcDbEntity
  8
0
  6
Continuous
 62
     7
370
    15
100
AcDbLine
 10
220.1265065265
 20
130.0508709577
 30
0.0
 11
220.1264439416
 21
130.049015018
 31
0.0
  0
LINE
  5
D7
330
1F
100
AcDbEntity
  8
0
  6
Continuous
 62
     7
370
    15
100
AcDbLine
 10
223.2081679893
 20
130.7960422662
 30
0.0
 11
223.3892021966
 21
130.4713519242
 31
0.0
  0
LINE
  5
D8
330
1F
100
AcDbEntity
  8
0
  6
Continuous
 62
     7
370
    15
100
AcDbLine
 10
223.5307602477
 20
130.9900091913
 30
0.0
 11
223.2081679893
 21
130.7960422662
 31
0.0
  0
LINE
  5
D9
330
1F
100
AcDbEntity
  8
0
  6
Continuous
 62
     7
370
    15
100
AcDbLine
 10
223.732068975
 20
130.6774834123
 30
0.0
 11
223.5307602477
 21
130.9900091913
 31
0.0
  0
LINE
  5
DA
330
1F
100
AcDbEntity
  8
0
  6
Continuous
 62
     7
370
    15
100
AcDbLine
 10
223.3892021966
 20
130.4713519242
 30
0.0
 11
223.732068975
 21
130.6774834123
 31
0.0
  0
LINE
  5
DB
330
1F
100
AcDbEntity
  8
0
  6
Continuous
 62
     7
370
    15
100
AcDbLine
 10
223.388296206
 20
130.4729731706
 30
0.0
 11
223.3892021966
 21
130.4713519242
 31
0.0
  0
LINE
  5
DC
330
1F
100
AcDbEntity
  8
0
  6
Continuous
 62
     7
370
    15
100
AcDbLine
 10
223.2072619987
 20
130.7976635125
 30
0.0
 11
223.2081679893
 21
130.7960422662
 31
0.0
  0
LINE
  5
DD
330
1F
100
AcDbEntity
  8
0
  6
Continuous
 62
     7
370
    15
100
AcDbLine
 10
223.5297529292
 20
130.9915693429
 30
0.0
 11
223.5307602477
 21
130.9900091913
 31
0.0
  0
LINE
  5
DE
330
1F
100
AcDbEntity
  8
0
  6
Continuous
 62
     7
370
    15
100
AcDbLine
 10
215.5044539166
 20
132.53978807
 30
0.0
 11
215.2844561529
 21
132.8739272383
 31
0.0
  0
LINE
  5
DF
330
1F
100
AcDbEntity
  8
0
  6
Continuous
 62
     7
370
    15
100
AcDbLine
 10
215.2860408914
 20
132.8748950687
 30
0.0
 11
215.2844561529
 21
132.8739272383
 31
0.0
  0
LINE
  5
E0
330
1F
100
AcDbEntity
  8
0
  6
Continuous
 62
     7
370
    15
100
AcDbLine
 10
215.5059701097
 20
132.5408609536
 30
0.0
 11
215.5044539166
 21
132.53978807
 31
0.0
  0
LINE
  5
E1
330
1F
100
AcDbEntity
  8
0
  6
Continuous
 62
     7
370
    15
100
AcDbLine
 10
214.9741171193
 20
132.6688634184
 30
0.0
 11
215.1941476655
 21
132.3347458568
 31
0.0
  0
LINE
  5
E2
330
1F
100
AcDbEntity
  8
0
  6
Continuous
 62
     7
370
    15
100
AcDbLine
 10
215.2844561529
 20
132.8739272383
 30
0.0
 11
214.9741171193
 21
132.6688634184
 31
0.0
  0
LINE
  5
E3
330
1F
100
AcDbEntity
  8
0
  6
Continuous
 62
     7
370
    15
100
AcDbLine
 10
215.1941476655
 20
132.3347458568
 30
0.0
 11
215.5044539166
 21
132.53978807
 31
0.0
  0
LINE
  5
E4
330
1F
100
AcDbEntity
  8
0
  6
Continuous
 62
     7
370
    15
100
AcDbLine
 10
225.5906729293
 20
133.2712570158
 30
0.0
 11
225.3970457506
 21
132.9211668995
 31
0.0
  0
LINE
  5
E5
330
1F
100
AcDbEntity
  8
0
  6
Continuous
 62
     7
370
    15
100
AcDbLine
 10
225.3954528165
 20
132.9221198288
 30
0.0
 11
225.3970457506
 21
132.9211668995
 31
0.0
  0
LINE
  5
E6
330
1F
100
AcDbEntity
  8
0
  6
Continuous
 62
     7
370
    15
100
AcDbLine
 10
225.5890174103
 20
133.2720996764
 30
0.0
 11
225.5906729293
 21
133.2712570158
 31
0.0
  0
LINE
  5
E7
330
1F
100
AcDbEntity
  8
0
  6
Continuous
 62
     7
370
    15
100
AcDbLine
 10
225.3970457506
 20
132.9211668995
 30
0.0
 11
225.7316781473
 21
132.7565612224
 31
0.0
  0
LINE
  5
E8
330
1F
100
AcDbEntity
  8
0
  6
Continuous
 62
     7
370
    15
100
AcDbLine
 10
225.9243009877
 20
133.1071959761
 30
0.0
 11
225.5906729293
 21
133.2712570158
 31
0.0
  0
LINE
  5
E9
330
1F
100
AcDbEntity
  8
0
  6
Continuous
 62
     7
370
    15
100
AcDbLine
 10
225.7316781473
 20
132.7565612224
 30
0.0
 11
225.9243009877
 21
133.1071959761
 31
0.0
  0
LINE
  5
EA
330
1F
100
AcDbEntity
  8
0
  6
Continuous
 62
     7
370
    15
100
AcDbLine
 10
225.9226454687
 20
133.1080371466
 30
0.0
 11
225.9243009877
 21
133.1071959761
 31
0.0
  0
SPLINE
  5
EB
330
1F
100
AcDbEntity
  8
0
  6
Continuous
 62
     7
370
    15
100
AcDbSpline
210
0.0
220
0.0
230
1.0
 70
    11
 71
     3
 72
    23
 73
    19
 74
     0
 42
0.00000001
 43
0.00000001
 12
1.0
 22
0.0
 32
0.0
 13
1.0
 23
0.0
 33
0.0
 40
0.0
 40
0.0
 40
0.0
 40
0.0
 40
0.0625205784671203
 40
0.1250377895262063
 40
0.18754701705725
 40
0.2500494487862026
 40
0.3125531948274016
 40
0.3750609945783527
 40
0.4375762288503656
 40
0.5000952148881248
 40
0.5626139012413905
 40
0.6251274980670191
 40
0.6876330042050809
 40
0.7501343149840888
 40
0.8126359653551128
 40
0.8751351057087371
 40
0.937680952205981
 40
1.0
 40
1.0
 40
1.0
 40
1.0
 10
220.3264726591164
 20
141.8970139649536
 30
0.0
 10
220.3919433317653
 20
141.899238236501
 30
0.0
 10
220.5228811507607
 20
141.9036866597947
 30
0.0
 10
220.6892323678229
 20
141.9392607287579
 30
0.0
 10
220.8002109438909
 20
141.9938684776371
 30
0.0
 10
220.8391274539266
 20
142.0642570806091
 30
0.0
 10
220.8001252437646
 20
142.1402098799804
 30
0.0
 10
220.6890372166301
 20
142.2089168931369
 30
0.0
 10
220.5226250230522
 20
142.2569313173748
 30
0.0
 10
220.3261974147647
 20
142.2741564333765
 30
0.0
 10
220.129815543856
 20
142.2568352779848
 30
0.0
 10
219.9635284722809
 20
142.2087485987246
 30
0.0
 10
219.8526306655564
 20
142.1400064044541
 30
0.0
 10
219.8138290050892
 20
142.0640501224074
 30
0.0
 10
219.852984599088
 20
141.9937097060156
 30
0.0
 10
219.9640928972601
 20
141.9391201726905
 30
0.0
 10
220.1305022252271
 20
141.9037003941245
 30
0.0
 10
220.2612283293961
 20
141.8992400741724
 30
0.0
 10
220.3264726591164
 20
141.8970139649536
 30
0.0
  0
LINE
  5
EC
330
1F
100
AcDbEntity
  8
0
  6
Continuous
 62
     7
370
    15
100
AcDbLine
 10
225.1724837613
 20
139.4102843431
 30
0.0
 11
225.553197999
 21
139.117160621
 31
0.0
  0
LINE
  5
ED
330
1F
100
AcDbEntity
  8
0
  6
Continuous
 62
     7
370
    15
100
AcDbLine
 10
225.5516095352
 20
139.116198006
 30
0.0
 11
225.553197999
 21
139.117160621
 31
0.0
  0
LINE
  5
EE
330
1F
100
AcDbEntity
  8
0
  6
Continuous
 62
     7
370
    15
100
AcDbLine
 10
225.1709712935
 20
139.409205499
 30
0.0
 11
225.1724837613
 21
139.4102843431
 31
0.0
  0
LINE
  5
EF
330
1F
100
AcDbEntity
  8
0
  6
Continuous
 62
     7
370
    15
100
AcDbLine
 10
225.4893927169
 20
139.347852948
 30
0.0
 11
225.1724837613
 21
139.4102843431
 31
0.0
  0
LINE
  5
F0
330
1F
100
AcDbEntity
  8
0
  6
Continuous
 62
     7
370
    15
100
AcDbLine
 10
225.3615228725
 20
139.6024228957
 30
0.0
 11
225.4893927169
 21
139.347852948
 31
0.0
  0
LINE
  5
F1
330
1F
100
AcDbEntity
  8
0
  6
Continuous
 62
     7
370
    15
100
AcDbLine
 10
225.5723087382
 20
139.3383400467
 30
0.0
 11
225.3615228725
 21
139.6024228957
 31
0.0
  0
LINE
  5
F2
330
1F
100
AcDbEntity
  8
0
  6
Continuous
 62
     7
370
    15
100
AcDbLine
 10
225.6388334823
 20
139.4544498947
 30
0.0
 11
225.5723087382
 21
139.3383400467
 31
0.0
  0
LINE
  5
F3
330
1F
100
AcDbEntity
  8
0
  6
Continuous
 62
     7
370
    15
100
AcDbLine
 10
225.7214186978
 20
139.1646893647
 30
0.0
 11
225.6388334823
 21
139.4544498947
 31
0.0
  0
LINE
  5
F4
330
1F
100
AcDbEntity
  8
0
  6
Continuous
 62
     7
370
    15
100
AcDbLine
 10
225.8947415543
 20
139.0138851431
 30
0.0
 11
225.7214186978
 21
139.1646893647
 31
0.0
  0
LINE
  5
F5
330
1F
100
AcDbEntity
  8
0
  6
Continuous
 62
     7
370
    15
100
AcDbLine
 10
225.7627947521
 20
138.999973419
 30
0.0
 11
225.8947415543
 21
139.0138851431
 31
0.0
  0
LINE
  5
F6
330
1F
100
AcDbEntity
  8
0
  6
Continuous
 62
     7
370
    15
100
AcDbLine
 10
225.8298648787
 20
138.7682633427
 30
0.0
 11
225.7627947521
 21
138.999973419
 31
0.0
  0
LINE
  5
F7
330
1F
100
AcDbEntity
  8
0
  6
Continuous
 62
     7
370
    15
100
AcDbLine
 10
225.6655810666
 20
139.0188010362
 30
0.0
 11
225.8298648787
 21
138.7682633427
 31
0.0
  0
LINE
  5
F8
330
1F
100
AcDbEntity
  8
0
  6
Continuous
 62
     7
370
    15
100
AcDbLine
 10
225.6200192761
 20
138.8576539186
 30
0.0
 11
225.6655810666
 21
139.0188010362
 31
0.0
  0
LINE
  5
F9
330
1F
100
AcDbEntity
  8
0
  6
Continuous
 62
     7
370
    15
100
AcDbLine
 10
225.553197999
 20
139.117160621
 30
0.0
 11
225.6200192761
 21
138.8576539186
 31
0.0
  0
SPLINE
  5
FA
330
1F
100
AcDbEntity
  8
0
  6
Continuous
 62
     7
370
    15
100
AcDbSpline
210
0.0
220
0.0
230
1.0
 70
     8
 71
     3
 72
     9
 73
     5
 74
     0
 42
0.00000001
 43
0.00000001
 12
1.0
 22
0.0
 32
0.0
 13
1.0
 23
0.0
 33
0.0
 40
0.0
 40
0.0
 40
0.0
 40
0.0
 40
0.5006535969755282
 40
1.0
 40
1.0
 40
1.0
 40
1.0
 10
222.0564363789613
 20
130.1663936999466
 30
0.0
 10
222.0563474022989
 20
130.1666900387339
 30
0.0
 10
222.05616968129
 20
130.1672819425752
 30
0.0
 10
222.0559927550088
 20
130.1678761721783
 30
0.0
 10
222.0559044075066
 20
130.1681728985932
 30
0.0
  0
SPLINE
  5
FB
330
1F
100
AcDbEntity
  8
0
  6
Continuous
 62
     7
370
    15
100
AcDbSpline
210
0.0
220
0.0
230
1.0
 70
     8
 71
     3
 72
    12
 73
     8
 74
     0
 42
0.00000001
 43
0.00000001
 12
1.0
 22
0.0
 32
0.0
 13
1.0
 23
0.0
 33
0.0
 40
0.0
 40
0.0
 40
0.0
 40
0.0
 40
0.2498390980647329
 40
0.3740669528369651
 40
0.500394024102616
 40
0.7497345909935977
 40
0.9999999999999999
 40
0.9999999999999999
 40
0.9999999999999999
 40
0.9999999999999999
 10
221.8162967157418
 20
130.1792615976956
 30
0.0
 10
221.8439176747029
 20
130.1856856020432
 30
0.0
 10
221.8852726428927
 20
130.1953038233303
 30
0.0
 10
221.9370397513216
 20
130.2000410316261
 30
0.0
 10
221.9838507546641
 20
130.2002019827736
 30
0.0
 10
222.0298563162213
 20
130.1905061683449
 30
0.0
 10
222.04756543068
 20
130.1744411023243
 30
0.0
 10
222.0564363789613
 20
130.1663936999466
 30
0.0
  0
SPLINE
  5
FC
330
1F
100
AcDbEntity
  8
0
  6
Continuous
 62
     7
370
    15
100
AcDbSpline
210
0.0
220
0.0
230
1.0
 70
     8
 71
     3
 72
     9
 73
     5
 74
     0
 42
0.00000001
 43
0.00000001
 12
1.0
 22
0.0
 32
0.0
 13
1.0
 23
0.0
 33
0.0
 40
0.0
 40
0.0
 40
0.0
 40
0.0
 40
0.5003011989959946
 40
1.0
 40
1.0
 40
1.0
 40
1.0
 10
221.8162967157418
 20
130.1792615976956
 30
0.0
 10
221.816219874027
 20
130.1795609585132
 30
0.0
 10
221.8160662831201
 20
130.1801593196969
 30
0.0
 10
221.8159109229296
 20
130.1807595089456
 30
0.0
 10
221.8158332896287
 20
130.1810594227936
 30
0.0
  0
LINE
  5
FD
330
1F
100
AcDbEntity
  8
0
  6
Continuous
 62
     7
370
    15
100
AcDbLine
 10
221.9975246382
 20
130.0145039287
 30
0.0
 11
222.066241343
 21
130.0339529243
 31
0.0
  0
SPLINE
  5
FE
330
1F
100
AcDbEntity
  8
0
  6
Continuous
 62
     7
370
    15
100
AcDbSpline
210
0.0
220
0.0
230
1.0
 70
     8
 71
     3
 72
    11
 73
     7
 74
     0
 42
0.00000001
 43
0.00000001
 12
1.0
 22
0.0
 32
0.0
 13
1.0
 23
0.0
 33
0.0
 40
0.0
 40
0.0
 40
0.0
 40
0.0
 40
0.2505017321182442
 40
0.5003879100220795
 40
0.7501094100339787
 40
1.0
 40
1.0
 40
1.0
 40
1.0
 10
222.0662413430268
 20
130.0339529243138
 30
0.0
 10
222.0618455063472
 20
130.0234554753747
 30
0.0
 10
222.0530646348125
 20
130.0024863727231
 30
0.0
 10
222.0142941005279
 20
129.9684423634435
 30
0.0
 10
221.9562976717011
 20
129.9365341352339
 30
0.0
 10
221.9087215936464
 20
129.9223698376595
 30
0.0
 10
221.8849255037362
 20
129.9152852919724
 30
0.0
  0
SPLINE
  5
FF
330
1F
100
AcDbEntity
  8
0
  6
Continuous
 62
     7
370
    15
100
AcDbSpline
210
0.0
220
0.0
230
1.0
 70
     8
 71
     3
 72
    14
 73
    10
 74
     0
 42
0.00000001
 43
0.00000001
 12
1.0
 22
0.0
 32
0.0
 13
1.0
 23
0.0
 33
0.0
 40
0.0
 40
0.0
 40
0.0
 40
0.0
 40
0.2496324057767758
 40
0.4991170070805748
 40
0.6241523880196667
 40
0.7495210507569963
 40
0.8746859683081695
 40
0.9373321052677692
 40
1.0
 40
1.0
 40
1.0
 40
1.0
 10
221.8849255037362
 20
129.9152852919724
 30
0.0
 10
221.8604681390589
 20
129.9099748203803
 30
0.0
 10
221.8115678906283
 20
129.8993570214652
 30
0.0
 10
221.7545382405048
 20
129.8980941184434
 30
0.0
 10
221.717335790108
 20
129.9030585683849
 30
0.0
 10
221.6950585630452
 20
129.9101536703401
 30
0.0
 10
221.6819097730557
 20
129.9184147674203
 30
0.0
 10
221.675205985436
 20
129.9262709232971
 30
0.0
 10
221.6736766051721
 20
129.9306880350488
 30
0.0
 10
221.6729117822701
 20
129.9328969743874
 30
0.0
  0
SPLINE
  5
100
330
1F
100
AcDbEntity
  8
0
  6
Continuous
 62
     7
370
    15
100
AcDbSpline
210
0.0
220
0.0
230
1.0
 70
     8
 71
     3
 72
    11
 73
     7
 74
     0
 42
0.00000001
 43
0.00000001
 12
1.0
 22
0.0
 32
0.0
 13
1.0
 23
0.0
 33
0.0
 40
0.0
 40
0.0
 40
0.0
 40
0.0
 40
0.2499062741978822
 40
0.4995755679896802
 40
0.7495909976101454
 40
1.0
 40
1.0
 40
1.0
 40
1.0
 10
221.6729117822701
 20
129.9328969743874
 30
0.0
 10
221.6726042334145
 20
129.9384747724287
 30
0.0
 10
221.6719894273448
 20
129.9496250792129
 30
0.0
 10
221.6873211700443
 20
129.9686868276545
 30
0.0
 10
221.7132965355819
 20
129.9874992216191
 30
0.0
 10
221.73598927778
 20
129.9991077116736
 30
0.0
 10
221.7473445725495
 20
130.0049165216114
 30
0.0
  0
SPLINE
  5
101
330
1F
100
AcDbEntity
  8
0
  6
Continuous
 62
     7
370
    15
100
AcDbSpline
210
0.0
220
0.0
230
1.0
 70
     8
 71
     3
 72
    10
 73
     6
 74
     0
 42
0.00000001
 43
0.00000001
 12
1.0
 22
0.0
 32
0.0
 13
1.0
 23
0.0
 33
0.0
 40
0.0
 40
0.0
 40
0.0
 40
0.0
 40
0.4995829504577358
 40
0.7497399996336332
 40
1.0
 40
1.0
 40
1.0
 40
1.0
 10
221.7473445725495
 20
130.0049165216114
 30
0.0
 10
221.7315211536766
 20
130.0039751373056
 30
0.0
 10
221.7077744464499
 20
130.0025623719812
 30
0.0
 10
221.6797840350976
 20
130.0044616238544
 30
0.0
 10
221.667453781552
 20
130.0065325214329
 30
0.0
 10
221.6612873864228
 20
130.0075681832459
 30
0.0
  0
SPLINE
  5
102
330
1F
100
AcDbEntity
  8
0
  6
Continuous
 62
     7
370
    15
100
AcDbSpline
210
0.0
220
0.0
230
1.0
 70
     8
 71
     3
 72
     9
 73
     5
 74
     0
 42
0.00000001
 43
0.00000001
 12
1.0
 22
0.0
 32
0.0
 13
1.0
 23
0.0
 33
0.0
 40
0.0
 40
0.0
 40
0.0
 40
0.0
 40
0.5001854634648495
 40
1.0
 40
1.0
 40
1.0
 40
1.0
 10
221.6612873864228
 20
130.0075681832459
 30
0.0
 10
221.6467698778837
 20
130.0114165871635
 30
0.0
 10
221.6177456266819
 20
130.0191105411041
 30
0.0
 10
221.6094877533581
 20
130.0346226354383
 30
0.0
 10
221.6053603482301
 20
130.0423758056786
 30
0.0
  0
SPLINE
  5
103
330
1F
100
AcDbEntity
  8
0
  6
Continuous
 62
     7
370
    15
100
AcDbSpline
210
0.0
220
0.0
230
1.0
 70
     8
 71
     3
 72
    12
 73
     8
 74
     0
 42
0.00000001
 43
0.00000001
 12
1.0
 22
0.0
 32
0.0
 13
1.0
 23
0.0
 33
0.0
 40
0.0
 40
0.0
 40
0.0
 40
0.0
 40
0.2492222322283704
 40
0.499079774261085
 40
0.6230166169787174
 40
0.7499502147355356
 40
0.9999999999999999
 40
0.9999999999999999
 40
0.9999999999999999
 40
0.9999999999999999
 10
221.6053603482301
 20
130.0423758056786
 30
0.0
 10
221.6063526137635
 20
130.0541501083553
 30
0.0
 10
221.6083396742838
 20
130.0777287284062
 30
0.0
 10
221.647598342389
 20
130.1109834395396
 30
0.0
 10
221.6912298087529
 20
130.135354728939
 30
0.0
 10
221.7425487977099
 20
130.1580077228496
 30
0.0
 10
221.7868873447543
 20
130.1707859266943
 30
0.0
 10
221.8162967157418
 20
130.1792615976956
 30
0.0
  0
LINE
  5
104
330
1F
100
AcDbEntity
  8
0
  6
Continuous
 62
     7
370
    15
100
AcDbLine
 10
222.056436379
 20
130.1663936999
 30
0.0
 11
221.9906432819
 21
130.1474841264
 31
0.0
  0
SPLINE
  5
105
330
1F
100
AcDbEntity
  8
0
  6
Continuous
 62
     7
370
    15
100
AcDbSpline
210
0.0
220
0.0
230
1.0
 70
     8
 71
     3
 72
     9
 73
     5
 74
     0
 42
0.00000001
 43
0.00000001
 12
1.0
 22
0.0
 32
0.0
 13
1.0
 23
0.0
 33
0.0
 40
0.0
 40
0.0
 40
0.0
 40
0.0
 40
0.5011395486253812
 40
1.0
 40
1.0
 40
1.0
 40
1.0
 10
221.990643281942
 20
130.1474841263916
 30
0.0
 10
221.9839785167152
 20
130.1526539324189
 30
0.0
 10
221.9706792964776
 20
130.1629700330768
 30
0.0
 10
221.9446526305817
 20
130.1670133897065
 30
0.0
 10
221.9316689562852
 20
130.1690304604199
 30
0.0
  0
SPLINE
  5
106
330
1F
100
AcDbEntity
  8
0
  6
Continuous
 62
     7
370
    15
100
AcDbSpline
210
0.0
220
0.0
230
1.0
 70
     8
 71
     3
 72
     9
 73
     5
 74
     0
 42
0.00000001
 43
0.00000001
 12
1.0
 22
0.0
 32
0.0
 13
1.0
 23
0.0
 33
0.0
 40
0.0
 40
0.0
 40
0.0
 40
0.0
 40
0.4992576258427521
 40
1.0
 40
1.0
 40
1.0
 40
1.0
 10
221.931667466169
 20
130.1690304604199
 30
0.0
 10
221.9146617480082
 20
130.1688647158629
 30
0.0
 10
221.8805997381749
 20
130.1685327338393
 30
0.0
 10
221.8412830836121
 20
130.1592315804954
 30
0.0
 10
221.8215955686623
 20
130.1545740988877
 30
0.0
  0
SPLINE
  5
107
330
1F
100
AcDbEntity
  8
0
  6
Continuous
 62
     7
370
    15
100
AcDbSpline
210
0.0
220
0.0
230
1.0
 70
     8
 71
     3
 72
    14
 73
    10
 74
     0
 42
0.00000001
 43
0.00000001
 12
1.0
 22
0.0
 32
0.0
 13
1.0
 23
0.0
 33
0.0
 40
0.0
 40
0.0
 40
0.0
 40
0.0
 40
0.2498379641657232
 40
0.3761367727318071
 40
0.500265896150198
 40
0.7495035492856453
 40
0.8746448213300515
 40
0.9373096288802344
 40
1.0
 40
1.0
 40
1.0
 40
1.0
 10
221.8215955686623
 20
130.1545740988877
 30
0.0
 10
221.8011425538167
 20
130.148818613387
 30
0.0
 10
221.7703500718879
 20
130.1401535982482
 30
0.0
 10
221.7342847621559
 20
130.1245269480375
 30
0.0
 10
221.7032921191927
 20
130.1075898013086
 30
0.0
 10
221.6807126424531
 20
130.089111030999
 30
0.0
 10
221.6725309674619
 20
130.0737958693961
 30
0.0
 10
221.6710531944009
 20
130.065488255283
 30
0.0
 10
221.6717637101651
 20
130.0616226577768
 30
0.0
 10
221.6721190404946
 20
130.0596894648697
 30
0.0
  0
SPLINE
  5
108
330
1F
100
AcDbEntity
  8
0
  6
Continuous
 62
     7
370
    15
100
AcDbSpline
210
0.0
220
0.0
230
1.0
 70
     8
 71
     3
 72
    13
 73
     9
 74
     0
 42
0.00000001
 43
0.00000001
 12
1.0
 22
0.0
 32
0.0
 13
1.0
 23
0.0
 33
0.0
 40
0.0
 40
0.0
 40
0.0
 40
0.0
 40
0.1250526799119415
 40
0.250114869022963
 40
0.3749058873588791
 40
0.5002687896847946
 40
0.749368032346473
 40
1.0
 40
1.0
 40
1.0
 40
1.0
 10
221.6721190404946
 20
130.0596894648697
 30
0.0
 10
221.6740084448822
 20
130.0555616319171
 30
0.0
 10
221.6777873973305
 20
130.0473056521249
 30
0.0
 10
221.6950416616131
 20
130.0386244437476
 30
0.0
 10
221.7181114731441
 20
130.0328987906276
 30
0.0
 10
221.7570007361641
 20
130.0304137924757
 30
0.0
 10
221.8155042612189
 20
130.0377836519316
 30
0.0
 10
221.8617715634002
 20
130.0485474209879
 30
0.0
 10
221.8849761676842
 20
130.0539458122875
 30
0.0
  0
LINE
  5
109
330
1F
100
AcDbEntity
  8
0
  6
Continuous
 62
     7
370
    15
100
AcDbLine
 10
221.8849761677
 20
130.0539458123
 30
0.0
 11
221.8908144426
 21
130.0308750895
 31
0.0
  0
SPLINE
  5
10A
330
1F
100
AcDbEntity
  8
0
  6
Continuous
 62
     7
370
    15
100
AcDbSpline
210
0.0
220
0.0
230
1.0
 70
     8
 71
     3
 72
    14
 73
    10
 74
     0
 42
0.00000001
 43
0.00000001
 12
1.0
 22
0.0
 32
0.0
 13
1.0
 23
0.0
 33
0.0
 40
0.0
 40
0.0
 40
0.0
 40
0.0
 40
0.2500609531888817
 40
0.4998762183950775
 40
0.6310650787498568
 40
0.7498373082736538
 40
0.8747952530760511
 40
0.9373633918998783
 40
1.0
 40
1.0
 40
1.0
 40
1.0
 10
221.89081444264
 20
130.0308750894692
 30
0.0
 10
221.8729281585442
 20
130.0257948871462
 30
0.0
 10
221.8371731638483
 20
130.0156394738618
 30
0.0
 10
221.7958070874161
 20
129.9985775422402
 30
0.0
 10
221.7679558445353
 20
129.9836438621371
 30
0.0
 10
221.7524857211515
 20
129.9716322528103
 30
0.0
 10
221.7451584944256
 20
129.9618758849968
 30
0.0
 10
221.7431300920606
 20
129.9544301092204
 30
0.0
 10
221.7436001777223
 20
129.9509988560342
 30
0.0
 10
221.7438353490883
 20
129.9492822912362
 30
0.0
  0
SPLINE
  5
10B
330
1F
100
AcDbEntity
  8
0
  6
Continuous
 62
     7
370
    15
100
AcDbSpline
210
0.0
220
0.0
230
1.0
 70
     8
 71
     3
 72
    13
 73
     9
 74
     0
 42
0.00000001
 43
0.00000001
 12
1.0
 22
0.0
 32
0.0
 13
1.0
 23
0.0
 33
0.0
 40
0.0
 40
0.0
 40
0.0
 40
0.0
 40
0.1240630974110024
 40
0.2499560722988627
 40
0.3738679963413521
 40
0.5007030925025675
 40
0.7500595202915236
 40
1.0
 40
1.0
 40
1.0
 40
1.0
 10
221.7438353490884
 20
129.9492822912362
 30
0.0
 10
221.7450375795348
 20
129.9465761001114
 30
0.0
 10
221.747459772811
 20
129.9411238027036
 30
0.0
 10
221.7575387663958
 20
129.9349570389253
 30
0.0
 10
221.7722211896555
 20
129.9308803441502
 30
0.0
 10
221.7959037135612
 20
129.9280486040539
 30
0.0
 10
221.8322565842197
 20
129.9292512124062
 30
0.0
 10
221.863188784772
 20
129.9362556325645
 30
0.0
 10
221.8786729764992
 20
129.9397619393494
 30
0.0
  0
SPLINE
  5
10C
330
1F
100
AcDbEntity
  8
0
  6
Continuous
 62
     7
370
    15
100
AcDbSpline
210
0.0
220
0.0
230
1.0
 70
     8
 71
     3
 72
    11
 73
     7
 74
     0
 42
0.00000001
 43
0.00000001
 12
1.0
 22
0.0
 32
0.0
 13
1.0
 23
0.0
 33
0.0
 40
0.0
 40
0.0
 40
0.0
 40
0.0
 40
0.2497769576938237
 40
0.4992445312186357
 40
0.7493036133392247
 40
1.0
 40
1.0
 40
1.0
 40
1.0
 10
221.8786744666154
 20
129.9397626844074
 30
0.0
 10
221.8937074855172
 20
129.9441923256296
 30
0.0
 10
221.9237549027959
 20
129.9530461213355
 30
0.0
 10
221.9610748614426
 20
129.9729861374411
 30
0.0
 10
221.984180630249
 20
129.9941322088882
 30
0.0
 10
221.9930728631967
 20
130.007707596376
 30
0.0
 10
221.9975246381814
 20
130.0145039287235
 30
0.0
  0
SPLINE
  5
10D
330
1F
100
AcDbEntity
  8
0
  6
Continuous
 62
     7
370
    15
100
AcDbSpline
210
0.0
220
0.0
230
1.0
 70
     8
 71
     3
 72
     9
 73
     5
 74
     0
 42
0.00000001
 43
0.00000001
 12
1.0
 22
0.0
 32
0.0
 13
1.0
 23
0.0
 33
0.0
 40
0.0
 40
0.0
 40
0.0
 40
0.0
 40
0.4999268920488509
 40
1.0
 40
1.0
 40
1.0
 40
1.0
 10
221.6053603482301
 20
130.0423758056786
 30
0.0
 10
221.6052953991924
 20
130.042678321359
 30
0.0
 10
221.6051654821212
 20
130.0432834411981
 30
0.0
 10
221.605034132236
 20
130.0438882956609
 30
0.0
 10
221.6049684476907
 20
130.044190767112
 30
0.0
  0
LINE
  5
10E
330
1F
100
AcDbEntity
  8
0
  6
Continuous
 62
     7
370
    15
100
AcDbLine
 10
218.9576981854
 20
129.9592653242
 30
0.0
 11
219.0230844808
 21
129.9444304732
 31
0.0
  0
SPLINE
  5
10F
330
1F
100
AcDbEntity
  8
0
  6
Continuous
 62
     7
370
    15
100
AcDbSpline
210
0.0
220
0.0
230
1.0
 70
     8
 71
     3
 72
    12
 73
     8
 74
     0
 42
0.00000001
 43
0.00000001
 12
1.0
 22
0.0
 32
0.0
 13
1.0
 23
0.0
 33
0.0
 40
0.0
 40
0.0
 40
0.0
 40
0.0
 40
0.249992685015061
 40
0.499514464388312
 40
0.6264027543960965
 40
0.7503206734732815
 40
1.0
 40
1.0
 40
1.0
 40
1.0
 10
219.0230844807679
 20
129.9444304731514
 30
0.0
 10
219.017026634039
 20
129.9340245902016
 30
0.0
 10
219.0049223516118
 20
129.9132324256314
 30
0.0
 10
218.9554590477567
 20
129.8990305132996
 30
0.0
 10
218.9061938314471
 20
129.8954025025857
 30
0.0
 10
218.850515046834
 20
129.8970542294717
 30
0.0
 10
218.8051432182091
 20
129.9068633642163
 30
0.0
 10
218.7748207044656
 20
129.9134189215329
 30
0.0
  0
SPLINE
  5
110
330
1F
100
AcDbEntity
  8
0
  6
Continuous
 62
     7
370
    15
100
AcDbSpline
210
0.0
220
0.0
230
1.0
 70
     8
 71
     3
 72
    12
 73
     8
 74
     0
 42
0.00000001
 43
0.00000001
 12
1.0
 22
0.0
 32
0.0
 13
1.0
 23
0.0
 33
0.0
 40
0.0
 40
0.0
 40
0.0
 40
0.0
 40
0.2500409086644804
 40
0.3754436066191636
 40
0.5008332878487403
 40
0.750468018086761
 40
1.0
 40
1.0
 40
1.0
 40
1.0
 10
218.7748192143494
 20
129.9134196665909
 30
0.0
 10
218.7478292344445
 20
129.9213028511485
 30
0.0
 10
218.7073030043481
 20
129.933139679201
 30
0.0
 10
218.6609167484469
 20
129.9556031239134
 30
0.0
 10
218.6224045836165
 20
129.9797997025962
 30
0.0
 10
218.5868810537851
 20
130.0126545152103
 30
0.0
 10
218.5861649189935
 20
130.034531040468
 30
0.0
 10
218.5858069253022
 20
130.0454670515682
 30
0.0
  0
SPLINE
  5
111
330
1F
100
AcDbEntity
  8
0
  6
Continuous
 62
     7
370
    15
100
AcDbSpline
210
0.0
220
0.0
230
1.0
 70
     8
 71
     3
 72
    10
 73
     6
 74
     0
 42
0.00000001
 43
0.00000001
 12
1.0
 22
0.0
 32
0.0
 13
1.0
 23
0.0
 33
0.0
 40
0.0
 40
0.0
 40
0.0
 40
0.0
 40
0.2495166356852938
 40
0.4992346602139732
 40
1.0
 40
1.0
 40
1.0
 40
1.0
 10
218.5858069253022
 20
130.0454670515682
 30
0.0
 10
218.5901102771176
 20
130.053797328843
 30
0.0
 10
218.5987204540522
 20
130.0704646068919
 30
0.0
 10
218.6546839469942
 20
130.0881248323892
 30
0.0
 10
218.7077044290766
 20
130.0946647344533
 30
0.0
 10
218.7430827212388
 20
130.0990285304215
 30
0.0
  0
LINE
  5
112
330
1F
100
AcDbEntity
  8
0
  6
Continuous
 62
     7
370
    15
100
AcDbLine
 10
218.7430827212
 20
130.0990285304
 30
0.0
 11
218.9288882804
 21
130.123571488
 31
0.0
  0
LINE
  5
113
330
1F
100
AcDbEntity
  8
0
  6
Continuous
 62
     7
370
    15
100
AcDbLine
 10
218.9288882804
 20
130.123571488
 30
0.0
 11
218.6169391763
 21
130.2067266729
 31
0.0
  0
LINE
  5
114
330
1F
100
AcDbEntity
  8
0
  6
Continuous
 62
     7
370
    15
100
AcDbLine
 10
218.6169391763
 20
130.2067266729
 30
0.0
 11
218.6230598283
 21
130.2310379174
 31
0.0
  0
LINE
  5
115
330
1F
100
AcDbEntity
  8
0
  6
Continuous
 62
     7
370
    15
100
AcDbLine
 10
218.6230598283
 20
130.2310379174
 30
0.0
 11
219.083259095
 21
130.1137560931
 31
0.0
  0
LINE
  5
116
330
1F
100
AcDbEntity
  8
0
  6
Continuous
 62
     7
370
    15
100
AcDbLine
 10
219.083259095
 20
130.1137560931
 30
0.0
 11
218.7969601047
 21
130.071984413
 31
0.0
  0
SPLINE
  5
117
330
1F
100
AcDbEntity
  8
0
  6
Continuous
 62
     7
370
    15
100
AcDbSpline
210
0.0
220
0.0
230
1.0
 70
     8
 71
     3
 72
    10
 73
     6
 74
     0
 42
0.00000001
 43
0.00000001
 12
1.0
 22
0.0
 32
0.0
 13
1.0
 23
0.0
 33
0.0
 40
0.0
 40
0.0
 40
0.0
 40
0.0
 40
0.5010448116844906
 40
0.7508604431122271
 40
1.0
 40
1.0
 40
1.0
 40
1.0
 10
218.7969601047093
 20
130.0719844129707
 30
0.0
 10
218.7657790835435
 20
130.0680165201823
 30
0.0
 10
218.7190515357809
 20
130.0620702781139
 30
0.0
 10
218.6641964253638
 20
130.0490899670473
 30
0.0
 10
218.6556583730598
 20
130.0346811914217
 30
0.0
 10
218.651395131355
 20
130.0274865654137
 30
0.0
  0
SPLINE
  5
118
330
1F
100
AcDbEntity
  8
0
  6
Continuous
 62
     7
370
    15
100
AcDbSpline
210
0.0
220
0.0
230
1.0
 70
     8
 71
     3
 72
    12
 73
     8
 74
     0
 42
0.00000001
 43
0.00000001
 12
1.0
 22
0.0
 32
0.0
 13
1.0
 23
0.0
 33
0.0
 40
0.0
 40
0.0
 40
0.0
 40
0.0
 40
0.1253936819885352
 40
0.250736676998955
 40
0.5003013205308415
 40
0.7500433488192171
 40
1.0
 40
1.0
 40
1.0
 40
1.0
 10
218.651395131355
 20
130.0274865654137
 30
0.0
 10
218.6510237623161
 20
130.0238525570818
 30
0.0
 10
218.6502811743542
 20
130.0165860093669
 30
0.0
 10
218.6586151858698
 20
129.9999556139868
 30
0.0
 10
218.6834887079519
 20
129.9779398233946
 30
0.0
 10
218.7285459095631
 20
129.9529959955266
 30
0.0
 10
218.7659220974062
 20
129.9419829073209
 30
0.0
 10
218.7846182179505
 20
129.936473998132
 30
0.0
  0
SPLINE
  5
119
330
1F
100
AcDbEntity
  8
0
  6
Continuous
 62
     7
370
    15
100
AcDbSpline
210
0.0
220
0.0
230
1.0
 70
     8
 71
     3
 72
    12
 73
     8
 74
     0
 42
0.00000001
 43
0.00000001
 12
1.0
 22
0.0
 32
0.0
 13
1.0
 23
0.0
 33
0.0
 40
0.0
 40
0.0
 40
0.0
 40
0.0
 40
0.2495149118098333
 40
0.3726833572286454
 40
0.5001653098678748
 40
0.7496338140614022
 40
1.0
 40
1.0
 40
1.0
 40
1.0
 10
218.7846182179505
 20
129.936473998132
 30
0.0
 10
218.806049122494
 20
129.9318523178189
 30
0.0
 10
218.8380589987605
 20
129.924949230053
 30
0.0
 10
218.877279110393
 20
129.923731913195
 30
0.0
 10
218.9115065784109
 20
129.9266398394695
 30
0.0
 10
218.943344987303
 20
129.9378236314388
 30
0.0
 10
218.9529080611099
 20
129.9521095409705
 30
0.0
 10
218.9576981854493
 20
129.9592653241779
 30
0.0
  0
LINE
  5
11A
330
1F
100
AcDbEntity
  8
0
  6
Continuous
 62
     7
370
    15
100
AcDbLine
 10
219.083259095
 20
130.1137560931
 30
0.0
 11
219.0836465251
 21
130.1155717996
 31
0.0
  0
LINE
  5
11B
330
1F
100
AcDbEntity
  8
0
  6
Continuous
 62
     7
370
    15
100
AcDbLine
 10
218.6230598283
 20
130.2310379174
 30
0.0
 11
218.6235903096
 21
130.2328178611
 31
0.0
  0
LINE
  5
11C
330
1F
100
AcDbEntity
  8
0
  6
Continuous
 62
     7
370
    15
100
AcDbLine
 10
216.2605045629
 20
131.5820479718
 30
0.0
 11
216.2617689264
 21
131.5834077027
 31
0.0
  0
LINE
  5
11D
330
1F
100
AcDbEntity
  8
0
  6
Continuous
 62
     7
370
    15
100
AcDbLine
 10
216.2101192665
 20
131.6294366446
 30
0.0
 11
216.2605045629
 21
131.5820479718
 31
0.0
  0
LINE
  5
11E
330
1F
100
AcDbEntity
  8
0
  6
Continuous
 62
     7
370
    15
100
AcDbLine
 10
216.2101192665
 20
131.6294366446
 30
0.0
 11
216.2113992763
 21
131.6307814744
 31
0.0
  0
LINE
  5
11F
330
1F
100
AcDbEntity
  8
0
  6
Continuous
 62
     7
370
    15
100
AcDbLine
 10
216.1334513021
 20
131.3468845513
 30
0.0
 11
216.0331866038
 21
131.4402522472
 31
0.0
  0
LINE
  5
120
330
1F
100
AcDbEntity
  8
0
  6
Continuous
 62
     7
370
    15
100
AcDbLine
 10
216.0331866038
 20
131.4402522472
 30
0.0
 11
216.2101192665
 21
131.6294366446
 31
0.0
  0
LINE
  5
121
330
1F
100
AcDbEntity
  8
0
  6
Continuous
 62
     7
370
    15
100
AcDbLine
 10
216.1009824169
 20
131.4113231328
 30
0.0
 11
216.1817482007
 21
131.3372800079
 31
0.0
  0
LINE
  5
122
330
1F
100
AcDbEntity
  8
0
  6
Continuous
 62
     7
370
    15
100
AcDbLine
 10
216.1817482007
 20
131.3372800079
 30
0.0
 11
216.1334513021
 21
131.3468845513
 31
0.0
  0
LINE
  5
123
330
1F
100
AcDbEntity
  8
0
  6
Continuous
 62
     7
370
    15
100
AcDbLine
 10
216.2605045629
 20
131.5820479718
 30
0.0
 11
216.1009824169
 21
131.4113231328
 31
0.0
  0
LINE
  5
124
330
1F
100
AcDbEntity
  8
0
  6
Continuous
 62
     7
370
    15
100
AcDbLine
 10
224.6497763586
 20
131.7495988634
 30
0.0
 11
224.6484441948
 21
131.7508930293
 31
0.0
  0
LINE
  5
125
330
1F
100
AcDbEntity
  8
0
  6
Continuous
 62
     7
370
    15
100
AcDbLine
 10
224.6061427784
 20
131.7908720997
 30
0.0
 11
224.6497763586
 21
131.7495988634
 31
0.0
  0
LINE
  5
126
330
1F
100
AcDbEntity
  8
0
  6
Continuous
 62
     7
370
    15
100
AcDbLine
 10
224.6061427784
 20
131.7908720997
 30
0.0
 11
224.6048121047
 21
131.7921662655
 31
0.0
  0
LINE
  5
127
330
1F
100
AcDbEntity
  8
0
  6
Continuous
 62
     7
370
    15
100
AcDbLine
 10
224.7599272323
 20
131.5692895976
 30
0.0
 11
224.7500343514
 21
131.5592335489
 31
0.0
  0
LINE
  5
128
330
1F
100
AcDbEntity
  8
0
  6
Continuous
 62
     7
370
    15
100
AcDbLine
 10
224.7500343514
 20
131.5592335489
 30
0.0
 11
224.6192453694
 21
131.6829057363
 31
0.0
  0
LINE
  5
129
330
1F
100
AcDbEntity
  8
0
  6
Continuous
 62
     7
370
    15
100
AcDbLine
 10
224.6192453694
 20
131.6829057363
 30
0.0
 11
224.5597316217
 21
131.6234039095
 31
0.0
  0
LINE
  5
12A
330
1F
100
AcDbEntity
  8
0
  6
Continuous
 62
     7
370
    15
100
AcDbLine
 10
224.5597316217
 20
131.6234039095
 30
0.0
 11
224.5416684341
 21
131.6403860179
 31
0.0
  0
LINE
  5
12B
330
1F
100
AcDbEntity
  8
0
  6
Continuous
 62
     7
370
    15
100
AcDbLine
 10
224.5416684341
 20
131.6403860179
 30
0.0
 11
224.6011896324
 21
131.699880394
 31
0.0
  0
LINE
  5
12C
330
1F
100
AcDbEntity
  8
0
  6
Continuous
 62
     7
370
    15
100
AcDbLine
 10
224.6011896324
 20
131.699880394
 30
0.0
 11
224.5575486016
 21
131.741161826
 31
0.0
  0
LINE
  5
12D
330
1F
100
AcDbEntity
  8
0
  6
Continuous
 62
     7
370
    15
100
AcDbLine
 10
224.5575486016
 20
131.741161826
 30
0.0
 11
224.6061427784
 21
131.7908720997
 31
0.0
  0
LINE
  5
12E
330
1F
100
AcDbEntity
  8
0
  6
Continuous
 62
     7
370
    15
100
AcDbLine
 10
224.6497763586
 20
131.7495988634
 30
0.0
 11
224.875302453
 21
131.9938303855
 31
0.0
  0
LINE
  5
12F
330
1F
100
AcDbEntity
  8
0
  6
Continuous
 62
     7
370
    15
100
AcDbLine
 10
224.875302453
 20
131.9938303855
 30
0.0
 11
224.7599272323
 21
131.5692895976
 31
0.0
  0
LINE
  5
130
330
1F
100
AcDbEntity
  8
0
  6
Continuous
 62
     7
370
    15
100
AcDbLine
 10
224.8081309986
 20
131.8817930248
 30
0.0
 11
224.6678261352
 21
131.7326279309
 31
0.0
  0
LINE
  5
131
330
1F
100
AcDbEntity
  8
0
  6
Continuous
 62
     7
370
    15
100
AcDbLine
 10
224.6678261352
 20
131.7326279309
 30
0.0
 11
224.7459469628
 21
131.6586093929
 31
0.0
  0
LINE
  5
132
330
1F
100
AcDbEntity
  8
0
  6
Continuous
 62
     7
370
    15
100
AcDbLine
 10
224.7459469628
 20
131.6586093929
 30
0.0
 11
224.8081309986
 21
131.8817930248
 31
0.0
  0
LINE
  5
133
330
1F
100
AcDbEntity
  8
0
  6
Continuous
 62
     7
370
    15
100
AcDbLine
 10
224.5575486016
 20
131.741161826
 30
0.0
 11
224.5562328291
 21
131.742471638
 31
0.0
  0
SPLINE
  5
134
330
1F
100
AcDbEntity
  8
0
  6
Continuous
 62
     7
370
    15
100
AcDbSpline
210
0.0
220
0.0
230
1.0
 70
     8
 71
     3
 72
     9
 73
     5
 74
     0
 42
0.00000001
 43
0.00000001
 12
1.0
 22
0.0
 32
0.0
 13
1.0
 23
0.0
 33
0.0
 40
0.0
 40
0.0
 40
0.0
 40
0.0
 40
0.5005094489990982
 40
1.0
 40
1.0
 40
1.0
 40
1.0
 10
218.7430827212388
 20
130.0990285304215
 30
0.0
 10
218.7431633323798
 20
130.0993271461857
 30
0.0
 10
218.7433243905601
 20
130.0999237698156
 30
0.0
 10
218.7434866879986
 20
130.1005222199338
 30
0.0
 10
218.7435677540356
 20
130.1008211401131
 30
0.0
  0
LINE
  5
135
330
1F
100
AcDbEntity
  8
0
  6
Continuous
 62
     7
370
    15
100
AcDbLine
 10
224.875302453
 20
131.9938303855
 30
0.0
 11
224.8739017439
 21
131.9950493005
 31
0.0
  0
LINE
  5
136
330
1F
100
AcDbEntity
  8
0
  6
Continuous
 62
     7
370
    15
100
AcDbLine
 10
224.5416684341
 20
131.6403860179
 30
0.0
 11
224.540370543
 21
131.6417137113
 31
0.0
  0
LINE
  5
137
330
1F
100
AcDbEntity
  8
0
  6
Continuous
 62
     7
370
    15
100
AcDbLine
 10
225.6183920693
 20
138.8567598489
 30
0.0
 11
225.6200192761
 21
138.8576539186
 31
0.0
  0
SPLINE
  5
138
330
1F
100
AcDbEntity
  8
0
  6
Continuous
 62
     7
370
    15
100
AcDbSpline
210
0.0
220
0.0
230
1.0
 70
     8
 71
     3
 72
     9
 73
     5
 74
     0
 42
0.00000001
 43
0.00000001
 12
1.0
 22
0.0
 32
0.0
 13
1.0
 23
0.0
 33
0.0
 40
0.0
 40
0.0
 40
0.0
 40
0.0
 40
0.4998325185487744
 40
0.9999999999999999
 40
0.9999999999999999
 40
0.9999999999999999
 40
0.9999999999999999
 10
221.8849761676842
 20
130.0539458122875
 30
0.0
 10
221.8848971783117
 20
130.0542448169425
 30
0.0
 10
221.8847391466319
 20
130.0548430266306
 30
0.0
 10
221.8845812736767
 20
130.0554413801704
 30
0.0
 10
221.8845023107583
 20
130.0557406571533
 30
0.0
  0
SPLINE
  5
139
330
1F
100
AcDbEntity
  8
0
  6
Continuous
 62
     7
370
    15
100
AcDbSpline
210
0.0
220
0.0
230
1.0
 70
    24
 71
     3
 72
     9
 73
     5
 74
     0
 42
0.00000001
 43
0.00000001
 12
1.0
 22
0.0
 32
0.0
 13
1.0
 23
0.0
 33
0.0
 40
0.0
 40
0.0
 40
0.0
 40
0.0
 40
0.4994455295991186
 40
1.0
 40
1.0
 40
1.0
 40
1.0
 10
221.6721190404946
 20
130.0596894648697
 30
0.0
 10
221.6720499602508
 20
130.0599913803239
 30
0.0
 10
221.6719116463812
 20
130.0605958815882
 30
0.0
 10
221.6717737918935
 20
130.0611983751227
 30
0.0
 10
221.6717047882134
 20
130.0614999559548
 30
0.0
  0
LINE
  5
13A
330
1F
100
AcDbEntity
  8
0
  6
Continuous
 62
     7
370
    15
100
AcDbLine
 10
224.7446162891
 20
131.6599035588
 30
0.0
 11
224.7459469628
 21
131.6586093929
 31
0.0
  0
LINE
  5
13B
330
1F
100
AcDbEntity
  8
0
  6
Continuous
 62
     7
370
    15
100
AcDbLine
 10
224.6664954615
 20
131.7339220968
 30
0.0
 11
224.7446162891
 21
131.6599035588
 31
0.0
  0
LINE
  5
13C
330
1F
100
AcDbEntity
  8
0
  6
Continuous
 62
     7
370
    15
100
AcDbLine
 10
224.7446162891
 20
131.6599035588
 30
0.0
 11
224.8067556214
 21
131.8830409971
 31
0.0
  0
SPLINE
  5
13D
330
1F
100
AcDbEntity
  8
0
  6
Continuous
 62
     7
370
    15
100
AcDbSpline
210
0.0
220
0.0
230
1.0
 70
     8
 71
     3
 72
     9
 73
     5
 74
     0
 42
0.00000001
 43
0.00000001
 12
1.0
 22
0.0
 32
0.0
 13
1.0
 23
0.0
 33
0.0
 40
0.0
 40
0.0
 40
0.0
 40
0.0
 40
0.4992309350347214
 40
1.0
 40
1.0
 40
1.0
 40
1.0
 10
218.5858069253022
 20
130.0454670515682
 30
0.0
 10
218.5858943506709
 20
130.0457639987696
 30
0.0
 10
218.5860694707657
 20
130.0463588080663
 30
0.0
 10
218.5862445279912
 20
130.0469516223396
 30
0.0
 10
218.5863321912343
 20
130.047248485389
 30
0.0
  0
LINE
  5
13E
330
1F
100
AcDbEntity
  8
0
  6
Continuous
 62
     7
370
    15
100
AcDbLine
 10
221.6729117823
 20
129.9328969744
 30
0.0
 11
221.6725064707
 21
129.9347089556
 31
0.0
  0
SPLINE
  5
13F
330
1F
100
AcDbEntity
  8
0
  6
Continuous
 62
     7
370
    15
100
AcDbSpline
210
0.0
220
0.0
230
1.0
 70
     8
 71
     3
 72
     9
 73
     5
 74
     0
 42
0.00000001
 43
0.00000001
 12
1.0
 22
0.0
 32
0.0
 13
1.0
 23
0.0
 33
0.0
 40
0.0
 40
0.0
 40
0.0
 40
0.0
 40
0.5000385577861927
 40
1.0
 40
1.0
 40
1.0
 40
1.0
 10
218.9576981854493
 20
129.9592653241779
 30
0.0
 10
218.9577672869362
 20
129.9595670610556
 30
0.0
 10
218.9579054792532
 20
129.9601704882772
 30
0.0
 10
218.9580429583999
 20
129.9607740551158
 30
0.0
 10
218.9581116926724
 20
129.961075815263
 30
0.0
  0
LINE
  5
140
330
1F
100
AcDbEntity
  8
0
  6
Continuous
 62
     7
370
    15
100
AcDbLine
 10
219.0230844808
 20
129.9444304732
 30
0.0
 11
219.0234786165
 21
129.9462454346
 31
0.0
  0
SPLINE
  5
141
330
1F
100
AcDbEntity
  8
0
  6
Continuous
 62
     7
370
    15
100
AcDbSpline
210
0.0
220
0.0
230
1.0
 70
     8
 71
     3
 72
     9
 73
     5
 74
     0
 42
0.00000001
 43
0.00000001
 12
1.0
 22
0.0
 32
0.0
 13
1.0
 23
0.0
 33
0.0
 40
0.0
 40
0.0
 40
0.0
 40
0.0
 40
0.4994023391938466
 40
1.0
 40
1.0
 40
1.0
 40
1.0
 10
218.7846182179505
 20
129.936473998132
 30
0.0
 10
218.7846949428203
 20
129.9367739385527
 30
0.0
 10
218.7848485762013
 20
129.9373745373028
 30
0.0
 10
218.7850024033691
 20
129.93797298618
 30
0.0
 10
218.7850794088894
 20
129.9382725682881
 30
0.0
  0
SPLINE
  5
142
330
1F
100
AcDbEntity
  8
0
  6
Continuous
 62
     7
370
    15
100
AcDbSpline
210
0.0
220
0.0
230
1.0
 70
    24
 71
     3
 72
     9
 73
     5
 74
     0
 42
0.00000001
 43
0.00000001
 12
1.0
 22
0.0
 32
0.0
 13
1.0
 23
0.0
 33
0.0
 40
0.0
 40
0.0
 40
0.0
 40
0.0
 40
0.5005547740081467
 40
0.9999999999999999
 40
0.9999999999999999
 40
0.9999999999999999
 40
0.9999999999999999
 10
218.651395131355
 20
130.0274865654137
 30
0.0
 10
218.6514792761047
 20
130.0277841747201
 30
0.0
 10
218.6516473790857
 20
130.0283787336413
 30
0.0
 10
218.6518160425549
 20
130.0289752749381
 30
0.0
 10
218.6519002807194
 20
130.0292732146408
 30
0.0
  0
LINE
  5
143
330
1F
100
AcDbEntity
  8
0
  6
Continuous
 62
     7
370
    15
100
AcDbLine
 10
225.8282123399
 20
138.7674169567
 30
0.0
 11
225.8298648787
 21
138.7682633427
 31
0.0
  0
SPLINE
  5
144
330
1F
100
AcDbEntity
  8
0
  6
Continuous
 62
     7
370
    15
100
AcDbSpline
210
0.0
220
0.0
230
1.0
 70
     8
 71
     3
 72
     9
 73
     5
 74
     0
 42
0.00000001
 43
0.00000001
 12
1.0
 22
0.0
 32
0.0
 13
1.0
 23
0.0
 33
0.0
 40
0.0
 40
0.0
 40
0.0
 40
0.0
 40
0.5007219223009847
 40
1.0
 40
1.0
 40
1.0
 40
1.0
 10
221.8786729764992
 20
129.9397619393494
 30
0.0
 10
221.8785955465617
 20
129.9400615463692
 30
0.0
 10
221.8784409099578
 20
129.9406598964843
 30
0.0
 10
221.8782856020858
 20
129.9412600973253
 30
0.0
 10
221.87820806027
 20
129.9415597644474
 30
0.0
  0
SPLINE
  5
145
330
1F
100
AcDbEntity
  8
0
  6
Continuous
 62
     7
370
    15
100
AcDbSpline
210
0.0
220
0.0
230
1.0
 70
     8
 71
     3
 72
     9
 73
     5
 74
     0
 42
0.00000001
 43
0.00000001
 12
1.0
 22
0.0
 32
0.0
 13
1.0
 23
0.0
 33
0.0
 40
0.0
 40
0.0
 40
0.0
 40
0.0
 40
0.5001685930729396
 40
1.0
 40
1.0
 40
1.0
 40
1.0
 10
221.7438353490883
 20
129.9492822912362
 30
0.0
 10
221.7437643322031
 20
129.9495835543727
 30
0.0
 10
221.7436223463081
 20
129.9501858775508
 30
0.0
 10
221.7434802167135
 20
129.9507880648873
 30
0.0
 10
221.7434091758782
 20
129.9510890570309
 30
0.0
  0
SPLINE
  5
146
330
1F
100
AcDbEntity
  8
0
  6
Continuous
 62
     7
370
    15
100
AcDbSpline
210
0.0
220
0.0
230
1.0
 70
     8
 71
     3
 72
     9
 73
     5
 74
     0
 42
0.00000001
 43
0.00000001
 12
1.0
 22
0.0
 32
0.0
 13
1.0
 23
0.0
 33
0.0
 40
0.0
 40
0.0
 40
0.0
 40
0.0
 40
0.5002604418611235
 40
1.0
 40
1.0
 40
1.0
 40
1.0
 10
221.9975246381814
 20
130.0145039287235
 30
0.0
 10
221.9974405924879
 20
130.0148019364341
 30
0.0
 10
221.9972725886115
 20
130.015397641562
 30
0.0
 10
221.9971058132797
 20
130.0159935326565
 30
0.0
 10
221.9970224690491
 20
130.0162913230087
 30
0.0
  0
LINE
  5
147
330
1F
100
AcDbEntity
  8
0
  6
Continuous
 62
     7
370
    15
100
AcDbLine
 10
222.066241343
 20
130.0339529243
 30
0.0
 11
222.0657168222
 21
130.0357343581
 31
0.0
  0
LINE
  5
148
330
1F
100
AcDbEntity
  8
0
  6
Continuous
 62
     7
370
    15
100
AcDbLine
 10
225.3600193453
 20
139.6013321307
 30
0.0
 11
225.3615228725
 21
139.6024228957
 31
0.0
  0
LINE
  5
149
330
1F
100
AcDbEntity
  8
0
  6
Continuous
 62
     7
370
    15
100
AcDbLine
 10
216.1817482007
 20
131.3372800079
 30
0.0
 11
216.1829887223
 21
131.3386613455
 31
0.0
  0
LINE
  5
14A
330
1F
100
AcDbEntity
  8
0
  6
Continuous
 62
     7
370
    15
100
AcDbLine
 10
225.8931143475
 20
139.0129895833
 30
0.0
 11
225.8947415543
 21
139.0138851431
 31
0.0
  0
LINE
  5
14B
330
1F
100
AcDbEntity
  8
0
  6
Continuous
 62
     7
370
    15
100
AcDbLine
 10
225.6372837615
 20
139.4534276751
 30
0.0
 11
225.6388334823
 21
139.4544498947
 31
0.0
  0
LINE
  5
14C
330
1F
100
AcDbEntity
  8
0
  6
Continuous
 62
     7
370
    15
100
AcDbLine
 10
220.2764733028
 20
143.0097104934
 30
0.0
 11
220.1310469103
 21
143.0097104934
 31
0.0
  0
LINE
  5
14D
330
1F
100
AcDbEntity
  8
0
  6
Continuous
 62
     7
370
    15
100
AcDbLine
 10
220.2764733028
 20
143.4458913234
 30
0.0
 11
220.2764733028
 21
143.0097104934
 31
0.0
  0
LINE
  5
14E
330
1F
100
AcDbEntity
  8
0
  6
Continuous
 62
     7
370
    15
100
AcDbLine
 10
221.9364730907
 20
161.9022430804
 30
0.0
 11
221.9405247164
 21
161.8900867131
 31
0.0
  0
LINE
  5
14F
330
1F
100
AcDbEntity
  8
0
  6
Continuous
 62
     7
370
    15
100
AcDbLine
 10
225.592337389
 20
148.1418998864
 30
0.0
 11
225.5885226917
 21
148.1222422746
 31
0.0
  0
LINE
  5
150
330
1F
100
AcDbEntity
  8
0
  6
Continuous
 62
     7
370
    15
100
AcDbLine
 10
226.3844220233
 20
148.1222422746
 30
0.0
 11
226.3801081371
 21
148.143896642
 31
0.0
  0
SPLINE
  5
151
330
1F
100
AcDbEntity
  8
0
  6
Continuous
 62
     7
370
    15
100
AcDbSpline
210
0.0
220
0.0
230
1.0
 70
     8
 71
     3
 72
    12
 73
     8
 74
     0
 42
0.00000001
 43
0.00000001
 12
1.0
 22
0.0
 32
0.0
 13
1.0
 23
0.0
 33
0.0
 40
0.0
 40
0.0
 40
0.0
 40
0.0
 40
0.2196109394291749
 40
0.4392524979968716
 40
0.6588858368025565
 40
0.8785285113482553
 40
1.0
 40
1.0
 40
1.0
 40
1.0
 10
165.8964721751267
 20
147.7122427848007
 30
0.0
 10
165.9066221358505
 20
147.7593936625781
 30
0.0
 10
165.9269234724508
 20
147.8537019921191
 30
0.0
 10
165.9573707079359
 20
147.9786477784648
 30
0.0
 10
165.9878143275833
 20
148.0715176351613
 30
0.0
 10
166.0137649233712
 20
148.1165967286538
 30
0.0
 10
166.0294694862427
 20
148.1207597969816
 30
0.0
 10
166.0350619149262
 20
148.122242274585
 30
0.0
  0
LINE
  5
152
330
1F
100
AcDbEntity
  8
0
  6
Continuous
 62
     7
370
    15
100
AcDbLine
 10
244.9378846479
 20
148.1222422746
 30
0.0
 11
166.0350619149
 21
148.1222422746
 31
0.0
  0
SPLINE
  5
153
330
1F
100
AcDbEntity
  8
0
  6
Continuous
 62
     7
370
    15
100
AcDbSpline
210
0.0
220
0.0
230
1.0
 70
     8
 71
     3
 72
    12
 73
     8
 74
     0
 42
0.00000001
 43
0.00000001
 12
1.0
 22
0.0
 32
0.0
 13
1.0
 23
0.0
 33
0.0
 40
0.0
 40
0.0
 40
0.0
 40
0.0
 40
0.2196122746436174
 40
0.4392483492362907
 40
0.6588856346351167
 40
0.8785247301914964
 40
1.0
 40
1.0
 40
1.0
 40
1.0
 10
244.9378846478516
 20
148.122242274585
 30
0.0
 10
244.9480344717149
 20
148.1174982544944
 30
0.0
 10
244.9683352194041
 20
148.1080097001914
 30
0.0
 10
244.9987843137031
 20
148.0341253141459
 30
0.0
 10
245.0292253814158
 20
147.9258177106033
 30
0.0
 10
245.055179666783
 20
147.8111846456109
 30
0.0
 10
245.0708802316947
 20
147.7382247531013
 30
0.0
 10
245.0764714074189
 20
147.7122427848007
 30
0.0
  0
LINE
  5
154
330
1F
100
AcDbEntity
  8
0
  6
Continuous
 62
     7
370
    15
100
AcDbLine
 10
209.6775364396
 20
142.5735192326
 30
0.0
 11
210.6190251452
 21
142.3820303705
 31
0.0
  0
LINE
  5
155
330
1F
100
AcDbEntity
  8
0
  6
Continuous
 62
     7
370
    15
100
AcDbLine
 10
210.6190251452
 20
142.3820303705
 30
0.0
 11
210.156259526
 21
143.0522428778
 31
0.0
  0
LINE
  5
156
330
1F
100
AcDbEntity
  8
0
  6
Continuous
 62
     7
370
    15
100
AcDbLine
 10
210.7307272297
 20
143.8979865935
 30
0.0
 11
210.156259526
 21
143.0522428778
 31
0.0
  0
LINE
  5
157
330
1F
100
AcDbEntity
  8
0
  6
Continuous
 62
     7
370
    15
100
AcDbLine
 10
209.8371109259
 20
143.6107533005
 30
0.0
 11
210.7307272297
 21
143.8979865935
 31
0.0
  0
LINE
  5
158
330
1F
100
AcDbEntity
  8
0
  6
Continuous
 62
     7
370
    15
100
AcDbLine
 10
209.8371109259
 20
143.6107533005
 30
0.0
 11
209.3105152515
 21
144.5362837938
 31
0.0
  0
LINE
  5
159
330
1F
100
AcDbEntity
  8
0
  6
Continuous
 62
     7
370
    15
100
AcDbLine
 10
208.9913664651
 20
143.5150088695
 30
0.0
 11
209.3105152515
 21
144.5362837938
 31
0.0
  0
LINE
  5
15A
330
1F
100
AcDbEntity
  8
0
  6
Continuous
 62
     7
370
    15
100
AcDbLine
 10
208.9913664651
 20
143.5150088695
 30
0.0
 11
208.2254093406
 21
143.6107533005
 31
0.0
  0
LINE
  5
15B
330
1F
100
AcDbEntity
  8
0
  6
Continuous
 62
     7
370
    15
100
AcDbLine
 10
208.767962296
 20
143.0522428778
 30
0.0
 11
208.2254093406
 21
143.6107533005
 31
0.0
  0
LINE
  5
15C
330
1F
100
AcDbEntity
  8
0
  6
Continuous
 62
     7
370
    15
100
AcDbLine
 10
207.4115800471
 20
141.7596893337
 30
0.0
 11
208.767962296
 21
143.0522428778
 31
0.0
  0
LINE
  5
15D
330
1F
100
AcDbEntity
  8
0
  6
Continuous
 62
     7
370
    15
100
AcDbLine
 10
207.4115800471
 20
141.7596893337
 30
0.0
 11
209.1668982324
 21
142.5735192326
 31
0.0
  0
LINE
  5
15E
330
1F
100
AcDbEntity
  8
0
  6
Continuous
 62
     7
370
    15
100
AcDbLine
 10
209.1668982324
 20
142.5735192326
 30
0.0
 11
209.6137065706
 21
141.5362851647
 31
0.0
  0
LINE
  5
15F
330
1F
100
AcDbEntity
  8
0
  6
Continuous
 62
     7
370
    15
100
AcDbLine
 10
209.6775364396
 20
142.5735192326
 30
0.0
 11
209.6137065706
 21
141.5362851647
 31
0.0
  0
ARC
  5
160
330
1F
100
AcDbEntity
  8
0
  6
Continuous
 62
     7
370
    15
100
AcDbCircle
 10
220.3264727027
 20
143.0522424385
 30
0.0
 40
0.2000000000000171
100
AcDbArc
 50
180.0
 51
0.0
  0
LINE
  5
161
330
1F
100
AcDbEntity
  8
0
  6
Continuous
 62
     7
370
    15
100
AcDbLine
 10
220.5264730644
 20
143.0522428778
 30
0.0
 11
220.5264730644
 21
143.252241793
 31
0.0
  0
ARC
  5
162
330
1F
100
AcDbEntity
  8
0
  6
Continuous
 62
     7
370
    15
100
AcDbCircle
 10
220.3264727027
 20
143.2522424385
 30
0.0
 40
0.2000000000000171
100
AcDbArc
 50
0.0
 51
180.0
  0
LINE
  5
163
330
1F
100
AcDbEntity
  8
0
  6
Continuous
 62
     7
370
    15
100
AcDbLine
 10
220.1264722538
 20
143.252241793
 30
0.0
 11
220.1264722538
 21
143.0522428778
 31
0.0
  0
LINE
  5
164
330
1F
100
AcDbEntity
  8
0
  6
Continuous
 62
     7
370
    15
100
AcDbLine
 10
245.4864738774
 20
123.4722424251
 30
0.0
 11
245.4864738774
 21
147.7122427848
 31
0.0
  0
LINE
  5
165
330
1F
100
AcDbEntity
  8
0
  6
Continuous
 62
     7
370
    15
100
AcDbLine
 10
245.4864738774
 20
123.4722424251
 30
0.0
 11
245.0764714074
 21
123.4722424251
 31
0.0
  0
LINE
  5
166
330
1F
100
AcDbEntity
  8
0
  6
Continuous
 62
     7
370
    15
100
AcDbLine
 10
245.0764714074
 20
147.7122427848
 30
0.0
 11
245.4864738774
 21
147.7122427848
 31
0.0
  0
LINE
  5
167
330
1F
100
AcDbEntity
  8
0
  6
Continuous
 62
     7
370
    15
100
AcDbLine
 10
165.8964721751
 20
123.4722424251
 30
0.0
 11
165.4864726853
 21
123.4722424251
 31
0.0
  0
LINE
  5
168
330
1F
100
AcDbEntity
  8
0
  6
Continuous
 62
     7
370
    15
100
AcDbLine
 10
165.4864726853
 20
147.7122427848
 30
0.0
 11
165.4864726853
 21
123.4722424251
 31
0.0
  0
LINE
  5
169
330
1F
100
AcDbEntity
  8
0
  6
Continuous
 62
     7
370
    15
100
AcDbLine
 10
165.4864726853
 20
147.7122427848
 30
0.0
 11
165.8964721751
 21
147.7122427848
 31
0.0
  0
SPLINE
  5
16A
330
1F
100
AcDbEntity
  8
0
  6
Continuous
 62
     7
370
    15
100
AcDbSpline
210
0.0
220
0.0
230
1.0
 70
     8
 71
     3
 72
    11
 73
     7
 74
     0
 42
0.00000001
 43
0.00000001
 12
1.0
 22
0.0
 32
0.0
 13
1.0
 23
0.0
 33
0.0
 40
0.0
 40
0.0
 40
0.0
 40
0.0
 40
0.2500005338972522
 40
0.5000015155560429
 40
0.7500030517133707
 40
1.0
 40
1.0
 40
1.0
 40
1.0
 10
245.0764714074189
 20
123.4722424250867
 30
0.0
 10
245.0689724158353
 20
123.4185172221236
 30
0.0
 10
245.0539744192371
 20
123.3110667199732
 30
0.0
 10
245.0314726104599
 20
123.1755433641242
 30
0.0
 10
245.0089724317513
 20
123.0807318817405
 30
0.0
 10
244.9939716807295
 20
123.0684055693065
 30
0.0
 10
244.9864713740403
 20
123.0622424696412
 30
0.0
  0
LINE
  5
16B
330
1F
100
AcDbEntity
  8
0
  6
Continuous
 62
     7
370
    15
100
AcDbLine
 10
244.986471374
 20
123.0622424696
 30
0.0
 11
165.9864722085
 21
123.0622424696
 31
0.0
  0
SPLINE
  5
16C
330
1F
100
AcDbEntity
  8
0
  6
Continuous
 62
     7
370
    15
100
AcDbSpline
210
0.0
220
0.0
230
1.0
 70
     8
 71
     3
 72
    11
 73
     7
 74
     0
 42
0.00000001
 43
0.00000001
 12
1.0
 22
0.0
 32
0.0
 13
1.0
 23
0.0
 33
0.0
 40
0.0
 40
0.0
 40
0.0
 40
0.0
 40
0.2499969482863982
 40
0.4999978421198648
 40
0.7499988237784242
 40
1.0
 40
1.0
 40
1.0
 40
1.0
 10
165.9864722085053
 20
123.0622424696412
 30
0.0
 10
165.9789715887068
 20
123.0684055402278
 30
0.0
 10
165.963970230732
 20
123.080731778669
 30
0.0
 10
165.9414747680266
 20
123.1755435179946
 30
0.0
 10
165.9189726461319
 20
123.3110669328613
 30
0.0
 10
165.9039723340741
 20
123.4185172470744
 30
0.0
 10
165.8964721751267
 20
123.4722424250867
 30
0.0
  0
LINE
  5
16D
330
1F
100
AcDbEntity
  8
0
  6
Continuous
 62
     7
370
    15
100
AcDbLine
 10
209.4920395207
 20
142.815342727
 30
0.0
 11
209.4655964789
 21
142.3856439021
 31
0.0
  0
LINE
  5
16E
330
1F
100
AcDbEntity
  8
0
  6
Continuous
 62
     7
370
    15
100
AcDbLine
 10
209.269258779
 20
142.8414272097
 30
0.0
 11
209.4655964789
 21
142.3856439021
 31
0.0
  0
LINE
  5
16F
330
1F
100
AcDbEntity
  8
0
  6
Continuous
 62
     7
370
    15
100
AcDbLine
 10
208.4267307338
 20
142.4508007196
 30
0.0
 11
209.269258779
 21
142.8414272097
 31
0.0
  0
LINE
  5
170
330
1F
100
AcDbEntity
  8
0
  6
Continuous
 62
     7
370
    15
100
AcDbLine
 10
208.4267307338
 20
142.4508007196
 30
0.0
 11
209.0521196169
 21
143.0467592505
 31
0.0
  0
LINE
  5
171
330
1F
100
AcDbEntity
  8
0
  6
Continuous
 62
     7
370
    15
100
AcDbLine
 10
209.0521196169
 20
143.0467592505
 30
0.0
 11
208.7656377149
 21
143.3416681317
 31
0.0
  0
LINE
  5
172
330
1F
100
AcDbEntity
  8
0
  6
Continuous
 62
     7
370
    15
100
AcDbLine
 10
209.1324087498
 20
143.295821729
 30
0.0
 11
208.7656377149
 21
143.3416681317
 31
0.0
  0
LINE
  5
173
330
1F
100
AcDbEntity
  8
0
  6
Continuous
 62
     7
370
    15
100
AcDbLine
 10
209.1324087498
 20
143.295821729
 30
0.0
 11
209.3641892341
 21
144.0375195769
 31
0.0
  0
LINE
  5
174
330
1F
100
AcDbEntity
  8
0
  6
Continuous
 62
     7
370
    15
100
AcDbLine
 10
209.7436277461
 20
143.3706270483
 30
0.0
 11
209.3641892341
 21
144.0375195769
 31
0.0
  0
LINE
  5
175
330
1F
100
AcDbEntity
  8
0
  6
Continuous
 62
     7
370
    15
100
AcDbLine
 10
209.7436277461
 20
143.3706270483
 30
0.0
 11
210.2388723087
 21
143.5298131731
 31
0.0
  0
LINE
  5
176
330
1F
100
AcDbEntity
  8
0
  6
Continuous
 62
     7
370
    15
100
AcDbLine
 10
210.2388723087
 20
143.5298131731
 30
0.0
 11
209.9138556314
 21
143.0513160256
 31
0.0
  0
LINE
  5
177
330
1F
100
AcDbEntity
  8
0
  6
Continuous
 62
     7
370
    15
100
AcDbLine
 10
210.1723263305
 20
142.6769794849
 30
0.0
 11
209.9138556314
 21
143.0513160256
 31
0.0
  0
LINE
  5
178
330
1F
100
AcDbEntity
  8
0
  6
Continuous
 62
     7
370
    15
100
AcDbLine
 10
209.4920395207
 20
142.815342727
 30
0.0
 11
210.1723263305
 21
142.6769794849
 31
0.0
  0
LINE
  5
179
330
1F
100
AcDbEntity
  8
0
  6
Continuous
 62
     7
370
    15
100
AcDbLine
 10
245.0764714074
 20
123.2222424772
 30
0.0
 11
245.0764714074
 21
123.0622424696
 31
0.0
  0
SPLINE
  5
17A
330
1F
100
AcDbEntity
  8
0
  6
Continuous
 62
     7
370
    15
100
AcDbSpline
210
0.0
220
0.0
230
1.0
 70
     8
 71
     3
 72
    11
 73
     7
 74
     0
 42
0.00000001
 43
0.00000001
 12
1.0
 22
0.0
 32
0.0
 13
1.0
 23
0.0
 33
0.0
 40
0.0
 40
0.0
 40
0.0
 40
0.0
 40
0.2499999244160673
 40
0.4999999574167731
 40
0.7499994359222758
 40
1.0
 40
1.0
 40
1.0
 40
1.0
 10
245.0764714074189
 20
123.0622424696412
 30
0.0
 10
245.1301965963267
 20
123.0684054141767
 30
0.0
 10
245.2376469974772
 20
123.0807313059245
 30
0.0
 10
245.373170817382
 20
123.175543299024
 30
0.0
 10
245.4679818100682
 20
123.3110672670094
 30
0.0
 10
245.4803098460577
 20
123.4185172946311
 30
0.0
 10
245.4864738774354
 20
123.4722424250867
 30
0.0
  0
SPLINE
  5
17B
330
1F
100
AcDbEntity
  8
0
  6
Continuous
 62
     7
370
    15
100
AcDbSpline
210
0.0
220
0.0
230
1.0
 70
     8
 71
     3
 72
    11
 73
     7
 74
     0
 42
0.00000001
 43
0.00000001
 12
1.0
 22
0.0
 32
0.0
 13
1.0
 23
0.0
 33
0.0
 40
0.0
 40
0.0
 40
0.0
 40
0.0
 40
0.2500004232261107
 40
0.5000019344107228
 40
0.7500001145554387
 40
1.0
 40
1.0
 40
1.0
 40
1.0
 10
245.0764714074189
 20
123.2222424772408
 30
0.0
 10
245.1092307905325
 20
123.2260004109063
 30
0.0
 10
245.1747496993229
 20
123.2335162945911
 30
0.0
 10
245.2573872832848
 20
123.2913278220084
 30
0.0
 10
245.3151982943637
 20
123.3739650592303
 30
0.0
 10
245.3227155223968
 20
123.4394832286489
 30
0.0
 10
245.3264741492326
 20
123.4722424250867
 30
0.0
  0
LINE
  5
17C
330
1F
100
AcDbEntity
  8
0
  6
Continuous
 62
     7
370
    15
100
AcDbLine
 10
165.8964721751
 20
123.2222424772
 30
0.0
 11
165.8964721751
 21
123.0622424696
 31
0.0
  0
SPLINE
  5
17D
330
1F
100
AcDbEntity
  8
0
  6
Continuous
 62
     7
370
    15
100
AcDbSpline
210
0.0
220
0.0
230
1.0
 70
     8
 71
     3
 72
    11
 73
     7
 74
     0
 42
0.00000001
 43
0.00000001
 12
1.0
 22
0.0
 32
0.0
 13
1.0
 23
0.0
 33
0.0
 40
0.0
 40
0.0
 40
0.0
 40
0.0
 40
0.2499998958198501
 40
0.4999995970776804
 40
0.7499998528312078
 40
1.0
 40
1.0
 40
1.0
 40
1.0
 10
165.4864726853425
 20
123.4722424250867
 30
0.0
 10
165.4926354892767
 20
123.4185172521398
 30
0.0
 10
165.504961092349
 20
123.3110669480575
 30
0.0
 10
165.5997729765681
 20
123.1755433411434
 30
0.0
 10
165.7352965322172
 20
123.0807312953947
 30
0.0
 10
165.8427469686019
 20
123.0684054106667
 30
0.0
 10
165.8964721751267
 20
123.0622424696412
 30
0.0
  0
SPLINE
  5
17E
330
1F
100
AcDbEntity
  8
0
  6
Continuous
 62
     7
370
    15
100
AcDbSpline
210
0.0
220
0.0
230
1.0
 70
     8
 71
     3
 72
    11
 73
     7
 74
     0
 42
0.00000001
 43
0.00000001
 12
1.0
 22
0.0
 32
0.0
 13
1.0
 23
0.0
 33
0.0
 40
0.0
 40
0.0
 40
0.0
 40
0.0
 40
0.2500013929421533
 40
0.5000010805741782
 40
0.7499980692730547
 40
1.0
 40
1.0
 40
1.0
 40
1.0
 10
165.6464724135453
 20
123.4722424250867
 30
0.0
 10
165.6502310148124
 20
123.439483196131
 30
0.0
 10
165.6577481917083
 20
123.3739649616769
 30
0.0
 10
165.715559121515
 20
123.2913288766161
 30
0.0
 10
165.7981942842839
 20
123.2335156611195
 30
0.0
 10
165.8637126623162
 20
123.2260002299614
 30
0.0
 10
165.8964721751267
 20
123.2222424772408
 30
0.0
  0
LINE
  5
17F
330
1F
100
AcDbEntity
  8
0
  6
Continuous
 62
     7
370
    15
100
AcDbLine
 10
245.0764714074
 20
147.9622425464
 30
0.0
 11
245.0764714074
 21
148.1222422746
 31
0.0
  0
SPLINE
  5
180
330
1F
100
AcDbEntity
  8
0
  6
Continuous
 62
     7
370
    15
100
AcDbSpline
210
0.0
220
0.0
230
1.0
 70
     8
 71
     3
 72
    11
 73
     7
 74
     0
 42
0.00000001
 43
0.00000001
 12
1.0
 22
0.0
 32
0.0
 13
1.0
 23
0.0
 33
0.0
 40
0.0
 40
0.0
 40
0.0
 40
0.0
 40
0.2500011468771881
 40
0.500000450558464
 40
0.7500005980105835
 40
1.0
 40
1.0
 40
1.0
 40
1.0
 10
245.4864738774354
 20
147.7122427848007
 30
0.0
 10
245.4803098796539
 20
147.7659678859437
 30
0.0
 10
245.4679819295367
 20
147.8734176921279
 30
0.0
 10
245.3731707035317
 20
148.0089424759261
 30
0.0
 10
245.2376472333272
 20
148.1037536643718
 30
0.0
 10
245.1301966293213
 20
148.1160794106395
 30
0.0
 10
245.0764714074189
 20
148.122242274585
 30
0.0
  0
SPLINE
  5
181
330
1F
100
AcDbEntity
  8
0
  6
Continuous
 62
     7
370
    15
100
AcDbSpline
210
0.0
220
0.0
230
1.0
 70
     8
 71
     3
 72
    11
 73
     7
 74
     0
 42
0.00000001
 43
0.00000001
 12
1.0
 22
0.0
 32
0.0
 13
1.0
 23
0.0
 33
0.0
 40
0.0
 40
0.0
 40
0.0
 40
0.0
 40
0.2500023021827644
 40
0.4999955478060372
 40
0.7500013933240585
 40
1.0
 40
1.0
 40
1.0
 40
1.0
 10
245.3264741492326
 20
147.7122427848007
 30
0.0
 10
245.3227157732346
 20
147.7450022310867
 30
0.0
 10
245.3151991573891
 20
147.8105199369181
 30
0.0
 10
245.2573854868575
 20
147.89315641046
 30
0.0
 10
245.1747511913666
 20
147.9509705654611
 30
0.0
 10
245.1092310192108
 20
147.9584852556733
 30
0.0
 10
245.0764714074189
 20
147.9622425463822
 30
0.0
  0
LINE
  5
182
330
1F
100
AcDbEntity
  8
0
  6
Continuous
 62
     7
370
    15
100
AcDbLine
 10
165.8964721751
 20
147.9622425464
 30
0.0
 11
165.8964721751
 21
148.1222422746
 31
0.0
  0
SPLINE
  5
183
330
1F
100
AcDbEntity
  8
0
  6
Continuous
 62
     7
370
    15
100
AcDbSpline
210
0.0
220
0.0
230
1.0
 70
     8
 71
     3
 72
    11
 73
     7
 74
     0
 42
0.00000001
 43
0.00000001
 12
1.0
 22
0.0
 32
0.0
 13
1.0
 23
0.0
 33
0.0
 40
0.0
 40
0.0
 40
0.0
 40
0.0
 40
0.2499996272683955
 40
0.5000000000001659
 40
0.7499995289603323
 40
1.0
 40
1.0
 40
1.0
 40
1.0
 10
165.8964721751267
 20
148.122242274585
 30
0.0
 10
165.8427469356087
 20
148.1160794141892
 30
0.0
 10
165.7352962963717
 20
148.103753675021
 30
0.0
 10
165.5997730904012
 20
148.0089424333292
 30
0.0
 10
165.5049609742233
 20
147.8734180146974
 30
0.0
 10
165.4926354560438
 20
147.7659679289173
 30
0.0
 10
165.4864726853425
 20
147.7122427848007
 30
0.0
  0
SPLINE
  5
184
330
1F
100
AcDbEntity
  8
0
  6
Continuous
 62
     7
370
    15
100
AcDbSpline
210
0.0
220
0.0
230
1.0
 70
     8
 71
     3
 72
    11
 73
     7
 74
     0
 42
0.00000001
 43
0.00000001
 12
1.0
 22
0.0
 32
0.0
 13
1.0
 23
0.0
 33
0.0
 40
0.0
 40
0.0
 40
0.0
 40
0.0
 40
0.250000159504821
 40
0.500001346546549
 40
0.749996144965402
 40
1.0
 40
1.0
 40
1.0
 40
1.0
 10
165.8964721751267
 20
147.9622425463822
 30
0.0
 10
165.8637124398724
 20
147.9584854420609
 30
0.0
 10
165.7981928347164
 20
147.9509712179762
 30
0.0
 10
165.7155608811684
 20
147.8931553241405
 30
0.0
 10
165.6577473343752
 20
147.8105200374079
 30
0.0
 10
165.6502307658718
 20
147.7450022645837
 30
0.0
 10
165.6464724135453
 20
147.7122427848007
 30
0.0
  0
LINE
  5
185
330
1F
100
AcDbEntity
  8
0
  6
Continuous
 62
     7
370
    15
100
AcDbLine
 10
165.8964721751
 20
147.9622425464
 30
0.0
 11
165.9546194863
 21
147.9622425464
 31
0.0
  0
LINE
  5
186
330
1F
100
AcDbEntity
  8
0
  6
Continuous
 62
     7
370
    15
100
AcDbLine
 10
165.8964721751
 20
148.1222422746
 30
0.0
 11
166.0350619149
 21
148.1222422746
 31
0.0
  0
LINE
  5
187
330
1F
100
AcDbEntity
  8
0
  6
Continuous
 62
     7
370
    15
100
AcDbLine
 10
245.0176148009
 20
147.9622425464
 30
0.0
 11
245.0764714074
 21
147.9622425464
 31
0.0
  0
LINE
  5
188
330
1F
100
AcDbEntity
  8
0
  6
Continuous
 62
     7
370
    15
100
AcDbLine
 10
244.9378846479
 20
148.1222422746
 30
0.0
 11
245.0764714074
 21
148.1222422746
 31
0.0
  0
LINE
  5
189
330
1F
100
AcDbEntity
  8
0
  6
Continuous
 62
     7
370
    15
100
AcDbLine
 10
165.9864722085
 20
123.0622424696
 30
0.0
 11
165.8964721751
 21
123.0622424696
 31
0.0
  0
LINE
  5
18A
330
1F
100
AcDbEntity
  8
0
  6
Continuous
 62
     7
370
    15
100
AcDbLine
 10
165.9347204757
 20
123.2222424772
 30
0.0
 11
165.8964721751
 21
123.2222424772
 31
0.0
  0
LINE
  5
18B
330
1F
100
AcDbEntity
  8
0
  6
Continuous
 62
     7
370
    15
100
AcDbLine
 10
245.0764714074
 20
123.0622424696
 30
0.0
 11
244.986471374
 21
123.0622424696
 31
0.0
  0
LINE
  5
18C
330
1F
100
AcDbEntity
  8
0
  6
Continuous
 62
     7
370
    15
100
AcDbLine
 10
245.0764714074
 20
123.2222424772
 30
0.0
 11
245.0382231069
 21
123.2222424772
 31
0.0
  0
LINE
  5
18D
330
1F
100
AcDbEntity
  8
0
  6
Continuous
 62
     7
370
    15
100
AcDbLine
 10
245.0764714074
 20
147.9608269361
 30
0.0
 11
245.0180171323
 21
147.9608269361
 31
0.0
  0
LINE
  5
18E
330
1F
100
AcDbEntity
  8
0
  6
Continuous
 62
     7
370
    15
100
AcDbLine
 10
245.0764714074
 20
123.2236566906
 30
0.0
 11
245.0384645057
 21
123.2236566906
 31
0.0
  0
LINE
  5
18F
330
1F
100
AcDbEntity
  8
0
  6
Continuous
 62
     7
370
    15
100
AcDbLine
 10
165.8964721751
 20
123.2236566906
 30
0.0
 11
165.9344820571
 21
123.2236566906
 31
0.0
  0
LINE
  5
190
330
1F
100
AcDbEntity
  8
0
  6
Continuous
 62
     7
370
    15
100
AcDbLine
 10
165.8964721751
 20
147.9608269361
 30
0.0
 11
165.9542678189
 21
147.9608269361
 31
0.0
  0
LINE
  5
191
330
1F
100
AcDbEntity
  8
0
  6
Continuous
 62
     7
370
    15
100
AcDbLine
 10
245.368844111
 20
151.2483658221
 30
0.0
 11
245.368844111
 21
154.6665223268
 31
0.0
  0
LINE
  5
192
330
1F
100
AcDbEntity
  8
0
  6
Continuous
 62
     7
370
    15
100
AcDbLine
 10
165.3688429189
 20
151.2483658221
 30
0.0
 11
165.3688429189
 21
154.6665223268
 31
0.0
  0
LINE
  5
193
330
1F
100
AcDbEntity
  8
0
  6
Continuous
 62
     7
370
    15
100
AcDbLine
 10
245.368844111
 20
148.2883574393
 30
0.0
 11
245.368844111
 21
151.2483658221
 31
0.0
  0
LINE
  5
194
330
1F
100
AcDbEntity
  8
0
  6
Continuous
 62
     7
370
    15
100
AcDbLine
 10
165.3688429189
 20
148.2883574393
 30
0.0
 11
165.3688429189
 21
151.2483658221
 31
0.0
  0
LINE
  5
195
330
1F
100
AcDbEntity
  8
0
  6
Continuous
 62
     7
370
    15
100
AcDbLine
 10
245.368844111
 20
154.6665223268
 30
0.0
 11
245.368844111
 21
156.0823949006
 31
0.0
  0
LINE
  5
196
330
1F
100
AcDbEntity
  8
0
  6
Continuous
 62
     7
370
    15
100
AcDbLine
 10
165.3688429189
 20
154.6665223268
 30
0.0
 11
165.3688429189
 21
156.0823949006
 31
0.0
  0
LINE
  5
197
330
1F
100
AcDbEntity
  8
0
  6
Continuous
 62
     7
370
    15
100
AcDbLine
 10
245.368844111
 20
148.1418998864
 30
0.0
 11
165.3688429189
 21
148.1418998864
 31
0.0
  0
LINE
  5
198
330
1F
100
AcDbEntity
  8
0
  6
Continuous
 62
     7
370
    15
100
AcDbLine
 10
165.3688429189
 20
148.1418998864
 30
0.0
 11
165.3688429189
 21
148.2883574393
 31
0.0
  0
LINE
  5
199
330
1F
100
AcDbEntity
  8
0
  6
Continuous
 62
     7
370
    15
100
AcDbLine
 10
245.368844111
 20
148.1418998864
 30
0.0
 11
245.368844111
 21
148.2883574393
 31
0.0
  0
LINE
  5
19A
330
1F
100
AcDbEntity
  8
0
  6
Continuous
 62
     7
370
    15
100
AcDbLine
 10
245.368844111
 20
156.0823949006
 30
0.0
 11
245.368844111
 21
157.3437454131
 31
0.0
  0
LINE
  5
19B
330
1F
100
AcDbEntity
  8
0
  6
Continuous
 62
     7
370
    15
100
AcDbLine
 10
165.3688429189
 20
156.0823949006
 30
0.0
 11
165.3688429189
 21
157.3437454131
 31
0.0
  0
LINE
  5
19C
330
1F
100
AcDbEntity
  8
0
  6
Continuous
 62
     7
370
    15
100
AcDbLine
 10
168.4688447309
 20
172.3161341575
 30
0.0
 11
168.3688430381
 21
172.3161341575
 31
0.0
  0
LINE
  5
19D
330
1F
100
AcDbEntity
  8
0
  6
Continuous
 62
     7
370
    15
100
AcDbLine
 10
168.4688447309
 20
172.5582243827
 30
0.0
 11
168.4688447309
 21
172.3161341575
 31
0.0
  0
LINE
  5
19E
330
1F
100
AcDbEntity
  8
0
  6
Continuous
 62
     7
370
    15
100
AcDbLine
 10
171.4688448501
 20
172.5582243827
 30
0.0
 11
171.4688448501
 21
172.3161341575
 31
0.0
  0
LINE
  5
19F
330
1F
100
AcDbEntity
  8
0
  6
Continuous
 62
     7
370
    15
100
AcDbLine
 10
171.5688435626
 20
172.3161341575
 30
0.0
 11
171.4688448501
 21
172.3161341575
 31
0.0
  0
LINE
  5
1A0
330
1F
100
AcDbEntity
  8
0
  6
Continuous
 62
     7
370
    15
100
AcDbLine
 10
239.2688421798
 20
172.3161341575
 30
0.0
 11
239.1688434672
 21
172.3161341575
 31
0.0
  0
LINE
  5
1A1
330
1F
100
AcDbEntity
  8
0
  6
Continuous
 62
     7
370
    15
100
AcDbLine
 10
239.2688421798
 20
172.5582243827
 30
0.0
 11
239.2688421798
 21
172.3161341575
 31
0.0
  0
LINE
  5
1A2
330
1F
100
AcDbEntity
  8
0
  6
Continuous
 62
     7
370
    15
100
AcDbLine
 10
242.268842299
 20
172.5582243827
 30
0.0
 11
242.268842299
 21
172.3161341575
 31
0.0
  0
LINE
  5
1A3
330
1F
100
AcDbEntity
  8
0
  6
Continuous
 62
     7
370
    15
100
AcDbLine
 10
242.3688439918
 20
172.3161341575
 30
0.0
 11
242.268842299
 21
172.3161341575
 31
0.0
  0
LINE
  5
1A4
330
1F
100
AcDbEntity
  8
0
  6
Continuous
 62
     7
370
    15
100
AcDbLine
 10
245.368844111
 20
157.3437454131
 30
0.0
 11
245.368844111
 21
172.3161341575
 31
0.0
  0
LINE
  5
1A5
330
1F
100
AcDbEntity
  8
0
  6
Continuous
 62
     7
370
    15
100
AcDbLine
 10
165.3688429189
 20
157.3437454131
 30
0.0
 11
165.3688429189
 21
172.3161341575
 31
0.0
  0
LINE
  5
1A6
330
1F
100
AcDbEntity
  8
0
  6
Continuous
 62
     7
370
    15
100
AcDbLine
 10
221.958844204
 20
167.8974153426
 30
0.0
 11
221.958844204
 21
162.0008649257
 31
0.0
  0
LINE
  5
1A7
330
1F
100
AcDbEntity
  8
0
  6
Continuous
 62
     7
370
    15
100
AcDbLine
 10
211.9588436824
 20
162.0008649257
 30
0.0
 11
211.9588436824
 21
167.8974153426
 31
0.0
  0
ARC
  5
1A8
330
1F
100
AcDbEntity
  8
0
  6
Continuous
 62
     7
370
    15
100
AcDbCircle
 10
169.8729522463
 20
174.0283239923
 30
0.0
 40
0.7973651388010412
100
AcDbArc
 50
229.0862526411
 51
276.9071025371
  0
ARC
  5
1A9
330
1F
100
AcDbEntity
  8
0
  6
Continuous
 62
     7
370
    15
100
AcDbCircle
 10
170.0647387331
 20
174.0283096733
 30
0.0
 40
0.7973514502562291
100
AcDbArc
 50
263.0924613648
 51
310.914183457
  0
ARC
  5
1AA
330
1F
100
AcDbEntity
  8
0
  6
Continuous
 62
     7
370
    15
100
AcDbCircle
 10
240.6729482968
 20
174.0283096733
 30
0.0
 40
0.7973514502561863
100
AcDbArc
 50
229.085816543
 51
276.9075386352
  0
ARC
  5
1AB
330
1F
100
AcDbEntity
  8
0
  6
Continuous
 62
     7
370
    15
100
AcDbCircle
 10
240.8647391622
 20
174.0283096733
 30
0.0
 40
0.7973514502562291
100
AcDbArc
 50
263.0924613648
 51
310.914183457
  0
ARC
  5
1AC
330
1F
100
AcDbEntity
  8
0
  6
Continuous
 62
     7
370
    15
100
AcDbCircle
 10
169.9222409112
 20
174.4667072915
 30
0.0
 40
1.084234750896498
100
AcDbArc
 50
243.1776585223
 51
272.4634361178
  0
ARC
  5
1AD
330
1F
100
AcDbEntity
  8
0
  6
Continuous
 62
     7
370
    15
100
AcDbCircle
 10
170.0154495138
 20
174.4666895729
 30
0.0
 40
1.084217213061973
100
AcDbArc
 50
267.5363217299
 51
296.82258363
  0
ARC
  5
1AE
330
1F
100
AcDbEntity
  8
0
  6
Continuous
 62
     7
370
    15
100
AcDbCircle
 10
240.7222375161
 20
174.4666895729
 30
0.0
 40
1.084217213062225
100
AcDbArc
 50
243.17741637
 51
272.4636782701
  0
ARC
  5
1AF
330
1F
100
AcDbEntity
  8
0
  6
Continuous
 62
     7
370
    15
100
AcDbCircle
 10
240.8154499429
 20
174.4666895729
 30
0.0
 40
1.084217213062226
100
AcDbArc
 50
267.5363217299
 51
296.82258363
  0
ARC
  5
1B0
330
1F
100
AcDbEntity
  8
0
  6
Continuous
 62
     7
370
    15
100
AcDbCircle
 10
221.3731637424
 20
167.8236366595
 30
0.0
 40
0.5858741853800065
100
AcDbArc
 50
1.4734620762
 51
91.4006428966
  0
ARC
  5
1B1
330
1F
100
AcDbEntity
  8
0
  6
Continuous
 62
     7
370
    15
100
AcDbCircle
 10
212.5445223106
 20
167.8236385591
 30
0.0
 40
0.5858723037644209
100
AcDbArc
 50
88.5992825821
 51
178.5267190324
  0
LINE
  5
1B2
330
1F
100
AcDbEntity
  8
0
  6
Continuous
 62
     7
370
    15
100
AcDbLine
 10
212.5588437808
 20
168.4093357947
 30
0.0
 11
221.358842988
 21
168.4093357947
 31
0.0
  0
LINE
  5
1B3
330
1F
100
AcDbEntity
  8
0
  6
Continuous
 62
     7
370
    15
100
AcDbLine
 10
242.268842299
 20
172.5582243827
 30
0.0
 11
242.268842299
 21
172.6737262633
 31
0.0
  0
LINE
  5
1B4
330
1F
100
AcDbEntity
  8
0
  6
Continuous
 62
     7
370
    15
100
AcDbLine
 10
239.2688421798
 20
172.6737262633
 30
0.0
 11
239.2688421798
 21
172.5582243827
 31
0.0
  0
LINE
  5
1B5
330
1F
100
AcDbEntity
  8
0
  6
Continuous
 62
     7
370
    15
100
AcDbLine
 10
168.4688447309
 20
172.6737262633
 30
0.0
 11
168.4688447309
 21
172.5582243827
 31
0.0
  0
LINE
  5
1B6
330
1F
100
AcDbEntity
  8
0
  6
Continuous
 62
     7
370
    15
100
AcDbLine
 10
171.4688448501
 20
172.5582243827
 30
0.0
 11
171.4688448501
 21
172.6737262633
 31
0.0
  0
LINE
  5
1B7
330
1F
100
AcDbEntity
  8
0
  6
Continuous
 62
     7
370
    15
100
AcDbLine
 10
165.3688429189
 20
172.3161341575
 30
0.0
 11
165.3688429189
 21
172.5994350341
 31
0.0
  0
LINE
  5
1B8
330
1F
100
AcDbEntity
  8
0
  6
Continuous
 62
     7
370
    15
100
AcDbLine
 10
168.3688430381
 20
172.5994350341
 30
0.0
 11
165.3688429189
 21
172.5994350341
 31
0.0
  0
LINE
  5
1B9
330
1F
100
AcDbEntity
  8
0
  6
Continuous
 62
     7
370
    15
100
AcDbLine
 10
168.3688430381
 20
172.5994350341
 30
0.0
 11
168.3688430381
 21
172.3161341575
 31
0.0
  0
LINE
  5
1BA
330
1F
100
AcDbEntity
  8
0
  6
Continuous
 62
     7
370
    15
100
AcDbLine
 10
245.368844111
 20
172.5994350341
 30
0.0
 11
242.3688439918
 21
172.5994350341
 31
0.0
  0
LINE
  5
1BB
330
1F
100
AcDbEntity
  8
0
  6
Continuous
 62
     7
370
    15
100
AcDbLine
 10
245.368844111
 20
172.5994350341
 30
0.0
 11
245.368844111
 21
172.3161341575
 31
0.0
  0
LINE
  5
1BC
330
1F
100
AcDbEntity
  8
0
  6
Continuous
 62
     7
370
    15
100
AcDbLine
 10
242.3688439918
 20
172.3161341575
 30
0.0
 11
242.3688439918
 21
172.5994350341
 31
0.0
  0
LINE
  5
1BD
330
1F
100
AcDbEntity
  8
0
  6
Continuous
 62
     7
370
    15
100
AcDbLine
 10
239.1688434672
 20
172.5994350341
 30
0.0
 11
171.5688435626
 21
172.5994350341
 31
0.0
  0
LINE
  5
1BE
330
1F
100
AcDbEntity
  8
0
  6
Continuous
 62
     7
370
    15
100
AcDbLine
 10
239.1688434672
 20
172.5994350341
 30
0.0
 11
239.1688434672
 21
172.3161341575
 31
0.0
  0
LINE
  5
1BF
330
1F
100
AcDbEntity
  8
0
  6
Continuous
 62
     7
370
    15
100
AcDbLine
 10
171.5688435626
 20
172.3161341575
 30
0.0
 11
171.5688435626
 21
172.5994350341
 31
0.0
  0
SPLINE
  5
1C0
330
1F
100
AcDbEntity
  8
0
  6
Continuous
 62
     7
370
    15
100
AcDbSpline
210
0.0
220
0.0
230
1.0
 70
     8
 71
     3
 72
     9
 73
     5
 74
     0
 42
0.00000001
 43
0.00000001
 12
1.0
 22
0.0
 32
0.0
 13
1.0
 23
0.0
 33
0.0
 40
0.0
 40
0.0
 40
0.0
 40
0.0
 40
0.5070172063844968
 40
0.9999999999999999
 40
0.9999999999999999
 40
0.9999999999999999
 40
0.9999999999999999
 10
245.4864738774354
 20
175.7708253291275
 30
0.0
 10
245.4809428286434
 20
175.791542112127
 30
0.0
 10
245.4700338324153
 20
175.8324022303609
 30
0.0
 10
245.4022569485309
 20
175.8732600694519
 30
0.0
 10
245.3688441109711
 20
175.8934022811081
 30
0.0
  0
LINE
  5
1C1
330
1F
100
AcDbEntity
  8
0
  6
Continuous
 62
     7
370
    15
100
AcDbLine
 10
245.4864738774
 20
175.7708253291
 30
0.0
 11
245.4864738774
 21
147.7122427848
 31
0.0
  0
LINE
  5
1C2
330
1F
100
AcDbEntity
  8
0
  6
Continuous
 62
     7
370
    15
100
AcDbLine
 10
245.4864738774
 20
123.4722424251
 30
0.0
 11
245.4864738774
 21
123.4708282118
 31
0.0
  0
LINE
  5
1C3
330
1F
100
AcDbEntity
  8
0
  6
Continuous
 62
     7
370
    15
100
AcDbLine
 10
243.3264730763
 20
148.1222422746
 30
0.0
 11
243.3264730763
 21
148.1418998864
 31
0.0
  0
LINE
  5
1C4
330
1F
100
AcDbEntity
  8
0
  6
Continuous
 62
     7
370
    15
100
AcDbLine
 10
243.3264730763
 20
172.5994350341
 30
0.0
 11
243.3264730763
 21
172.6737262633
 31
0.0
  0
SPLINE
  5
1C5
330
1F
100
AcDbEntity
  8
0
  6
Continuous
 62
     7
370
    15
100
AcDbSpline
210
0.0
220
0.0
230
1.0
 70
     8
 71
     3
 72
     9
 73
     5
 74
     0
 42
0.00000001
 43
0.00000001
 12
1.0
 22
0.0
 32
0.0
 13
1.0
 23
0.0
 33
0.0
 40
0.0
 40
0.0
 40
0.0
 40
0.0
 40
0.9377231502106451
 40
1.0
 40
1.0
 40
1.0
 40
1.0
 10
245.4864738774354
 20
123.4708282117572
 30
0.0
 10
245.4863737813274
 20
123.421722245502
 30
0.0
 10
245.4862670375535
 20
123.3693550129727
 30
0.0
 10
245.4583813648102
 20
123.3250505315987
 30
0.0
 10
245.4566447329575
 20
123.3222913880672
 30
0.0
  0
SPLINE
  5
1C6
330
1F
100
AcDbEntity
  8
0
  6
Continuous
 62
     7
370
    15
100
AcDbSpline
210
0.0
220
0.0
230
1.0
 70
     8
 71
     3
 72
     9
 73
     5
 74
     0
 42
0.00000001
 43
0.00000001
 12
1.0
 22
0.0
 32
0.0
 13
1.0
 23
0.0
 33
0.0
 40
0.0
 40
0.0
 40
0.0
 40
0.0
 40
0.4808286625964632
 40
1.0
 40
1.0
 40
1.0
 40
1.0
 10
245.2084092688615
 20
123.0884863947358
 30
0.0
 10
245.1883583147411
 20
123.0800494754573
 30
0.0
 10
245.1466574851523
 20
123.0625028524401
 30
0.0
 10
245.1004572469005
 20
123.061400543512
 30
0.0
 10
245.0764714074189
 20
123.0608282563116
 30
0.0
  0
SPLINE
  5
1C7
330
1F
100
AcDbEntity
  8
0
  6
Continuous
 62
     7
370
    15
100
AcDbSpline
210
0.0
220
0.0
230
1.0
 70
     8
 71
     3
 72
    10
 73
     6
 74
     0
 42
0.00000001
 43
0.00000001
 12
1.0
 22
0.0
 32
0.0
 13
1.0
 23
0.0
 33
0.0
 40
0.0
 40
0.0
 40
0.0
 40
0.0
 40
0.159510280520085
 40
0.5615230196738578
 40
1.0
 40
1.0
 40
1.0
 40
1.0
 10
245.3688441109711
 20
176.0517241385605
 30
0.0
 10
245.3817734111754
 20
176.0397253043636
 30
0.0
 10
245.4272883439389
 20
175.9974858851308
 30
0.0
 10
245.4728895856556
 20
175.9005859642961
 30
0.0
 10
245.4818166809342
 20
175.8153120632095
 30
0.0
 10
245.4864738774354
 20
175.7708253291275
 30
0.0
  0
LINE
  5
1C8
330
1F
100
AcDbEntity
  8
0
  6
Continuous
 62
     7
370
    15
100
AcDbLine
 10
245.0764714074
 20
123.0608282563
 30
0.0
 11
243.3264730763
 21
123.0608282563
 31
0.0
  0
LINE
  5
1C9
330
1F
100
AcDbEntity
  8
0
  6
Continuous
 62
     7
370
    15
100
AcDbLine
 10
242.32647403
 20
123.0608282563
 30
0.0
 11
242.32647403
 21
123.0622424696
 31
0.0
  0
LINE
  5
1CA
330
1F
100
AcDbEntity
  8
0
  6
Continuous
 62
     7
370
    15
100
AcDbLine
 10
243.3264730763
 20
123.0608282563
 30
0.0
 11
242.32647403
 21
123.0608282563
 31
0.0
  0
LINE
  5
1CB
330
1F
100
AcDbEntity
  8
0
  6
Continuous
 62
     7
370
    15
100
AcDbLine
 10
167.6464734864
 20
172.5994350341
 30
0.0
 11
167.6464734864
 21
172.6737262633
 31
0.0
  0
LINE
  5
1CC
330
1F
100
AcDbEntity
  8
0
  6
Continuous
 62
     7
370
    15
100
AcDbLine
 10
167.6464734864
 20
148.1222422746
 30
0.0
 11
167.6464734864
 21
148.1418998864
 31
0.0
  0
LINE
  5
1CD
330
1F
100
AcDbEntity
  8
0
  6
Continuous
 62
     7
370
    15
100
AcDbLine
 10
165.4864726853
 20
123.4708282118
 30
0.0
 11
165.4864726853
 21
123.4722424251
 31
0.0
  0
LINE
  5
1CE
330
1F
100
AcDbEntity
  8
0
  6
Continuous
 62
     7
370
    15
100
AcDbLine
 10
165.4864726853
 20
147.7122427848
 30
0.0
 11
165.4864726853
 21
148.1418998864
 31
0.0
  0
LINE
  5
1CF
330
1F
100
AcDbEntity
  8
0
  6
Continuous
 62
     7
370
    15
100
AcDbLine
 10
165.4864726853
 20
172.5994350341
 30
0.0
 11
165.4864726853
 21
172.7008284953
 31
0.0
  0
SPLINE
  5
1D0
330
1F
100
AcDbEntity
  8
0
  6
Continuous
 62
     7
370
    15
100
AcDbSpline
210
0.0
220
0.0
230
1.0
 70
     8
 71
     3
 72
     9
 73
     5
 74
     0
 42
0.00000001
 43
0.00000001
 12
1.0
 22
0.0
 32
0.0
 13
1.0
 23
0.0
 33
0.0
 40
0.0
 40
0.0
 40
0.0
 40
0.0
 40
0.723127176978148
 40
1.0
 40
1.0
 40
1.0
 40
1.0
 10
165.8072678637558
 20
123.2399864074614
 30
0.0
 10
165.8278383924124
 20
123.2323262160912
 30
0.0
 10
165.8562850188308
 20
123.2217330706333
 30
0.0
 10
165.887758126858
 20
123.221024459168
 30
0.0
 10
165.8964721751267
 20
123.2208282639112
 30
0.0
  0
SPLINE
  5
1D1
330
1F
100
AcDbEntity
  8
0
  6
Continuous
 62
     7
370
    15
100
AcDbSpline
210
0.0
220
0.0
230
1.0
 70
     8
 71
     3
 72
     9
 73
     5
 74
     0
 42
0.00000001
 43
0.00000001
 12
1.0
 22
0.0
 32
0.0
 13
1.0
 23
0.0
 33
0.0
 40
0.0
 40
0.0
 40
0.0
 40
0.0
 40
0.9313436501106707
 40
0.9999999999999999
 40
0.9999999999999999
 40
0.9999999999999999
 40
0.9999999999999999
 10
165.4864726853425
 20
123.4708282117572
 30
0.0
 10
165.4864510624652
 20
123.4225496004881
 30
0.0
 10
165.4864278456029
 20
123.3707120094299
 30
0.0
 10
165.5141789811921
 20
123.3264227956893
 30
0.0
 10
165.5160842728669
 20
123.3233820599343
 30
0.0
  0
SPLINE
  5
1D2
330
1F
100
AcDbEntity
  8
0
  6
Continuous
 62
     7
370
    15
100
AcDbSpline
210
0.0
220
0.0
230
1.0
 70
     8
 71
     3
 72
     9
 73
     5
 74
     0
 42
0.00000001
 43
0.00000001
 12
1.0
 22
0.0
 32
0.0
 13
1.0
 23
0.0
 33
0.0
 40
0.0
 40
0.0
 40
0.0
 40
0.0
 40
0.7227301341581117
 40
1.0
 40
1.0
 40
1.0
 40
1.0
 10
165.7578496527726
 20
123.0898160439756
 30
0.0
 10
165.7902520076937
 20
123.0781431383554
 30
0.0
 10
165.8350852772498
 20
123.0619920121348
 30
0.0
 10
165.8831463014066
 20
123.0610808845381
 30
0.0
 10
165.8964721751267
 20
123.0608282563116
 30
0.0
  0
LINE
  5
1D3
330
1F
100
AcDbEntity
  8
0
  6
Continuous
 62
     7
370
    15
100
AcDbLine
 10
165.8964721751
 20
123.0608282563
 30
0.0
 11
167.6464734864
 21
123.0608282563
 31
0.0
  0
LINE
  5
1D4
330
1F
100
AcDbEntity
  8
0
  6
Continuous
 62
     7
370
    15
100
AcDbLine
 10
168.6464725328
 20
123.0622424696
 30
0.0
 11
168.6464725328
 21
123.0608282563
 31
0.0
  0
LINE
  5
1D5
330
1F
100
AcDbEntity
  8
0
  6
Continuous
 62
     7
370
    15
100
AcDbLine
 10
168.6464725328
 20
123.0608282563
 30
0.0
 11
167.6464734864
 21
123.0608282563
 31
0.0
  0
LINE
  5
1D6
330
1F
100
AcDbEntity
  8
0
  6
Continuous
 62
     7
370
    15
100
AcDbLine
 10
185.926472981
 20
222.1822442439
 30
0.0
 11
185.9254909945
 21
222.2116054919
 31
0.0
  0
LWPOLYLINE
  5
1D7
330
1F
100
AcDbEntity
  8
0
  6
Continuous
 62
     7
370
    15
100
AcDbPolyline
 90
        3
 70
   128
 43
0.0
 10
185.8213527393
 20
221.8968393233
 10
185.892979641
 20
222.0138611224
 10
185.926472981
 20
222.1822442439
  0
LINE
  5
1D8
330
1F
100
AcDbEntity
  8
0
  6
Continuous
 62
     7
370
    15
100
AcDbLine
 10
205.9264727202
 20
222.1822442439
 30
0.0
 11
205.9254916184
 21
222.2116054919
 31
0.0
  0
LWPOLYLINE
  5
1D9
330
1F
100
AcDbEntity
  8
0
  6
Continuous
 62
     7
370
    15
100
AcDbPolyline
 90
        3
 70
   128
 43
0.0
 10
205.8213526648
 20
221.8968393233
 10
205.8929797062
 20
222.0138611224
 10
205.9264727202
 20
222.1822442439
  0
LINE
  5
1DA
330
1F
100
AcDbEntity
  8
0
  6
Continuous
 62
     7
370
    15
100
AcDbLine
 10
225.9264720869
 20
222.1822442439
 30
0.0
 11
225.9254915905
 21
222.2116054919
 31
0.0
  0
LWPOLYLINE
  5
1DB
330
1F
100
AcDbEntity
  8
0
  6
Continuous
 62
     7
370
    15
100
AcDbPolyline
 90
        3
 70
   128
 43
0.0
 10
225.8213533354
 20
221.8968393233
 10
225.892980237
 20
222.0138611224
 10
225.9264720869
 20
222.1822442439
  0
LINE
  5
1DC
330
1F
100
AcDbEntity
  8
0
  6
Continuous
 62
     7
370
    15
100
AcDbLine
 10
207.1188436621
 20
168.9181389239
 30
0.0
 11
207.1188436621
 21
167.5866605666
 31
0.0
  0
ARC
  5
1DD
330
1F
100
AcDbEntity
  8
0
  6
Continuous
 62
     7
370
    15
100
AcDbCircle
 10
205.1665850349
 20
167.636865651
 30
0.0
 40
1.952904067764176
100
AcDbArc
 50
268.5991878194
 51
358.5268828936
  0
LINE
  5
1DE
330
1F
100
AcDbEntity
  8
0
  6
Continuous
 62
     7
370
    15
100
AcDbLine
 10
205.1188436602
 20
165.6845452216
 30
0.0
 11
175.1188425613
 21
165.6845452216
 31
0.0
  0
ARC
  5
1DF
330
1F
100
AcDbEntity
  8
0
  6
Continuous
 62
     7
370
    15
100
AcDbCircle
 10
175.0711006827
 20
167.6368631617
 30
0.0
 40
1.95290159146879
100
AcDbArc
 50
181.4730459158
 51
271.400828745
  0
LINE
  5
1E0
330
1F
100
AcDbEntity
  8
0
  6
Continuous
 62
     7
370
    15
100
AcDbLine
 10
173.1188444686
 20
168.9181389239
 30
0.0
 11
173.1188444686
 21
167.5866605666
 31
0.0
  0
LINE
  5
1E1
330
1F
100
AcDbEntity
  8
0
  6
Continuous
 62
     7
370
    15
100
AcDbLine
 10
173.1188444686
 20
167.4939544824
 30
0.0
 11
173.1188444686
 21
167.5866605666
 31
0.0
  0
ARC
  5
1E2
330
1F
100
AcDbEntity
  8
0
  6
Continuous
 62
     7
370
    15
100
AcDbCircle
 10
175.0710948705
 20
167.544154025
 30
0.0
 40
1.95289570272356
100
AcDbArc
 50
181.4729607746
 51
271.4010035444
  0
LINE
  5
1E3
330
1F
100
AcDbEntity
  8
0
  6
Continuous
 62
     7
370
    15
100
AcDbLine
 10
205.1188436602
 20
165.5918421176
 30
0.0
 11
175.1188425613
 21
165.5918421176
 31
0.0
  0
LINE
  5
1E4
330
1F
100
AcDbEntity
  8
0
  6
Continuous
 62
     7
370
    15
100
AcDbLine
 10
207.1188436621
 20
167.5866605666
 30
0.0
 11
207.1188436621
 21
167.4939544824
 31
0.0
  0
ARC
  5
1E5
330
1F
100
AcDbEntity
  8
0
  6
Continuous
 62
     7
370
    15
100
AcDbCircle
 10
205.1665908471
 20
167.5441565144
 30
0.0
 40
1.952898179015192
100
AcDbArc
 50
268.5990130204
 51
358.5269680346
  0
LINE
  5
1E6
330
1F
100
AcDbEntity
  8
0
  6
Continuous
 62
     7
370
    15
100
AcDbLine
 10
207.1188436621
 20
172.3039569286
 30
0.0
 11
207.1188436621
 21
168.9181389239
 31
0.0
  0
LINE
  5
1E7
330
1F
100
AcDbEntity
  8
0
  6
Continuous
 62
     7
370
    15
100
AcDbLine
 10
173.1188444686
 20
172.3039569286
 30
0.0
 11
173.1188444686
 21
168.9181389239
 31
0.0
  0
LINE
  5
1E8
330
1F
100
AcDbEntity
  8
0
  6
Continuous
 62
     7
370
    15
100
AcDbLine
 10
206.1188436844
 20
158.0004991916
 30
0.0
 11
174.1188435149
 21
158.0004991916
 31
0.0
  0
LINE
  5
1E9
330
1F
100
AcDbEntity
  8
0
  6
Continuous
 62
     7
370
    15
100
AcDbLine
 10
206.1188436844
 20
158.0932022956
 30
0.0
 11
174.1188435149
 21
158.0932022956
 31
0.0
  0
LINE
  5
1EA
330
1F
100
AcDbEntity
  8
0
  6
Continuous
 62
     7
370
    15
100
AcDbLine
 10
207.1188436621
 20
159.0442599681
 30
0.0
 11
207.1188436621
 21
167.4939544824
 31
0.0
  0
ARC
  5
1EB
330
1F
100
AcDbEntity
  8
0
  6
Continuous
 62
     7
370
    15
100
AcDbCircle
 10
206.142713749
 20
159.0693631413
 30
0.0
 40
0.9764526494252579
100
AcDbArc
 50
268.5992252581
 51
358.5268467873
  0
ARC
  5
1EC
330
1F
100
AcDbEntity
  8
0
  6
Continuous
 62
     7
370
    15
100
AcDbCircle
 10
174.094973802
 20
159.0693625551
 30
0.0
 40
0.9764520548325389
100
AcDbArc
 50
181.4731197035
 51
271.4007549574
  0
LINE
  5
1ED
330
1F
100
AcDbEntity
  8
0
  6
Continuous
 62
     7
370
    15
100
AcDbLine
 10
173.1188444686
 20
159.0442599681
 30
0.0
 11
173.1188444686
 21
167.4939544824
 31
0.0
  0
LINE
  5
1EE
330
1F
100
AcDbEntity
  8
0
  6
Continuous
 62
     7
370
    15
100
AcDbLine
 10
173.1188444686
 20
158.9515538839
 30
0.0
 11
173.1188444686
 21
159.0442599681
 31
0.0
  0
ARC
  5
1EF
330
1F
100
AcDbEntity
  8
0
  6
Continuous
 62
     7
370
    15
100
AcDbCircle
 10
174.0949709624
 20
158.9766565441
 30
0.0
 40
0.9764492181081618
100
AcDbArc
 50
181.4731282819
 51
271.4009256953
  0
LINE
  5
1F0
330
1F
100
AcDbEntity
  8
0
  6
Continuous
 62
     7
370
    15
100
AcDbLine
 10
207.1188436621
 20
159.0442599681
 30
0.0
 11
207.1188436621
 21
158.9515538839
 31
0.0
  0
ARC
  5
1F1
330
1F
100
AcDbEntity
  8
0
  6
Continuous
 62
     7
370
    15
100
AcDbCircle
 10
206.1427165885
 20
158.9766571302
 30
0.0
 40
0.9764498126961584
100
AcDbArc
 50
268.5990545199
 51
358.5268382091
  0
SPLINE
  5
1F2
330
1F
100
AcDbEntity
  8
0
  6
Continuous
 62
     7
370
    15
100
AcDbSpline
210
0.0
220
0.0
230
1.0
 70
     8
 71
     3
 72
    11
 73
     7
 74
     0
 42
0.00000001
 43
0.00000001
 12
1.0
 22
0.0
 32
0.0
 13
1.0
 23
0.0
 33
0.0
 40
0.0
 40
0.0
 40
0.0
 40
0.0
 40
0.2833238316382957
 40
0.5580482214186037
 40
0.7754266900161316
 40
0.9999999999999999
 40
0.9999999999999999
 40
0.9999999999999999
 40
0.9999999999999999
 10
179.4064728808457
 20
129.9719134297993
 30
0.0
 10
179.3986874582461
 20
129.9124906766412
 30
0.0
 10
179.3833529161091
 20
129.7954487690828
 30
0.0
 10
179.2764807972306
 20
129.6656154383053
 30
0.0
 10
179.1462202985109
 20
129.5865809359492
 30
0.0
 10
179.0537769998256
 20
129.5770736902762
 30
0.0
 10
179.006802876001
 20
129.5722426798966
 30
0.0
  0
LINE
  5
1F3
330
1F
100
AcDbEntity
  8
0
  6
Continuous
 62
     7
370
    15
100
AcDbLine
 10
179.006802876
 20
129.5722426799
 30
0.0
 11
171.8069372964
 21
129.5722426799
 31
0.0
  0
LINE
  5
1F4
330
1F
100
AcDbEntity
  8
0
  6
Continuous
 62
     7
370
    15
100
AcDbLine
 10
179.4064728808
 20
141.1724926856
 30
0.0
 11
179.4064728808
 21
129.9719134298
 31
0.0
  0
SPLINE
  5
1F5
330
1F
100
AcDbEntity
  8
0
  6
Continuous
 62
     7
370
    15
100
AcDbSpline
210
0.0
220
0.0
230
1.0
 70
     8
 71
     3
 72
    11
 73
     7
 74
     0
 42
0.00000001
 43
0.00000001
 12
1.0
 22
0.0
 32
0.0
 13
1.0
 23
0.0
 33
0.0
 40
0.0
 40
0.0
 40
0.0
 40
0.0
 40
0.283303905744577
 40
0.5580368000520417
 40
0.7754292976766101
 40
0.9999999999999999
 40
0.9999999999999999
 40
0.9999999999999999
 40
0.9999999999999999
 10
179.006802876001
 20
141.5722431567337
 30
0.0
 10
179.0662263980298
 20
141.5644533583673
 30
0.0
 10
179.1832756564704
 20
141.5491094324091
 30
0.0
 10
179.3131025716086
 20
141.4422036298707
 30
0.0
 10
179.3921323255748
 20
141.3119230135939
 30
0.0
 10
179.4016412157827
 20
141.2194699910068
 30
0.0
 10
179.4064728808457
 20
141.1724926856186
 30
0.0
  0
LINE
  5
1F6
330
1F
100
AcDbEntity
  8
0
  6
Continuous
 62
     7
370
    15
100
AcDbLine
 10
171.8069372964
 20
141.5722431567
 30
0.0
 11
179.006802876
 21
141.5722431567
 31
0.0
  0
SPLINE
  5
1F7
330
1F
100
AcDbEntity
  8
0
  6
Continuous
 62
     7
370
    15
100
AcDbSpline
210
0.0
220
0.0
230
1.0
 70
     8
 71
     3
 72
    11
 73
     7
 74
     0
 42
0.00000001
 43
0.00000001
 12
1.0
 22
0.0
 32
0.0
 13
1.0
 23
0.0
 33
0.0
 40
0.0
 40
0.0
 40
0.0
 40
0.0
 40
0.2833544975622659
 40
0.5581093788420864
 40
0.7754839272316284
 40
1.0
 40
1.0
 40
1.0
 40
1.0
 10
171.4064715695435
 20
141.1733673837807
 30
0.0
 10
171.4143880808508
 20
141.2327770797781
 30
0.0
 10
171.4299808427313
 20
141.3497934279059
 30
0.0
 10
171.5371124434403
 20
141.4794161211128
 30
0.0
 10
171.6675175072591
 20
141.5581972846349
 30
0.0
 10
171.7599660042278
 20
141.5675110253326
 30
0.0
 10
171.8069372963959
 20
141.5722431567337
 30
0.0
  0
LINE
  5
1F8
330
1F
100
AcDbEntity
  8
0
  6
Continuous
 62
     7
370
    15
100
AcDbLine
 10
171.4064715695
 20
129.9710394767
 30
0.0
 11
171.4064715695
 21
141.1733673838
 31
0.0
  0
SPLINE
  5
1F9
330
1F
100
AcDbEntity
  8
0
  6
Continuous
 62
     7
370
    15
100
AcDbSpline
210
0.0
220
0.0
230
1.0
 70
     8
 71
     3
 72
    11
 73
     7
 74
     0
 42
0.00000001
 43
0.00000001
 12
1.0
 22
0.0
 32
0.0
 13
1.0
 23
0.0
 33
0.0
 40
0.0
 40
0.0
 40
0.0
 40
0.0
 40
0.2832748652525743
 40
0.5580017973712614
 40
0.7754019541274677
 40
1.0
 40
1.0
 40
1.0
 40
1.0
 10
171.8069372963959
 20
129.5722426798966
 30
0.0
 10
171.7475146827412
 20
129.5798995069397
 30
0.0
 10
171.6304625567281
 20
129.5949821131865
 30
0.0
 10
171.500423177833
 20
129.7015683298836
 30
0.0
 10
171.4211158601443
 20
129.8316543401633
 30
0.0
 10
171.4114057093013
 20
129.924076072147
 30
0.0
 10
171.4064715695435
 20
129.9710394766953
 30
0.0
  0
SPLINE
  5
1FA
330
1F
100
AcDbEntity
  8
0
  6
Continuous
 62
     7
370
    15
100
AcDbSpline
210
0.0
220
0.0
230
1.0
 70
     8
 71
     3
 72
    13
 73
     9
 74
     0
 42
0.00000001
 43
0.00000001
 12
1.0
 22
0.0
 32
0.0
 13
1.0
 23
0.0
 33
0.0
 40
0.0
 40
0.0
 40
0.0
 40
0.0
 40
0.1275697481553689
 40
0.254645297475204
 40
0.5000154466682972
 40
0.7453740662066028
 40
0.8725244172639883
 40
1.0
 40
1.0
 40
1.0
 40
1.0
 10
179.4064728808457
 20
141.1724926856186
 30
0.0
 10
179.4049623690526
 20
141.1991319008323
 30
0.0
 10
179.4019471971137
 20
141.2523071322699
 30
0.0
 10
179.3696441454897
 20
141.3523391945087
 30
0.0
 10
179.2962826501803
 20
141.4620045736515
 30
0.0
 10
179.1866229985833
 20
141.5354176448874
 30
0.0
 10
179.0865910036348
 20
141.5677010873301
 30
0.0
 10
179.033421556183
 20
141.5707278449147
 30
0.0
 10
179.006802876001
 20
141.5722431567337
 30
0.0
  0
SPLINE
  5
1FB
330
1F
100
AcDbEntity
  8
0
  6
Continuous
 62
     7
370
    15
100
AcDbSpline
210
0.0
220
0.0
230
1.0
 70
     8
 71
     3
 72
    13
 73
     9
 74
     0
 42
0.00000001
 43
0.00000001
 12
1.0
 22
0.0
 32
0.0
 13
1.0
 23
0.0
 33
0.0
 40
0.0
 40
0.0
 40
0.0
 40
0.0
 40
0.1275711333903967
 40
0.2546456623751494
 40
0.5000009434663253
 40
0.7453552369446566
 40
0.8725131932242194
 40
0.9999999999999999
 40
0.9999999999999999
 40
0.9999999999999999
 40
0.9999999999999999
 10
179.006802876001
 20
129.5722426798966
 30
0.0
 10
179.0334400747874
 20
129.5737535882267
 30
0.0
 10
179.0866107800129
 20
129.5767695232761
 30
0.0
 10
179.1866316875998
 20
129.6090691147338
 30
0.0
 10
179.2962774325131
 20
129.6824357293025
 30
0.0
 10
179.3696649129131
 20
129.792095931555
 30
0.0
 10
179.401934432473
 20
129.892125714203
 30
0.0
 10
179.4049587628392
 20
129.945294636995
 30
0.0
 10
179.4064728808457
 20
129.9719134297993
 30
0.0
  0
SPLINE
  5
1FC
330
1F
100
AcDbEntity
  8
0
  6
Continuous
 62
     7
370
    15
100
AcDbSpline
210
0.0
220
0.0
230
1.0
 70
     8
 71
     3
 72
    13
 73
     9
 74
     0
 42
0.00000001
 43
0.00000001
 12
1.0
 22
0.0
 32
0.0
 13
1.0
 23
0.0
 33
0.0
 40
0.0
 40
0.0
 40
0.0
 40
0.0
 40
0.1275882333324184
 40
0.2546767801472387
 40
0.5000487856631606
 40
0.7453997809713588
 40
0.8725418234759241
 40
1.0
 40
1.0
 40
1.0
 40
1.0
 10
171.4064715695435
 20
129.9710394766953
 30
0.0
 10
171.40804141082
 20
129.9444050604159
 30
0.0
 10
171.411174945247
 20
129.8912405388769
 30
0.0
 10
171.4436905788296
 20
129.791291419496
 30
0.0
 10
171.5172864414679
 20
129.6818106942877
 30
0.0
 10
171.6270864704131
 20
129.6086603368626
 30
0.0
 10
171.7271639107394
 20
129.5766080644094
 30
0.0
 10
171.7803241650283
 20
129.5736990121125
 30
0.0
 10
171.8069372963959
 20
129.5722426798966
 30
0.0
  0
SPLINE
  5
1FD
330
1F
100
AcDbEntity
  8
0
  6
Continuous
 62
     7
370
    15
100
AcDbSpline
210
0.0
220
0.0
230
1.0
 70
     8
 71
     3
 72
    13
 73
     9
 74
     0
 42
0.00000001
 43
0.00000001
 12
1.0
 22
0.0
 32
0.0
 13
1.0
 23
0.0
 33
0.0
 40
0.0
 40
0.0
 40
0.0
 40
0.0
 40
0.127538524490358
 40
0.2545881206496233
 40
0.4999421778202218
 40
0.7453294629953464
 40
0.8725064752289943
 40
0.9999999999999999
 40
0.9999999999999999
 40
0.9999999999999999
 40
0.9999999999999999
 10
171.8069372963959
 20
141.5722431567337
 30
0.0
 10
171.780304315209
 20
141.5707894545486
 30
0.0
 10
171.7271404523308
 20
141.5678876230529
 30
0.0
 10
171.6270700263002
 20
141.5357875464449
 30
0.0
 10
171.5172859102753
 20
141.4626341355862
 30
0.0
 10
171.4436722578374
 20
141.3531188101875
 30
0.0
 10
171.4111888117053
 20
141.2531490649576
 30
0.0
 10
171.4080452858883
 20
141.1999833028656
 30
0.0
 10
171.4064715695435
 20
141.1733673837807
 30
0.0
  0
LINE
  5
1FE
330
1F
100
AcDbEntity
  8
0
  6
Continuous
 62
     7
370
    15
100
AcDbLine
 10
245.1288430286
 20
183.6222412017
 30
0.0
 11
165.6088440013
 21
183.6222412017
 31
0.0
  0
LINE
  5
1FF
330
1F
100
AcDbEntity
  8
0
  6
Continuous
 62
     7
370
    15
100
AcDbLine
 10
245.1288430286
 20
174.6887447265
 30
0.0
 11
245.1288430286
 21
183.6222412017
 31
0.0
  0
LINE
  5
200
330
1F
100
AcDbEntity
  8
0
  6
Continuous
 62
     7
370
    15
100
AcDbLine
 10
165.6088440013
 20
174.6887447265
 30
0.0
 11
165.6088440013
 21
183.6222412017
 31
0.0
  0
LINE
  5
201
330
1F
100
AcDbEntity
  8
0
  6
Continuous
 62
     7
370
    15
100
AcDbLine
 10
245.1288430286
 20
172.6737262633
 30
0.0
 11
245.1288430286
 21
174.6887447265
 31
0.0
  0
LINE
  5
202
330
1F
100
AcDbEntity
  8
0
  6
Continuous
 62
     7
370
    15
100
AcDbLine
 10
245.1288430286
 20
172.6737262633
 30
0.0
 11
165.6088440013
 21
172.6737262633
 31
0.0
  0
LINE
  5
203
330
1F
100
AcDbEntity
  8
0
  6
Continuous
 62
     7
370
    15
100
AcDbLine
 10
170.6088422132
 20
173.1043757823
 30
0.0
 11
170.6088422132
 21
173.3595730689
 31
0.0
  0
LWPOLYLINE
  5
204
330
1F
100
AcDbEntity
  8
0
  6
Continuous
 62
     7
370
    15
100
AcDbPolyline
 90
       10
 70
   128
 43
0.0
 10
170.6088422132
 20
173.3595730689
 10
170.5702482057
 20
173.4468581107
 10
170.4591123653
 20
173.5236110118
 10
170.2888427568
 20
173.5805811313
 10
170.0799791408
 20
173.6108960536
 10
169.8577074599
 20
173.6108960536
 10
169.6488438439
 20
173.5805811313
 10
169.4785742354
 20
173.5236110118
 10
169.3674413753
 20
173.4468581107
 10
169.3288443875
 20
173.3595730689
  0
LINE
  5
205
330
1F
100
AcDbEntity
  8
0
  6
Continuous
 62
     7
370
    15
100
AcDbLine
 10
169.3288443875
 20
173.3595730689
 30
0.0
 11
169.3288443875
 21
173.1043757823
 31
0.0
  0
LWPOLYLINE
  5
206
330
1F
100
AcDbEntity
  8
0
  6
Continuous
 62
     7
370
    15
100
AcDbPolyline
 90
       10
 70
   128
 43
0.0
 10
169.3288443875
 20
173.1043757823
 10
169.3674413753
 20
173.0170907405
 10
169.4785742354
 20
172.9403378394
 10
169.6488438439
 20
172.88336772
 10
169.8577074599
 20
172.8530527976
 10
170.0799791408
 20
172.8530527976
 10
170.2888427568
 20
172.88336772
 10
170.4591123653
 20
172.9403378394
 10
170.5702482057
 20
173.0170907405
 10
170.6088422132
 20
173.1043757823
  0
LINE
  5
207
330
1F
100
AcDbEntity
  8
0
  6
Continuous
 62
     7
370
    15
100
AcDbLine
 10
241.4088426423
 20
173.1043757823
 30
0.0
 11
241.4088426423
 21
173.3595730689
 31
0.0
  0
LWPOLYLINE
  5
208
330
1F
100
AcDbEntity
  8
0
  6
Continuous
 62
     7
370
    15
100
AcDbPolyline
 90
       10
 70
   128
 43
0.0
 10
241.4088426423
 20
173.3595730689
 10
241.3702456546
 20
173.4468581107
 10
241.2591127944
 20
173.5236110118
 10
241.0888431859
 20
173.5805811313
 10
240.8799795699
 20
173.6108960536
 10
240.6577078891
 20
173.6108960536
 10
240.4488442731
 20
173.5805811313
 10
240.2785746646
 20
173.5236110118
 10
240.1674418044
 20
173.4468581107
 10
240.1288448167
 20
173.3595730689
  0
LINE
  5
209
330
1F
100
AcDbEntity
  8
0
  6
Continuous
 62
     7
370
    15
100
AcDbLine
 10
240.1288448167
 20
173.3595730689
 30
0.0
 11
240.1288448167
 21
173.1043757823
 31
0.0
  0
LWPOLYLINE
  5
20A
330
1F
100
AcDbEntity
  8
0
  6
Continuous
 62
     7
370
    15
100
AcDbPolyline
 90
       10
 70
   128
 43
0.0
 10
240.1288448167
 20
173.1043757823
 10
240.1674418044
 20
173.0170907405
 10
240.2785746646
 20
172.9403378394
 10
240.4488442731
 20
172.88336772
 10
240.6577078891
 20
172.8530527976
 10
240.8799795699
 20
172.8530527976
 10
241.0888431859
 20
172.88336772
 10
241.2591127944
 20
172.9403378394
 10
241.3702456546
 20
173.0170907405
 10
241.4088426423
 20
173.1043757823
  0
LINE
  5
20B
330
1F
100
AcDbEntity
  8
0
  6
Continuous
 62
     7
370
    15
100
AcDbLine
 10
165.6088440013
 20
172.6737262633
 30
0.0
 11
165.6088440013
 21
174.6887447265
 31
0.0
  0
LWPOLYLINE
  5
20C
330
1F
100
AcDbEntity
  8
0
  6
Continuous
 62
     7
370
    15
100
AcDbPolyline
 90
       10
 70
   128
 43
0.0
 10
169.3288443875
 20
173.3244718936
 10
169.3674413753
 20
173.2371868518
 10
169.4785742354
 20
173.1604279903
 10
169.6488438439
 20
173.1034578708
 10
169.8577074599
 20
173.0731489089
 10
170.0799791408
 20
173.0731489089
 10
170.2888427568
 20
173.1034578708
 10
170.4591123653
 20
173.1604279903
 10
170.5702482057
 20
173.2371868518
 10
170.6088422132
 20
173.3244718936
  0
LWPOLYLINE
  5
20D
330
1F
100
AcDbEntity
  8
0
  6
Continuous
 62
     7
370
    15
100
AcDbPolyline
 90
       10
 70
   128
 43
0.0
 10
240.1288448167
 20
173.3244718936
 10
240.1674418044
 20
173.2371868518
 10
240.2785746646
 20
173.1604279903
 10
240.4488442731
 20
173.1034578708
 10
240.6577078891
 20
173.0731489089
 10
240.8799795699
 20
173.0731489089
 10
241.0888431859
 20
173.1034578708
 10
241.2591127944
 20
173.1604279903
 10
241.3702456546
 20
173.2371868518
 10
241.4088426423
 20
173.3244718936
  0
LINE
  5
20E
330
1F
100
AcDbEntity
  8
0
  6
Continuous
 62
     7
370
    15
100
AcDbLine
 10
165.9688441348
 20
185.1022424129
 30
0.0
 11
244.768842895
 21
185.1022424129
 31
0.0
  0
LINE
  5
20F
330
1F
100
AcDbEntity
  8
0
  6
Continuous
 62
     7
370
    15
100
AcDbLine
 10
244.768842895
 20
185.9033646014
 30
0.0
 11
244.768842895
 21
183.6222412017
 31
0.0
  0
LINE
  5
210
330
1F
100
AcDbEntity
  8
0
  6
Continuous
 62
     7
370
    15
100
AcDbLine
 10
245.1688437057
 20
185.9033646014
 30
0.0
 11
245.1688437057
 21
183.6008252528
 31
0.0
  0
LINE
  5
211
330
1F
100
AcDbEntity
  8
0
  6
Continuous
 62
     7
370
    15
100
AcDbLine
 10
165.5688433242
 20
183.6008252528
 30
0.0
 11
165.5688433242
 21
185.9033646014
 31
0.0
  0
LINE
  5
212
330
1F
100
AcDbEntity
  8
0
  6
Continuous
 62
     7
370
    15
100
AcDbLine
 10
165.9688441348
 20
183.6222412017
 30
0.0
 11
165.9688441348
 21
185.9033646014
 31
0.0
  0
LINE
  5
213
330
1F
100
AcDbEntity
  8
0
  6
Continuous
 62
     7
370
    15
100
AcDbLine
 10
244.768842895
 20
186.9674326804
 30
0.0
 11
244.768842895
 21
185.9033646014
 31
0.0
  0
LINE
  5
214
330
1F
100
AcDbEntity
  8
0
  6
Continuous
 62
     7
370
    15
100
AcDbLine
 10
245.1688437057
 20
186.9674326804
 30
0.0
 11
245.1688437057
 21
185.9033646014
 31
0.0
  0
LINE
  5
215
330
1F
100
AcDbEntity
  8
0
  6
Continuous
 62
     7
370
    15
100
AcDbLine
 10
165.9688441348
 20
185.9033646014
 30
0.0
 11
165.9688441348
 21
186.9674326804
 31
0.0
  0
LINE
  5
216
330
1F
100
AcDbEntity
  8
0
  6
Continuous
 62
     7
370
    15
100
AcDbLine
 10
165.5688433242
 20
185.9033646014
 30
0.0
 11
165.5688433242
 21
186.9674326804
 31
0.0
  0
LINE
  5
217
330
1F
100
AcDbEntity
  8
0
  6
Continuous
 62
     7
370
    15
100
AcDbLine
 10
244.768842895
 20
215.3076590923
 30
0.0
 11
245.1688437057
 21
215.3076590923
 31
0.0
  0
LINE
  5
218
330
1F
100
AcDbEntity
  8
0
  6
Continuous
 62
     7
370
    15
100
AcDbLine
 10
244.768842895
 20
215.3076590923
 30
0.0
 11
244.768842895
 21
186.9674326804
 31
0.0
  0
LINE
  5
219
330
1F
100
AcDbEntity
  8
0
  6
Continuous
 62
     7
370
    15
100
AcDbLine
 10
245.1688437057
 20
215.3076590923
 30
0.0
 11
245.1688437057
 21
186.9674326804
 31
0.0
  0
LINE
  5
21A
330
1F
100
AcDbEntity
  8
0
  6
Continuous
 62
     7
370
    15
100
AcDbLine
 10
165.9688441348
 20
215.3076590923
 30
0.0
 11
165.5688433242
 21
215.3076590923
 31
0.0
  0
LINE
  5
21B
330
1F
100
AcDbEntity
  8
0
  6
Continuous
 62
     7
370
    15
100
AcDbLine
 10
165.9688441348
 20
186.9674326804
 30
0.0
 11
165.9688441348
 21
215.3076590923
 31
0.0
  0
LINE
  5
21C
330
1F
100
AcDbEntity
  8
0
  6
Continuous
 62
     7
370
    15
100
AcDbLine
 10
165.5688433242
 20
186.9674326804
 30
0.0
 11
165.5688433242
 21
215.3076590923
 31
0.0
  0
SPLINE
  5
21D
330
1F
100
AcDbEntity
  8
0
  6
Continuous
 62
     7
370
    15
100
AcDbSpline
210
0.0
220
0.0
230
1.0
 70
     8
 71
     3
 72
    11
 73
     7
 74
     0
 42
0.00000001
 43
0.00000001
 12
1.0
 22
0.0
 32
0.0
 13
1.0
 23
0.0
 33
0.0
 40
0.0
 40
0.0
 40
0.0
 40
0.0
 40
0.2499970366469784
 40
0.5000002475116126
 40
0.750000829984933
 40
1.0
 40
1.0
 40
1.0
 40
1.0
 10
245.1688437056596
 20
215.3076590922501
 30
0.0
 10
245.1583215488426
 20
215.3138732409531
 30
0.0
 10
245.1372769753413
 20
215.326301691831
 30
0.0
 10
244.9754041874826
 20
215.3449557004968
 30
0.0
 10
244.7440219742475
 20
215.363597478093
 30
0.0
 10
244.5605696701267
 20
215.3760274272406
 30
0.0
 10
244.4688437771851
 20
215.3822423842575
 30
0.0
  0
SPLINE
  5
21E
330
1F
100
AcDbEntity
  8
0
  6
Continuous
 62
     7
370
    15
100
AcDbSpline
210
0.0
220
0.0
230
1.0
 70
     8
 71
     3
 72
    11
 73
     7
 74
     0
 42
0.00000001
 43
0.00000001
 12
1.0
 22
0.0
 32
0.0
 13
1.0
 23
0.0
 33
0.0
 40
0.0
 40
0.0
 40
0.0
 40
0.0
 40
0.2499983811920329
 40
0.5000027132134097
 40
0.7500016188079671
 40
0.9999999999999999
 40
0.9999999999999999
 40
0.9999999999999999
 40
0.9999999999999999
 10
244.7688428950364
 20
215.3076590922501
 30
0.0
 10
244.7643338265837
 20
215.3138732448261
 30
0.0
 10
244.7553155823468
 20
215.3263016978967
 30
0.0
 10
244.6859431090803
 20
215.3449555677543
 30
0.0
 10
244.5867760158604
 20
215.3635975325228
 30
0.0
 10
244.5081544959239
 20
215.3760274380248
 30
0.0
 10
244.4688437771851
 20
215.3822423842575
 30
0.0
  0
SPLINE
  5
21F
330
1F
100
AcDbEntity
  8
0
  6
Continuous
 62
     7
370
    15
100
AcDbSpline
210
0.0
220
0.0
230
1.0
 70
     8
 71
     3
 72
    11
 73
     7
 74
     0
 42
0.00000001
 43
0.00000001
 12
1.0
 22
0.0
 32
0.0
 13
1.0
 23
0.0
 33
0.0
 40
0.0
 40
0.0
 40
0.0
 40
0.0
 40
0.2499991700150671
 40
0.4999997524883875
 40
0.7500029633530217
 40
1.0
 40
1.0
 40
1.0
 40
1.0
 10
166.2688432526643
 20
215.3822423842575
 30
0.0
 10
166.1771173597226
 20
215.3760274272406
 30
0.0
 10
165.9936650556018
 20
215.3635974780931
 30
0.0
 10
165.7622828423668
 20
215.3449557004968
 30
0.0
 10
165.600410054508
 20
215.326301691831
 30
0.0
 10
165.5793654810067
 20
215.3138732409531
 30
0.0
 10
165.5688433241898
 20
215.3076590922501
 30
0.0
  0
SPLINE
  5
220
330
1F
100
AcDbEntity
  8
0
  6
Continuous
 62
     7
370
    15
100
AcDbSpline
210
0.0
220
0.0
230
1.0
 70
     8
 71
     3
 72
    11
 73
     7
 74
     0
 42
0.00000001
 43
0.00000001
 12
1.0
 22
0.0
 32
0.0
 13
1.0
 23
0.0
 33
0.0
 40
0.0
 40
0.0
 40
0.0
 40
0.0
 40
0.2499983811920329
 40
0.4999972867865902
 40
0.7500016188079671
 40
0.9999999999999999
 40
0.9999999999999999
 40
0.9999999999999999
 40
0.9999999999999999
 10
166.2688432526643
 20
215.3822423842575
 30
0.0
 10
166.2295325339255
 20
215.3760274380248
 30
0.0
 10
166.150911013989
 20
215.3635975325228
 30
0.0
 10
166.051743920769
 20
215.3449555677544
 30
0.0
 10
165.9823714475026
 20
215.3263016978967
 30
0.0
 10
165.9733532032657
 20
215.3138732448262
 30
0.0
 10
165.968844134813
 20
215.3076590922501
 30
0.0
  0
LINE
  5
221
330
1F
100
AcDbEntity
  8
0
  6
Continuous
 62
     7
370
    15
100
AcDbLine
 10
166.2688432527
 20
215.3822423843
 30
0.0
 11
166.2688432527
 21
215.6780781177
 31
0.0
  0
LINE
  5
222
330
1F
100
AcDbEntity
  8
0
  6
Continuous
 62
     7
370
    15
100
AcDbLine
 10
244.4688437772
 20
215.6780781177
 30
0.0
 11
244.4688437772
 21
215.3822423843
 31
0.0
  0
ARC
  5
223
330
1F
100
AcDbEntity
  8
0
  6
Continuous
 62
     7
370
    15
100
AcDbCircle
 10
167.2241894786
 20
217.3811464746
 30
0.0
 40
0.9566156998046251
100
AcDbArc
 50
87.3245806838
 51
177.0479154109
  0
LINE
  5
224
330
1F
100
AcDbEntity
  8
0
  6
Continuous
 62
     7
370
    15
100
AcDbLine
 10
167.268842299
 20
218.336719456
 30
0.0
 11
243.4688447309
 21
218.336719456
 31
0.0
  0
ARC
  5
225
330
1F
100
AcDbEntity
  8
0
  6
Continuous
 62
     7
370
    15
100
AcDbCircle
 10
243.5134975512
 20
217.3811464746
 30
0.0
 40
0.9566156998046562
100
AcDbArc
 50
2.9520845891
 51
92.6754193162
  0
LINE
  5
226
330
1F
100
AcDbEntity
  8
0
  6
Continuous
 62
     7
370
    15
100
AcDbLine
 10
166.2688432527
 20
215.6780781177
 30
0.0
 11
166.2688432527
 21
217.4304129508
 31
0.0
  0
LINE
  5
227
330
1F
100
AcDbEntity
  8
0
  6
Continuous
 62
     7
370
    15
100
AcDbLine
 10
244.4688437772
 20
217.4304129508
 30
0.0
 11
244.4688437772
 21
215.6780781177
 31
0.0
  0
LINE
  5
228
330
1F
100
AcDbEntity
  8
0
  6
Continuous
 62
     7
370
    15
100
AcDbLine
 10
245.368844111
 20
183.6008252528
 30
0.0
 11
245.368844111
 21
216.7456092265
 31
0.0
  0
LINE
  5
229
330
1F
100
AcDbEntity
  8
0
  6
Continuous
 62
     7
370
    15
100
AcDbLine
 10
244.9588446212
 20
216.7456092265
 30
0.0
 11
245.368844111
 21
216.7456092265
 31
0.0
  0
LINE
  5
22A
330
1F
100
AcDbEntity
  8
0
  6
Continuous
 62
     7
370
    15
100
AcDbLine
 10
202.3620097232
 20
221.829784098
 30
0.0
 11
202.2554686558
 21
221.8283059028
 31
0.0
  0
LINE
  5
22B
330
1F
100
AcDbEntity
  8
0
  6
Continuous
 62
     7
370
    15
100
AcDbLine
 10
206.4991677911
 20
221.8283059028
 30
0.0
 11
206.39262691
 21
221.829784098
 31
0.0
  0
LINE
  5
22C
330
1F
100
AcDbEntity
  8
0
  6
Continuous
 62
     7
370
    15
100
AcDbLine
 10
222.2554682088
 20
221.8283059028
 30
0.0
 11
206.4991677911
 21
221.8283059028
 31
0.0
  0
LINE
  5
22D
330
1F
100
AcDbEntity
  8
0
  6
Continuous
 62
     7
370
    15
100
AcDbLine
 10
222.3620100212
 20
221.829784098
 30
0.0
 11
222.2554682088
 21
221.8283059028
 31
0.0
  0
LINE
  5
22E
330
1F
100
AcDbEntity
  8
0
  6
Continuous
 62
     7
370
    15
100
AcDbLine
 10
226.4991684151
 20
221.8283059028
 30
0.0
 11
226.3926266027
 21
221.829784098
 31
0.0
  0
LINE
  5
22F
330
1F
100
AcDbEntity
  8
0
  6
Continuous
 62
     7
370
    15
100
AcDbLine
 10
240.3688429189
 20
221.8283059028
 30
0.0
 11
226.4991684151
 21
221.8283059028
 31
0.0
  0
LINE
  5
230
330
1F
100
AcDbEntity
  8
0
  6
Continuous
 62
     7
370
    15
100
AcDbLine
 10
240.4753832412
 20
221.829784098
 30
0.0
 11
240.3688429189
 21
221.8283059028
 31
0.0
  0
LINE
  5
231
330
1F
100
AcDbEntity
  8
0
  6
Continuous
 62
     7
370
    15
100
AcDbLine
 10
165.5288426471
 20
221.829784098
 30
0.0
 11
165.5288426471
 21
216.8456079391
 31
0.0
  0
LINE
  5
232
330
1F
100
AcDbEntity
  8
0
  6
Continuous
 62
     7
370
    15
100
AcDbLine
 10
170.368844111
 20
221.8283059028
 30
0.0
 11
170.2623037887
 21
221.829784098
 31
0.0
  0
LINE
  5
233
330
1F
100
AcDbEntity
  8
0
  6
Continuous
 62
     7
370
    15
100
AcDbLine
 10
182.2554691029
 20
221.8283059028
 30
0.0
 11
170.368844111
 21
221.8283059028
 31
0.0
  0
LINE
  5
234
330
1F
100
AcDbEntity
  8
0
  6
Continuous
 62
     7
370
    15
100
AcDbLine
 10
182.3620094252
 20
221.829784098
 30
0.0
 11
182.2554691029
 21
221.8283059028
 31
0.0
  0
LINE
  5
235
330
1F
100
AcDbEntity
  8
0
  6
Continuous
 62
     7
370
    15
100
AcDbLine
 10
186.499167819
 20
221.8283059028
 30
0.0
 11
186.3926274967
 21
221.829784098
 31
0.0
  0
LINE
  5
236
330
1F
100
AcDbEntity
  8
0
  6
Continuous
 62
     7
370
    15
100
AcDbLine
 10
202.2554686558
 20
221.8283059028
 30
0.0
 11
186.499167819
 21
221.8283059028
 31
0.0
  0
LINE
  5
237
330
1F
100
AcDbEntity
  8
0
  6
Continuous
 62
     7
370
    15
100
AcDbLine
 10
245.2088443828
 20
221.829784098
 30
0.0
 11
245.2088443828
 21
216.8456079391
 31
0.0
  0
LINE
  5
238
330
1F
100
AcDbEntity
  8
0
  6
Continuous
 62
     7
370
    15
100
AcDbLine
 10
165.3688429189
 20
216.7456092265
 30
0.0
 11
165.3688429189
 21
183.6008252528
 31
0.0
  0
LINE
  5
239
330
1F
100
AcDbEntity
  8
0
  6
Continuous
 62
     7
370
    15
100
AcDbLine
 10
165.3688429189
 20
216.7456092265
 30
0.0
 11
165.7788424087
 21
216.7456092265
 31
0.0
  0
LINE
  5
23A
330
1F
100
AcDbEntity
  8
0
  6
Continuous
 62
     7
370
    15
100
AcDbLine
 10
165.8588437629
 20
216.7456092265
 30
0.0
 11
165.8588437629
 21
216.8256046203
 31
0.0
  0
LINE
  5
23B
330
1F
100
AcDbEntity
  8
0
  6
Continuous
 62
     7
370
    15
100
AcDbLine
 10
245.2088443828
 20
216.8456079391
 30
0.0
 11
245.2088443828
 21
216.8256046203
 31
0.0
  0
LINE
  5
23C
330
1F
100
AcDbEntity
  8
0
  6
Continuous
 62
     7
370
    15
100
AcDbLine
 10
165.5288426471
 20
216.8456079391
 30
0.0
 11
165.5288426471
 21
216.8256046203
 31
0.0
  0
LINE
  5
23D
330
1F
100
AcDbEntity
  8
0
  6
Continuous
 62
     7
370
    15
100
AcDbLine
 10
165.8588437629
 20
216.8256046203
 30
0.0
 11
165.5288426471
 21
216.8256046203
 31
0.0
  0
LINE
  5
23E
330
1F
100
AcDbEntity
  8
0
  6
Continuous
 62
     7
370
    15
100
AcDbLine
 10
165.7788424087
 20
216.7456092265
 30
0.0
 11
165.8588437629
 21
216.7456092265
 31
0.0
  0
LINE
  5
23F
330
1F
100
AcDbEntity
  8
0
  6
Continuous
 62
     7
370
    15
100
AcDbLine
 10
245.2088443828
 20
216.8256046203
 30
0.0
 11
244.878843267
 21
216.8256046203
 31
0.0
  0
LINE
  5
240
330
1F
100
AcDbEntity
  8
0
  6
Continuous
 62
     7
370
    15
100
AcDbLine
 10
244.878843267
 20
216.7456092265
 30
0.0
 11
244.9588446212
 21
216.7456092265
 31
0.0
  0
LINE
  5
241
330
1F
100
AcDbEntity
  8
0
  6
Continuous
 62
     7
370
    15
100
AcDbLine
 10
244.878843267
 20
216.8256046203
 30
0.0
 11
244.878843267
 21
216.7456092265
 31
0.0
  0
LINE
  5
242
330
1F
100
AcDbEntity
  8
0
  6
Continuous
 62
     7
370
    15
100
AcDbLine
 10
165.3688429189
 20
216.8456079391
 30
0.0
 11
165.5288426471
 21
216.8456079391
 31
0.0
  0
LINE
  5
243
330
1F
100
AcDbEntity
  8
0
  6
Continuous
 62
     7
370
    15
100
AcDbLine
 10
165.3688429189
 20
221.6559173492
 30
0.0
 11
165.3688429189
 21
216.8456079391
 31
0.0
  0
LINE
  5
244
330
1F
100
AcDbEntity
  8
0
  6
Continuous
 62
     7
370
    15
100
AcDbLine
 10
245.368844111
 20
221.6559173492
 30
0.0
 11
245.368844111
 21
216.8456079391
 31
0.0
  0
LINE
  5
245
330
1F
100
AcDbEntity
  8
0
  6
Continuous
 62
     7
370
    15
100
AcDbLine
 10
245.368844111
 20
216.8456079391
 30
0.0
 11
245.2088443828
 21
216.8456079391
 31
0.0
  0
LINE
  5
246
330
1F
100
AcDbEntity
  8
0
  6
Continuous
 62
     7
370
    15
100
AcDbLine
 10
165.5288426471
 20
216.8256046203
 30
0.0
 11
165.5288426471
 21
216.7456092265
 31
0.0
  0
LINE
  5
247
330
1F
100
AcDbEntity
  8
0
  6
Continuous
 62
     7
370
    15
100
AcDbLine
 10
165.3688429189
 20
216.8456079391
 30
0.0
 11
165.3688429189
 21
216.7456092265
 31
0.0
  0
LINE
  5
248
330
1F
100
AcDbEntity
  8
0
  6
Continuous
 62
     7
370
    15
100
AcDbLine
 10
245.2088443828
 20
216.8256046203
 30
0.0
 11
245.2088443828
 21
216.7456092265
 31
0.0
  0
LINE
  5
249
330
1F
100
AcDbEntity
  8
0
  6
Continuous
 62
     7
370
    15
100
AcDbLine
 10
245.368844111
 20
216.8456079391
 30
0.0
 11
245.368844111
 21
216.7456092265
 31
0.0
  0
LWPOLYLINE
  5
24A
330
1F
100
AcDbEntity
  8
0
  6
Continuous
 62
     7
370
    15
100
AcDbPolyline
 90
        9
 70
   128
 43
0.0
 10
240.4753832412
 20
221.829784098
 10
240.6545577836
 20
221.839100304
 10
240.8241866422
 20
221.8567015556
 10
240.9786073756
 20
221.8819977668
 10
241.1126641822
 20
221.9141425517
 10
241.221880753
 20
221.9520630267
 10
241.3026063037
 20
221.9945015338
 10
241.352143724
 20
222.0400275615
 10
241.3688449454
 20
222.0871331123
  0
LWPOLYLINE
  5
24B
330
1F
100
AcDbEntity
  8
0
  6
Continuous
 62
     7
370
    15
100
AcDbPolyline
 90
        9
 70
   128
 43
0.0
 10
205.6077827033
 20
222.2044410136
 10
205.5251824935
 20
222.1457781222
 10
205.4992550318
 20
222.0837118056
 10
205.5315087815
 20
222.0218421844
 10
205.6200671275
 20
221.963769379
 10
205.7597771552
 20
221.9128729728
 10
205.9425095362
 20
221.8721212772
 10
206.1576318727
 20
221.843874636
 10
206.39262691
 20
221.829784098
  0
LINE
  5
24C
330
1F
100
AcDbEntity
  8
0
  6
Continuous
 62
     7
370
    15
100
AcDbLine
 10
205.6077827033
 20
222.0498921302
 30
0.0
 11
205.5447781724
 21
222.0098556903
 31
0.0
  0
LWPOLYLINE
  5
24D
330
1F
100
AcDbEntity
  8
0
  6
Continuous
 62
     7
370
    15
100
AcDbPolyline
 90
        9
 70
   128
 43
0.0
 10
225.6077824426
 20
222.2044410136
 10
225.5251823258
 20
222.1457781222
 10
225.4992543054
 20
222.0837118056
 10
225.5315093589
 20
222.0218421844
 10
225.6200669599
 20
221.963769379
 10
225.759777267
 20
221.9128729728
 10
225.9425102067
 20
221.8721212772
 10
226.1576323104
 20
221.843874636
 10
226.3926266027
 20
221.829784098
  0
LINE
  5
24E
330
1F
100
AcDbEntity
  8
0
  6
Continuous
 62
     7
370
    15
100
AcDbLine
 10
225.6077824426
 20
222.0498921302
 30
0.0
 11
225.5447788429
 21
222.0098556903
 31
0.0
  0
LWPOLYLINE
  5
24F
330
1F
100
AcDbEntity
  8
0
  6
Continuous
 62
     7
370
    15
100
AcDbPolyline
 90
        9
 70
   128
 43
0.0
 10
185.6077833366
 20
222.2044410136
 10
185.5251832199
 20
222.1457781222
 10
185.4992551994
 20
222.0837118056
 10
185.5315087628
 20
222.0218421844
 10
185.6200678539
 20
221.963769379
 10
185.7597766709
 20
221.9128729728
 10
185.9425096107
 20
221.8721212772
 10
186.1576317143
 20
221.843874636
 10
186.3926274967
 20
221.829784098
  0
LINE
  5
250
330
1F
100
AcDbEntity
  8
0
  6
Continuous
 62
     7
370
    15
100
AcDbLine
 10
185.6077833366
 20
222.0498921302
 30
0.0
 11
185.5447782469
 21
222.0098556903
 31
0.0
  0
LWPOLYLINE
  5
251
330
1F
100
AcDbEntity
  8
0
  6
Continuous
 62
     7
370
    15
100
AcDbPolyline
 90
        9
 70
   128
 43
0.0
 10
169.3688450646
 20
222.0871331123
 10
169.3855433059
 20
222.0400275615
 10
169.4350807262
 20
221.9945015338
 10
169.5158062768
 20
221.9520630267
 10
169.6250228477
 20
221.9141425517
 10
169.7590796542
 20
221.8819977668
 10
169.9135003877
 20
221.8567015556
 10
170.0831322265
 20
221.839100304
 10
170.2623037887
 20
221.829784098
  0
LINE
  5
252
330
1F
100
AcDbEntity
  8
0
  6
Continuous
 62
     7
370
    15
100
AcDbLine
 10
183.1468535852
 20
221.9698192504
 30
0.0
 11
185.1299045873
 21
222.9792179492
 31
0.0
  0
LWPOLYLINE
  5
253
330
1F
100
AcDbEntity
  8
0
  6
Continuous
 62
     7
370
    15
100
AcDbPolyline
 90
        9
 70
   128
 43
0.0
 10
185.1299045873
 20
222.9792179492
 10
185.2154417229
 20
223.0412425426
 10
185.2377234292
 20
223.1068434146
 10
185.195308764
 20
223.1717886356
 10
185.090941031
 20
223.2318462756
 10
184.931380887
 20
223.2831539539
 10
184.7269593072
 20
223.3223738101
 10
184.4909100127
 20
223.3469666865
 10
184.2385201049
 20
223.3553470996
  0
LINE
  5
254
330
1F
100
AcDbEntity
  8
0
  6
Continuous
 62
     7
370
    15
100
AcDbLine
 10
184.2385201049
 20
223.3553470996
 30
0.0
 11
170.368844111
 21
223.3553470996
 31
0.0
  0
LWPOLYLINE
  5
255
330
1F
100
AcDbEntity
  8
0
  6
Continuous
 62
     7
370
    15
100
AcDbPolyline
 90
        9
 70
   128
 43
0.0
 10
170.368844111
 20
223.3553470996
 10
170.1737521482
 20
223.3503760722
 10
169.9861614299
 20
223.335641804
 10
169.8132721973
 20
223.3117284206
 10
169.6617363286
 20
223.2795419124
 10
169.5373742175
 20
223.2403220561
 10
169.4449631763
 20
223.1955708888
 10
169.3880586219
 20
223.1470169452
 10
169.3688450646
 20
223.0965198901
  0
LINE
  5
256
330
1F
100
AcDbEntity
  8
0
  6
Continuous
 62
     7
370
    15
100
AcDbLine
 10
169.3688450646
 20
223.0965198901
 30
0.0
 11
169.3688450646
 21
222.0871331123
 31
0.0
  0
LINE
  5
257
330
1F
100
AcDbEntity
  8
0
  6
Continuous
 62
     7
370
    15
100
AcDbLine
 10
165.5288426471
 20
223.6141623881
 30
0.0
 11
165.5288426471
 21
221.829784098
 31
0.0
  0
LINE
  5
258
330
1F
100
AcDbEntity
  8
0
  6
Continuous
 62
     7
370
    15
100
AcDbLine
 10
245.2088443828
 20
223.6141623881
 30
0.0
 11
245.2088443828
 21
221.829784098
 31
0.0
  0
LINE
  5
259
330
1F
100
AcDbEntity
  8
0
  6
Continuous
 62
     7
370
    15
100
AcDbLine
 10
241.3688449454
 20
222.0871331123
 30
0.0
 11
241.3688449454
 21
223.0965198901
 31
0.0
  0
LWPOLYLINE
  5
25A
330
1F
100
AcDbEntity
  8
0
  6
Continuous
 62
     7
370
    15
100
AcDbPolyline
 90
        9
 70
   128
 43
0.0
 10
241.3688449454
 20
223.0965198901
 10
241.349628408
 20
223.1470169452
 10
241.2927238536
 20
223.1955708888
 10
241.2003128123
 20
223.2403220561
 10
241.0759507012
 20
223.2795419124
 10
240.9244148326
 20
223.3117284206
 10
240.7515285802
 20
223.335641804
 10
240.5639348817
 20
223.3503760722
 10
240.3688429189
 20
223.3553470996
  0
LINE
  5
25B
330
1F
100
AcDbEntity
  8
0
  6
Continuous
 62
     7
370
    15
100
AcDbLine
 10
240.3688429189
 20
223.3553470996
 30
0.0
 11
228.482217927
 21
223.3553470996
 31
0.0
  0
ARC
  5
25C
330
1F
100
AcDbEntity
  8
0
  6
Continuous
 62
     7
370
    15
100
AcDbCircle
 10
228.38211368
 20
221.1077514175
 30
0.0
 40
2.249823817682872
100
AcDbArc
 50
87.4498247416
 51
110.5917979001
  0
LINE
  5
25D
330
1F
100
AcDbEntity
  8
0
  6
Continuous
 62
     7
370
    15
100
AcDbLine
 10
227.5908334446
 20
223.213833752
 30
0.0
 11
225.6077824426
 21
222.2044410136
 31
0.0
  0
LINE
  5
25E
330
1F
100
AcDbEntity
  8
0
  6
Continuous
 62
     7
370
    15
100
AcDbLine
 10
223.1468541813
 20
221.9698192504
 30
0.0
 11
225.1299051833
 21
222.9792179492
 31
0.0
  0
LWPOLYLINE
  5
25F
330
1F
100
AcDbEntity
  8
0
  6
Continuous
 62
     7
370
    15
100
AcDbPolyline
 90
        9
 70
   128
 43
0.0
 10
225.1299051833
 20
222.9792179492
 10
225.2154423189
 20
223.0412425426
 10
225.2377240253
 20
223.1068434146
 10
225.1953078699
 20
223.1717886356
 10
225.090941627
 20
223.2318462756
 10
224.9313814831
 20
223.2831539539
 10
224.7269584131
 20
223.3223738101
 10
224.4909106088
 20
223.3469666865
 10
224.2385192108
 20
223.3553470996
  0
LINE
  5
260
330
1F
100
AcDbEntity
  8
0
  6
Continuous
 62
     7
370
    15
100
AcDbLine
 10
224.2385192108
 20
223.3553470996
 30
0.0
 11
208.4822185603
 21
223.3553470996
 31
0.0
  0
ARC
  5
261
330
1F
100
AcDbEntity
  8
0
  6
Continuous
 62
     7
370
    15
100
AcDbCircle
 10
208.3821136188
 20
221.1077526671
 30
0.0
 40
2.249822600171226
100
AcDbArc
 50
87.4498056582
 51
110.5918058595
  0
LINE
  5
262
330
1F
100
AcDbEntity
  8
0
  6
Continuous
 62
     7
370
    15
100
AcDbLine
 10
207.5908335191
 20
223.213833752
 30
0.0
 11
205.6077827033
 21
222.2044410136
 31
0.0
  0
LINE
  5
263
330
1F
100
AcDbEntity
  8
0
  6
Continuous
 62
     7
370
    15
100
AcDbLine
 10
203.1468538833
 20
221.9698192504
 30
0.0
 11
205.129904699
 21
222.9792179492
 31
0.0
  0
LWPOLYLINE
  5
264
330
1F
100
AcDbEntity
  8
0
  6
Continuous
 62
     7
370
    15
100
AcDbPolyline
 90
        9
 70
   128
 43
0.0
 10
205.129904699
 20
222.9792179492
 10
205.2154416484
 20
223.0412425426
 10
205.2377238204
 20
223.1068434146
 10
205.195308317
 20
223.1717886356
 10
205.0909415153
 20
223.2318462756
 10
204.9313811851
 20
223.2831539539
 10
204.7269586739
 20
223.3223738101
 10
204.4909101245
 20
223.3469666865
 10
204.2385194716
 20
223.3553470996
  0
LINE
  5
265
330
1F
100
AcDbEntity
  8
0
  6
Continuous
 62
     7
370
    15
100
AcDbLine
 10
204.2385194716
 20
223.3553470996
 30
0.0
 11
188.4822188211
 21
223.3553470996
 31
0.0
  0
ARC
  5
266
330
1F
100
AcDbEntity
  8
0
  6
Continuous
 62
     7
370
    15
100
AcDbCircle
 10
188.3821139999
 20
221.1077467022
 30
0.0
 40
2.24982855388172
100
AcDbArc
 50
87.4498154765
 51
110.5917775012
  0
LINE
  5
267
330
1F
100
AcDbEntity
  8
0
  6
Continuous
 62
     7
370
    15
100
AcDbLine
 10
187.5908328486
 20
223.213833752
 30
0.0
 11
185.6077833366
 21
222.2044410136
 31
0.0
  0
ARC
  5
268
330
1F
100
AcDbEntity
  8
0
  6
Continuous
 62
     7
370
    15
100
AcDbCircle
 10
182.3959669769
 20
223.9088600196
 30
0.0
 40
2.079353217550927
100
AcDbArc
 50
269.0642711055
 51
291.1687164839
  0
ARC
  5
269
330
1F
100
AcDbEntity
  8
0
  6
Continuous
 62
     7
370
    15
100
AcDbCircle
 10
222.3959657376
 20
223.908870306
 30
0.0
 40
2.079363472554175
100
AcDbArc
 50
269.0643262991
 51
291.1686612902
  0
ARC
  5
26A
330
1F
100
AcDbEntity
  8
0
  6
Continuous
 62
     7
370
    15
100
AcDbCircle
 10
202.3959665371
 20
223.9088641546
 30
0.0
 40
2.079357339920382
100
AcDbArc
 50
269.0642932926
 51
291.1686942967
  0
LINE
  5
26B
330
1F
100
AcDbEntity
  8
0
  6
Continuous
 62
     7
370
    15
100
AcDbLine
 10
245.368844111
 20
223.4402956393
 30
0.0
 11
245.368844111
 21
221.6559173492
 31
0.0
  0
LINE
  5
26C
330
1F
100
AcDbEntity
  8
0
  6
Continuous
 62
     7
370
    15
100
AcDbLine
 10
165.3688429189
 20
223.4402956393
 30
0.0
 11
165.3688429189
 21
221.6559173492
 31
0.0
  0
LINE
  5
26D
330
1F
100
AcDbEntity
  8
0
  6
Continuous
 62
     7
370
    15
100
AcDbLine
 10
187.5908328486
 20
223.059290829
 30
0.0
 11
185.6077833366
 21
222.0498921302
 31
0.0
  0
LINE
  5
26E
330
1F
100
AcDbEntity
  8
0
  6
Continuous
 62
     7
370
    15
100
AcDbLine
 10
227.5908334446
 20
223.059290829
 30
0.0
 11
225.6077824426
 21
222.0498921302
 31
0.0
  0
LINE
  5
26F
330
1F
100
AcDbEntity
  8
0
  6
Continuous
 62
     7
370
    15
100
AcDbLine
 10
207.5908335191
 20
223.059290829
 30
0.0
 11
205.6077827033
 21
222.0498921302
 31
0.0
  0
ARC
  5
270
330
1F
100
AcDbEntity
  8
0
  6
Continuous
 62
     7
370
    15
100
AcDbCircle
 10
224.3726799243
 20
221.3066643861
 30
0.0
 40
1.898873214172494
100
AcDbArc
 50
64.4082704101
 51
94.0514828625
  0
ARC
  5
271
330
1F
100
AcDbEntity
  8
0
  6
Continuous
 62
     7
370
    15
100
AcDbCircle
 10
184.3726788494
 20
221.3066540351
 30
0.0
 40
1.898883400190381
100
AcDbArc
 50
64.4083517386
 51
94.051401534
  0
ARC
  5
272
330
1F
100
AcDbEntity
  8
0
  6
Continuous
 62
     7
370
    15
100
AcDbCircle
 10
204.3726794762
 20
221.3066602392
 30
0.0
 40
1.898877300628636
100
AcDbArc
 50
64.4083026364
 51
94.051452689
  0
LWPOLYLINE
  5
273
330
1F
100
AcDbEntity
  8
0
  6
Continuous
 62
     7
370
    15
100
AcDbPolyline
 90
        9
 70
   128
 43
0.0
 10
241.3688449454
 20
222.9419769672
 10
241.349628408
 20
222.9924740222
 10
241.2927238536
 20
223.0410279658
 10
241.2003128123
 20
223.0857672122
 10
241.0759507012
 20
223.1249870685
 10
240.9244148326
 20
223.1571735767
 10
240.7515285802
 20
223.1810988811
 10
240.5639348817
 20
223.1958212283
 10
240.3688429189
 20
223.2007922557
  0
LWPOLYLINE
  5
274
330
1F
100
AcDbEntity
  8
0
  6
Continuous
 62
     7
370
    15
100
AcDbPolyline
 90
        9
 70
   128
 43
0.0
 10
170.368844111
 20
223.2007922557
 10
170.1737521482
 20
223.1958212283
 10
169.9861614299
 20
223.1810988811
 10
169.8132721973
 20
223.1571735767
 10
169.6617363286
 20
223.1249870685
 10
169.5373742175
 20
223.0857672122
 10
169.4449631763
 20
223.0410279658
 10
169.3880586219
 20
222.9924740222
 10
169.3688450646
 20
222.9419769672
  0
ARC
  5
275
330
1F
100
AcDbEntity
  8
0
  6
Continuous
 62
     7
370
    15
100
AcDbCircle
 10
228.3820612958
 20
220.9533491365
 30
0.0
 40
2.249673737383597
100
AcDbArc
 50
87.4483190338
 51
110.5918087897
  0
ARC
  5
276
330
1F
100
AcDbEntity
  8
0
  6
Continuous
 62
     7
370
    15
100
AcDbCircle
 10
188.3820616155
 20
220.9533444227
 30
0.0
 40
2.249678472069531
100
AcDbArc
 50
87.448309764
 51
110.5917883979
  0
ARC
  5
277
330
1F
100
AcDbEntity
  8
0
  6
Continuous
 62
     7
370
    15
100
AcDbCircle
 10
208.3820612348
 20
220.9533503859
 30
0.0
 40
2.249672520176665
100
AcDbArc
 50
87.4482999511
 51
110.5918167493
  0
LINE
  5
278
330
1F
100
AcDbEntity
  8
0
  6
Continuous
 62
     7
370
    15
100
AcDbLine
 10
240.3688429189
 20
223.2007922557
 30
0.0
 11
228.482217927
 21
223.2007922557
 31
0.0
  0
LINE
  5
279
330
1F
100
AcDbEntity
  8
0
  6
Continuous
 62
     7
370
    15
100
AcDbLine
 10
204.2385194716
 20
223.2007922557
 30
0.0
 11
188.4822188211
 21
223.2007922557
 31
0.0
  0
LINE
  5
27A
330
1F
100
AcDbEntity
  8
0
  6
Continuous
 62
     7
370
    15
100
AcDbLine
 10
184.2385201049
 20
223.2007922557
 30
0.0
 11
170.368844111
 21
223.2007922557
 31
0.0
  0
LINE
  5
27B
330
1F
100
AcDbEntity
  8
0
  6
Continuous
 62
     7
370
    15
100
AcDbLine
 10
224.2385192108
 20
223.2007922557
 30
0.0
 11
208.4822185603
 21
223.2007922557
 31
0.0
  0
LINE
  5
27C
330
1F
100
AcDbEntity
  8
0
  6
Continuous
 62
     7
370
    15
100
AcDbLine
 10
165.5288426471
 20
223.6281337169
 30
0.0
 11
165.5288426471
 21
223.6141623881
 31
0.0
  0
LINE
  5
27D
330
1F
100
AcDbEntity
  8
0
  6
Continuous
 62
     7
370
    15
100
AcDbLine
 10
245.2088443828
 20
223.6281337169
 30
0.0
 11
245.2088443828
 21
223.6141623881
 31
0.0
  0
LINE
  5
27E
330
1F
100
AcDbEntity
  8
0
  6
Continuous
 62
     7
370
    15
100
AcDbLine
 10
165.3688429189
 20
223.4481276897
 30
0.0
 11
165.3688429189
 21
223.4402956393
 31
0.0
  0
LINE
  5
27F
330
1F
100
AcDbEntity
  8
0
  6
Continuous
 62
     7
370
    15
100
AcDbLine
 10
245.368844111
 20
223.4481276897
 30
0.0
 11
245.368844111
 21
223.4402956393
 31
0.0
  0
LINE
  5
280
330
1F
100
AcDbEntity
  8
0
  6
Continuous
 62
     7
370
    15
100
AcDbLine
 10
245.368844111
 20
183.6008252528
 30
0.0
 11
245.1288430286
 21
183.6008252528
 31
0.0
  0
LINE
  5
281
330
1F
100
AcDbEntity
  8
0
  6
Continuous
 62
     7
370
    15
100
AcDbLine
 10
245.368844111
 20
175.0008048442
 30
0.0
 11
245.1288430286
 21
175.0008048442
 31
0.0
  0
LINE
  5
282
330
1F
100
AcDbEntity
  8
0
  6
Continuous
 62
     7
370
    15
100
AcDbLine
 10
245.368844111
 20
175.0008048442
 30
0.0
 11
245.368844111
 21
183.6008252528
 31
0.0
  0
LINE
  5
283
330
1F
100
AcDbEntity
  8
0
  6
Continuous
 62
     7
370
    15
100
AcDbLine
 10
245.368844111
 20
172.7008284953
 30
0.0
 11
245.1288430286
 21
172.7008284953
 31
0.0
  0
LINE
  5
284
330
1F
100
AcDbEntity
  8
0
  6
Continuous
 62
     7
370
    15
100
AcDbLine
 10
245.368844111
 20
172.7008284953
 30
0.0
 11
245.368844111
 21
175.0008048442
 31
0.0
  0
LWPOLYLINE
  5
285
330
1F
100
AcDbEntity
  8
0
  6
Continuous
 62
     7
370
    15
100
AcDbPolyline
 90
        9
 70
   128
 43
0.0
 10
244.5688424897
 20
184.1128827956
 10
244.5496289325
 20
184.062391701
 10
244.4927243781
 20
184.0138377574
 10
244.4003133369
 20
183.9690925506
 10
244.2759512258
 20
183.9298726943
 10
244.1244153571
 20
183.8976861861
 10
243.9515261245
 20
183.8737668422
 10
243.7639354062
 20
183.8590385345
 10
243.5688434434
 20
183.8540675071
  0
LINE
  5
286
330
1F
100
AcDbEntity
  8
0
  6
Continuous
 62
     7
370
    15
100
AcDbLine
 10
244.5688424897
 20
184.1128827956
 30
0.0
 11
244.5688424897
 21
183.8810624507
 31
0.0
  0
LWPOLYLINE
  5
287
330
1F
100
AcDbEntity
  8
0
  6
Continuous
 62
     7
370
    15
100
AcDbPolyline
 90
        9
 70
   128
 43
0.0
 10
244.5688424897
 20
183.8810624507
 10
244.5496289325
 20
183.8305713561
 10
244.4927243781
 20
183.7820174125
 10
244.4003133369
 20
183.7372722057
 10
244.2759512258
 20
183.6980463889
 10
244.1244153571
 20
183.6658598807
 10
243.9515261245
 20
183.6419464973
 10
243.7639354062
 20
183.6272181895
 10
243.5688434434
 20
183.6222412017
  0
LINE
  5
288
330
1F
100
AcDbEntity
  8
0
  6
Continuous
 62
     7
370
    15
100
AcDbLine
 10
243.5688434434
 20
183.8540675071
 30
0.0
 11
167.1688435865
 21
183.8540675071
 31
0.0
  0
LINE
  5
289
330
1F
100
AcDbEntity
  8
0
  6
Continuous
 62
     7
370
    15
100
AcDbLine
 10
166.1688445401
 20
184.1128827956
 30
0.0
 11
166.1688445401
 21
183.8810624507
 31
0.0
  0
LWPOLYLINE
  5
28A
330
1F
100
AcDbEntity
  8
0
  6
Continuous
 62
     7
370
    15
100
AcDbPolyline
 90
        9
 70
   128
 43
0.0
 10
167.1688435865
 20
183.8540675071
 10
166.9737546039
 20
183.8590385345
 10
166.7861609054
 20
183.8737668422
 10
166.613274653
 20
183.8976861861
 10
166.4617358041
 20
183.9298726943
 10
166.337373693
 20
183.9690925506
 10
166.2449626517
 20
184.0138377574
 10
166.1880580974
 20
184.062391701
 10
166.1688445401
 20
184.1128827956
  0
LWPOLYLINE
  5
28B
330
1F
100
AcDbEntity
  8
0
  6
Continuous
 62
     7
370
    15
100
AcDbPolyline
 90
        9
 70
   128
 43
0.0
 10
167.1688435865
 20
183.6222412017
 10
166.9737546039
 20
183.6272181895
 10
166.7861609054
 20
183.6419464973
 10
166.613274653
 20
183.6658598807
 10
166.4617358041
 20
183.6980463889
 10
166.337373693
 20
183.7372722057
 10
166.2449626517
 20
183.7820174125
 10
166.1880580974
 20
183.8305713561
 10
166.1688445401
 20
183.8810624507
  0
LINE
  5
28C
330
1F
100
AcDbEntity
  8
0
  6
Continuous
 62
     7
370
    15
100
AcDbLine
 10
166.1688445401
 20
184.1128827956
 30
0.0
 11
166.1688445401
 21
184.2596592334
 31
0.0
  0
LINE
  5
28D
330
1F
100
AcDbEntity
  8
0
  6
Continuous
 62
     7
370
    15
100
AcDbLine
 10
244.5688424897
 20
184.2596592334
 30
0.0
 11
244.5688424897
 21
184.1128827956
 31
0.0
  0
LINE
  5
28E
330
1F
100
AcDbEntity
  8
0
  6
Continuous
 62
     7
370
    15
100
AcDbLine
 10
244.5688424897
 20
184.2763544944
 30
0.0
 11
244.5688424897
 21
184.2596592334
 31
0.0
  0
LINE
  5
28F
330
1F
100
AcDbEntity
  8
0
  6
Continuous
 62
     7
370
    15
100
AcDbLine
 10
166.1688445401
 20
184.2596592334
 30
0.0
 11
166.1688445401
 21
184.2763544944
 31
0.0
  0
LINE
  5
290
330
1F
100
AcDbEntity
  8
0
  6
Continuous
 62
     7
370
    15
100
AcDbLine
 10
166.1688445401
 20
184.2763544944
 30
0.0
 11
244.5688424897
 21
184.2763544944
 31
0.0
  0
LINE
  5
291
330
1F
100
AcDbEntity
  8
0
  6
Continuous
 62
     7
370
    15
100
AcDbLine
 10
244.5688424897
 20
183.7863506702
 30
0.0
 11
244.5688424897
 21
183.8810624507
 31
0.0
  0
LINE
  5
292
330
1F
100
AcDbEntity
  8
0
  6
Continuous
 62
     7
370
    15
100
AcDbLine
 10
166.1688445401
 20
183.8810624507
 30
0.0
 11
166.1688445401
 21
183.7863506702
 31
0.0
  0
LINE
  5
293
330
1F
100
AcDbEntity
  8
0
  6
Continuous
 62
     7
370
    15
100
AcDbLine
 10
244.5688424897
 20
183.7863506702
 30
0.0
 11
244.5688424897
 21
183.6222412017
 31
0.0
  0
LINE
  5
294
330
1F
100
AcDbEntity
  8
0
  6
Continuous
 62
     7
370
    15
100
AcDbLine
 10
166.1688445401
 20
183.6222412017
 30
0.0
 11
166.1688445401
 21
183.7863506702
 31
0.0
  0
LINE
  5
295
330
1F
100
AcDbEntity
  8
0
  6
Continuous
 62
     7
370
    15
100
AcDbLine
 10
165.6088440013
 20
183.6008252528
 30
0.0
 11
165.3688429189
 21
183.6008252528
 31
0.0
  0
LINE
  5
296
330
1F
100
AcDbEntity
  8
0
  6
Continuous
 62
     7
370
    15
100
AcDbLine
 10
165.6088440013
 20
175.0008048442
 30
0.0
 11
165.3688429189
 21
175.0008048442
 31
0.0
  0
LINE
  5
297
330
1F
100
AcDbEntity
  8
0
  6
Continuous
 62
     7
370
    15
100
AcDbLine
 10
165.3688429189
 20
175.0008048442
 30
0.0
 11
165.3688429189
 21
183.6008252528
 31
0.0
  0
LINE
  5
298
330
1F
100
AcDbEntity
  8
0
  6
Continuous
 62
     7
370
    15
100
AcDbLine
 10
165.6088440013
 20
172.7008284953
 30
0.0
 11
165.3688429189
 21
172.7008284953
 31
0.0
  0
LINE
  5
299
330
1F
100
AcDbEntity
  8
0
  6
Continuous
 62
     7
370
    15
100
AcDbLine
 10
165.3688429189
 20
172.7008284953
 30
0.0
 11
165.3688429189
 21
175.0008048442
 31
0.0
  0
LINE
  5
29A
330
1F
100
AcDbEntity
  8
0
  6
Continuous
 62
     7
370
    15
100
AcDbLine
 10
238.548844893
 20
148.1222422746
 30
0.0
 11
238.548844893
 21
148.1418998864
 31
0.0
  0
LINE
  5
29B
330
1F
100
AcDbEntity
  8
0
  6
Continuous
 62
     7
370
    15
100
AcDbLine
 10
238.548844893
 20
172.5994350341
 30
0.0
 11
238.548844893
 21
172.6737262633
 31
0.0
  0
LINE
  5
29C
330
1F
100
AcDbEntity
  8
0
  6
Continuous
 62
     7
370
    15
100
AcDbLine
 10
238.7888429952
 20
148.1222422746
 30
0.0
 11
238.7888429952
 21
148.1418998864
 31
0.0
  0
LINE
  5
29D
330
1F
100
AcDbEntity
  8
0
  6
Continuous
 62
     7
370
    15
100
AcDbLine
 10
238.7888429952
 20
172.5994350341
 30
0.0
 11
238.7888429952
 21
172.6737262633
 31
0.0
  0
LINE
  5
29E
330
1F
100
AcDbEntity
  8
0
  6
Continuous
 62
     7
370
    15
100
AcDbLine
 10
242.0888422322
 20
148.1222422746
 30
0.0
 11
242.0888422322
 21
148.1418998864
 31
0.0
  0
LINE
  5
29F
330
1F
100
AcDbEntity
  8
0
  6
Continuous
 62
     7
370
    15
100
AcDbLine
 10
172.2464738679
 20
148.1222422746
 30
0.0
 11
172.2464738679
 21
148.1418998864
 31
0.0
  0
LINE
  5
2A0
330
1F
100
AcDbEntity
  8
0
  6
Continuous
 62
     7
370
    15
100
AcDbLine
 10
172.2464738679
 20
172.5994350341
 30
0.0
 11
172.2464738679
 21
172.6737262633
 31
0.0
  0
LINE
  5
2A1
330
1F
100
AcDbEntity
  8
0
  6
Continuous
 62
     7
370
    15
100
AcDbLine
 10
172.0064727855
 20
148.1222422746
 30
0.0
 11
172.0064727855
 21
148.1418998864
 31
0.0
  0
LINE
  5
2A2
330
1F
100
AcDbEntity
  8
0
  6
Continuous
 62
     7
370
    15
100
AcDbLine
 10
172.0064727855
 20
172.5994350341
 30
0.0
 11
172.0064727855
 21
172.6737262633
 31
0.0
  0
LINE
  5
2A3
330
1F
100
AcDbEntity
  8
0
  6
Continuous
 62
     7
370
    15
100
AcDbLine
 10
168.7064735484
 20
148.1222422746
 30
0.0
 11
168.7064735484
 21
148.1418998864
 31
0.0
  0
LINE
  5
2A4
330
1F
100
AcDbEntity
  8
0
  6
Continuous
 62
     7
370
    15
100
AcDbLine
 10
186.4864720297
 20
122.9822424193
 30
0.0
 11
186.4864720297
 21
123.0622424696
 31
0.0
  0
LINE
  5
2A5
330
1F
100
AcDbEntity
  8
0
  6
Continuous
 62
     7
370
    15
100
AcDbLine
 10
186.4864720297
 20
122.9822424193
 30
0.0
 11
187.4864725661
 21
122.9822424193
 31
0.0
  0
LINE
  5
2A6
330
1F
100
AcDbEntity
  8
0
  6
Continuous
 62
     7
370
    15
100
AcDbLine
 10
224.486473043
 20
122.9822424193
 30
0.0
 11
224.486473043
 21
123.0622424696
 31
0.0
  0
LINE
  5
2A7
330
1F
100
AcDbEntity
  8
0
  6
Continuous
 62
     7
370
    15
100
AcDbLine
 10
223.4864725065
 20
122.9822424193
 30
0.0
 11
224.486473043
 21
122.9822424193
 31
0.0
  0
LINE
  5
2A8
330
1F
100
AcDbEntity
  8
0
  6
Continuous
 62
     7
370
    15
100
AcDbLine
 10
187.4864725661
 20
122.9822424193
 30
0.0
 11
223.4864725065
 21
122.9822424193
 31
0.0
  0
LINE
  5
2A9
330
1F
100
AcDbEntity
  8
0
  6
Continuous
 62
     7
370
    15
100
AcDbLine
 10
224.486473043
 20
122.9822424193
 30
0.0
 11
224.7864721608
 21
122.9822424193
 31
0.0
  0
LINE
  5
2AA
330
1F
100
AcDbEntity
  8
0
  6
Continuous
 62
     7
370
    15
100
AcDbLine
 10
186.1864729118
 20
122.9822424193
 30
0.0
 11
186.4864720297
 21
122.9822424193
 31
0.0
  0
LINE
  5
2AB
330
1F
100
AcDbEntity
  8
0
  6
Continuous
 62
     7
370
    15
100
AcDbLine
 10
172.4864719701
 20
172.5994350341
 30
0.0
 11
172.4864719701
 21
172.6737262633
 31
0.0
  0
LINE
  5
2AC
330
1F
100
AcDbEntity
  8
0
  6
Continuous
 62
     7
370
    15
100
AcDbLine
 10
238.426473577
 20
172.6737262633
 30
0.0
 11
238.426473577
 21
172.5994350341
 31
0.0
  0
LINE
  5
2AD
330
1F
100
AcDbEntity
  8
0
  6
Continuous
 62
     7
370
    15
100
AcDbLine
 10
238.1864724946
 20
172.6737262633
 30
0.0
 11
238.1864724946
 21
172.5994350341
 31
0.0
  0
LINE
  5
2AE
330
1F
100
AcDbEntity
  8
0
  6
Continuous
 62
     7
370
    15
100
AcDbLine
 10
172.4864719701
 20
148.1222422746
 30
0.0
 11
172.4864719701
 21
148.1418998864
 31
0.0
  0
LINE
  5
2AF
330
1F
100
AcDbEntity
  8
0
  6
Continuous
 62
     7
370
    15
100
AcDbLine
 10
238.1864724946
 20
148.1418998864
 30
0.0
 11
238.1864724946
 21
148.1222422746
 31
0.0
  0
LINE
  5
2B0
330
1F
100
AcDbEntity
  8
0
  6
Continuous
 62
     7
370
    15
100
AcDbLine
 10
238.426473577
 20
148.1418998864
 30
0.0
 11
238.426473577
 21
148.1222422746
 31
0.0
  0
LINE
  5
2B1
330
1F
100
AcDbEntity
  8
0
  6
Continuous
 62
     7
370
    15
100
AcDbLine
 10
221.958844204
 20
163.8004841235
 30
0.0
 11
221.9364730907
 21
163.5021837381
 31
0.0
  0
LINE
  5
2B2
330
1F
100
AcDbEntity
  8
0
  6
Continuous
 62
     7
370
    15
100
AcDbLine
 10
221.9364730907
 20
163.5021837381
 30
0.0
 11
221.9364730907
 21
161.8776055005
 31
0.0
  0
ARC
  5
2B3
330
1F
100
AcDbEntity
  8
0
  6
Continuous
 62
     7
370
    15
100
AcDbCircle
 10
219.9364727027
 20
167.9021832667
 30
0.0
 40
0.539999999999992
100
AcDbArc
 50
0.0
 51
69.9124790452
  0
ARC
  5
2B4
330
1F
100
AcDbEntity
  8
0
  6
Continuous
 62
     7
370
    15
100
AcDbCircle
 10
219.9364727027
 20
167.9021832667
 30
0.0
 40
0.539999999999992
100
AcDbArc
 50
110.0875209548
 51
0.0
  0
LINE
  5
2B5
330
1F
100
AcDbEntity
  8
0
  6
Continuous
 62
     7
370
    15
100
AcDbLine
 10
215.9364728522
 20
168.4093357947
 30
0.0
 11
215.9364728522
 21
161.4502968219
 31
0.0
  0
LINE
  5
2B6
330
1F
100
AcDbEntity
  8
0
  6
Continuous
 62
     7
370
    15
100
AcDbLine
 10
215.9364728522
 20
148.1222422746
 30
0.0
 11
215.9364728522
 21
148.1418998864
 31
0.0
  0
LINE
  5
2B7
330
1F
100
AcDbEntity
  8
0
  6
Continuous
 62
     7
370
    15
100
AcDbLine
 10
233.9364735675
 20
148.1418998864
 30
0.0
 11
233.9364735675
 21
148.1222422746
 31
0.0
  0
LINE
  5
2B8
330
1F
100
AcDbEntity
  8
0
  6
Continuous
 62
     7
370
    15
100
AcDbLine
 10
184.8864732575
 20
94.4222422269
 30
0.0
 11
173.4864739966
 21
94.4222422269
 31
0.0
  0
LINE
  5
2B9
330
1F
100
AcDbEntity
  8
0
  6
Continuous
 62
     7
370
    15
100
AcDbLine
 10
184.4864724469
 20
93.2222427753
 30
0.0
 11
173.886471827
 21
93.2222427753
 31
0.0
  0
LINE
  5
2BA
330
1F
100
AcDbEntity
  8
0
  6
Continuous
 62
     7
370
    15
100
AcDbLine
 10
237.0864717555
 20
93.2222427753
 30
0.0
 11
226.4864726257
 21
93.2222427753
 31
0.0
  0
LINE
  5
2BB
330
1F
100
AcDbEntity
  8
0
  6
Continuous
 62
     7
370
    15
100
AcDbLine
 10
237.4864725661
 20
94.4222422269
 30
0.0
 11
226.0864733052
 21
94.4222422269
 31
0.0
  0
LINE
  5
2BC
330
1F
100
AcDbEntity
  8
0
  6
Continuous
 62
     7
370
    15
100
AcDbLine
 10
186.1864729118
 20
122.8222424582
 30
0.0
 11
186.1864729118
 21
123.0622424696
 31
0.0
  0
LINE
  5
2BD
330
1F
100
AcDbEntity
  8
0
  6
Continuous
 62
     7
370
    15
100
AcDbLine
 10
172.1864728522
 20
122.8222424582
 30
0.0
 11
186.1864729118
 21
122.8222424582
 31
0.0
  0
LINE
  5
2BE
330
1F
100
AcDbEntity
  8
0
  6
Continuous
 62
     7
370
    15
100
AcDbLine
 10
172.1864728522
 20
122.8222424582
 30
0.0
 11
172.1864728522
 21
123.0622424696
 31
0.0
  0
LINE
  5
2BF
330
1F
100
AcDbEntity
  8
0
  6
Continuous
 62
     7
370
    15
100
AcDbLine
 10
185.3784023118
 20
104.0222423103
 30
0.0
 11
172.9945419622
 21
104.0222423103
 31
0.0
  0
LINE
  5
2C0
330
1F
100
AcDbEntity
  8
0
  6
Continuous
 62
     7
370
    15
100
AcDbLine
 10
224.7864721608
 20
122.8222424582
 30
0.0
 11
224.7864721608
 21
123.0622424696
 31
0.0
  0
LINE
  5
2C1
330
1F
100
AcDbEntity
  8
0
  6
Continuous
 62
     7
370
    15
100
AcDbLine
 10
238.7864737105
 20
122.8222424582
 30
0.0
 11
238.7864737105
 21
123.0622424696
 31
0.0
  0
LINE
  5
2C2
330
1F
100
AcDbEntity
  8
0
  6
Continuous
 62
     7
370
    15
100
AcDbLine
 10
224.7864721608
 20
122.8222424582
 30
0.0
 11
238.7864737105
 21
122.8222424582
 31
0.0
  0
LINE
  5
2C3
330
1F
100
AcDbEntity
  8
0
  6
Continuous
 62
     7
370
    15
100
AcDbLine
 10
237.9784016204
 20
104.0222423103
 30
0.0
 11
225.5945427609
 21
104.0222423103
 31
0.0
  0
SPLINE
  5
2C4
330
1F
100
AcDbEntity
  8
0
  6
Continuous
 62
     8
370
    15
100
AcDbSpline
210
0.0
220
0.0
230
1.0
 70
    11
 71
     3
 72
    31
 73
    27
 74
     0
 42
0.00000001
 43
0.00000001
 12
1.0
 22
0.0
 32
0.0
 13
1.0
 23
0.0
 33
0.0
 40
0.0
 40
0.0
 40
0.0
 40
0.0
 40
0.059864280879693
 40
0.0920902282951143
 40
0.1250000644492339
 40
0.1579099771816167
 40
0.1901358407945702
 40
0.2500000677118291
 40
0.3098642648033383
 40
0.3420901553767032
 40
0.3750000681090859
 40
0.4079099042632056
 40
0.4401358516786269
 40
0.5000001268692678
 40
0.559864163453872
 40
0.5920901108692934
 40
0.6249999470234131
 40
0.6579098597557957
 40
0.6901358620658714
 40
0.7500000591573805
 40
0.8098642860746395
 40
0.8420902614243971
 40
0.8750001741567799
 40
0.9079100103108995
 40
0.9401359577263209
 40
1.0
 40
1.0
 40
1.0
 40
1.0
 10
208.3464727070982
 20
135.9522419002678
 30
0.0
 10
208.3595634867632
 20
136.0755136228069
 30
0.0
 10
208.3797012528934
 20
136.2651445831081
 30
0.0
 10
208.5019049970613
 20
136.4933711288592
 30
0.0
 10
208.628385709113
 20
136.6501562072459
 30
0.0
 10
208.7853877967063
 20
136.777452245084
 30
0.0
 10
209.0135473421058
 20
136.8958288537388
 30
0.0
 10
209.3264806484376
 20
136.9559129740979
 30
0.0
 10
209.6393734422301
 20
136.8958287571512
 30
0.0
 10
209.8676022489689
 20
136.7774523022913
 30
0.0
 10
210.024386448626
 20
136.6501562016267
 30
0.0
 10
210.1516817041392
 20
136.4933711288985
 30
0.0
 10
210.2700604499258
 20
136.2651446001563
 30
0.0
 10
210.3301426864485
 20
135.9522423722935
 30
0.0
 10
210.2700602302514
 20
135.6393402424538
 30
0.0
 10
210.1516816896262
 20
135.4111141906293
 30
0.0
 10
210.0243865063411
 20
135.2543289740868
 30
0.0
 10
209.867601856342
 20
135.1270332693896
 30
0.0
 10
209.6393740732468
 20
135.0086542422138
 30
0.0
 10
209.3264806484308
 20
134.94857137598
 30
0.0
 10
209.0135467110798
 20
135.0086541455891
 30
0.0
 10
208.7853881894509
 20
135.1270333266689
 30
0.0
 10
208.6283856516377
 20
135.2543289681851
 30
0.0
 10
208.5019050107556
 20
135.4111141917147
 30
0.0
 10
208.3797014839109
 20
135.6393402543079
 30
0.0
 10
208.3595635667097
 20
135.8289706904204
 30
0.0
 10
208.3464727070982
 20
135.9522419002678
 30
0.0
  0
ARC
  5
2C5
330
1F
100
AcDbEntity
  8
0
  6
Continuous
 62
     8
370
    15
100
AcDbCircle
 10
220.3264727027
 20
135.9522424385
 30
0.0
 40
3.953067179040406
100
AcDbArc
 50
55.6616838633
 51
85.6476135288
  0
LWPOLYLINE
  5
2C6
330
1F
100
AcDbEntity
  8
0
  6
Continuous
 62
     8
370
    15
100
AcDbPolyline
 90
        9
 70
   128
 43
0.0
 10
222.5563122225
 20
139.2163740423
 10
222.5486351442
 20
139.2051355866
 10
222.5390000534
 20
139.1910316375
 10
222.5276066256
 20
139.1743542579
 10
222.5146888089
 20
139.1554446843
 10
222.5005118442
 20
139.134690347
 10
222.485367794
 20
139.1125218895
 10
222.4695666027
 20
139.089390817
 10
222.4534331155
 20
139.0657754567
  0
ARC
  5
2C7
330
1F
100
AcDbEntity
  8
0
  6
Continuous
 62
     8
370
    15
100
AcDbCircle
 10
220.3264727027
 20
135.9522424385
 30
0.0
 40
3.770682878005373
100
AcDbArc
 50
55.6616838633
 51
85.4366568804
  0
ARC
  5
2C8
330
1F
100
AcDbEntity
  8
0
  6
Continuous
 62
     8
370
    15
100
AcDbCircle
 10
220.3264727027
 20
135.9522424385
 30
0.0
 40
3.770682878005375
100
AcDbArc
 50
94.5633431196
 51
124.3383161367
  0
LWPOLYLINE
  5
2C9
330
1F
100
AcDbEntity
  8
0
  6
Continuous
 62
     8
370
    15
100
AcDbPolyline
 90
        9
 70
   128
 43
0.0
 10
218.1995122027
 20
139.0657754567
 10
218.1833794606
 20
139.089390817
 10
218.1675782692
 20
139.1125218895
 10
218.1524334741
 20
139.134690347
 10
218.1382565093
 20
139.1554446843
 10
218.1253386927
 20
139.1743542579
 10
218.1139452648
 20
139.1910316375
 10
218.1043109191
 20
139.2051355866
 10
218.0966330957
 20
139.2163740423
  0
ARC
  5
2CA
330
1F
100
AcDbEntity
  8
0
  6
Continuous
 62
     8
370
    15
100
AcDbCircle
 10
220.3264727027
 20
135.9522424385
 30
0.0
 40
3.953067179040422
100
AcDbArc
 50
94.3523864712
 51
124.3383161367
  0
ARC
  5
2CB
330
1F
100
AcDbEntity
  8
0
  6
Continuous
 62
     8
370
    15
100
AcDbCircle
 10
206.0869175513
 20
135.9522424385
 30
0.0
 40
12.50635971233602
100
AcDbArc
 50
345.584259106
 51
14.415740894
  0
LWPOLYLINE
  5
2CC
330
1F
100
AcDbEntity
  8
0
  6
Continuous
 62
     8
370
    15
100
AcDbPolyline
 90
        9
 70
   128
 43
0.0
 10
218.1995122027
 20
132.8387090889
 10
218.1621371102
 20
132.8483166125
 10
218.1261664522
 20
132.8575627831
 10
218.0929525089
 20
132.8661004034
 10
218.0637439978
 20
132.8736083534
 10
218.0396376443
 20
132.8798050013
 10
218.021539439
 20
132.8844571438
 10
218.0101303649
 20
132.8873896924
 10
218.0058388305
 20
132.8884931234
  0
ARC
  5
2CD
330
1F
100
AcDbEntity
  8
0
  6
Continuous
 62
     8
370
    15
100
AcDbCircle
 10
206.0869175513
 20
135.9522424385
 30
0.0
 40
12.30639017330473
100
AcDbArc
 50
345.584259106
 51
14.415740894
  0
LWPOLYLINE
  5
2CE
330
1F
100
AcDbEntity
  8
0
  6
Continuous
 62
     8
370
    15
100
AcDbPolyline
 90
        9
 70
   128
 43
0.0
 10
218.1995122027
 20
139.0657754567
 10
218.1621371102
 20
139.0561686781
 10
218.1261664522
 20
139.0469225076
 10
218.0929525089
 20
139.0383841422
 10
218.0637439978
 20
139.0308769372
 10
218.0396376443
 20
139.0246795443
 10
218.021539439
 20
139.0200274017
 10
218.0101303649
 20
139.0170948532
 10
218.0058388305
 20
139.0159921673
  0
ARC
  5
2CF
330
1F
100
AcDbEntity
  8
0
  6
Continuous
 62
     8
370
    15
100
AcDbCircle
 10
220.3264727027
 20
135.9522424385
 30
0.0
 40
3.953067179040422
100
AcDbArc
 50
235.6616838633
 51
304.3383161367
  0
LWPOLYLINE
  5
2D0
330
1F
100
AcDbEntity
  8
0
  6
Continuous
 62
     8
370
    15
100
AcDbPolyline
 90
        9
 70
   128
 43
0.0
 10
218.0966330957
 20
132.6881105033
 10
218.1043109191
 20
132.6993497041
 10
218.1139452648
 20
132.7134529081
 10
218.1253386927
 20
132.7301310328
 10
218.1382565093
 20
132.7490406063
 10
218.1524334741
 20
132.7697934535
 10
218.1675782692
 20
132.7919634011
 10
218.1833794606
 20
132.8150937286
 10
218.1995122027
 20
132.8387090889
  0
ARC
  5
2D1
330
1F
100
AcDbEntity
  8
0
  6
Continuous
 62
     8
370
    15
100
AcDbCircle
 10
220.3264727027
 20
135.9522424385
 30
0.0
 40
3.770682878005394
100
AcDbArc
 50
235.6616838633
 51
304.3383161367
  0
LWPOLYLINE
  5
2D2
330
1F
100
AcDbEntity
  8
0
  6
Continuous
 62
     8
370
    15
100
AcDbPolyline
 90
        9
 70
   128
 43
0.0
 10
222.5563122225
 20
132.6881105033
 10
222.5486351442
 20
132.6993497041
 10
222.5390000534
 20
132.7134529081
 10
222.5276066256
 20
132.7301310328
 10
222.5146888089
 20
132.7490406063
 10
222.5005118442
 20
132.7697934535
 10
222.485367794
 20
132.7919634011
 10
222.4695666027
 20
132.8150937286
 10
222.4534331155
 20
132.8387090889
  0
ARC
  5
2D3
330
1F
100
AcDbEntity
  8
0
  6
Continuous
 62
     8
370
    15
100
AcDbCircle
 10
234.566027854
 20
135.9522424385
 30
0.0
 40
12.50635971233602
100
AcDbArc
 50
165.584259106
 51
194.415740894
  0
ARC
  5
2D4
330
1F
100
AcDbEntity
  8
0
  6
Continuous
 62
     8
370
    15
100
AcDbCircle
 10
218.187189214
 20
139.0545818471
 30
0.0
 40
0.1854106927402191
100
AcDbArc
 50
119.2360162708
 51
192.0128360681
  0
ARC
  5
2D5
330
1F
100
AcDbEntity
  8
0
  6
Continuous
 62
     8
370
    15
100
AcDbCircle
 10
218.1871896274
 20
132.8499030293
 30
0.0
 40
0.1854111833350555
100
AcDbArc
 50
167.9870653153
 51
240.763922174
  0
LWPOLYLINE
  5
2D6
330
1F
100
AcDbEntity
  8
0
  6
Continuous
 62
     8
370
    15
100
AcDbPolyline
 90
        9
 70
   128
 43
0.0
 10
222.6471064878
 20
139.0159921673
 10
222.6428149533
 20
139.0170948532
 10
222.6314066243
 20
139.0200274017
 10
222.6133076739
 20
139.0246795443
 10
222.5892020655
 20
139.0308769372
 10
222.5599928093
 20
139.0383841422
 10
222.526778121
 20
139.0469225076
 10
222.490808208
 20
139.0561686781
 10
222.4534331155
 20
139.0657754567
  0
ARC
  5
2D7
330
1F
100
AcDbEntity
  8
0
  6
Continuous
 62
     8
370
    15
100
AcDbCircle
 10
222.4657564187
 20
139.0545819896
 30
0.0
 40
0.1854104148674147
100
AcDbArc
 50
347.9871006508
 51
60.7640470102
  0
ARC
  5
2D8
330
1F
100
AcDbEntity
  8
0
  6
Continuous
 62
     8
370
    15
100
AcDbCircle
 10
234.566027854
 20
135.9522424385
 30
0.0
 40
12.30639017330473
100
AcDbArc
 50
165.584259106
 51
194.415740894
  0
LWPOLYLINE
  5
2D9
330
1F
100
AcDbEntity
  8
0
  6
Continuous
 62
     8
370
    15
100
AcDbPolyline
 90
        9
 70
   128
 43
0.0
 10
222.6471064878
 20
132.8884931234
 10
222.6428149533
 20
132.8873896924
 10
222.6314066243
 20
132.8844571438
 10
222.6133076739
 20
132.8798050013
 10
222.5892020655
 20
132.8736083534
 10
222.5599928093
 20
132.8661004034
 10
222.526778121
 20
132.8575627831
 10
222.490808208
 20
132.8483166125
 10
222.4534331155
 20
132.8387090889
  0
ARC
  5
2DA
330
1F
100
AcDbEntity
  8
0
  6
Continuous
 62
     8
370
    15
100
AcDbCircle
 10
222.4657560052
 20
132.8499028868
 30
0.0
 40
0.1854109054669379
100
AcDbArc
 50
299.2360145461
 51
12.0129979645
  0
LINE
  5
2DB
330
1F
100
AcDbEntity
  8
0
  6
Continuous
 62
     8
370
    15
100
AcDbLine
 10
220.6264732671
 20
132.5522424606
 30
0.0
 11
220.4264728618
 21
132.5522424606
 31
0.0
  0
LINE
  5
2DC
330
1F
100
AcDbEntity
  8
0
  6
Continuous
 62
     8
370
    15
100
AcDbLine
 10
220.4264728618
 20
132.5522424606
 30
0.0
 11
220.4264728618
 21
139.5358459976
 31
0.0
  0
LINE
  5
2DD
330
1F
100
AcDbEntity
  8
0
  6
Continuous
 62
     8
370
    15
100
AcDbLine
 10
220.6264732671
 20
139.5358459976
 30
0.0
 11
220.4264728618
 21
139.5358459976
 31
0.0
  0
ARC
  5
2DE
330
1F
100
AcDbEntity
  8
0
  6
Continuous
 62
     8
370
    15
100
AcDbCircle
 10
220.3264727027
 20
132.5522424385
 30
0.0
 40
0.0999999999999943
100
AcDbArc
 50
180.0
 51
0.0
  0
LINE
  5
2DF
330
1F
100
AcDbEntity
  8
0
  6
Continuous
 62
     8
370
    15
100
AcDbLine
 10
220.2264724565
 20
132.5522424606
 30
0.0
 11
220.0264720511
 21
132.5522424606
 31
0.0
  0
LINE
  5
2E0
330
1F
100
AcDbEntity
  8
0
  6
Continuous
 62
     8
370
    15
100
AcDbLine
 10
220.2264724565
 20
139.5358459976
 30
0.0
 11
220.2264724565
 21
132.5522424606
 31
0.0
  0
LINE
  5
2E1
330
1F
100
AcDbEntity
  8
0
  6
Continuous
 62
     8
370
    15
100
AcDbLine
 10
220.2264724565
 20
139.5358459976
 30
0.0
 11
220.0264720511
 21
139.5358459976
 31
0.0
  0
LINE
  5
2E2
330
1F
100
AcDbEntity
  8
0
  6
Continuous
 62
     8
370
    15
100
AcDbLine
 10
220.2264724565
 20
139.5358459976
 30
0.0
 11
220.2264724565
 21
139.7140087512
 31
0.0
  0
LINE
  5
2E3
330
1F
100
AcDbEntity
  8
0
  6
Continuous
 62
     8
370
    15
100
AcDbLine
 10
220.4264728618
 20
139.7140087512
 30
0.0
 11
220.4264728618
 21
139.5358459976
 31
0.0
  0
LINE
  5
2E4
330
1F
100
AcDbEntity
  8
0
  6
Continuous
 62
     8
370
    15
100
AcDbLine
 10
218.0966330957
 20
132.6881105033
 30
0.0
 11
217.6018884671
 21
131.290737721
 31
0.0
  0
LINE
  5
2E5
330
1F
100
AcDbEntity
  8
0
  6
Continuous
 62
     8
370
    15
100
AcDbLine
 10
223.0510561061
 20
131.290737721
 30
0.0
 11
222.5563122225
 21
132.6881105033
 31
0.0
  0
SPLINE
  5
2E6
330
1F
100
AcDbEntity
  8
0
  6
Continuous
 62
     8
370
    15
100
AcDbSpline
210
0.0
220
0.0
230
1.0
 70
     8
 71
     3
 72
    10
 73
     6
 74
     0
 42
0.00000001
 43
0.00000001
 12
1.0
 22
0.0
 32
0.0
 13
1.0
 23
0.0
 33
0.0
 40
0.0
 40
0.0
 40
0.0
 40
0.0
 40
0.2857670643886847
 40
0.6445569009729524
 40
1.0
 40
1.0
 40
1.0
 40
1.0
 10
223.4985409569794
 20
131.217838260236
 30
0.0
 10
223.4353808805084
 20
131.2018283000008
 30
0.0
 10
223.2929212753664
 20
131.1657173143771
 30
0.0
 10
223.1253339772696
 20
131.1912907554715
 30
0.0
 10
223.0757379311198
 20
131.257692447056
 30
0.0
 10
223.051056106096
 20
131.2907377210285
 30
0.0
  0
SPLINE
  5
2E7
330
1F
100
AcDbEntity
  8
0
  6
Continuous
 62
     8
370
    15
100
AcDbSpline
210
0.0
220
0.0
230
1.0
 70
     8
 71
     3
 72
    10
 73
     6
 74
     0
 42
0.00000001
 43
0.00000001
 12
1.0
 22
0.0
 32
0.0
 13
1.0
 23
0.0
 33
0.0
 40
0.0
 40
0.0
 40
0.0
 40
0.0
 40
0.3554426241060137
 40
0.7142317445201888
 40
0.9999999999999999
 40
0.9999999999999999
 40
0.9999999999999999
 40
0.9999999999999999
 10
217.6018884670789
 20
131.2907377210285
 30
0.0
 10
217.5772068750253
 20
131.2576924372397
 30
0.0
 10
217.527611313451
 20
131.1912907479432
 30
0.0
 10
217.3600247402923
 20
131.1657173892022
 30
0.0
 10
217.2175642859022
 20
131.2018282849251
 30
0.0
 10
217.1544036161954
 20
131.217838260236
 30
0.0
  0
ARC
  5
2E8
330
1F
100
AcDbEntity
  8
0
  6
Continuous
 62
     8
370
    15
100
AcDbCircle
 10
217.6880445354
 20
131.4604138726
 30
0.0
 40
0.1902967801628294
100
AcDbArc
 50
161.5810934981
 51
243.0800112915
  0
LINE
  5
2E9
330
1F
100
AcDbEntity
  8
0
  6
Continuous
 62
     8
370
    15
100
AcDbLine
 10
217.5074963164
 20
131.5205404487
 30
0.0
 11
218.0058388305
 21
132.8884931234
 31
0.0
  0
SPLINE
  5
2EA
330
1F
100
AcDbEntity
  8
0
  6
Continuous
 62
     8
370
    15
100
AcDbSpline
210
0.0
220
0.0
230
1.0
 70
     8
 71
     3
 72
    10
 73
     6
 74
     0
 42
0.00000001
 43
0.00000001
 12
1.0
 22
0.0
 32
0.0
 13
1.0
 23
0.0
 33
0.0
 40
0.0
 40
0.0
 40
0.0
 40
0.0
 40
0.3554432168474553
 40
0.7142329101060978
 40
1.0
 40
1.0
 40
1.0
 40
1.0
 10
223.051056106096
 20
140.6137468245651
 30
0.0
 10
223.0757379160039
 20
140.646792389782
 30
0.0
 10
223.1253339135688
 20
140.7131946422158
 30
0.0
 10
223.2929213339118
 20
140.7387681915287
 30
0.0
 10
223.4353808865873
 20
140.702656543589
 30
0.0
 10
223.4985409569794
 20
140.6866462853577
 30
0.0
  0
LINE
  5
2EB
330
1F
100
AcDbEntity
  8
0
  6
Continuous
 62
     8
370
    15
100
AcDbLine
 10
222.5563122225
 20
139.2163740423
 30
0.0
 11
223.0510561061
 21
140.6137468246
 31
0.0
  0
LINE
  5
2EC
330
1F
100
AcDbEntity
  8
0
  6
Continuous
 62
     8
370
    15
100
AcDbLine
 10
217.6018884671
 20
140.6137468246
 30
0.0
 11
218.0966330957
 21
139.2163740423
 31
0.0
  0
SPLINE
  5
2ED
330
1F
100
AcDbEntity
  8
0
  6
Continuous
 62
     8
370
    15
100
AcDbSpline
210
0.0
220
0.0
230
1.0
 70
     8
 71
     3
 72
    10
 73
     6
 74
     0
 42
0.00000001
 43
0.00000001
 12
1.0
 22
0.0
 32
0.0
 13
1.0
 23
0.0
 33
0.0
 40
0.0
 40
0.0
 40
0.0
 40
0.0
 40
0.2857682809840089
 40
0.6445572580730926
 40
1.0
 40
1.0
 40
1.0
 40
1.0
 10
217.1544036161954
 20
140.6866462853577
 30
0.0
 10
217.2175642798234
 20
140.7026565586648
 30
0.0
 10
217.3600246817474
 20
140.7387681167018
 30
0.0
 10
217.5276113771515
 20
140.7131946497444
 30
0.0
 10
217.5772068901411
 20
140.6467923995986
 30
0.0
 10
217.6018884670789
 20
140.6137468245651
 30
0.0
  0
LINE
  5
2EE
330
1F
100
AcDbEntity
  8
0
  6
Continuous
 62
     8
370
    15
100
AcDbLine
 10
218.0058388305
 20
139.0159921673
 30
0.0
 11
217.5074963164
 21
140.3839440969
 31
0.0
  0
ARC
  5
2EF
330
1F
100
AcDbEntity
  8
0
  6
Continuous
 62
     8
370
    15
100
AcDbCircle
 10
217.6880441951
 20
140.4440708127
 30
0.0
 40
0.1902965014434848
100
AcDbArc
 50
116.9199164008
 51
198.4189788096
  0
LINE
  5
2F0
330
1F
100
AcDbEntity
  8
0
  6
Continuous
 62
     8
370
    15
100
AcDbLine
 10
222.6471064878
 20
132.8884931234
 30
0.0
 11
223.1454490018
 21
131.5205404487
 31
0.0
  0
ARC
  5
2F1
330
1F
100
AcDbEntity
  8
0
  6
Continuous
 62
     8
370
    15
100
AcDbCircle
 10
222.9649029196
 20
131.4604132743
 30
0.0
 40
0.1902949418775109
100
AcDbArc
 50
296.9192965996
 51
18.4192807204
  0
LINE
  5
2F2
330
1F
100
AcDbEntity
  8
0
  6
Continuous
 62
     8
370
    15
100
AcDbLine
 10
223.1454490018
 20
140.3839440969
 30
0.0
 11
222.6471064878
 21
139.0159921673
 31
0.0
  0
ARC
  5
2F3
330
1F
100
AcDbEntity
  8
0
  6
Continuous
 62
     8
370
    15
100
AcDbCircle
 10
222.9649032599
 20
140.4440714111
 30
0.0
 40
0.1902946631625165
100
AcDbArc
 50
341.580646971
 51
63.080775709
  0
ARC
  5
2F4
330
1F
100
AcDbEntity
  8
0
  6
Continuous
 62
     8
370
    15
100
AcDbCircle
 10
206.0869175513
 20
135.9522424385
 30
0.0
 40
12.25029025922442
100
AcDbArc
 50
338.7914906199
 51
21.2085093801
  0
ARC
  5
2F5
330
1F
100
AcDbEntity
  8
0
  6
Continuous
 62
     8
370
    15
100
AcDbCircle
 10
234.566027854
 20
135.9522424385
 30
0.0
 40
12.25029025922444
100
AcDbArc
 50
158.7914906199
 51
201.2085093801
  0
LINE
  5
2F6
330
1F
100
AcDbEntity
  8
0
  6
Continuous
 62
     8
370
    15
100
AcDbLine
 10
220.4264728618
 20
139.5358459976
 30
0.0
 11
220.2264724565
 21
139.5358459976
 31
0.0
  0
LINE
  5
2F7
330
1F
100
AcDbEntity
  8
0
  6
Continuous
 62
     8
370
    15
100
AcDbLine
 10
220.2264724565
 20
139.7140087512
 30
0.0
 11
220.4264728618
 21
139.7140087512
 31
0.0
  0
SPLINE
  5
2F8
330
1F
100
AcDbEntity
  8
0
  6
Continuous
 62
     8
370
    15
100
AcDbSpline
210
0.0
220
0.0
230
1.0
 70
     8
 71
     3
 72
     9
 73
     5
 74
     0
 42
0.00000001
 43
0.00000001
 12
1.0
 22
0.0
 32
0.0
 13
1.0
 23
0.0
 33
0.0
 40
0.0
 40
0.0
 40
0.0
 40
0.0
 40
0.5599883361469158
 40
1.0
 40
1.0
 40
1.0
 40
1.0
 10
220.0264720511491
 20
139.9433584836151
 30
0.0
 10
220.0725732172521
 20
140.2427589093579
 30
0.0
 10
220.1548984428456
 20
140.7774136627102
 30
0.0
 10
220.2372241123207
 20
141.3099696522227
 30
0.0
 10
220.2734483671242
 20
141.544300499263
 30
0.0
  0
SPLINE
  5
2F9
330
1F
100
AcDbEntity
  8
0
  6
Continuous
 62
     8
370
    15
100
AcDbSpline
210
0.0
220
0.0
230
1.0
 70
     8
 71
     3
 72
    13
 73
     9
 74
     0
 42
0.00000001
 43
0.00000001
 12
1.0
 22
0.0
 32
0.0
 13
1.0
 23
0.0
 33
0.0
 40
0.0
 40
0.0
 40
0.0
 40
0.0
 40
0.2395082434739509
 40
0.3683902657048681
 40
0.5000019247271041
 40
0.6316351170707722
 40
0.760516737719283
 40
0.9999999999999999
 40
0.9999999999999999
 40
0.9999999999999999
 40
0.9999999999999999
 10
220.3234074902589
 20
141.4983781006958
 30
0.0
 10
220.3171340907259
 20
141.4991551325659
 30
0.0
 10
220.307484905849
 20
141.5003502938386
 30
0.0
 10
220.2958718131476
 20
141.5062338711522
 30
0.0
 10
220.2878760742818
 20
141.5122009359866
 30
0.0
 10
220.2814293420206
 20
141.5195077533056
 30
0.0
 10
220.2751853452846
 20
141.5300425187564
 30
0.0
 10
220.2741327110671
 20
141.5386830638687
 30
0.0
 10
220.2734483671242
 20
141.544300499263
 30
0.0
  0
SPLINE
  5
2FA
330
1F
100
AcDbEntity
  8
0
  6
Continuous
 62
     8
370
    15
100
AcDbSpline
210
0.0
220
0.0
230
1.0
 70
     8
 71
     3
 72
    10
 73
     6
 74
     0
 42
0.00000001
 43
0.00000001
 12
1.0
 22
0.0
 32
0.0
 13
1.0
 23
0.0
 33
0.0
 40
0.0
 40
0.0
 40
0.0
 40
0.0
 40
0.2799062221193424
 40
0.5601542894827224
 40
1.0
 40
1.0
 40
1.0
 40
1.0
 10
220.3234074902589
 20
141.4983781006958
 30
0.0
 10
220.307869197567
 20
141.332222255929
 30
0.0
 10
220.2767736355009
 20
140.9997076427703
 30
0.0
 10
220.2890159826501
 20
140.405476111599
 30
0.0
 10
220.2461416071405
 20
139.9780502170876
 30
0.0
 10
220.2199531984383
 20
139.7169711020615
 30
0.0
  0
SPLINE
  5
2FB
330
1F
100
AcDbEntity
  8
0
  6
Continuous
 62
     8
370
    15
100
AcDbSpline
210
0.0
220
0.0
230
1.0
 70
     8
 71
     3
 72
     9
 73
     5
 74
     0
 42
0.00000001
 43
0.00000001
 12
1.0
 22
0.0
 32
0.0
 13
1.0
 23
0.0
 33
0.0
 40
0.0
 40
0.0
 40
0.0
 40
0.0
 40
0.5599643854314119
 40
1.0
 40
1.0
 40
1.0
 40
1.0
 10
220.4329921197945
 20
139.7169711020615
 30
0.0
 10
220.4116944322163
 20
140.04945541174
 30
0.0
 10
220.3736604283898
 20
140.6432151549109
 30
0.0
 10
220.3430204914539
 20
141.2370636244441
 30
0.0
 10
220.329537827974
 20
141.4983781006958
 30
0.0
  0
SPLINE
  5
2FC
330
1F
100
AcDbEntity
  8
0
  6
Continuous
 62
     8
370
    15
100
AcDbSpline
210
0.0
220
0.0
230
1.0
 70
     8
 71
     3
 72
    13
 73
     9
 74
     0
 42
0.00000001
 43
0.00000001
 12
1.0
 22
0.0
 32
0.0
 13
1.0
 23
0.0
 33
0.0
 40
0.0
 40
0.0
 40
0.0
 40
0.0
 40
0.239483262280717
 40
0.3683648829292278
 40
0.4999980752728959
 40
0.6316097342951318
 40
0.760491756526049
 40
0.9999999999999999
 40
0.9999999999999999
 40
0.9999999999999999
 40
0.9999999999999999
 10
220.3794969511086
 20
141.544300499263
 30
0.0
 10
220.3788126071658
 20
141.5386830638687
 30
0.0
 10
220.3777599729483
 20
141.5300425187564
 30
0.0
 10
220.3715159762123
 20
141.5195077533056
 30
0.0
 10
220.365069243951
 20
141.5122009359866
 30
0.0
 10
220.3570735050853
 20
141.5062338711522
 30
0.0
 10
220.3454604123839
 20
141.5003502938386
 30
0.0
 10
220.335811227507
 20
141.4991551325659
 30
0.0
 10
220.329537827974
 20
141.4983781006958
 30
0.0
  0
SPLINE
  5
2FD
330
1F
100
AcDbEntity
  8
0
  6
Continuous
 62
     8
370
    15
100
AcDbSpline
210
0.0
220
0.0
230
1.0
 70
     8
 71
     3
 72
    10
 73
     6
 74
     0
 42
0.00000001
 43
0.00000001
 12
1.0
 22
0.0
 32
0.0
 13
1.0
 23
0.0
 33
0.0
 40
0.0
 40
0.0
 40
0.0
 40
0.0
 40
0.2798937747622305
 40
0.5601317572385283
 40
1.0
 40
1.0
 40
1.0
 40
1.0
 10
220.3794969511086
 20
141.544300499263
 30
0.0
 10
220.40253723773
 20
141.3892568250282
 30
0.0
 10
220.4486461454522
 20
141.0789788069778
 30
0.0
 10
220.5309830365082
 20
140.5848558880623
 30
0.0
 10
220.5902628839392
 20
140.1866175757889
 30
0.0
 10
220.6264732670838
 20
139.9433584836151
 30
0.0
  0
LINE
  5
2FE
330
1F
100
AcDbEntity
  8
0
  6
Continuous
 62
     8
370
    15
100
AcDbLine
 10
220.3794969511
 20
141.591803911
 30
0.0
 11
220.3794969511
 21
141.5443004993
 31
0.0
  0
LINE
  5
2FF
330
1F
100
AcDbEntity
  8
0
  6
Continuous
 62
     8
370
    15
100
AcDbLine
 10
220.329537828
 20
141.4983781007
 30
0.0
 11
220.3234074903
 21
141.4983781007
 31
0.0
  0
SPLINE
  5
300
330
1F
100
AcDbEntity
  8
0
  6
Continuous
 62
     8
370
    15
100
AcDbSpline
210
0.0
220
0.0
230
1.0
 70
     8
 71
     3
 72
    11
 73
     7
 74
     0
 42
0.00000001
 43
0.00000001
 12
1.0
 22
0.0
 32
0.0
 13
1.0
 23
0.0
 33
0.0
 40
0.0
 40
0.0
 40
0.0
 40
0.0
 40
0.2357990799231435
 40
0.2749082803011621
 40
0.6342580482940866
 40
1.0
 40
1.0
 40
1.0
 40
1.0
 10
223.4932406139428
 20
140.495468857589
 30
0.0
 10
223.4526404937473
 20
140.5041387855286
 30
0.0
 10
223.4053065125181
 20
140.5142466917214
 30
0.0
 10
223.3095799917421
 20
140.5124321627051
 30
0.0
 10
223.2093453926882
 20
140.4845227950726
 30
0.0
 10
223.1668726077255
 20
140.4176667902026
 30
0.0
 10
223.1454490017945
 20
140.3839440968659
 30
0.0
  0
SPLINE
  5
301
330
1F
100
AcDbEntity
  8
0
  6
Continuous
 62
     8
370
    15
100
AcDbSpline
210
0.0
220
0.0
230
1.0
 70
     8
 71
     3
 72
    11
 73
     7
 74
     0
 42
0.00000001
 43
0.00000001
 12
1.0
 22
0.0
 32
0.0
 13
1.0
 23
0.0
 33
0.0
 40
0.0
 40
0.0
 40
0.0
 40
0.0
 40
0.365823284883828
 40
0.7252535970491424
 40
0.9820630570187968
 40
1.0
 40
1.0
 40
1.0
 40
1.0
 10
223.1454490017945
 20
131.5205404487278
 30
0.0
 10
223.1669620601843
 20
131.486865168581
 30
0.0
 10
223.2096122238713
 20
131.4201031032142
 30
0.0
 10
223.3372055179655
 20
131.3836194462077
 30
0.0
 10
223.4421376490909
 20
131.3947216827814
 30
0.0
 10
223.4901087959577
 20
131.4081396875071
 30
0.0
 10
223.4932406139428
 20
131.4090156880047
 30
0.0
  0
SPLINE
  5
302
330
1F
100
AcDbEntity
  8
0
  6
Continuous
 62
     8
370
    15
100
AcDbSpline
210
0.0
220
0.0
230
1.0
 70
     8
 71
     3
 72
    11
 73
     7
 74
     0
 42
0.00000001
 43
0.00000001
 12
1.0
 22
0.0
 32
0.0
 13
1.0
 23
0.0
 33
0.0
 40
0.0
 40
0.0
 40
0.0
 40
0.0
 40
0.2357982823906335
 40
0.274907510956384
 40
0.6342585098692489
 40
1.0
 40
1.0
 40
1.0
 40
1.0
 10
217.1597054493481
 20
131.4090156880047
 30
0.0
 10
217.2003052802911
 20
131.4003468020539
 30
0.0
 10
217.2476389519219
 20
131.3902401047729
 30
0.0
 10
217.3433654650058
 20
131.3920499922439
 30
0.0
 10
217.4436008362349
 20
131.4199637671223
 30
0.0
 10
217.4860730489308
 20
131.4868184836029
 30
0.0
 10
217.5074963164384
 20
131.5205404487278
 30
0.0
  0
SPLINE
  5
303
330
1F
100
AcDbEntity
  8
0
  6
Continuous
 62
     8
370
    15
100
AcDbSpline
210
0.0
220
0.0
230
1.0
 70
     8
 71
     3
 72
    11
 73
     7
 74
     0
 42
0.00000001
 43
0.00000001
 12
1.0
 22
0.0
 32
0.0
 13
1.0
 23
0.0
 33
0.0
 40
0.0
 40
0.0
 40
0.0
 40
0.0
 40
0.3658235159958492
 40
0.7252544750788096
 40
0.9820649349214156
 40
1.0
 40
1.0
 40
1.0
 40
1.0
 10
217.5074963164384
 20
140.3839440968659
 30
0.0
 10
217.4859834838036
 20
140.4176198717788
 30
0.0
 10
217.4433337429919
 20
140.4843829566802
 30
0.0
 10
217.3157412119423
 20
140.5208640230541
 30
0.0
 10
217.2108050628507
 20
140.5097642412521
 30
0.0
 10
217.1628367635691
 20
140.4963448590906
 30
0.0
 10
217.1597054493481
 20
140.495468857589
 30
0.0
  0
ARC
  5
304
330
1F
100
AcDbEntity
  8
0
  6
Continuous
 62
     8
370
    15
100
AcDbCircle
 10
234.566027854
 20
135.9522424385
 30
0.0
 40
11.65038164213059
100
AcDbArc
 50
157.9534745004
 51
202.0465254996
  0
SPLINE
  5
305
330
1F
100
AcDbEntity
  8
0
  6
Continuous
 62
     8
370
    15
100
AcDbSpline
210
0.0
220
0.0
230
1.0
 70
     8
 71
     3
 72
     9
 73
     5
 74
     0
 42
0.00000001
 43
0.00000001
 12
1.0
 22
0.0
 32
0.0
 13
1.0
 23
0.0
 33
0.0
 40
0.0
 40
0.0
 40
0.0
 40
0.0
 40
0.46843788971871
 40
1.0
 40
1.0
 40
1.0
 40
1.0
 10
223.4932406139428
 20
131.4090156880047
 30
0.0
 10
223.5376251055874
 20
131.426818528617
 30
0.0
 10
223.6323751089897
 20
131.4648232267914
 30
0.0
 10
223.7206210628254
 20
131.5394784656247
 30
0.0
 10
223.7675292682702
 20
131.5791623619225
 30
0.0
  0
SPLINE
  5
306
330
1F
100
AcDbEntity
  8
0
  6
Continuous
 62
     8
370
    15
100
AcDbSpline
210
0.0
220
0.0
230
1.0
 70
     8
 71
     3
 72
     9
 73
     5
 74
     0
 42
0.00000001
 43
0.00000001
 12
1.0
 22
0.0
 32
0.0
 13
1.0
 23
0.0
 33
0.0
 40
0.0
 40
0.0
 40
0.0
 40
0.0
 40
0.5315614952682782
 40
1.0
 40
1.0
 40
1.0
 40
1.0
 10
223.7675292682702
 20
140.3253229287293
 30
0.0
 10
223.7206210294086
 20
140.3650065219315
 30
0.0
 10
223.6323749106076
 20
140.439661276942
 30
0.0
 10
223.5376250819859
 20
140.4776659877059
 30
0.0
 10
223.4932406139428
 20
140.495468857589
 30
0.0
  0
ARC
  5
307
330
1F
100
AcDbEntity
  8
0
  6
Continuous
 62
     8
370
    15
100
AcDbCircle
 10
206.0869175513
 20
135.9522424385
 30
0.0
 40
11.65038164213056
100
AcDbArc
 50
337.9534745004
 51
22.0465254996
  0
SPLINE
  5
308
330
1F
100
AcDbEntity
  8
0
  6
Continuous
 62
     8
370
    15
100
AcDbSpline
210
0.0
220
0.0
230
1.0
 70
     8
 71
     3
 72
     9
 73
     5
 74
     0
 42
0.00000001
 43
0.00000001
 12
1.0
 22
0.0
 32
0.0
 13
1.0
 23
0.0
 33
0.0
 40
0.0
 40
0.0
 40
0.0
 40
0.0
 40
0.4684394644595248
 40
1.0
 40
1.0
 40
1.0
 40
1.0
 10
217.1597054493481
 20
140.495468857589
 30
0.0
 10
217.1153207116136
 20
140.4776660220222
 30
0.0
 10
217.02057050139
 20
140.439661462378
 30
0.0
 10
216.9323242660692
 20
140.3650065395098
 30
0.0
 10
216.8854160499627
 20
140.3253229287293
 30
0.0
  0
SPLINE
  5
309
330
1F
100
AcDbEntity
  8
0
  6
Continuous
 62
     8
370
    15
100
AcDbSpline
210
0.0
220
0.0
230
1.0
 70
     8
 71
     3
 72
     9
 73
     5
 74
     0
 42
0.00000001
 43
0.00000001
 12
1.0
 22
0.0
 32
0.0
 13
1.0
 23
0.0
 33
0.0
 40
0.0
 40
0.0
 40
0.0
 40
0.0
 40
0.5315611505536365
 40
0.9999999999999999
 40
0.9999999999999999
 40
0.9999999999999999
 40
0.9999999999999999
 10
216.8854160499627
 20
131.5791623619225
 30
0.0
 10
216.9323242326524
 20
131.5394784480464
 30
0.0
 10
217.0205703030073
 20
131.4648230413548
 30
0.0
 10
217.115320688012
 20
131.4268184943005
 30
0.0
 10
217.1597054493481
 20
131.4090156880047
 30
0.0
  0
SPLINE
  5
30A
330
1F
100
AcDbEntity
  8
0
  6
Continuous
 62
     8
370
    15
100
AcDbSpline
210
0.0
220
0.0
230
1.0
 70
     8
 71
     3
 72
    11
 73
     7
 74
     0
 42
0.00000001
 43
0.00000001
 12
1.0
 22
0.0
 32
0.0
 13
1.0
 23
0.0
 33
0.0
 40
0.0
 40
0.0
 40
0.0
 40
0.0
 40
0.2499682280175929
 40
0.4999828840205057
 40
0.750002306581366
 40
1.0
 40
1.0
 40
1.0
 40
1.0
 10
220.3794969511086
 20
141.544300499263
 30
0.0
 10
220.3784030542178
 20
141.5468502771062
 30
0.0
 10
220.3762150572607
 20
141.5519503063769
 30
0.0
 10
220.3645295402875
 20
141.5582379409685
 30
0.0
 10
220.3484484325226
 20
141.5626015116529
 30
0.0
 10
220.3358838974808
 20
141.5631582255941
 30
0.0
 10
220.3296019029671
 20
141.5634365704682
 30
0.0
  0
LINE
  5
30B
330
1F
100
AcDbEntity
  8
0
  6
Continuous
 62
     8
370
    15
100
AcDbLine
 10
220.329601903
 20
141.5634365705
 30
0.0
 11
220.329601903
 21
141.6112052229
 31
0.0
  0
LINE
  5
30C
330
1F
100
AcDbEntity
  8
0
  6
Continuous
 62
     8
370
    15
100
AcDbLine
 10
220.3233434153
 20
141.6112052229
 30
0.0
 11
220.3233434153
 21
141.5634365705
 31
0.0
  0
SPLINE
  5
30D
330
1F
100
AcDbEntity
  8
0
  6
Continuous
 62
     8
370
    15
100
AcDbSpline
210
0.0
220
0.0
230
1.0
 70
     8
 71
     3
 72
    11
 73
     7
 74
     0
 42
0.00000001
 43
0.00000001
 12
1.0
 22
0.0
 32
0.0
 13
1.0
 23
0.0
 33
0.0
 40
0.0
 40
0.0
 40
0.0
 40
0.0
 40
0.249997693418634
 40
0.5000171159794943
 40
0.7500317719824071
 40
1.0
 40
1.0
 40
1.0
 40
1.0
 10
220.3233434152657
 20
141.5634365704682
 30
0.0
 10
220.3170614207521
 20
141.5631582255941
 30
0.0
 10
220.3044968857103
 20
141.5626015116529
 30
0.0
 10
220.2884157779453
 20
141.5582379409685
 30
0.0
 10
220.2767302609722
 20
141.5519503063769
 30
0.0
 10
220.2745422640151
 20
141.5468502771062
 30
0.0
 10
220.2734483671242
 20
141.544300499263
 30
0.0
  0
LWPOLYLINE
  5
30E
330
1F
100
AcDbEntity
  8
0
  6
Continuous
 62
     8
370
    15
100
AcDbPolyline
 90
        9
 70
   128
 43
0.0
 10
216.88541605
 20
131.5791623619
 10
216.8670824063
 20
131.5558629063
 10
216.8491540742
 20
131.5330790308
 10
216.8320266795
 20
131.5113129047
 10
216.8160787118
 20
131.4910458353
 10
216.8016633284
 20
131.4727256027
 10
216.7890986693
 20
131.4567575184
 10
216.7786626411
 20
131.4434947398
 10
216.7705847216
 20
131.4332293299
  0
SPLINE
  5
30F
330
1F
100
AcDbEntity
  8
0
  6
Continuous
 62
     8
370
    15
100
AcDbSpline
210
0.0
220
0.0
230
1.0
 70
     8
 71
     3
 72
     9
 73
     5
 74
     0
 42
0.00000001
 43
0.00000001
 12
1.0
 22
0.0
 32
0.0
 13
1.0
 23
0.0
 33
0.0
 40
0.0
 40
0.0
 40
0.0
 40
0.0
 40
0.4790246497944414
 40
1.0
 40
1.0
 40
1.0
 40
1.0
 10
217.1605890882069
 20
131.2122868326332
 30
0.0
 10
217.0978416673196
 20
131.2377470808874
 30
0.0
 10
216.9668517048733
 20
131.2908972648396
 30
0.0
 10
216.8378114917784
 20
131.3844767334535
 30
0.0
 10
216.7705847215707
 20
131.4332293298867
 30
0.0
  0
LWPOLYLINE
  5
310
330
1F
100
AcDbEntity
  8
0
  6
Continuous
 62
     8
370
    15
100
AcDbPolyline
 90
        9
 70
   128
 43
0.0
 10
216.88541605
 20
140.3253229287
 10
216.8670824063
 20
140.3486208943
 10
216.8491540742
 20
140.3714062598
 10
216.8320266795
 20
140.393172386
 10
216.8160787118
 20
140.4134394553
 10
216.8016633284
 20
140.4317589429
 10
216.7890986693
 20
140.4477270272
 10
216.7786626411
 20
140.4609905508
 10
216.7705847216
 20
140.4712559608
  0
SPLINE
  5
311
330
1F
100
AcDbEntity
  8
0
  6
Continuous
 62
     8
370
    15
100
AcDbSpline
210
0.0
220
0.0
230
1.0
 70
     8
 71
     3
 72
     9
 73
     5
 74
     0
 42
0.00000001
 43
0.00000001
 12
1.0
 22
0.0
 32
0.0
 13
1.0
 23
0.0
 33
0.0
 40
0.0
 40
0.0
 40
0.0
 40
0.0
 40
0.5209753502055585
 40
1.0
 40
1.0
 40
1.0
 40
1.0
 10
216.7705847215707
 20
140.4712559607651
 30
0.0
 10
216.8378114917784
 20
140.5200085571983
 30
0.0
 10
216.9668517048733
 20
140.6135880258121
 30
0.0
 10
217.0978416673196
 20
140.6667382097643
 30
0.0
 10
217.1605890882069
 20
140.6921984580185
 30
0.0
  0
LWPOLYLINE
  5
312
330
1F
100
AcDbEntity
  8
0
  6
Continuous
 62
     8
370
    15
100
AcDbPolyline
 90
        9
 70
   128
 43
0.0
 10
223.8823605967
 20
140.4712559608
 10
223.8742826772
 20
140.4609905508
 10
223.8638459039
 20
140.4477270272
 10
223.8512812448
 20
140.4317589429
 10
223.8368658614
 20
140.4134394553
 10
223.8209186387
 20
140.393172386
 10
223.803791244
 20
140.3714062598
 10
223.785863657
 20
140.3486208943
 10
223.7675292683
 20
140.3253229287
  0
SPLINE
  5
313
330
1F
100
AcDbEntity
  8
0
  6
Continuous
 62
     8
370
    15
100
AcDbSpline
210
0.0
220
0.0
230
1.0
 70
     8
 71
     3
 72
     9
 73
     5
 74
     0
 42
0.00000001
 43
0.00000001
 12
1.0
 22
0.0
 32
0.0
 13
1.0
 23
0.0
 33
0.0
 40
0.0
 40
0.0
 40
0.0
 40
0.0
 40
0.4790252728369919
 40
1.0
 40
1.0
 40
1.0
 40
1.0
 10
223.492356975084
 20
140.6921984580185
 30
0.0
 10
223.5551044138004
 20
140.66673823858
 30
0.0
 10
223.6860942430942
 20
140.6135881839122
 30
0.0
 10
223.8151340950147
 20
140.5200085730185
 30
0.0
 10
223.8823605966622
 20
140.4712559607651
 30
0.0
  0
SPLINE
  5
314
330
1F
100
AcDbEntity
  8
0
  6
Continuous
 62
     8
370
    15
100
AcDbSpline
210
0.0
220
0.0
230
1.0
 70
     8
 71
     3
 72
     9
 73
     5
 74
     0
 42
0.00000001
 43
0.00000001
 12
1.0
 22
0.0
 32
0.0
 13
1.0
 23
0.0
 33
0.0
 40
0.0
 40
0.0
 40
0.0
 40
0.0
 40
0.5209747271630081
 40
1.0
 40
1.0
 40
1.0
 40
1.0
 10
223.8823605966622
 20
131.4332293298867
 30
0.0
 10
223.8151340950147
 20
131.3844767176332
 30
0.0
 10
223.6860942430942
 20
131.2908971067395
 30
0.0
 10
223.5551044138004
 20
131.2377470520717
 30
0.0
 10
223.492356975084
 20
131.2122868326332
 30
0.0
  0
LWPOLYLINE
  5
315
330
1F
100
AcDbEntity
  8
0
  6
Continuous
 62
     8
370
    15
100
AcDbPolyline
 90
        9
 70
   128
 43
0.0
 10
223.8823605967
 20
131.4332293299
 10
223.8742826772
 20
131.4434947398
 10
223.8638459039
 20
131.4567575184
 10
223.8512812448
 20
131.4727256027
 10
223.8368658614
 20
131.4910458353
 10
223.8209186387
 20
131.5113129047
 10
223.803791244
 20
131.5330790308
 10
223.785863657
 20
131.5558629063
 10
223.7675292683
 20
131.5791623619
  0
SPLINE
  5
316
330
1F
100
AcDbEntity
  8
0
  6
Continuous
 62
     8
370
    15
100
AcDbSpline
210
0.0
220
0.0
230
1.0
 70
     8
 71
     3
 72
    11
 73
     7
 74
     0
 42
0.00000001
 43
0.00000001
 12
1.0
 22
0.0
 32
0.0
 13
1.0
 23
0.0
 33
0.0
 40
0.0
 40
0.0
 40
0.0
 40
0.0
 40
0.2500029437576004
 40
0.4999821726396759
 40
0.7499717797733725
 40
1.0
 40
1.0
 40
1.0
 40
1.0
 10
220.3296019029671
 20
141.5634365704682
 30
0.0
 10
220.3295964836992
 20
141.5573582213156
 30
0.0
 10
220.3295856456773
 20
141.5452020995928
 30
0.0
 10
220.3295685879135
 20
141.5259696706404
 30
0.0
 10
220.3295547234715
 20
141.5089132648556
 30
0.0
 10
220.3295434600964
 20
141.5018900028692
 30
0.0
 10
220.329537827974
 20
141.4983781006958
 30
0.0
  0
SPLINE
  5
317
330
1F
100
AcDbEntity
  8
0
  6
Continuous
 62
     8
370
    15
100
AcDbSpline
210
0.0
220
0.0
230
1.0
 70
     8
 71
     3
 72
    11
 73
     7
 74
     0
 42
0.00000001
 43
0.00000001
 12
1.0
 22
0.0
 32
0.0
 13
1.0
 23
0.0
 33
0.0
 40
0.0
 40
0.0
 40
0.0
 40
0.0
 40
0.2500029437576004
 40
0.4999821726396759
 40
0.7499717797733725
 40
1.0
 40
1.0
 40
1.0
 40
1.0
 10
220.3233434152657
 20
141.5634365704682
 30
0.0
 10
220.3233488345337
 20
141.5573582213156
 30
0.0
 10
220.3233596725555
 20
141.5452020995928
 30
0.0
 10
220.3233767303193
 20
141.5259696706404
 30
0.0
 10
220.3233905947614
 20
141.5089132648556
 30
0.0
 10
220.3234018581364
 20
141.5018900028692
 30
0.0
 10
220.3234074902589
 20
141.4983781006958
 30
0.0
  0
LINE
  5
318
330
1F
100
AcDbEntity
  8
0
  6
Continuous
 62
     8
370
    15
100
AcDbLine
 10
220.3233434153
 20
141.5634365705
 30
0.0
 11
220.329601903
 21
141.5634365705
 31
0.0
  0
ARC
  5
319
330
1F
100
AcDbEntity
  8
0
  6
Continuous
 62
     8
370
    15
100
AcDbCircle
 10
220.3264727027
 20
135.9522424385
 30
0.0
 40
5.750288745891664
100
AcDbArc
 50
308.1982390097
 51
51.8017609903
  0
ARC
  5
31A
330
1F
100
AcDbEntity
  8
0
  6
Continuous
 62
     8
370
    15
100
AcDbCircle
 10
220.3264727027
 20
135.9522424385
 30
0.0
 40
5.750288745891718
100
AcDbArc
 50
128.1982390097
 51
231.8017609903
  0
ARC
  5
31B
330
1F
100
AcDbEntity
  8
0
  6
Continuous
 62
     8
370
    15
100
AcDbCircle
 10
220.3264727027
 20
135.9522424385
 30
0.0
 40
5.564593407714634
100
AcDbArc
 50
128.1982390097
 51
231.8017609903
  0
ARC
  5
31C
330
1F
100
AcDbEntity
  8
0
  6
Continuous
 62
     8
370
    15
100
AcDbCircle
 10
220.3264727027
 20
135.9522424385
 30
0.0
 40
5.564593407714598
100
AcDbArc
 50
308.1982390097
 51
51.8017609903
  0
LINE
  5
31D
330
1F
100
AcDbEntity
  8
0
  6
Continuous
 62
     8
370
    15
100
AcDbLine
 10
221.958844204
 20
163.0650194314
 30
0.0
 11
221.9364730907
 21
163.0650194314
 31
0.0
  0
LINE
  5
31E
330
1F
100
AcDbEntity
  8
0
  6
Continuous
 62
     8
370
    15
100
AcDbLine
 10
245.0764714074
 20
147.7122427848
 30
0.0
 11
165.8964721751
 21
147.7122427848
 31
0.0
  0
LINE
  5
31F
330
1F
100
AcDbEntity
  8
0
  6
Continuous
 62
     8
370
    15
100
AcDbLine
 10
245.0764714074
 20
123.4722424251
 30
0.0
 11
245.0764714074
 21
147.7122427848
 31
0.0
  0
LINE
  5
320
330
1F
100
AcDbEntity
  8
0
  6
Continuous
 62
     8
370
    15
100
AcDbLine
 10
165.8964721751
 20
123.4722424251
 30
0.0
 11
245.0764714074
 21
123.4722424251
 31
0.0
  0
LINE
  5
321
330
1F
100
AcDbEntity
  8
0
  6
Continuous
 62
     8
370
    15
100
AcDbLine
 10
165.8964721751
 20
147.7122427848
 30
0.0
 11
165.8964721751
 21
123.4722424251
 31
0.0
  0
LINE
  5
322
330
1F
100
AcDbEntity
  8
0
  6
Continuous
 62
     8
370
    15
100
AcDbLine
 10
165.8964721751
 20
123.2236566906
 30
0.0
 11
165.8964721751
 21
123.4722424251
 31
0.0
  0
LINE
  5
323
330
1F
100
AcDbEntity
  8
0
  6
Continuous
 62
     8
370
    15
100
AcDbLine
 10
165.8964721751
 20
147.7122427848
 30
0.0
 11
165.8964721751
 21
147.9608269361
 31
0.0
  0
LINE
  5
324
330
1F
100
AcDbEntity
  8
0
  6
Continuous
 62
     8
370
    15
100
AcDbLine
 10
245.0764714074
 20
147.9608269361
 30
0.0
 11
245.0764714074
 21
147.7122427848
 31
0.0
  0
LINE
  5
325
330
1F
100
AcDbEntity
  8
0
  6
Continuous
 62
     8
370
    15
100
AcDbLine
 10
245.0764714074
 20
123.4722424251
 30
0.0
 11
245.0764714074
 21
123.2236566906
 31
0.0
  0
LINE
  5
326
330
1F
100
AcDbEntity
  8
0
  6
Continuous
 62
     8
370
    15
100
AcDbLine
 10
245.368844111
 20
154.6665223268
 30
0.0
 11
165.3688429189
 21
154.6665223268
 31
0.0
  0
LINE
  5
327
330
1F
100
AcDbEntity
  8
0
  6
Continuous
 62
     8
370
    15
100
AcDbLine
 10
245.368844111
 20
151.2483658221
 30
0.0
 11
165.3688429189
 21
151.2483658221
 31
0.0
  0
LINE
  5
328
330
1F
100
AcDbEntity
  8
0
  6
Continuous
 62
     8
370
    15
100
AcDbLine
 10
245.368844111
 20
148.2883574393
 30
0.0
 11
165.3688429189
 21
148.2883574393
 31
0.0
  0
LINE
  5
329
330
1F
100
AcDbEntity
  8
0
  6
Continuous
 62
     8
370
    15
100
AcDbLine
 10
245.368844111
 20
156.0823949006
 30
0.0
 11
165.3688429189
 21
156.0823949006
 31
0.0
  0
LINE
  5
32A
330
1F
100
AcDbEntity
  8
0
  6
Continuous
 62
     8
370
    15
100
AcDbLine
 10
245.368844111
 20
157.3437454131
 30
0.0
 11
165.3688429189
 21
157.3437454131
 31
0.0
  0
LINE
  5
32B
330
1F
100
AcDbEntity
  8
0
  6
Continuous
 62
     8
370
    15
100
AcDbLine
 10
168.3688430381
 20
172.3161341575
 30
0.0
 11
165.3688429189
 21
172.3161341575
 31
0.0
  0
LINE
  5
32C
330
1F
100
AcDbEntity
  8
0
  6
Continuous
 62
     8
370
    15
100
AcDbLine
 10
168.4688447309
 20
172.5582243827
 30
0.0
 11
171.4688448501
 21
172.5582243827
 31
0.0
  0
LINE
  5
32D
330
1F
100
AcDbEntity
  8
0
  6
Continuous
 62
     8
370
    15
100
AcDbLine
 10
239.1688434672
 20
172.3161341575
 30
0.0
 11
171.5688435626
 21
172.3161341575
 31
0.0
  0
LINE
  5
32E
330
1F
100
AcDbEntity
  8
0
  6
Continuous
 62
     8
370
    15
100
AcDbLine
 10
239.2688421798
 20
172.5582243827
 30
0.0
 11
242.268842299
 21
172.5582243827
 31
0.0
  0
LINE
  5
32F
330
1F
100
AcDbEntity
  8
0
  6
Continuous
 62
     8
370
    15
100
AcDbLine
 10
245.368844111
 20
172.3161341575
 30
0.0
 11
242.3688439918
 21
172.3161341575
 31
0.0
  0
ARC
  5
330
330
1F
100
AcDbEntity
  8
0
  6
Continuous
 62
     8
370
    15
100
AcDbCircle
 10
221.3829549936
 20
162.1529127768
 30
0.0
 40
0.986214613548314
100
AcDbArc
 50
268.599033304
 51
358.5269584194
  0
LINE
  5
331
330
1F
100
AcDbEntity
  8
0
  6
Continuous
 62
     8
370
    15
100
AcDbLine
 10
222.3688436937
 20
162.1275605586
 30
0.0
 11
222.3688436937
 21
168.0241109756
 31
0.0
  0
ARC
  5
332
330
1F
100
AcDbEntity
  8
0
  6
Continuous
 62
     8
370
    15
100
AcDbCircle
 10
221.3829549936
 20
167.9987587574
 30
0.0
 40
0.986214613548314
100
AcDbArc
 50
1.4730415806
 51
91.400966696
  0
LINE
  5
333
330
1F
100
AcDbEntity
  8
0
  6
Continuous
 62
     8
370
    15
100
AcDbLine
 10
221.358842988
 20
168.9846785691
 30
0.0
 11
212.5588437808
 21
168.9846785691
 31
0.0
  0
ARC
  5
334
330
1F
100
AcDbEntity
  8
0
  6
Continuous
 62
     8
370
    15
100
AcDbCircle
 10
212.5347324944
 20
167.9987587658
 30
0.0
 40
0.986214587537946
100
AcDbArc
 50
88.5990750659
 51
178.5269588703
  0
LINE
  5
335
330
1F
100
AcDbEntity
  8
0
  6
Continuous
 62
     8
370
    15
100
AcDbLine
 10
211.5488438201
 20
168.0241109756
 30
0.0
 11
211.5488438201
 21
162.1275605586
 31
0.0
  0
ARC
  5
336
330
1F
100
AcDbEntity
  8
0
  6
Continuous
 62
     8
370
    15
100
AcDbCircle
 10
212.5347324944
 20
162.1529127683
 30
0.0
 40
0.9862145875379744
100
AcDbArc
 50
181.4730411297
 51
271.4009249341
  0
LINE
  5
337
330
1F
100
AcDbEntity
  8
0
  6
Continuous
 62
     8
370
    15
100
AcDbLine
 10
212.5588437808
 20
161.166992965
 30
0.0
 11
221.358842988
 21
161.166992965
 31
0.0
  0
LINE
  5
338
330
1F
100
AcDbEntity
  8
0
  6
Continuous
 62
     8
370
    15
100
AcDbLine
 10
212.5588437808
 20
161.4502968219
 30
0.0
 11
212.5588437808
 21
161.166992965
 31
0.0
  0
LINE
  5
339
330
1F
100
AcDbEntity
  8
0
  6
Continuous
 62
     8
370
    15
100
AcDbLine
 10
221.358842988
 20
161.166992965
 30
0.0
 11
221.358842988
 21
161.4502968219
 31
0.0
  0
LWPOLYLINE
  5
33A
330
1F
100
AcDbEntity
  8
0
  6
Continuous
 62
     8
370
    15
100
AcDbPolyline
 90
        9
 70
   128
 43
0.0
 10
211.9588436824
 20
162.0008649257
 10
211.950965811
 20
162.0255799916
 10
211.9276343179
 20
162.0493473437
 10
211.8897462529
 20
162.0712520507
 10
211.8387574595
 20
162.0904507068
 10
211.7766274405
 20
162.1062071946
 10
211.7057437342
 20
162.1179165271
 10
211.6288306457
 20
162.1251257089
 10
211.5488438201
 20
162.1275605586
  0
LWPOLYLINE
  5
33B
330
1F
100
AcDbEntity
  8
0
  6
Continuous
 62
     8
370
    15
100
AcDbPolyline
 90
        9
 70
   128
 43
0.0
 10
222.3688436937
 20
162.1275605586
 10
222.2888572407
 20
162.1251257089
 10
222.2119434071
 20
162.1179165271
 10
222.1410600734
 20
162.1062071946
 10
222.0789296818
 20
162.0904507068
 10
222.0279408884
 20
162.0712520507
 10
221.990053196
 20
162.0493473437
 10
221.9667224479
 20
162.0255799916
 10
221.958844204
 20
162.0008649257
  0
LWPOLYLINE
  5
33C
330
1F
100
AcDbEntity
  8
0
  6
Continuous
 62
     8
370
    15
100
AcDbPolyline
 90
        9
 70
   128
 43
0.0
 10
222.3688436937
 20
168.0241109756
 10
222.2888572407
 20
168.0216761258
 10
222.2119434071
 20
168.014466944
 10
222.1410600734
 20
168.0027576116
 10
222.0789296818
 20
167.9870011237
 10
222.0279408884
 20
167.9678024676
 10
221.990053196
 20
167.9458977607
 10
221.9667224479
 20
167.9221304086
 10
221.958844204
 20
167.8974153426
  0
LWPOLYLINE
  5
33D
330
1F
100
AcDbEntity
  8
0
  6
Continuous
 62
     8
370
    15
100
AcDbPolyline
 90
        9
 70
   128
 43
0.0
 10
211.9588436824
 20
167.8974153426
 10
211.950965811
 20
167.9221304086
 10
211.9276343179
 20
167.9458977607
 10
211.8897462529
 20
167.9678024676
 10
211.8387574595
 20
167.9870011237
 10
211.7766274405
 20
168.0027576116
 10
211.7057437342
 20
168.014466944
 10
211.6288306457
 20
168.0216761258
 10
211.5488438201
 20
168.0241109756
  0
LINE
  5
33E
330
1F
100
AcDbEntity
  8
0
  6
Continuous
 62
     8
370
    15
100
AcDbLine
 10
212.5588437808
 20
168.4680463699
 30
0.0
 11
212.5588437808
 21
168.9846785691
 31
0.0
  0
ARC
  5
33F
330
1F
100
AcDbEntity
  8
0
  6
Continuous
 62
     8
370
    15
100
AcDbCircle
 10
212.544519471
 20
167.8823520413
 30
0.0
 40
0.5858694670224359
100
AcDbArc
 50
88.5989980173
 51
178.5267047361
  0
ARC
  5
340
330
1F
100
AcDbEntity
  8
0
  6
Continuous
 62
     8
370
    15
100
AcDbCircle
 10
221.373166582
 20
167.8823501416
 30
0.0
 40
0.5858713486236724
100
AcDbArc
 50
1.4734763724
 51
91.4009274616
  0
LINE
  5
341
330
1F
100
AcDbEntity
  8
0
  6
Continuous
 62
     8
370
    15
100
AcDbLine
 10
221.358842988
 20
168.9846785691
 30
0.0
 11
221.358842988
 21
168.4680463699
 31
0.0
  0
LINE
  5
342
330
1F
100
AcDbEntity
  8
0
  6
Continuous
 62
     8
370
    15
100
AcDbLine
 10
212.5588437808
 20
168.4680463699
 30
0.0
 11
221.358842988
 21
168.4680463699
 31
0.0
  0
LINE
  5
343
330
1F
100
AcDbEntity
  8
0
  6
Continuous
 62
     8
370
    15
100
AcDbLine
 10
221.358842988
 20
168.4680463699
 30
0.0
 11
221.358842988
 21
168.4093357947
 31
0.0
  0
LINE
  5
344
330
1F
100
AcDbEntity
  8
0
  6
Continuous
 62
     8
370
    15
100
AcDbLine
 10
212.5588437808
 20
168.4093357947
 30
0.0
 11
212.5588437808
 21
168.4680463699
 31
0.0
  0
LINE
  5
345
330
1F
100
AcDbEntity
  8
0
  6
Continuous
 62
     8
370
    15
100
AcDbLine
 10
245.0764714074
 20
123.2222424772
 30
0.0
 11
245.0764714074
 21
123.2236566906
 31
0.0
  0
LINE
  5
346
330
1F
100
AcDbEntity
  8
0
  6
Continuous
 62
     8
370
    15
100
AcDbLine
 10
245.0764714074
 20
147.9608269361
 30
0.0
 11
245.0764714074
 21
147.9622425464
 31
0.0
  0
LINE
  5
347
330
1F
100
AcDbEntity
  8
0
  6
Continuous
 62
     8
370
    15
100
AcDbLine
 10
245.0764714074
 20
148.1222422746
 30
0.0
 11
245.0764714074
 21
148.1418998864
 31
0.0
  0
LINE
  5
348
330
1F
100
AcDbEntity
  8
0
  6
Continuous
 62
     8
370
    15
100
AcDbLine
 10
245.0764714074
 20
172.5994350341
 30
0.0
 11
245.0764714074
 21
172.6737262633
 31
0.0
  0
LINE
  5
349
330
1F
100
AcDbEntity
  8
0
  6
Continuous
 62
     8
370
    15
100
AcDbLine
 10
243.3264730763
 20
123.0622424696
 30
0.0
 11
243.3264730763
 21
123.0608282563
 31
0.0
  0
LINE
  5
34A
330
1F
100
AcDbEntity
  8
0
  6
Continuous
 62
     8
370
    15
100
AcDbLine
 10
165.8964721751
 20
123.2222424772
 30
0.0
 11
165.8964721751
 21
123.2236566906
 31
0.0
  0
LINE
  5
34B
330
1F
100
AcDbEntity
  8
0
  6
Continuous
 62
     8
370
    15
100
AcDbLine
 10
165.8964721751
 20
147.9608269361
 30
0.0
 11
165.8964721751
 21
147.9622425464
 31
0.0
  0
LINE
  5
34C
330
1F
100
AcDbEntity
  8
0
  6
Continuous
 62
     8
370
    15
100
AcDbLine
 10
165.8964721751
 20
148.1222422746
 30
0.0
 11
165.8964721751
 21
148.1418998864
 31
0.0
  0
LINE
  5
34D
330
1F
100
AcDbEntity
  8
0
  6
Continuous
 62
     8
370
    15
100
AcDbLine
 10
165.8964721751
 20
172.5994350341
 30
0.0
 11
165.8964721751
 21
172.6737262633
 31
0.0
  0
LINE
  5
34E
330
1F
100
AcDbEntity
  8
0
  6
Continuous
 62
     8
370
    15
100
AcDbLine
 10
167.6464734864
 20
123.0608282563
 30
0.0
 11
167.6464734864
 21
123.0622424696
 31
0.0
  0
LINE
  5
34F
330
1F
100
AcDbEntity
  8
0
  6
Continuous
 62
     8
370
    15
100
AcDbLine
 10
207.1188436621
 20
168.9181389239
 30
0.0
 11
173.1188444686
 21
168.9181389239
 31
0.0
  0
LINE
  5
350
330
1F
100
AcDbEntity
  8
0
  6
Continuous
 62
     8
370
    15
100
AcDbLine
 10
175.1188425613
 20
165.6845452216
 30
0.0
 11
175.1188425613
 21
165.5918421176
 31
0.0
  0
LINE
  5
351
330
1F
100
AcDbEntity
  8
0
  6
Continuous
 62
     8
370
    15
100
AcDbLine
 10
205.1188436602
 20
165.5918421176
 30
0.0
 11
205.1188436602
 21
165.6845452216
 31
0.0
  0
LINE
  5
352
330
1F
100
AcDbEntity
  8
0
  6
Continuous
 62
     8
370
    15
100
AcDbLine
 10
206.1188436844
 20
158.0004991916
 30
0.0
 11
206.1188436844
 21
158.0932022956
 31
0.0
  0
LINE
  5
353
330
1F
100
AcDbEntity
  8
0
  6
Continuous
 62
     8
370
    15
100
AcDbLine
 10
174.1188435149
 20
158.0932022956
 30
0.0
 11
174.1188435149
 21
158.0004991916
 31
0.0
  0
LINE
  5
354
330
1F
100
AcDbEntity
  8
0
  6
Continuous
 62
     8
370
    15
100
AcDbLine
 10
171.9140170407
 20
130.0797851709
 30
0.0
 11
178.8989303899
 21
130.0797851709
 31
0.0
  0
SPLINE
  5
355
330
1F
100
AcDbEntity
  8
0
  6
Continuous
 62
     8
370
    15
100
AcDbSpline
210
0.0
220
0.0
230
1.0
 70
     8
 71
     3
 72
    11
 73
     7
 74
     0
 42
0.00000001
 43
0.00000001
 12
1.0
 22
0.0
 32
0.0
 13
1.0
 23
0.0
 33
0.0
 40
0.0
 40
0.0
 40
0.0
 40
0.0
 40
0.2514385563738604
 40
0.5021687142134907
 40
0.7628254257095463
 40
1.0
 40
1.0
 40
1.0
 40
1.0
 10
178.8989303898865
 20
130.0797851708557
 30
0.0
 10
178.9096436508368
 20
130.029356293258
 30
0.0
 10
178.9310399893856
 20
129.9286406154889
 30
0.0
 10
178.9614960336496
 20
129.7855043876393
 30
0.0
 10
178.9879062131679
 20
129.6608238992194
 30
0.0
 10
179.0007052267082
 20
129.6008264152437
 30
0.0
 10
179.006802876001
 20
129.5722426798966
 30
0.0
  0
SPLINE
  5
356
330
1F
100
AcDbEntity
  8
0
  6
Continuous
 62
     8
370
    15
100
AcDbSpline
210
0.0
220
0.0
230
1.0
 70
     8
 71
     3
 72
    11
 73
     7
 74
     0
 42
0.00000001
 43
0.00000001
 12
1.0
 22
0.0
 32
0.0
 13
1.0
 23
0.0
 33
0.0
 40
0.0
 40
0.0
 40
0.0
 40
0.0
 40
0.2514191706195567
 40
0.5021391830561571
 40
0.7627981217914577
 40
1.0
 40
1.0
 40
1.0
 40
1.0
 10
171.9140170407349
 20
130.0797851708557
 30
0.0
 10
171.9033821145935
 20
130.0293560242265
 30
0.0
 10
171.8821418364103
 20
129.9286379666965
 30
0.0
 10
171.851906807509
 20
129.7855000806598
 30
0.0
 10
171.8256935826691
 20
129.66082229349
 30
0.0
 10
171.8129898771643
 20
129.6008269773367
 30
0.0
 10
171.8069372963959
 20
129.5722426798966
 30
0.0
  0
SPLINE
  5
357
330
1F
100
AcDbEntity
  8
0
  6
Continuous
 62
     8
370
    15
100
AcDbSpline
210
0.0
220
0.0
230
1.0
 70
     8
 71
     3
 72
    11
 73
     7
 74
     0
 42
0.00000001
 43
0.00000001
 12
1.0
 22
0.0
 32
0.0
 13
1.0
 23
0.0
 33
0.0
 40
0.0
 40
0.0
 40
0.0
 40
0.0
 40
0.2371773161822143
 40
0.4978308089191743
 40
0.7485617595655643
 40
1.0
 40
1.0
 40
1.0
 40
1.0
 10
179.006802876001
 20
141.5722431567337
 30
0.0
 10
179.0007052902296
 20
141.5436582314843
 30
0.0
 10
178.9879065702428
 20
141.4836590009977
 30
0.0
 10
178.9614957126457
 20
141.3589804823569
 30
0.0
 10
178.9310401087627
 20
141.2158437909358
 30
0.0
 10
178.9096436749172
 20
141.1151279991111
 30
0.0
 10
178.8989303898865
 20
141.0646991756585
 30
0.0
  0
LINE
  5
358
330
1F
100
AcDbEntity
  8
0
  6
Continuous
 62
     8
370
    15
100
AcDbLine
 10
178.8989303899
 20
141.0646991757
 30
0.0
 11
171.9140170407
 21
141.0646991757
 31
0.0
  0
SPLINE
  5
359
330
1F
100
AcDbEntity
  8
0
  6
Continuous
 62
     8
370
    15
100
AcDbSpline
210
0.0
220
0.0
230
1.0
 70
     8
 71
     3
 72
    11
 73
     7
 74
     0
 42
0.00000001
 43
0.00000001
 12
1.0
 22
0.0
 32
0.0
 13
1.0
 23
0.0
 33
0.0
 40
0.0
 40
0.0
 40
0.0
 40
0.0
 40
0.2371997693383782
 40
0.4978609540390949
 40
0.7485814530030019
 40
1.0
 40
1.0
 40
1.0
 40
1.0
 10
171.8069372963959
 20
141.5722431567337
 30
0.0
 10
171.8129899188944
 20
141.5436594855439
 30
0.0
 10
171.8256938284301
 20
141.4836649339125
 30
0.0
 10
171.8519066757891
 20
141.3589850205393
 30
0.0
 10
171.8821417724338
 20
141.2158466506598
 30
0.0
 10
171.9033821088912
 20
141.1151283384752
 30
0.0
 10
171.9140170407349
 20
141.0646991756585
 30
0.0
  0
LINE
  5
35A
330
1F
100
AcDbEntity
  8
0
  6
Continuous
 62
     8
370
    15
100
AcDbLine
 10
171.9140170407
 20
141.0646991757
 30
0.0
 11
171.9140170407
 21
130.0797851709
 31
0.0
  0
LINE
  5
35B
330
1F
100
AcDbEntity
  8
0
  6
Continuous
 62
     8
370
    15
100
AcDbLine
 10
178.8989303899
 20
130.0797851709
 30
0.0
 11
178.8989303899
 21
141.0646991757
 31
0.0
  0
SPLINE
  5
35C
330
1F
100
AcDbEntity
  8
0
  6
Continuous
 62
     8
370
    15
100
AcDbSpline
210
0.0
220
0.0
230
1.0
 70
     8
 71
     3
 72
    11
 73
     7
 74
     0
 42
0.00000001
 43
0.00000001
 12
1.0
 22
0.0
 32
0.0
 13
1.0
 23
0.0
 33
0.0
 40
0.0
 40
0.0
 40
0.0
 40
0.0
 40
0.2371523309483912
 40
0.497800189207021
 40
0.7485394841675873
 40
1.0
 40
1.0
 40
1.0
 40
1.0
 10
171.4064715695435
 20
141.1733673837807
 30
0.0
 10
171.4350570398966
 20
141.1672244177646
 30
0.0
 10
171.4950600451103
 20
141.1543298801782
 30
0.0
 10
171.619740385608
 20
141.1277276906594
 30
0.0
 10
171.7628744222337
 20
141.0970454582883
 30
0.0
 10
171.8635879555491
 20
141.0754915878739
 30
0.0
 10
171.9140170407349
 20
141.0646991756585
 30
0.0
  0
SPLINE
  5
35D
330
1F
100
AcDbEntity
  8
0
  6
Continuous
 62
     8
370
    15
100
AcDbSpline
210
0.0
220
0.0
230
1.0
 70
     8
 71
     3
 72
    11
 73
     7
 74
     0
 42
0.00000001
 43
0.00000001
 12
1.0
 22
0.0
 32
0.0
 13
1.0
 23
0.0
 33
0.0
 40
0.0
 40
0.0
 40
0.0
 40
0.0
 40
0.2371464150289813
 40
0.497797685041925
 40
0.748537648595469
 40
1.0
 40
1.0
 40
1.0
 40
1.0
 10
171.4064715695435
 20
129.9710394766953
 30
0.0
 10
171.435055927276
 20
129.9771862223134
 30
0.0
 10
171.4950577919718
 20
129.9900889505241
 30
0.0
 10
171.6197404808613
 20
130.0167126056929
 30
0.0
 10
171.7628746674849
 20
130.0474152836208
 30
0.0
 10
171.8635879596454
 20
130.0689848662613
 30
0.0
 10
171.9140170407349
 20
130.0797851708557
 30
0.0
  0
SPLINE
  5
35E
330
1F
100
AcDbEntity
  8
0
  6
Continuous
 62
     8
370
    15
100
AcDbSpline
210
0.0
220
0.0
230
1.0
 70
     8
 71
     3
 72
    11
 73
     7
 74
     0
 42
0.00000001
 43
0.00000001
 12
1.0
 22
0.0
 32
0.0
 13
1.0
 23
0.0
 33
0.0
 40
0.0
 40
0.0
 40
0.0
 40
0.0
 40
0.2514344805354579
 40
0.5021671542250017
 40
0.7628231907849367
 40
1.0
 40
1.0
 40
1.0
 40
1.0
 10
178.8989303898865
 20
141.0646991756585
 30
0.0
 10
178.9493587367248
 20
141.0754049296316
 30
0.0
 10
179.0500746742132
 20
141.0967865555529
 30
0.0
 10
179.1932116825842
 20
141.1272212273407
 30
0.0
 10
179.3178921710012
 20
141.1536105668953
 30
0.0
 10
179.3778891881333
 20
141.1663997035202
 30
0.0
 10
179.4064728808457
 20
141.1724926856186
 30
0.0
  0
SPLINE
  5
35F
330
1F
100
AcDbEntity
  8
0
  6
Continuous
 62
     8
370
    15
100
AcDbSpline
210
0.0
220
0.0
230
1.0
 70
     8
 71
     3
 72
    11
 73
     7
 74
     0
 42
0.00000001
 43
0.00000001
 12
1.0
 22
0.0
 32
0.0
 13
1.0
 23
0.0
 33
0.0
 40
0.0
 40
0.0
 40
0.0
 40
0.0
 40
0.2514366817789664
 40
0.5021703963967867
 40
0.7628223270828486
 40
0.9999999999999999
 40
0.9999999999999999
 40
0.9999999999999999
 40
0.9999999999999999
 10
178.8989303898865
 20
130.0797851708557
 30
0.0
 10
178.9493586425892
 20
130.069071529932
 30
0.0
 10
179.0500741605881
 20
130.0476742013026
 30
0.0
 10
179.1932112020056
 20
130.0172193155753
 30
0.0
 10
179.3178888020529
 20
129.9908088385438
 30
0.0
 10
179.3778879044288
 20
129.9780107423267
 30
0.0
 10
179.4064728808457
 20
129.9719134297993
 30
0.0
  0
LINE
  5
360
330
1F
100
AcDbEntity
  8
0
  6
Continuous
 62
     8
370
    15
100
AcDbLine
 10
245.1288430286
 20
174.6887447265
 30
0.0
 11
165.6088440013
 21
174.6887447265
 31
0.0
  0
LINE
  5
361
330
1F
100
AcDbEntity
  8
0
  6
Continuous
 62
     8
370
    15
100
AcDbLine
 10
245.1688437057
 20
185.9033646014
 30
0.0
 11
244.768842895
 21
185.9033646014
 31
0.0
  0
LINE
  5
362
330
1F
100
AcDbEntity
  8
0
  6
Continuous
 62
     8
370
    15
100
AcDbLine
 10
165.5688433242
 20
185.9033646014
 30
0.0
 11
165.9688441348
 21
185.9033646014
 31
0.0
  0
LINE
  5
363
330
1F
100
AcDbEntity
  8
0
  6
Continuous
 62
     8
370
    15
100
AcDbLine
 10
245.1688437057
 20
186.9674326804
 30
0.0
 11
244.768842895
 21
186.9674326804
 31
0.0
  0
LINE
  5
364
330
1F
100
AcDbEntity
  8
0
  6
Continuous
 62
     8
370
    15
100
AcDbLine
 10
165.5688433242
 20
186.9674326804
 30
0.0
 11
165.9688441348
 21
186.9674326804
 31
0.0
  0
LINE
  5
365
330
1F
100
AcDbEntity
  8
0
  6
Continuous
 62
     8
370
    15
100
AcDbLine
 10
244.4688437772
 20
215.3822423843
 30
0.0
 11
244.4688437772
 21
185.1022424129
 31
0.0
  0
LINE
  5
366
330
1F
100
AcDbEntity
  8
0
  6
Continuous
 62
     8
370
    15
100
AcDbLine
 10
166.2688432527
 20
185.1022424129
 30
0.0
 11
166.2688432527
 21
215.3822423843
 31
0.0
  0
LINE
  5
367
330
1F
100
AcDbEntity
  8
0
  6
Continuous
 62
     8
370
    15
100
AcDbLine
 10
166.2688432527
 20
215.6780781177
 30
0.0
 11
244.4688437772
 21
215.6780781177
 31
0.0
  0
LINE
  5
368
330
1F
100
AcDbEntity
  8
0
  6
Continuous
 62
     8
370
    15
100
AcDbLine
 10
244.4688437772
 20
215.3822423843
 30
0.0
 11
166.2688432527
 21
215.3822423843
 31
0.0
  0
LINE
  5
369
330
1F
100
AcDbEntity
  8
0
  6
Continuous
 62
     8
370
    15
100
AcDbLine
 10
244.9588446212
 20
215.3453590301
 30
0.0
 11
244.9588446212
 21
216.7456092265
 31
0.0
  0
LINE
  5
36A
330
1F
100
AcDbEntity
  8
0
  6
Continuous
 62
     8
370
    15
100
AcDbLine
 10
206.39262691
 20
221.829784098
 30
0.0
 11
202.3620097232
 21
221.829784098
 31
0.0
  0
LINE
  5
36B
330
1F
100
AcDbEntity
  8
0
  6
Continuous
 62
     8
370
    15
100
AcDbLine
 10
226.3926266027
 20
221.829784098
 30
0.0
 11
222.3620100212
 21
221.829784098
 31
0.0
  0
LINE
  5
36C
330
1F
100
AcDbEntity
  8
0
  6
Continuous
 62
     8
370
    15
100
AcDbLine
 10
245.2088443828
 20
221.829784098
 30
0.0
 11
240.4753832412
 21
221.829784098
 31
0.0
  0
LINE
  5
36D
330
1F
100
AcDbEntity
  8
0
  6
Continuous
 62
     8
370
    15
100
AcDbLine
 10
245.2088443828
 20
216.8456079391
 30
0.0
 11
244.4688437772
 21
216.8456079391
 31
0.0
  0
LINE
  5
36E
330
1F
100
AcDbEntity
  8
0
  6
Continuous
 62
     8
370
    15
100
AcDbLine
 10
166.2688432527
 20
216.8456079391
 30
0.0
 11
165.5288426471
 21
216.8456079391
 31
0.0
  0
LINE
  5
36F
330
1F
100
AcDbEntity
  8
0
  6
Continuous
 62
     8
370
    15
100
AcDbLine
 10
170.2623037887
 20
221.829784098
 30
0.0
 11
165.5288426471
 21
221.829784098
 31
0.0
  0
LINE
  5
370
330
1F
100
AcDbEntity
  8
0
  6
Continuous
 62
     8
370
    15
100
AcDbLine
 10
186.3926274967
 20
221.829784098
 30
0.0
 11
182.3620094252
 21
221.829784098
 31
0.0
  0
LINE
  5
371
330
1F
100
AcDbEntity
  8
0
  6
Continuous
 62
     8
370
    15
100
AcDbLine
 10
165.7788424087
 20
216.7456092265
 30
0.0
 11
165.7788424087
 21
215.3453590301
 31
0.0
  0
LINE
  5
372
330
1F
100
AcDbEntity
  8
0
  6
Continuous
 62
     8
370
    15
100
AcDbLine
 10
165.3688429189
 20
221.6559173492
 30
0.0
 11
165.5288426471
 21
221.6559173492
 31
0.0
  0
LINE
  5
373
330
1F
100
AcDbEntity
  8
0
  6
Continuous
 62
     8
370
    15
100
AcDbLine
 10
245.368844111
 20
221.6559173492
 30
0.0
 11
245.2088443828
 21
221.6559173492
 31
0.0
  0
LINE
  5
374
330
1F
100
AcDbEntity
  8
0
  6
Continuous
 62
     8
370
    15
100
AcDbLine
 10
205.6077827033
 20
222.0498921302
 30
0.0
 11
205.6077827033
 21
222.2044410136
 31
0.0
  0
LINE
  5
375
330
1F
100
AcDbEntity
  8
0
  6
Continuous
 62
     8
370
    15
100
AcDbLine
 10
225.6077824426
 20
222.0498921302
 30
0.0
 11
225.6077824426
 21
222.2044410136
 31
0.0
  0
LINE
  5
376
330
1F
100
AcDbEntity
  8
0
  6
Continuous
 62
     8
370
    15
100
AcDbLine
 10
185.6077833366
 20
222.0498921302
 30
0.0
 11
185.6077833366
 21
222.2044410136
 31
0.0
  0
LINE
  5
377
330
1F
100
AcDbEntity
  8
0
  6
Continuous
 62
     8
370
    15
100
AcDbLine
 10
245.2088443828
 20
223.6141623881
 30
0.0
 11
165.5288426471
 21
223.6141623881
 31
0.0
  0
LINE
  5
378
330
1F
100
AcDbEntity
  8
0
  6
Continuous
 62
     8
370
    15
100
AcDbLine
 10
245.368844111
 20
223.4402956393
 30
0.0
 11
245.2088443828
 21
223.4402956393
 31
0.0
  0
LINE
  5
379
330
1F
100
AcDbEntity
  8
0
  6
Continuous
 62
     8
370
    15
100
AcDbLine
 10
165.3688429189
 20
223.4402956393
 30
0.0
 11
165.5288426471
 21
223.4402956393
 31
0.0
  0
LINE
  5
37A
330
1F
100
AcDbEntity
  8
0
  6
Continuous
 62
     8
370
    15
100
AcDbLine
 10
187.5908328486
 20
223.059290829
 30
0.0
 11
187.5908328486
 21
223.213833752
 31
0.0
  0
LINE
  5
37B
330
1F
100
AcDbEntity
  8
0
  6
Continuous
 62
     8
370
    15
100
AcDbLine
 10
227.5908334446
 20
223.059290829
 30
0.0
 11
227.5908334446
 21
223.213833752
 31
0.0
  0
LINE
  5
37C
330
1F
100
AcDbEntity
  8
0
  6
Continuous
 62
     8
370
    15
100
AcDbLine
 10
207.5908335191
 20
223.059290829
 30
0.0
 11
207.5908335191
 21
223.213833752
 31
0.0
  0
LINE
  5
37D
330
1F
100
AcDbEntity
  8
0
  6
Continuous
 62
     8
370
    15
100
AcDbLine
 10
224.2385192108
 20
223.2007922557
 30
0.0
 11
224.2385192108
 21
223.3553470996
 31
0.0
  0
LINE
  5
37E
330
1F
100
AcDbEntity
  8
0
  6
Continuous
 62
     8
370
    15
100
AcDbLine
 10
184.2385201049
 20
223.2007922557
 30
0.0
 11
184.2385201049
 21
223.3553470996
 31
0.0
  0
LINE
  5
37F
330
1F
100
AcDbEntity
  8
0
  6
Continuous
 62
     8
370
    15
100
AcDbLine
 10
204.2385194716
 20
223.2007922557
 30
0.0
 11
204.2385194716
 21
223.3553470996
 31
0.0
  0
LINE
  5
380
330
1F
100
AcDbEntity
  8
0
  6
Continuous
 62
     8
370
    15
100
AcDbLine
 10
240.3688429189
 20
223.2007922557
 30
0.0
 11
240.3688429189
 21
223.3553470996
 31
0.0
  0
LINE
  5
381
330
1F
100
AcDbEntity
  8
0
  6
Continuous
 62
     8
370
    15
100
AcDbLine
 10
170.368844111
 20
223.2007922557
 30
0.0
 11
170.368844111
 21
223.3553470996
 31
0.0
  0
LINE
  5
382
330
1F
100
AcDbEntity
  8
0
  6
Continuous
 62
     8
370
    15
100
AcDbLine
 10
228.482217927
 20
223.2007922557
 30
0.0
 11
228.482217927
 21
223.3553470996
 31
0.0
  0
LINE
  5
383
330
1F
100
AcDbEntity
  8
0
  6
Continuous
 62
     8
370
    15
100
AcDbLine
 10
188.4822188211
 20
223.2007922557
 30
0.0
 11
188.4822188211
 21
223.3553470996
 31
0.0
  0
LINE
  5
384
330
1F
100
AcDbEntity
  8
0
  6
Continuous
 62
     8
370
    15
100
AcDbLine
 10
208.4822185603
 20
223.2007922557
 30
0.0
 11
208.4822185603
 21
223.3553470996
 31
0.0
  0
LINE
  5
385
330
1F
100
AcDbEntity
  8
0
  6
Continuous
 62
     8
370
    15
100
AcDbLine
 10
244.9588446212
 20
216.8256046203
 30
0.0
 11
244.9588446212
 21
216.7456092265
 31
0.0
  0
LINE
  5
386
330
1F
100
AcDbEntity
  8
0
  6
Continuous
 62
     8
370
    15
100
AcDbLine
 10
165.7788424087
 20
216.7456092265
 30
0.0
 11
165.7788424087
 21
216.8256046203
 31
0.0
  0
LINE
  5
387
330
1F
100
AcDbEntity
  8
0
  6
Continuous
 62
     8
370
    15
100
AcDbLine
 10
243.5688434434
 20
183.8540675071
 30
0.0
 11
243.5688434434
 21
183.6222412017
 31
0.0
  0
LINE
  5
388
330
1F
100
AcDbEntity
  8
0
  6
Continuous
 62
     8
370
    15
100
AcDbLine
 10
167.1688435865
 20
183.8540675071
 30
0.0
 11
167.1688435865
 21
183.6222412017
 31
0.0
  0
LINE
  5
389
330
1F
100
AcDbEntity
  8
0
  6
Continuous
 62
     8
370
    15
100
AcDbLine
 10
244.5688424897
 20
184.2596592334
 30
0.0
 11
166.1688445401
 21
184.2596592334
 31
0.0
  0
LINE
  5
38A
330
1F
100
AcDbEntity
  8
0
  6
Continuous
 62
     8
370
    15
100
AcDbLine
 10
166.1688445401
 20
183.7863506702
 30
0.0
 11
166.2382005048
 21
183.7863506702
 31
0.0
  0
LINE
  5
38B
330
1F
100
AcDbEntity
  8
0
  6
Continuous
 62
     8
370
    15
100
AcDbLine
 10
244.4994865251
 20
183.7863506702
 30
0.0
 11
244.5688424897
 21
183.7863506702
 31
0.0
  0
LINE
  5
38C
330
1F
100
AcDbEntity
  8
0
  6
Continuous
 62
     8
370
    15
100
AcDbLine
 10
239.0388427568
 20
148.1222422746
 30
0.0
 11
239.0388427568
 21
148.1418998864
 31
0.0
  0
LINE
  5
38D
330
1F
100
AcDbEntity
  8
0
  6
Continuous
 62
     8
370
    15
100
AcDbLine
 10
239.0388427568
 20
172.5994350341
 30
0.0
 11
239.0388427568
 21
172.6737262633
 31
0.0
  0
LINE
  5
38E
330
1F
100
AcDbEntity
  8
0
  6
Continuous
 62
     8
370
    15
100
AcDbLine
 10
241.5988443685
 20
148.1222422746
 30
0.0
 11
241.5988443685
 21
148.1418998864
 31
0.0
  0
LINE
  5
38F
330
1F
100
AcDbEntity
  8
0
  6
Continuous
 62
     8
370
    15
100
AcDbLine
 10
171.7564730239
 20
172.6737262633
 30
0.0
 11
171.7564730239
 21
172.5994350341
 31
0.0
  0
LINE
  5
390
330
1F
100
AcDbEntity
  8
0
  6
Continuous
 62
     8
370
    15
100
AcDbLine
 10
171.7564730239
 20
148.1418998864
 30
0.0
 11
171.7564730239
 21
148.1222422746
 31
0.0
  0
LINE
  5
391
330
1F
100
AcDbEntity
  8
0
  6
Continuous
 62
     8
370
    15
100
AcDbLine
 10
169.1964714122
 20
148.1418998864
 30
0.0
 11
169.1964714122
 21
148.1222422746
 31
0.0
  0
LINE
  5
392
330
1F
100
AcDbEntity
  8
0
  6
Continuous
 62
     8
370
    15
100
AcDbLine
 10
187.4864725661
 20
122.9822424193
 30
0.0
 11
187.4864725661
 21
123.0622424696
 31
0.0
  0
LINE
  5
393
330
1F
100
AcDbEntity
  8
0
  6
Continuous
 62
     8
370
    15
100
AcDbLine
 10
223.4864725065
 20
122.9822424193
 30
0.0
 11
223.4864725065
 21
123.0622424696
 31
0.0
  0
LINE
  5
394
330
1F
100
AcDbEntity
  8
0
  6
Continuous
 62
     8
370
    15
100
AcDbLine
 10
237.936472733
 20
172.5994350341
 30
0.0
 11
237.936472733
 21
172.6737262633
 31
0.0
  0
LINE
  5
395
330
1F
100
AcDbEntity
  8
0
  6
Continuous
 62
     8
370
    15
100
AcDbLine
 10
172.7364717317
 20
172.6737262633
 30
0.0
 11
172.7364717317
 21
172.5994350341
 31
0.0
  0
LINE
  5
396
330
1F
100
AcDbEntity
  8
0
  6
Continuous
 62
     8
370
    15
100
AcDbLine
 10
172.7364717317
 20
148.1222422746
 30
0.0
 11
172.7364717317
 21
148.1418998864
 31
0.0
  0
LINE
  5
397
330
1F
100
AcDbEntity
  8
0
  6
Continuous
 62
     8
370
    15
100
AcDbLine
 10
237.936472733
 20
148.1418998864
 30
0.0
 11
237.936472733
 21
148.1222422746
 31
0.0
  0
LINE
  5
398
330
1F
100
AcDbEntity
  8
0
  6
Continuous
 62
     8
370
    15
100
AcDbLine
 10
184.8864732575
 20
93.6222435859
 30
0.0
 11
173.4864739966
 21
93.6222435859
 31
0.0
  0
LINE
  5
399
330
1F
100
AcDbEntity
  8
0
  6
Continuous
 62
     8
370
    15
100
AcDbLine
 10
237.4864725661
 20
93.6222435859
 30
0.0
 11
226.0864733052
 21
93.6222435859
 31
0.0
  0
LINE
  5
39A
330
1F
100
AcDbEntity
  8
0
  6
Continuous
 62
     8
370
    15
100
AcDbLine
 10
185.5664728475
 20
122.5222424324
 30
0.0
 11
172.8064714265
 21
122.5222424324
 31
0.0
  0
LINE
  5
39B
330
1F
100
AcDbEntity
  8
0
  6
Continuous
 62
     8
370
    15
100
AcDbLine
 10
185.5536906314
 20
105.0742628005
 30
0.0
 11
172.8192566228
 21
105.0742628005
 31
0.0
  0
LINE
  5
39C
330
1F
100
AcDbEntity
  8
0
  6
Continuous
 62
     8
370
    15
100
AcDbLine
 10
185.5664728475
 20
105.2287550595
 30
0.0
 11
172.8064714265
 21
105.2287550595
 31
0.0
  0
LINE
  5
39D
330
1F
100
AcDbEntity
  8
0
  6
Continuous
 62
     8
370
    15
100
AcDbLine
 10
236.3464741302
 20
122.5222424324
 30
0.0
 11
225.4064722252
 21
122.5222424324
 31
0.0
  0
LINE
  5
39E
330
1F
100
AcDbEntity
  8
0
  6
Continuous
 62
     8
370
    15
100
AcDbLine
 10
238.15368994
 20
105.0742628005
 30
0.0
 11
225.4192559314
 21
105.0742628005
 31
0.0
  0
LINE
  5
39F
330
1F
100
AcDbEntity
  8
0
  6
Continuous
 62
     8
370
    15
100
AcDbLine
 10
238.1664721561
 20
105.2287550595
 30
0.0
 11
225.4064722252
 21
105.2287550595
 31
0.0
  0
ENDSEC
  0
SECTION
  2
OBJECTS
  0
DICTIONARY
  5
C
330
0
100
AcDbDictionary
281
     1
  3
ACAD_GROUP
350
D
  3
ACAD_LAYOUT
350
1A
  3
ACAD_MLINESTYLE
350
17
  3
ACAD_PLOTSETTINGS
350
19
  3
ACAD_PLOTSTYLENAME
350
E
  0
DICTIONARY
  5
D
102
{ACAD_REACTORS
330
C
102
}
330
C
100
AcDbDictionary
281
     1
  0
DICTIONARY
  5
1A
102
{ACAD_REACTORS
330
C
102
}
330
C
100
AcDbDictionary
281
     1
  3
Layout1
350
1E
  3
Layout2
350
26
  3
Model
350
22
  0
DICTIONARY
  5
17
102
{ACAD_REACTORS
330
C
102
}
330
C
100
AcDbDictionary
281
     1
  3
Standard
350
18
  0
DICTIONARY
  5
19
102
{ACAD_REACTORS
330
C
102
}
330
C
100
AcDbDictionary
281
     1
  0
ACDBDICTIONARYWDFLT
  5
E
102
{ACAD_REACTORS
330
C
102
}
330
C
100
AcDbDictionary
281
     1
  3
Normal
350
F
100
AcDbDictionaryWithDefault
340
F
  0
LAYOUT
  5
1E
102
{ACAD_REACTORS
330
1A
102
}
330
1A
100
AcDbPlotSettings
  1

  2
none_device
  4

  6

 40
0.0
 41
0.0
 42
0.0
 43
0.0
 44
0.0
 45
0.0
 46
0.0
 47
0.0
 48
0.0
 49
0.0
140
0.0
141
0.0
142
1.0
143
1.0
 70
   688
 72
     0
 73
     0
 74
     5
  7

 75
    16
147
1.0
148
0.0
149
0.0
100
AcDbLayout
  1
Layout1
 70
     1
 71
     1
 10
0.0
 20
0.0
 11
420.0
 21
297.0
 12
0.0
 22
0.0
 32
0.0
 14
1.0000000000E+20
 24
1.0000000000E+20
 34
1.0000000000E+20
 15
-1.0000000000E+20
 25
-1.0000000000E+20
 35
-1.0000000000E+20
146
0.0
 13
0.0
 23
0.0
 33
0.0
 16
1.0
 26
0.0
 36
0.0
 17
0.0
 27
1.0
 37
0.0
 76
     0
330
1B
  0
LAYOUT
  5
26
102
{ACAD_REACTORS
330
1A
102
}
330
1A
100
AcDbPlotSettings
  1

  2
none_device
  4

  6

 40
0.0
 41
0.0
 42
0.0
 43
0.0
 44
0.0
 45
0.0
 46
0.0
 47
0.0
 48
0.0
 49
0.0
140
0.0
141
0.0
142
1.0
143
1.0
 70
   688
 72
     0
 73
     0
 74
     5
  7

 75
    16
147
1.0
148
0.0
149
0.0
100
AcDbLayout
  1
Layout2
 70
     1
 71
     2
 10
0.0
 20
0.0
 11
0.0
 21
0.0
 12
0.0
 22
0.0
 32
0.0
 14
0.0
 24
0.0
 34
0.0
 15
0.0
 25
0.0
 35
0.0
146
0.0
 13
0.0
 23
0.0
 33
0.0
 16
1.0
 26
0.0
 36
0.0
 17
0.0
 27
1.0
 37
0.0
 76
     0
330
23
  0
LAYOUT
  5
22
102
{ACAD_REACTORS
330
1A
102
}
330
1A
100
AcDbPlotSettings
  1

  2
none_device
  4

  6

 40
0.0
 41
0.0
 42
0.0
 43
0.0
 44
0.0
 45
0.0
 46
0.0
 47
0.0
 48
0.0
 49
0.0
140
0.0
141
0.0
142
1.0
143
1.0
 70
  1712
 72
     0
 73
     0
 74
     0
  7

 75
     0
147
1.0
148
0.0
149
0.0
100
AcDbLayout
  1
Model
 70
     1
 71
     0
 10
0.0
 20
0.0
 11
420.0
 21
297.0
 12
0.0
 22
0.0
 32
0.0
 14
0.0
 24
0.0
 34
0.0
 15
420.0
 25
297.0
 35
0.0
146
0.0
 13
0.0
 23
0.0
 33
0.0
 16
1.0
 26
0.0
 36
0.0
 17
0.0
 27
1.0
 37
0.0
 76
     0
330
1F
331
29
  0
MLINESTYLE
  5
18
102
{ACAD_REACTORS
330
17
102
}
330
17
100
AcDbMlineStyle
  2
Standard
 70
     0
  3

 62
   256
 51
90.0
 52
90.0
 71
     2
 49
0.5
 62
   256
  6
BYLAYER
 49
-0.5
 62
   256
  6
BYLAYER
  0
ACDBPLACEHOLDER
  5
F
102
{ACAD_REACTORS
330
E
102
}
330
E
  0
ENDSEC
  0
EOF
