  0
SECTION
  2
HEADER
  9
$ACADVER
  1
AC1015
  9
$ACADMAINTVER
 70
     6
  9
$DWGCODEPAGE
  3
ANSI_1252
  9
$INSBASE
 10
0.0
 20
0.0
 30
0.0
  9
$EXTMIN
 10
0.0
 20
0.0
 30
0.0
  9
$EXTMAX
 10
420.0
 20
297.0
 30
0.0
  9
$LIMMIN
 10
0.0
 20
0.0
  9
$LIMMAX
 10
420.0
 20
297.0
  9
$ORTHOMODE
 70
     0
  9
$REGENMODE
 70
     1
  9
$FILLMODE
 70
     1
  9
$QTEXTMODE
 70
     0
  9
$MIRRTEXT
 70
     1
  9
$LTSCALE
 40
1.0
  9
$ATTMODE
 70
     1
  9
$TEXTSIZE
 40
3.5
  9
$TRACEWID
 40
1.0
  9
$TEXTSTYLE
  7
Standard
  9
$CLAYER
  8
0
  9
$CELTYPE
  6
ByLayer
  9
$CECOLOR
 62
   256
  9
$CELTSCALE
 40
1.0
  9
$DISPSILH
 70
     0
  9
$DIMSCALE
 40
1.0
  9
$DIMASZ
 40
3.302
  9
$DIMEXO
 40
1.0
  9
$DIMDLI
 40
3.75
  9
$DIMRND
 40
0.0
  9
$DIMDLE
 40
0.0
  9
$DIMEXE
 40
1.0
  9
$DIMTP
 40
0.0
  9
$DIMTM
 40
0.0
  9
$DIMTXT
 40
3.5
  9
$DIMCEN
 40
2.5
  9
$DIMTSZ
 40
0.0
  9
$DIMTOL
 70
     0
  9
$DIMLIM
 70
     0
  9
$DIMTIH
 70
     1
  9
$DIMTOH
 70
     1
  9
$DIMSE1
 70
     0
  9
$DIMSE2
 70
     0
  9
$DIMTAD
 70
     1
  9
$DIMZIN
 70
     0
  9
$DIMBLK
  1

  9
$DIMASO
 70
     1
  9
$DIMSHO
 70
     1
  9
$DIMPOST
  1

  9
$DIMAPOST
  1

  9
$DIMALT
 70
     0
  9
$DIMALTD
 70
     3
  9
$DIMALTF
 40
0.0393700787
  9
$DIMLFAC
 40
5.0
  9
$DIMTOFL
 70
     1
  9
$DIMTVP
 40
0.0
  9
$DIMTIX
 70
     0
  9
$DIMSOXD
 70
     0
  9
$DIMSAH
 70
     0
  9
$DIMBLK1
  1

  9
$DIMBLK2
  1

  9
$DIMSTYLE
  2
ISO-25
  9
$DIMCLRD
 70
     0
  9
$DIMCLRE
 70
     0
  9
$DIMCLRT
 70
     0
  9
$DIMTFAC
 40
1.0
  9
$DIMGAP
 40
1.524
  9
$DIMJUST
 70
     0
  9
$DIMSD1
 70
     0
  9
$DIMSD2
 70
     0
  9
$DIMTOLJ
 70
     0
  9
$DIMTZIN
 70
     0
  9
$DIMALTZ
 70
     0
  9
$DIMALTTZ
 70
     0
  9
$DIMUPT
 70
     0
  9
$DIMDEC
 70
     1
  9
$DIMTDEC
 70
     1
  9
$DIMALTU
 70
     2
  9
$DIMALTTD
 70
     3
  9
$DIMTXSTY
  7
Standard
  9
$DIMAUNIT
 70
     0
  9
$DIMADEC
 70
     1
  9
$DIMALTRND
 40
0.0
  9
$DIMAZIN
 70
     0
  9
$DIMDSEP
 70
    44
  9
$DIMATFIT
 70
     3
  9
$DIMFRAC
 70
     0
  9
$DIMLDRBLK
  1

  9
$DIMLUNIT
 70
     2
  9
$DIMLWD
 70
    -2
  9
$DIMLWE
 70
    -2
  9
$DIMTMOVE
 70
     0
  9
$LUNITS
 70
     2
  9
$LUPREC
 70
     1
  9
$SKETCHINC
 40
1.0
  9
$FILLETRAD
 40
10.0
  9
$AUNITS
 70
     0
  9
$AUPREC
 70
     1
  9
$MENU
  1
.
  9
$ELEVATION
 40
0.0
  9
$PELEVATION
 40
0.0
  9
$THICKNESS
 40
0.0
  9
$LIMCHECK
 70
     0
  9
$CHAMFERA
 40
10.0
  9
$CHAMFERB
 40
10.0
  9
$CHAMFERC
 40
20.0
  9
$CHAMFERD
 40
0.0
  9
$SKPOLY
 70
     0
  9
$TDCREATE
 40
2456191.344318345
  9
$TDUCREATE
 40
2456191.302651678
  9
$TDUPDATE
 40
2456191.344319433
  9
$TDUUPDATE
 40
2456191.302652766
  9
$TDINDWG
 40
0.0000000116
  9
$TDUSRTIMER
 40
0.0000000116
  9
$USRTIMER
 70
     1
  9
$ANGBASE
 50
0.0
  9
$ANGDIR
 70
     0
  9
$PDMODE
 70
     0
  9
$PDSIZE
 40
-1.0
  9
$PLINEWID
 40
0.0
  9
$SPLFRAME
 70
     0
  9
$SPLINETYPE
 70
     6
  9
$SPLINESEGS
 70
     8
  9
$HANDSEED
  5
2C2
  9
$SURFTAB1
 70
     6
  9
$SURFTAB2
 70
     6
  9
$SURFTYPE
 70
     6
  9
$SURFU
 70
     6
  9
$SURFV
 70
     6
  9
$UCSBASE
  2

  9
$UCSNAME
  2

  9
$UCSORG
 10
0.0
 20
0.0
 30
0.0
  9
$UCSXDIR
 10
1.0
 20
0.0
 30
0.0
  9
$UCSYDIR
 10
0.0
 20
1.0
 30
0.0
  9
$UCSORTHOREF
  2

  9
$UCSORTHOVIEW
 70
     0
  9
$UCSORGTOP
 10
0.0
 20
0.0
 30
0.0
  9
$UCSORGBOTTOM
 10
0.0
 20
0.0
 30
0.0
  9
$UCSORGLEFT
 10
0.0
 20
0.0
 30
0.0
  9
$UCSORGRIGHT
 10
0.0
 20
0.0
 30
0.0
  9
$UCSORGFRONT
 10
0.0
 20
0.0
 30
0.0
  9
$UCSORGBACK
 10
0.0
 20
0.0
 30
0.0
  9
$PUCSBASE
  2

  9
$PUCSNAME
  2

  9
$PUCSORG
 10
0.0
 20
0.0
 30
0.0
  9
$PUCSXDIR
 10
1.0
 20
0.0
 30
0.0
  9
$PUCSYDIR
 10
0.0
 20
1.0
 30
0.0
  9
$PUCSORTHOREF
  2

  9
$PUCSORTHOVIEW
 70
     0
  9
$PUCSORGTOP
 10
0.0
 20
0.0
 30
0.0
  9
$PUCSORGBOTTOM
 10
0.0
 20
0.0
 30
0.0
  9
$PUCSORGLEFT
 10
0.0
 20
0.0
 30
0.0
  9
$PUCSORGRIGHT
 10
0.0
 20
0.0
 30
0.0
  9
$PUCSORGFRONT
 10
0.0
 20
0.0
 30
0.0
  9
$PUCSORGBACK
 10
0.0
 20
0.0
 30
0.0
  9
$USERI1
 70
     0
  9
$USERI2
 70
     0
  9
$USERI3
 70
     0
  9
$USERI4
 70
     0
  9
$USERI5
 70
     0
  9
$USERR1
 40
0.0
  9
$USERR2
 40
0.0
  9
$USERR3
 40
0.0
  9
$USERR4
 40
0.0
  9
$USERR5
 40
0.0
  9
$WORLDVIEW
 70
     1
  9
$SHADEDGE
 70
     3
  9
$SHADEDIF
 70
    70
  9
$TILEMODE
 70
     1
  9
$MAXACTVP
 70
    64
  9
$PINSBASE
 10
0.0
 20
0.0
 30
0.0
  9
$PLIMCHECK
 70
     0
  9
$PEXTMIN
 10
1.0000000000E+20
 20
1.0000000000E+20
 30
1.0000000000E+20
  9
$PEXTMAX
 10
-1.0000000000E+20
 20
-1.0000000000E+20
 30
-1.0000000000E+20
  9
$PLIMMIN
 10
0.0
 20
0.0
  9
$PLIMMAX
 10
420.0
 20
297.0
  9
$UNITMODE
 70
     0
  9
$VISRETAIN
 70
     1
  9
$PLINEGEN
 70
     0
  9
$PSLTSCALE
 70
     1
  9
$TREEDEPTH
 70
  3020
  9
$CMLSTYLE
  2
Standard
  9
$CMLJUST
 70
     0
  9
$CMLSCALE
 40
20.0
  9
$PROXYGRAPHICS
 70
     1
  9
$MEASUREMENT
 70
     1
  9
$CELWEIGHT
370
    -1
  9
$ENDCAPS
280
     0
  9
$JOINSTYLE
280
     0
  9
$LWDISPLAY
290
     1
  9
$INSUNITS
 70
     4
  9
$HYPERLINKBASE
  1

  9
$STYLESHEET
  1

  9
$XEDIT
290
     1
  9
$CEPSNTYPE
380
     0
  9
$PSTYLEMODE
290
     1
  9
$FINGERPRINTGUID
  2
{E3C431BB-A85B-49CE-9A79-7C25439FF424}
  9
$VERSIONGUID
  2
{FAEB1C32-E019-11D5-929B-00C0DF256EC4}
  9
$EXTNAMES
290
     1
  9
$PSVPSCALE
 40
0.0
  9
$OLESTARTUP
290
     0
  0
ENDSEC
  0
SECTION
  2
CLASSES
  0
CLASS
  1
ACDBDICTIONARYWDFLT
  2
AcDbDictionaryWithDefault
  3
ObjectDBX Classes
 90
        0
280
     0
281
     0
  0
CLASS
  1
VISUALSTYLE
  2
AcDbVisualStyle
  3
ObjectDBX Classes
 90
     4095
280
     0
281
     0
  0
CLASS
  1
MATERIAL
  2
AcDbMaterial
  3
ObjectDBX Classes
 90
     1153
280
     0
281
     0
  0
CLASS
  1
ACDBPLACEHOLDER
  2
AcDbPlaceHolder
  3
ObjectDBX Classes
 90
        0
280
     0
281
     0
  0
CLASS
  1
LAYOUT
  2
AcDbLayout
  3
ObjectDBX Classes
 90
        0
280
     0
281
     0
  0
ENDSEC
  0
SECTION
  2
TABLES
  0
TABLE
  2
VPORT
  5
8
330
0
100
AcDbSymbolTable
 70
     1
  0
VPORT
  5
29
330
8
100
AcDbSymbolTableRecord
100
AcDbViewportTableRecord
  2
*Active
 70
     0
 10
0.0
 20
0.0
 11
1.0
 21
1.0
 12
210.0
 22
148.5
 13
0.0
 23
0.0
 14
10.0
 24
10.0
 15
10.0
 25
10.0
 16
0.0
 26
0.0
 36
1.0
 17
0.0
 27
0.0
 37
0.0
 40
297.0
 41
1.4141414141
 42
50.0
 43
0.0
 44
0.0
 50
0.0
 51
0.0
 71
     0
 72
  2000
 73
     1
 74
     3
 75
     0
 76
     0
 77
     0
 78
     0
281
     0
 65
     1
110
0.0
120
0.0
130
0.0
111
1.0
121
0.0
131
0.0
112
0.0
122
1.0
132
0.0
 79
     0
146
0.0
  0
ENDTAB
  0
TABLE
  2
LTYPE
  5
5
330
0
100
AcDbSymbolTable
 70
     6
  0
LTYPE
  5
14
330
5
100
AcDbSymbolTableRecord
100
AcDbLinetypeTableRecord
  2
ByBlock
 70
     0
  3

 72
    65
 73
     0
 40
0.0
  0
LTYPE
  5
15
330
5
100
AcDbSymbolTableRecord
100
AcDbLinetypeTableRecord
  2
ByLayer
 70
     0
  3

 72
    65
 73
     0
 40
0.0
  0
LTYPE
  5
16
330
5
100
AcDbSymbolTableRecord
100
AcDbLinetypeTableRecord
  2
Continuous
 70
     0
  3
Solid line
 72
    65
 73
     0
 40
0.0
  0
LTYPE
  5
3F
330
5
100
AcDbSymbolTableRecord
100
AcDbLinetypeTableRecord
  2
HIDDEN
 70
     0
  3
Hidden __ __ __ __ __ __ __ __ __ __ __ __ __ __
 72
    65
 73
     2
 40
1.905
 49
1.27
 74
     0
 49
-0.635
 74
     0
  0
LTYPE
  5
40
330
5
100
AcDbSymbolTableRecord
100
AcDbLinetypeTableRecord
  2
PHANTOM
 70
     0
  3
Phantom ______  __  __  ______  __  __  ______
 72
    65
 73
     6
 40
12.7
 49
6.35
 74
     0
 49
-1.27
 74
     0
 49
1.27
 74
     0
 49
-1.27
 74
     0
 49
1.27
 74
     0
 49
-1.27
 74
     0
  0
LTYPE
  5
41
330
5
100
AcDbSymbolTableRecord
100
AcDbLinetypeTableRecord
  2
CENTER
 70
     0
  3
Center ____ _ ____ _ ____ _ ____ _ ____ _ ____
 72
    65
 73
     4
 40
10.16
 49
6.35
 74
     0
 49
-1.27
 74
     0
 49
1.27
 74
     0
 49
-1.27
 74
     0
  0
LTYPE
  5
42
330
5
100
AcDbSymbolTableRecord
100
AcDbLinetypeTableRecord
  2
CENTERX2
 70
     0
  3
Center (2x) ________  __  ________  __  _____
 72
    65
 73
     4
 40
20.32
 49
12.7
 74
     0
 49
-2.54
 74
     0
 49
2.54
 74
     0
 49
-2.54
 74
     0
  0
LTYPE
  5
43
330
5
100
AcDbSymbolTableRecord
100
AcDbLinetypeTableRecord
  2
DOT2
 70
     0
  3
Dot (.5x) ........................................
 72
    65
 73
     2
 40
0.635
 49
0.0
 74
     0
 49
-0.635
 74
     0
  0
ENDTAB
  0
TABLE
  2
LAYER
  5
2
330
0
100
AcDbSymbolTable
 70
     4
  0
LAYER
  5
10
330
2
100
AcDbSymbolTableRecord
100
AcDbLayerTableRecord
  2
0
 70
     0
 62
     7
  6
Continuous
370
    -3
390
F
  0
LAYER
  5
44
330
2
100
AcDbSymbolTableRecord
100
AcDbLayerTableRecord
  2
FORMAT
 70
     0
 62
     7
  6
Continuous
370
    -3
390
F
  0
LAYER
  5
45
330
2
100
AcDbSymbolTableRecord
100
AcDbLayerTableRecord
  2
SLD-0
 70
     0
 62
     1
  6
Continuous
370
    -3
390
F
  0
LAYER
  5
46
330
2
100
AcDbSymbolTableRecord
100
AcDbLayerTableRecord
  2
WATERMARK
 70
     0
 62
    20
  6
Continuous
370
    -3
390
F
  0
ENDTAB
  0
TABLE
  2
STYLE
  5
3
330
0
100
AcDbSymbolTable
 70
     1
  0
STYLE
  5
11
330
3
100
AcDbSymbolTableRecord
100
AcDbTextStyleTableRecord
  2
Standard
 70
     0
 40
0.0
 41
1.0
 50
0.0
 71
     0
 42
3.5
  3
txt
  4

  0
ENDTAB
  0
TABLE
  2
VIEW
  5
6
330
0
100
AcDbSymbolTable
 70
     0
  0
ENDTAB
  0
TABLE
  2
UCS
  5
7
330
0
100
AcDbSymbolTable
 70
     0
  0
ENDTAB
  0
TABLE
  2
APPID
  5
9
330
0
100
AcDbSymbolTable
 70
     1
  0
APPID
  5
12
330
9
100
AcDbSymbolTableRecord
100
AcDbRegAppTableRecord
  2
ACAD
 70
     0
  0
ENDTAB
  0
TABLE
  2
DIMSTYLE
  5
A
330
0
100
AcDbSymbolTable
 70
     1
100
AcDbDimStyleTable
  0
DIMSTYLE
105
27
330
A
100
AcDbSymbolTableRecord
100
AcDbDimStyleTableRecord
  2
ISO-25
 70
     0
 41
2.5
 42
0.625
 43
3.75
 44
1.25
 73
     0
 74
     0
 77
     1
 78
     8
140
2.5
141
2.5
143
0.0393700787
147
0.625
171
     3
172
     1
178
     0
271
     2
272
     2
274
     3
278
    44
283
     0
284
     8
340
11
  0
ENDTAB
  0
TABLE
  2
BLOCK_RECORD
  5
1
330
0
100
AcDbSymbolTable
 70
     1
  0
BLOCK_RECORD
  5
1F
330
1
100
AcDbSymbolTableRecord
100
AcDbBlockTableRecord
  2
*Model_Space
340
22
  0
BLOCK_RECORD
  5
1B
330
1
100
AcDbSymbolTableRecord
100
AcDbBlockTableRecord
  2
*Paper_Space
340
1E
  0
BLOCK_RECORD
  5
23
330
1
100
AcDbSymbolTableRecord
100
AcDbBlockTableRecord
  2
*Paper_Space0
340
26
  0
ENDTAB
  0
ENDSEC
  0
SECTION
  2
BLOCKS
  0
BLOCK
  5
20
330
1F
100
AcDbEntity
  8
0
100
AcDbBlockBegin
  2
*Model_Space
 70
     0
 10
0.0
 20
0.0
 30
0.0
  3
*Model_Space
  1

  0
ENDBLK
  5
21
330
1F
100
AcDbEntity
  8
0
100
AcDbBlockEnd
  0
BLOCK
  5
1C
330
1B
100
AcDbEntity
 67
     1
  8
0
100
AcDbBlockBegin
  2
*Paper_Space
 70
     0
 10
0.0
 20
0.0
 30
0.0
  3
*Paper_Space
  1

  0
ENDBLK
  5
1D
330
1B
100
AcDbEntity
 67
     1
  8
0
100
AcDbBlockEnd
  0
BLOCK
  5
24
330
23
100
AcDbEntity
  8
0
100
AcDbBlockBegin
  2
*Paper_Space0
 70
     0
 10
0.0
 20
0.0
 30
0.0
  3
*Paper_Space0
  1

  0
ENDBLK
  5
25
330
23
100
AcDbEntity
  8
0
100
AcDbBlockEnd
  0
ENDSEC
  0
SECTION
  2
ENTITIES
  0
ARC
  5
47
330
1F
100
AcDbEntity
  8
0
  6
Continuous
 62
     7
370
    15
100
AcDbCircle
 10
208.3464727027
 20
78.7884444337
 30
0.0
 40
0.0999999999999954
100
AcDbArc
 50
243.5582926744
 51
270.0
  0
ARC
  5
48
330
1F
100
AcDbEntity
  8
0
  6
Continuous
 62
     7
370
    15
100
AcDbCircle
 10
210.3064727027
 20
78.7884444337
 30
0.0
 40
0.0999999999999954
100
AcDbArc
 50
270.0
 51
296.4417073256
  0
LINE
  5
49
330
1F
100
AcDbEntity
  8
0
  6
Continuous
 62
     7
370
    15
100
AcDbLine
 10
214.4482268286
 20
78.6989055956
 30
0.0
 11
214.5761838448
 21
78.3790134276
 31
0.0
  0
LINE
  5
4A
330
1F
100
AcDbEntity
  8
0
  6
Continuous
 62
     7
370
    15
100
AcDbLine
 10
226.0767607284
 20
78.3790134276
 30
0.0
 11
226.2047184897
 21
78.6989055956
 31
0.0
  0
SPLINE
  5
4B
330
1F
100
AcDbEntity
  8
0
  6
Continuous
 62
     7
370
    15
100
AcDbSpline
210
0.0
220
0.0
230
1.0
 70
     8
 71
     3
 72
    12
 73
     8
 74
     0
 42
0.00000001
 43
0.00000001
 12
1.0
 22
0.0
 32
0.0
 13
1.0
 23
0.0
 33
0.0
 40
0.0
 40
0.0
 40
0.0
 40
0.0
 40
0.04954656473865
 40
0.3660698825791641
 40
0.6392220848474279
 40
0.8942835003830153
 40
0.9999999999999999
 40
0.9999999999999999
 40
0.9999999999999999
 40
0.9999999999999999
 10
223.1571896266991
 20
77.63200629602727
 30
0.0
 10
223.1585948792349
 20
77.64165967959269
 30
0.0
 10
223.1689774483085
 20
77.71298274723465
 30
0.0
 10
223.2186190894541
 20
77.84394148893102
 30
0.0
 10
223.320479481292
 20
78.0019330785928
 30
0.0
 10
223.4218852731885
 20
78.11035708890265
 30
0.0
 10
223.4870547694573
 20
78.14835056838677
 30
0.0
 10
223.5061509800011
 20
78.15948356043157
 30
0.0
  0
SPLINE
  5
4C
330
1F
100
AcDbEntity
  8
0
  6
Continuous
 62
     7
370
    15
100
AcDbSpline
210
0.0
220
0.0
230
1.0
 70
     8
 71
     3
 72
    11
 73
     7
 74
     0
 42
0.00000001
 43
0.00000001
 12
1.0
 22
0.0
 32
0.0
 13
1.0
 23
0.0
 33
0.0
 40
0.0
 40
0.0
 40
0.0
 40
0.0
 40
0.1919414647362778
 40
0.4689975469163812
 40
0.7635648490513312
 40
1.0
 40
1.0
 40
1.0
 40
1.0
 10
217.1734018516595
 20
78.14202535997686
 30
0.0
 10
217.2055614768646
 20
78.11839391335636
 30
0.0
 10
217.2841416072792
 20
78.06065187981334
 30
0.0
 10
217.3849560631323
 20
77.92777291130383
 30
0.0
 10
217.4652777358907
 20
77.77651024479519
 30
0.0
 10
217.483114039294
 20
77.6767607085957
 30
0.0
 10
217.4910558652932
 20
77.63234604250249
 30
0.0
  0
LINE
  5
4D
330
1F
100
AcDbEntity
  8
0
  6
Continuous
 62
     7
370
    15
100
AcDbLine
 10
217.9481907082
 20
74.7768663252
 30
0.0
 11
217.99498855
 21
74.4279168929
 31
0.0
  0
SPLINE
  5
4E
330
1F
100
AcDbEntity
  8
0
  6
Continuous
 62
     7
370
    15
100
AcDbSpline
210
0.0
220
0.0
230
1.0
 70
     8
 71
     3
 72
    10
 73
     6
 74
     0
 42
0.00000001
 43
0.00000001
 12
1.0
 22
0.0
 32
0.0
 13
1.0
 23
0.0
 33
0.0
 40
0.0
 40
0.0
 40
0.0
 40
0.0
 40
0.1237920914098349
 40
0.8061781635355937
 40
1.0
 40
1.0
 40
1.0
 40
1.0
 10
217.4953712415749
 20
77.63188112627324
 30
0.0
 10
217.5170370903226
 20
77.51374329223755
 30
0.0
 10
217.6581328094103
 20
76.74438766537726
 30
0.0
 10
217.8147591846687
 20
75.78997491858225
 30
0.0
 10
217.9240213399347
 20
74.96037764257848
 30
0.0
 10
217.9481907081658
 20
74.77686632524785
 30
0.0
  0
SPLINE
  5
4F
330
1F
100
AcDbEntity
  8
0
  6
Continuous
 62
     7
370
    15
100
AcDbSpline
210
0.0
220
0.0
230
1.0
 70
     8
 71
     3
 72
     9
 73
     5
 74
     0
 42
0.00000001
 43
0.00000001
 12
1.0
 22
0.0
 32
0.0
 13
1.0
 23
0.0
 33
0.0
 40
0.0
 40
0.0
 40
0.0
 40
0.0
 40
0.5175653766723001
 40
1.0
 40
1.0
 40
1.0
 40
1.0
 10
222.6519121122414
 20
74.42665327440557
 30
0.0
 10
222.7289302516125
 20
74.97805510103944
 30
0.0
 10
222.8777387748299
 20
76.0434312863228
 30
0.0
 10
223.0673334206723
 20
77.11504606552727
 30
0.0
 10
223.1588004422242
 20
77.63203013788518
 30
0.0
  0
ARC
  5
50
330
1F
100
AcDbEntity
  8
0
  6
Continuous
 62
     7
370
    15
100
AcDbCircle
 10
225.8910661104
 20
78.4532904056
 30
0.0
 40
0.2000000000000331
100
AcDbArc
 50
270.0
 51
338.1985905136
  0
ARC
  5
51
330
1F
100
AcDbEntity
  8
0
  6
Continuous
 62
     7
370
    15
100
AcDbCircle
 10
214.761879295
 20
78.4532904056
 30
0.0
 40
0.1999999999999886
100
AcDbArc
 50
201.8014094864
 51
270.0
  0
ARC
  5
52
330
1F
100
AcDbEntity
  8
0
  6
Continuous
 62
     7
370
    15
100
AcDbCircle
 10
218.1995120506
 20
74.4532904056
 30
0.0
 40
0.2000000000000144
100
AcDbArc
 50
187.6598619983
 51
270.0
  0
ARC
  5
53
330
1F
100
AcDbEntity
  8
0
  6
Continuous
 62
     7
370
    15
100
AcDbCircle
 10
222.4534333548
 20
74.4532904056
 30
0.0
 40
0.2000000000000162
100
AcDbArc
 50
270.0
 51
352.3401380017
  0
LINE
  5
54
330
1F
100
AcDbEntity
  8
0
  6
Continuous
 62
     7
370
    15
100
AcDbLine
 10
240.3864739728
 20
239.8084424819
 30
0.0
 11
239.9864731622
 21
240.2084432925
 31
0.0
  0
LINE
  5
55
330
1F
100
AcDbEntity
  8
0
  6
Continuous
 62
     7
370
    15
100
AcDbLine
 10
236.386471827
 20
240.2084432925
 30
0.0
 11
235.9864739966
 21
239.8084424819
 31
0.0
  0
LINE
  5
56
330
1F
100
AcDbEntity
  8
0
  6
Continuous
 62
     7
370
    15
100
AcDbLine
 10
235.9864739966
 20
239.8084424819
 30
0.0
 11
236.386471827
 21
239.4084416712
 31
0.0
  0
LINE
  5
57
330
1F
100
AcDbEntity
  8
0
  6
Continuous
 62
     7
370
    15
100
AcDbLine
 10
239.9864731622
 20
239.4084416712
 30
0.0
 11
240.3864739728
 21
239.8084424819
 31
0.0
  0
LINE
  5
58
330
1F
100
AcDbEntity
  8
0
  6
Continuous
 62
     7
370
    15
100
AcDbLine
 10
235.9864739966
 20
240.6084441031
 30
0.0
 11
236.386471827
 21
240.2084432925
 31
0.0
  0
LINE
  5
59
330
1F
100
AcDbEntity
  8
0
  6
Continuous
 62
     7
370
    15
100
AcDbLine
 10
239.9864731622
 20
240.2084432925
 30
0.0
 11
240.3864739728
 21
240.6084441031
 31
0.0
  0
LINE
  5
5A
330
1F
100
AcDbEntity
  8
0
  6
Continuous
 62
     7
370
    15
100
AcDbLine
 10
240.3864739728
 20
240.6084441031
 30
0.0
 11
239.9864731622
 21
241.0084449137
 31
0.0
  0
LINE
  5
5B
330
1F
100
AcDbEntity
  8
0
  6
Continuous
 62
     7
370
    15
100
AcDbLine
 10
236.386471827
 20
241.0084449137
 30
0.0
 11
235.9864739966
 21
240.6084441031
 31
0.0
  0
LINE
  5
5C
330
1F
100
AcDbEntity
  8
0
  6
Continuous
 62
     7
370
    15
100
AcDbLine
 10
240.3864739728
 20
241.4084457244
 30
0.0
 11
239.9864731622
 21
241.808446535
 31
0.0
  0
LINE
  5
5D
330
1F
100
AcDbEntity
  8
0
  6
Continuous
 62
     7
370
    15
100
AcDbLine
 10
236.386471827
 20
241.808446535
 30
0.0
 11
235.9864739966
 21
241.4084457244
 31
0.0
  0
LINE
  5
5E
330
1F
100
AcDbEntity
  8
0
  6
Continuous
 62
     7
370
    15
100
AcDbLine
 10
235.9864739966
 20
241.4084457244
 30
0.0
 11
236.386471827
 21
241.0084449137
 31
0.0
  0
LINE
  5
5F
330
1F
100
AcDbEntity
  8
0
  6
Continuous
 62
     7
370
    15
100
AcDbLine
 10
239.9864731622
 20
241.0084449137
 30
0.0
 11
240.3864739728
 21
241.4084457244
 31
0.0
  0
LINE
  5
60
330
1F
100
AcDbEntity
  8
0
  6
Continuous
 62
     7
370
    15
100
AcDbLine
 10
240.3864739728
 20
242.2084473456
 30
0.0
 11
239.9864731622
 21
242.6084421958
 31
0.0
  0
LINE
  5
61
330
1F
100
AcDbEntity
  8
0
  6
Continuous
 62
     7
370
    15
100
AcDbLine
 10
236.386471827
 20
242.6084421958
 30
0.0
 11
235.9864739966
 21
242.2084473456
 31
0.0
  0
LINE
  5
62
330
1F
100
AcDbEntity
  8
0
  6
Continuous
 62
     7
370
    15
100
AcDbLine
 10
235.9864739966
 20
242.2084473456
 30
0.0
 11
236.386471827
 21
241.808446535
 31
0.0
  0
LINE
  5
63
330
1F
100
AcDbEntity
  8
0
  6
Continuous
 62
     7
370
    15
100
AcDbLine
 10
239.9864731622
 20
241.808446535
 30
0.0
 11
240.3864739728
 21
242.2084473456
 31
0.0
  0
LINE
  5
64
330
1F
100
AcDbEntity
  8
0
  6
Continuous
 62
     7
370
    15
100
AcDbLine
 10
235.9864739966
 20
239.4084416712
 30
0.0
 11
235.9864739966
 21
235.9684430445
 31
0.0
  0
LINE
  5
65
330
1F
100
AcDbEntity
  8
0
  6
Continuous
 62
     7
370
    15
100
AcDbLine
 10
235.9864739966
 20
234.4864033545
 30
0.0
 11
235.9864739966
 21
228.8343511904
 31
0.0
  0
LINE
  5
66
330
1F
100
AcDbEntity
  8
0
  6
Continuous
 62
     7
370
    15
100
AcDbLine
 10
240.3864739728
 20
228.8343511904
 30
0.0
 11
240.3864739728
 21
228.9284430827
 31
0.0
  0
LINE
  5
67
330
1F
100
AcDbEntity
  8
0
  6
Continuous
 62
     7
370
    15
100
AcDbLine
 10
240.3864739728
 20
229.1684471453
 30
0.0
 11
240.3864739728
 21
234.4862543429
 31
0.0
  0
LINE
  5
68
330
1F
100
AcDbEntity
  8
0
  6
Continuous
 62
     7
370
    15
100
AcDbLine
 10
240.3864739728
 20
235.9684430445
 30
0.0
 11
240.3864739728
 21
239.4084416712
 31
0.0
  0
LINE
  5
69
330
1F
100
AcDbEntity
  8
0
  6
Continuous
 62
     7
370
    15
100
AcDbLine
 10
165.3688429189
 20
78.6989055956
 30
0.0
 11
245.368844111
 21
78.6989055956
 31
0.0
  0
SPLINE
  5
6A
330
1F
100
AcDbEntity
  8
0
  6
Continuous
 62
     7
370
    15
100
AcDbSpline
210
0.0
220
0.0
230
1.0
 70
     8
 71
     3
 72
    13
 73
     9
 74
     0
 42
0.00000001
 43
0.00000001
 12
1.0
 22
0.0
 32
0.0
 13
1.0
 23
0.0
 33
0.0
 40
0.0
 40
0.0
 40
0.0
 40
0.0
 40
0.1560129106427974
 40
0.4086751448367915
 40
0.5953203984763693
 40
0.7561085586503937
 40
0.9248987486473789
 40
1.0
 40
1.0
 40
1.0
 40
1.0
 10
223.8976819706017
 20
238.1682359064704
 30
0.0
 10
223.8981256592214
 20
238.1682880594533
 30
0.0
 10
223.8992878996422
 20
238.1684246739665
 30
0.0
 10
223.9038963608587
 20
238.1663448443707
 30
0.0
 10
223.911850176019
 20
238.157207698969
 30
0.0
 10
223.9179549604901
 20
238.1436483579889
 30
0.0
 10
223.9212764334278
 20
238.129877572443
 30
0.0
 10
223.921047462644
 20
238.1211344479424
 30
0.0
 10
223.920976955896
 20
238.118442186225
 30
0.0
  0
ARC
  5
6B
330
1F
100
AcDbEntity
  8
0
  6
Continuous
 62
     7
370
    15
100
AcDbCircle
 10
223.9713545699
 20
237.0984444337
 30
0.0
 40
0.0500000000000114
100
AcDbArc
 50
180.0
 51
270.0
  0
LINE
  5
6C
330
1F
100
AcDbEntity
  8
0
  6
Continuous
 62
     7
370
    15
100
AcDbLine
 10
223.9213539553
 20
238.1184421862
 30
0.0
 11
223.9213539553
 21
237.0984457816
 31
0.0
  0
ARC
  5
6D
330
1F
100
AcDbEntity
  8
0
  6
Continuous
 62
     7
370
    15
100
AcDbCircle
 10
224.9365879643
 20
237.0984444337
 30
0.0
 40
0.0500000000000114
100
AcDbArc
 50
270.0
 51
0.0
  0
LINE
  5
6E
330
1F
100
AcDbEntity
  8
0
  6
Continuous
 62
     7
370
    15
100
AcDbLine
 10
224.9865873051
 20
237.0984457816
 30
0.0
 11
224.9865873051
 21
238.1184421862
 31
0.0
  0
ARC
  5
6F
330
1F
100
AcDbEntity
  8
0
  6
Continuous
 62
     7
370
    15
100
AcDbCircle
 10
224.8764727027
 20
238.3584444337
 30
0.0
 40
0.0500000000000114
100
AcDbArc
 50
0.0
 51
90.0
  0
LINE
  5
70
330
1F
100
AcDbEntity
  8
0
  6
Continuous
 62
     7
370
    15
100
AcDbLine
 10
224.9264730406
 20
238.3057974661
 30
0.0
 11
224.9264730406
 21
238.3584462489
 31
0.0
  0
ARC
  5
71
330
1F
100
AcDbEntity
  8
0
  6
Continuous
 62
     7
370
    15
100
AcDbCircle
 10
221.4363574411
 20
237.0984444337
 30
0.0
 40
0.0500000000000114
100
AcDbArc
 50
180.0
 51
270.0
  0
LINE
  5
72
330
1F
100
AcDbEntity
  8
0
  6
Continuous
 62
     7
370
    15
100
AcDbLine
 10
221.3863579822
 20
238.0041383589
 30
0.0
 11
221.3863579822
 21
237.0984457816
 31
0.0
  0
SPLINE
  5
73
330
1F
100
AcDbEntity
  8
0
  6
Continuous
 62
     7
370
    15
100
AcDbSpline
210
0.0
220
0.0
230
1.0
 70
     8
 71
     3
 72
    13
 73
     9
 74
     0
 42
0.00000001
 43
0.00000001
 12
1.0
 22
0.0
 32
0.0
 13
1.0
 23
0.0
 33
0.0
 40
0.0
 40
0.0
 40
0.0
 40
0.0
 40
0.1536956279624234
 40
0.4677887515464754
 40
0.6522839036775544
 40
0.8142986215019721
 40
0.9818156977952556
 40
1.0
 40
1.0
 40
1.0
 40
1.0
 10
222.3188830804879
 20
238.1689213598853
 30
0.0
 10
222.3174672541514
 20
238.1688480333901
 30
0.0
 10
222.3131580383127
 20
238.1686248565171
 30
0.0
 10
222.3050403758112
 20
238.1730799362379
 30
0.0
 10
222.2954214473861
 20
238.1855079846913
 30
0.0
 10
222.2898978850227
 20
238.1998029872463
 30
0.0
 10
222.2876637657724
 20
238.2115439111757
 30
0.0
 10
222.2880396157494
 20
238.2177714767099
 30
0.0
 10
222.2880764198357
 20
238.2183812941199
 30
0.0
  0
ARC
  5
74
330
1F
100
AcDbEntity
  8
0
  6
Continuous
 62
     7
370
    15
100
AcDbCircle
 10
222.2379491236
 20
239.2384444337
 30
0.0
 40
0.0500000000000398
100
AcDbArc
 50
0.0
 51
90.0
  0
LINE
  5
75
330
1F
100
AcDbEntity
  8
0
  6
Continuous
 62
     7
370
    15
100
AcDbLine
 10
222.28794976
 20
238.2184468592
 30
0.0
 11
222.28794976
 21
239.2384432639
 31
0.0
  0
ARC
  5
76
330
1F
100
AcDbEntity
  8
0
  6
Continuous
 62
     7
370
    15
100
AcDbCircle
 10
221.3503848807
 20
239.2384444337
 30
0.0
 40
0.0500000000000398
100
AcDbArc
 50
90.0
 51
180.0
  0
LINE
  5
77
330
1F
100
AcDbEntity
  8
0
  6
Continuous
 62
     7
370
    15
100
AcDbLine
 10
221.3003842425
 20
239.2384432639
 30
0.0
 11
221.3003842425
 21
238.2184468592
 31
0.0
  0
ARC
  5
78
330
1F
100
AcDbEntity
  8
0
  6
Continuous
 62
     7
370
    15
100
AcDbCircle
 10
221.4964727027
 20
237.9784444337
 30
0.0
 40
0.0500000000000114
100
AcDbArc
 50
211.0756875732
 51
270.0
  0
ARC
  5
79
330
1F
100
AcDbEntity
  8
0
  6
Continuous
 62
     7
370
    15
100
AcDbCircle
 10
225.0225605247
 20
239.2384444337
 30
0.0
 40
0.0500000000000114
100
AcDbArc
 50
0.0
 51
90.0
  0
LINE
  5
7A
330
1F
100
AcDbEntity
  8
0
  6
Continuous
 62
     7
370
    15
100
AcDbLine
 10
225.0725610447
 20
238.2184468592
 30
0.0
 11
225.0725610447
 21
239.2384432639
 31
0.0
  0
LINE
  5
7B
330
1F
100
AcDbEntity
  8
0
  6
Continuous
 62
     7
370
    15
100
AcDbLine
 10
222.1864728522
 20
236.8384443606
 30
0.0
 11
222.1184520316
 21
236.7991708602
 31
0.0
  0
LINE
  5
7C
330
1F
100
AcDbEntity
  8
0
  6
Continuous
 62
     7
370
    15
100
AcDbLine
 10
224.2544932556
 20
236.7991708602
 30
0.0
 11
224.186472435
 21
236.8384443606
 31
0.0
  0
LINE
  5
7D
330
1F
100
AcDbEntity
  8
0
  6
Continuous
 62
     7
370
    15
100
AcDbLine
 10
224.186472435
 20
236.8884466971
 30
0.0
 11
224.2170287561
 21
236.9060837115
 31
0.0
  0
LINE
  5
7E
330
1F
100
AcDbEntity
  8
0
  6
Continuous
 62
     7
370
    15
100
AcDbLine
 10
222.1864728522
 20
237.9284464205
 30
0.0
 11
222.1559165311
 21
237.9108034457
 31
0.0
  0
LINE
  5
7F
330
1F
100
AcDbEntity
  8
0
  6
Continuous
 62
     7
370
    15
100
AcDbLine
 10
222.1559165311
 20
236.9060837115
 30
0.0
 11
222.1864728522
 21
236.8884466971
 31
0.0
  0
LINE
  5
80
330
1F
100
AcDbEntity
  8
0
  6
Continuous
 62
     7
370
    15
100
AcDbLine
 10
223.7864731145
 20
236.8384443606
 30
0.0
 11
223.7864731145
 21
236.8884466971
 31
0.0
  0
LINE
  5
81
330
1F
100
AcDbEntity
  8
0
  6
Continuous
 62
     7
370
    15
100
AcDbLine
 10
222.5864721727
 20
236.8884466971
 30
0.0
 11
222.5864721727
 21
236.8384443606
 31
0.0
  0
LINE
  5
82
330
1F
100
AcDbEntity
  8
0
  6
Continuous
 62
     7
370
    15
100
AcDbLine
 10
165.6088440013
 20
82.4350856627
 30
0.0
 11
245.1288430286
 21
82.4350856627
 31
0.0
  0
LINE
  5
83
330
1F
100
AcDbEntity
  8
0
  6
Continuous
 62
     7
370
    15
100
AcDbLine
 10
245.1288430286
 20
82.4684463824
 30
0.0
 11
245.368844111
 21
82.4684463824
 31
0.0
  0
LINE
  5
84
330
1F
100
AcDbEntity
  8
0
  6
Continuous
 62
     7
370
    15
100
AcDbLine
 10
165.3688429189
 20
82.4684463824
 30
0.0
 11
165.6088440013
 21
82.4684463824
 31
0.0
  0
LINE
  5
85
330
1F
100
AcDbEntity
  8
0
  6
Continuous
 62
     7
370
    15
100
AcDbLine
 10
181.7688433719
 20
228.8343511904
 30
0.0
 11
181.7688433719
 21
234.4864033545
 31
0.0
  0
LINE
  5
86
330
1F
100
AcDbEntity
  8
0
  6
Continuous
 62
     7
370
    15
100
AcDbLine
 10
181.9288431001
 20
228.8343511904
 30
0.0
 11
181.9288431001
 21
234.4864033545
 31
0.0
  0
LINE
  5
87
330
1F
100
AcDbEntity
  8
0
  6
Continuous
 62
     7
370
    15
100
AcDbLine
 10
228.968843658
 20
228.8343511904
 30
0.0
 11
228.968843658
 21
234.4864033545
 31
0.0
  0
LINE
  5
88
330
1F
100
AcDbEntity
  8
0
  6
Continuous
 62
     7
370
    15
100
AcDbLine
 10
228.8088439298
 20
234.4864033545
 30
0.0
 11
228.8088439298
 21
228.8343511904
 31
0.0
  0
SPLINE
  5
89
330
1F
100
AcDbEntity
  8
0
  6
Continuous
 62
     7
370
    15
100
AcDbSpline
210
0.0
220
0.0
230
1.0
 70
     8
 71
     3
 72
     9
 73
     5
 74
     0
 42
0.00000001
 43
0.00000001
 12
1.0
 22
0.0
 32
0.0
 13
1.0
 23
0.0
 33
0.0
 40
0.0
 40
0.0
 40
0.0
 40
0.0
 40
0.4790252728369919
 40
1.0
 40
1.0
 40
1.0
 40
1.0
 10
223.492356975084
 20
78.25328935037908
 30
0.0
 10
223.5551044138004
 20
78.28869479932433
 30
0.0
 10
223.6860942430942
 20
78.36260624189931
 30
0.0
 10
223.8151340950147
 20
78.37339352548236
 30
0.0
 10
223.8823605966622
 20
78.37901342760381
 30
0.0
  0
LINE
  5
8A
330
1F
100
AcDbEntity
  8
0
  6
Continuous
 62
     7
370
    15
100
AcDbLine
 10
217.1605890882
 20
78.2532893504
 30
0.0
 11
223.4923569751
 21
78.2532893504
 31
0.0
  0
SPLINE
  5
8B
330
1F
100
AcDbEntity
  8
0
  6
Continuous
 62
     7
370
    15
100
AcDbSpline
210
0.0
220
0.0
230
1.0
 70
     8
 71
     3
 72
     9
 73
     5
 74
     0
 42
0.00000001
 43
0.00000001
 12
1.0
 22
0.0
 32
0.0
 13
1.0
 23
0.0
 33
0.0
 40
0.0
 40
0.0
 40
0.0
 40
0.0
 40
0.5209753502055585
 40
1.0
 40
1.0
 40
1.0
 40
1.0
 10
216.7705847215707
 20
78.37901342760381
 30
0.0
 10
216.8378114917784
 20
78.37339355393863
 30
0.0
 10
216.9668517048733
 20
78.36260633787754
 30
0.0
 10
217.0978416673196
 20
78.28869479927425
 30
0.0
 10
217.1605890882069
 20
78.25328935037908
 30
0.0
  0
SPLINE
  5
8C
330
1F
100
AcDbEntity
  8
0
  6
Continuous
 62
     7
370
    15
100
AcDbSpline
210
0.0
220
0.0
230
1.0
 70
     8
 71
     3
 72
    10
 73
     6
 74
     0
 42
0.00000001
 43
0.00000001
 12
1.0
 22
0.0
 32
0.0
 13
1.0
 23
0.0
 33
0.0
 40
0.0
 40
0.0
 40
0.0
 40
0.0
 40
0.2116690318263063
 40
0.4878511895979707
 40
1.0
 40
1.0
 40
1.0
 40
1.0
 10
223.4985409569794
 20
78.25067866693792
 30
0.0
 10
223.4982909373677
 20
78.25111140327404
 30
0.0
 10
223.497714696413
 20
78.25210876663203
 30
0.0
 10
223.4955657719909
 20
78.25312751214322
 30
0.0
 10
223.4936206483419
 20
78.25322561600865
 30
0.0
 10
223.492356975084
 20
78.25328935037908
 30
0.0
  0
SPLINE
  5
8D
330
1F
100
AcDbEntity
  8
0
  6
Continuous
 62
     7
370
    15
100
AcDbSpline
210
0.0
220
0.0
230
1.0
 70
     8
 71
     3
 72
    10
 73
     6
 74
     0
 42
0.00000001
 43
0.00000001
 12
1.0
 22
0.0
 32
0.0
 13
1.0
 23
0.0
 33
0.0
 40
0.0
 40
0.0
 40
0.0
 40
0.0
 40
0.3554432168474553
 40
0.7142329101060978
 40
1.0
 40
1.0
 40
1.0
 40
1.0
 10
223.051056106096
 20
77.58518088709171
 30
0.0
 10
223.0757379160039
 20
77.67627677814575
 30
0.0
 10
223.1253339135688
 20
77.85932622256415
 30
0.0
 10
223.2929213339118
 20
78.09741637233243
 30
0.0
 10
223.4353808865873
 20
78.20360116931717
 30
0.0
 10
223.4985409569794
 20
78.25067866693792
 30
0.0
  0
LINE
  5
8E
330
1F
100
AcDbEntity
  8
0
  6
Continuous
 62
     7
370
    15
100
AcDbLine
 10
222.5563122225
 20
74.3712149943
 30
0.0
 11
223.0510561061
 21
77.5851808871
 31
0.0
  0
LINE
  5
8F
330
1F
100
AcDbEntity
  8
0
  6
Continuous
 62
     7
370
    15
100
AcDbLine
 10
220.6264732671
 20
74.3712149943
 30
0.0
 11
222.5563122225
 21
74.3712149943
 31
0.0
  0
LINE
  5
90
330
1F
100
AcDbEntity
  8
0
  6
Continuous
 62
     7
370
    15
100
AcDbLine
 10
220.6264732671
 20
74.3712149943
 30
0.0
 11
220.6264732671
 21
74.6407889212
 31
0.0
  0
LINE
  5
91
330
1F
100
AcDbEntity
  8
0
  6
Continuous
 62
     7
370
    15
100
AcDbLine
 10
220.3794969511
 20
78.1195365275
 30
0.0
 11
220.6264732671
 21
74.6407889212
 31
0.0
  0
SPLINE
  5
92
330
1F
100
AcDbEntity
  8
0
  6
Continuous
 62
     7
370
    15
100
AcDbSpline
210
0.0
220
0.0
230
1.0
 70
     8
 71
     3
 72
    12
 73
     8
 74
     0
 42
0.00000001
 43
0.00000001
 12
1.0
 22
0.0
 32
0.0
 13
1.0
 23
0.0
 33
0.0
 40
0.0
 40
0.0
 40
0.0
 40
0.0
 40
0.2238763470509756
 40
0.4477886786683725
 40
0.6716989865058188
 40
0.8955798597250516
 40
0.9999999999999999
 40
0.9999999999999999
 40
0.9999999999999999
 40
0.9999999999999999
 10
220.3296019029671
 20
78.16210020433721
 30
0.0
 10
220.3352229870318
 20
78.1615995626869
 30
0.0
 10
220.3464660586611
 20
78.16059819891613
 30
0.0
 10
220.361446583952
 20
78.15276426356354
 30
0.0
 10
220.3727649964375
 20
78.1412224092003
 30
0.0
 10
220.3782879595036
 20
78.12934662494462
 30
0.0
 10
220.3792052087894
 20
78.12190380662044
 30
0.0
 10
220.3794969511086
 20
78.1195365275031
 30
0.0
  0
ELLIPSE
  5
93
330
1F
100
AcDbEntity
  8
0
  6
Continuous
 62
     7
370
    15
100
AcDbEllipse
 10
220.3264727027
 20
81.3552438219
 30
0.0
 11
6.948868479376927
 21
2.842170943040401E-14
 31
0.0
210
0.0
220
0.0
230
1.0
 40
0.4595202192
 41
4.711938703004835
 42
4.712839257764553
  0
SPLINE
  5
94
330
1F
100
AcDbEntity
  8
0
  6
Continuous
 62
     7
370
    15
100
AcDbSpline
210
0.0
220
0.0
230
1.0
 70
     8
 71
     3
 72
    12
 73
     8
 74
     0
 42
0.00000001
 43
0.00000001
 12
1.0
 22
0.0
 32
0.0
 13
1.0
 23
0.0
 33
0.0
 40
0.0
 40
0.0
 40
0.0
 40
0.0
 40
0.2239045683587865
 40
0.4477926078098564
 40
0.671702126754839
 40
0.8955911645184785
 40
1.0
 40
1.0
 40
1.0
 40
1.0
 10
220.2734483671242
 20
78.1195365275031
 30
0.0
 10
220.2743623773349
 20
78.12461688980649
 30
0.0
 10
220.2761903302828
 20
78.13477723937474
 30
0.0
 10
220.2857613343173
 20
78.14787133716096
 30
0.0
 10
220.2991511156984
 20
78.15739850620338
 30
0.0
 10
220.3125249715818
 20
78.1616375154136
 30
0.0
 10
220.320733007144
 20
78.16198856102149
 30
0.0
 10
220.3233434152657
 20
78.16210020433721
 30
0.0
  0
LINE
  5
95
330
1F
100
AcDbEntity
  8
0
  6
Continuous
 62
     7
370
    15
100
AcDbLine
 10
220.2734483671
 20
78.1195365275
 30
0.0
 11
220.0264720511
 21
74.6407889212
 31
0.0
  0
LINE
  5
96
330
1F
100
AcDbEntity
  8
0
  6
Continuous
 62
     7
370
    15
100
AcDbLine
 10
220.0264720511
 20
74.6407889212
 30
0.0
 11
220.0264720511
 21
74.3712149943
 31
0.0
  0
LINE
  5
97
330
1F
100
AcDbEntity
  8
0
  6
Continuous
 62
     7
370
    15
100
AcDbLine
 10
218.0966330957
 20
74.3712149943
 30
0.0
 11
220.0264720511
 21
74.3712149943
 31
0.0
  0
LINE
  5
98
330
1F
100
AcDbEntity
  8
0
  6
Continuous
 62
     7
370
    15
100
AcDbLine
 10
217.6018884671
 20
77.5851808871
 30
0.0
 11
218.0966330957
 21
74.3712149943
 31
0.0
  0
SPLINE
  5
99
330
1F
100
AcDbEntity
  8
0
  6
Continuous
 62
     7
370
    15
100
AcDbSpline
210
0.0
220
0.0
230
1.0
 70
     8
 71
     3
 72
    10
 73
     6
 74
     0
 42
0.00000001
 43
0.00000001
 12
1.0
 22
0.0
 32
0.0
 13
1.0
 23
0.0
 33
0.0
 40
0.0
 40
0.0
 40
0.0
 40
0.0
 40
0.2857682809840089
 40
0.6445572580730926
 40
1.0
 40
1.0
 40
1.0
 40
1.0
 10
217.1544036161954
 20
78.25067866693792
 30
0.0
 10
217.2175642798234
 20
78.203601275047
 30
0.0
 10
217.3600246817474
 20
78.0974170808812
 30
0.0
 10
217.5276113771515
 20
77.85932604161292
 30
0.0
 10
217.5772068901411
 20
77.67627673818185
 30
0.0
 10
217.6018884670789
 20
77.58518088709172
 30
0.0
  0
SPLINE
  5
9A
330
1F
100
AcDbEntity
  8
0
  6
Continuous
 62
     7
370
    15
100
AcDbSpline
210
0.0
220
0.0
230
1.0
 70
     8
 71
     3
 72
    11
 73
     7
 74
     0
 42
0.00000001
 43
0.00000001
 12
1.0
 22
0.0
 32
0.0
 13
1.0
 23
0.0
 33
0.0
 40
0.0
 40
0.0
 40
0.0
 40
0.0
 40
0.370537618276855
 40
0.744358022160848
 40
0.9444798242996421
 40
1.0
 40
1.0
 40
1.0
 40
1.0
 10
217.1605890882069
 20
78.25328935037906
 30
0.0
 10
217.1596725010041
 20
78.25325513300376
 30
0.0
 10
217.1578312060754
 20
78.25318639510364
 30
0.0
 10
217.1557034355446
 20
78.25243450905668
 30
0.0
 10
217.1547026221291
 20
78.2513573596807
 30
0.0
 10
217.1544569673558
 20
78.25079976502099
 30
0.0
 10
217.1544036161954
 20
78.25067866693792
 30
0.0
  0
SPLINE
  5
9B
330
1F
100
AcDbEntity
  8
0
  6
Continuous
 62
     7
370
    15
100
AcDbSpline
210
0.0
220
0.0
230
1.0
 70
     8
 71
     3
 72
    11
 73
     7
 74
     0
 42
0.00000001
 43
0.00000001
 12
1.0
 22
0.0
 32
0.0
 13
1.0
 23
0.0
 33
0.0
 40
0.0
 40
0.0
 40
0.0
 40
0.0
 40
0.2499682280175929
 40
0.4999828840205057
 40
0.750002306581366
 40
1.0
 40
1.0
 40
1.0
 40
1.0
 10
220.3794969511086
 20
78.14091671358403
 30
0.0
 10
220.3784030542178
 20
78.14659399605762
 30
0.0
 10
220.3762150572607
 20
78.15794961547793
 30
0.0
 10
220.3645295402875
 20
78.17196212972001
 30
0.0
 10
220.3484484325226
 20
78.18170008310746
 30
0.0
 10
220.3358838974808
 20
78.18296247215109
 30
0.0
 10
220.3296019029671
 20
78.18359363924321
 30
0.0
  0
SPLINE
  5
9C
330
1F
100
AcDbEntity
  8
0
  6
Continuous
 62
     7
370
    15
100
AcDbSpline
210
0.0
220
0.0
230
1.0
 70
     8
 71
     3
 72
    11
 73
     7
 74
     0
 42
0.00000001
 43
0.00000001
 12
1.0
 22
0.0
 32
0.0
 13
1.0
 23
0.0
 33
0.0
 40
0.0
 40
0.0
 40
0.0
 40
0.0
 40
0.249997693418634
 40
0.5000171159794943
 40
0.7500317719824071
 40
1.0
 40
1.0
 40
1.0
 40
1.0
 10
220.3233434152657
 20
78.18359363924321
 30
0.0
 10
220.3170614207521
 20
78.18296247215108
 30
0.0
 10
220.3044968857103
 20
78.18170008310744
 30
0.0
 10
220.2884157779453
 20
78.17196212972003
 30
0.0
 10
220.2767302609722
 20
78.15794961547789
 30
0.0
 10
220.2745422640151
 20
78.1465939960576
 30
0.0
 10
220.2734483671242
 20
78.14091671358403
 30
0.0
  0
LINE
  5
9D
330
1F
100
AcDbEntity
  8
0
  6
Continuous
 62
     7
370
    15
100
AcDbLine
 10
220.329537828
 20
78.1607173766
 30
0.0
 11
220.3234074903
 21
78.1607173766
 31
0.0
  0
SPLINE
  5
9E
330
1F
100
AcDbEntity
  8
0
  6
Continuous
 62
     7
370
    15
100
AcDbSpline
210
0.0
220
0.0
230
1.0
 70
     8
 71
     3
 72
    14
 73
    10
 74
     0
 42
0.00000001
 43
0.00000001
 12
1.0
 22
0.0
 32
0.0
 13
1.0
 23
0.0
 33
0.0
 40
0.0
 40
0.0
 40
0.0
 40
0.0
 40
0.0450060979563102
 40
0.1924520539741745
 40
0.4101034311805476
 40
0.6281187228148142
 40
0.8446549235483298
 40
0.9597651910947647
 40
1.0
 40
1.0
 40
1.0
 40
1.0
 10
220.2199531984383
 20
74.66822493921575
 30
0.0
 10
220.2159646297284
 20
74.67048158266209
 30
0.0
 10
220.1989089800389
 20
74.68013128983634
 30
0.0
 10
220.1557159788176
 20
74.68332065944564
 30
0.0
 10
220.1016806153282
 20
74.68248330806887
 30
0.0
 10
220.0545670493093
 20
74.67327938602887
 30
0.0
 10
220.0320649330167
 20
74.66526812082569
 30
0.0
 10
220.0267579842397
 20
74.66608927897089
 30
0.0
 10
220.0265308734724
 20
74.67112798753769
 30
0.0
 10
220.0264720511491
 20
74.67243302713689
 30
0.0
  0
SPLINE
  5
9F
330
1F
100
AcDbEntity
  8
0
  6
Continuous
 62
     7
370
    15
100
AcDbSpline
210
0.0
220
0.0
230
1.0
 70
     8
 71
     3
 72
    10
 73
     6
 74
     0
 42
0.00000001
 43
0.00000001
 12
1.0
 22
0.0
 32
0.0
 13
1.0
 23
0.0
 33
0.0
 40
0.0
 40
0.0
 40
0.0
 40
0.0
 40
0.2799062221193424
 40
0.5601542894827224
 40
1.0
 40
1.0
 40
1.0
 40
1.0
 10
220.3234074902589
 20
78.16071737657843
 30
0.0
 10
220.307869197567
 20
77.83496524029137
 30
0.0
 10
220.2767736355009
 20
77.18306313155027
 30
0.0
 10
220.2890159826501
 20
76.01805486967457
 30
0.0
 10
220.2461416071405
 20
75.18007655801023
 30
0.0
 10
220.2199531984383
 20
74.66822493921575
 30
0.0
  0
SPLINE
  5
A0
330
1F
100
AcDbEntity
  8
0
  6
Continuous
 62
     7
370
    15
100
AcDbSpline
210
0.0
220
0.0
230
1.0
 70
     8
 71
     3
 72
    13
 73
     9
 74
     0
 42
0.00000001
 43
0.00000001
 12
1.0
 22
0.0
 32
0.0
 13
1.0
 23
0.0
 33
0.0
 40
0.0
 40
0.0
 40
0.0
 40
0.0
 40
0.2312913320816706
 40
0.5201035038420923
 40
0.817113910321562
 40
0.9264154936592871
 40
0.9856417698582779
 40
1.0
 40
1.0
 40
1.0
 40
1.0
 10
220.6085367393548
 20
74.66932762514409
 30
0.0
 10
220.6008599176121
 20
74.67159093001318
 30
0.0
 10
220.5835970921927
 20
74.67668041080819
 30
0.0
 10
220.5347593768386
 20
74.68367439807122
 30
0.0
 10
220.4851692655962
 20
74.68347805485456
 30
0.0
 10
220.4512169961613
 20
74.67690317510673
 30
0.0
 10
220.4380608963203
 20
74.67219334681918
 30
0.0
 10
220.4338196885376
 20
74.66887285298267
 30
0.0
 10
220.4329921197945
 20
74.66822493921575
 30
0.0
  0
SPLINE
  5
A1
330
1F
100
AcDbEntity
  8
0
  6
Continuous
 62
     7
370
    15
100
AcDbSpline
210
0.0
220
0.0
230
1.0
 70
     8
 71
     3
 72
     9
 73
     5
 74
     0
 42
0.00000001
 43
0.00000001
 12
1.0
 22
0.0
 32
0.0
 13
1.0
 23
0.0
 33
0.0
 40
0.0
 40
0.0
 40
0.0
 40
0.0
 40
0.5599643854314119
 40
1.0
 40
1.0
 40
1.0
 40
1.0
 10
220.4329921197945
 20
74.66822493921575
 30
0.0
 10
220.4116944322163
 20
75.32006919707773
 30
0.0
 10
220.3736604283898
 20
76.48415083301917
 30
0.0
 10
220.3430204914539
 20
77.64840436022207
 30
0.0
 10
220.329537827974
 20
78.16071737657843
 30
0.0
  0
SPLINE
  5
A2
330
1F
100
AcDbEntity
  8
0
  6
Continuous
 62
     7
370
    15
100
AcDbSpline
210
0.0
220
0.0
230
1.0
 70
     8
 71
     3
 72
     9
 73
     5
 74
     0
 42
0.00000001
 43
0.00000001
 12
1.0
 22
0.0
 32
0.0
 13
1.0
 23
0.0
 33
0.0
 40
0.0
 40
0.0
 40
0.0
 40
0.0
 40
0.1372779669686825
 40
1.0
 40
1.0
 40
1.0
 40
1.0
 10
220.4264728617722
 20
74.66241348635015
 30
0.0
 10
220.4267708616366
 20
74.66267974477063
 30
0.0
 10
220.4289416387172
 20
74.66461930161552
 30
0.0
 10
220.4311161344312
 20
74.66655498366379
 30
0.0
 10
220.4329921197945
 20
74.66822493921575
 30
0.0
  0
LINE
  5
A3
330
1F
100
AcDbEntity
  8
0
  6
Continuous
 62
     7
370
    15
100
AcDbLine
 10
220.2264724565
 20
74.6624134864
 30
0.0
 11
220.4264728618
 21
74.6624134864
 31
0.0
  0
SPLINE
  5
A4
330
1F
100
AcDbEntity
  8
0
  6
Continuous
 62
     7
370
    15
100
AcDbSpline
210
0.0
220
0.0
230
1.0
 70
     8
 71
     3
 72
     9
 73
     5
 74
     0
 42
0.00000001
 43
0.00000001
 12
1.0
 22
0.0
 32
0.0
 13
1.0
 23
0.0
 33
0.0
 40
0.0
 40
0.0
 40
0.0
 40
0.0
 40
0.8627220330313176
 40
1.0
 40
1.0
 40
1.0
 40
1.0
 10
220.2199531984383
 20
74.66822493921575
 30
0.0
 10
220.2218291838016
 20
74.66655498366376
 30
0.0
 10
220.2240036795157
 20
74.6646193016155
 30
0.0
 10
220.2261744565963
 20
74.66267974477064
 30
0.0
 10
220.2264724564606
 20
74.66241348635015
 30
0.0
  0
SPLINE
  5
A5
330
1F
100
AcDbEntity
  8
0
  6
Continuous
 62
     7
370
    15
100
AcDbSpline
210
0.0
220
0.0
230
1.0
 70
     8
 71
     3
 72
    12
 73
     8
 74
     0
 42
0.00000001
 43
0.00000001
 12
1.0
 22
0.0
 32
0.0
 13
1.0
 23
0.0
 33
0.0
 40
0.0
 40
0.0
 40
0.0
 40
0.0
 40
0.030473608699215
 40
0.0888165275618521
 40
0.3925538559988565
 40
0.696275029799232
 40
1.0
 40
1.0
 40
1.0
 40
1.0
 10
223.4932406139428
 20
78.16195119272527
 30
0.0
 10
223.4939785282347
 20
78.1619007388891
 30
0.0
 10
223.4961292083755
 20
78.16175368920511
 30
0.0
 10
223.5048170519218
 20
78.16253467290731
 30
0.0
 10
223.5143649012141
 20
78.17230896433612
 30
0.0
 10
223.5147506529655
 20
78.20303720279443
 30
0.0
 10
223.5039442114874
 20
78.23479811272394
 30
0.0
 10
223.4985409569794
 20
78.25067866693792
 30
0.0
  0
SPLINE
  5
A6
330
1F
100
AcDbEntity
  8
0
  6
Continuous
 62
     7
370
    15
100
AcDbSpline
210
0.0
220
0.0
230
1.0
 70
     8
 71
     3
 72
    12
 73
     8
 74
     0
 42
0.00000001
 43
0.00000001
 12
1.0
 22
0.0
 32
0.0
 13
1.0
 23
0.0
 33
0.0
 40
0.0
 40
0.0
 40
0.0
 40
0.0
 40
0.0304757552001513
 40
0.0888185846810545
 40
0.3925554477904822
 40
0.6962761696912436
 40
1.0
 40
1.0
 40
1.0
 40
1.0
 10
217.1597054493481
 20
78.16195119272527
 30
0.0
 10
217.1589669587983
 20
78.16190073786849
 30
0.0
 10
217.1568147008803
 20
78.1617536921615
 30
0.0
 10
217.1481289318758
 20
78.16253465817982
 30
0.0
 10
217.1385787735464
 20
78.17230897936412
 30
0.0
 10
217.138195251937
 20
78.20303714737426
 30
0.0
 10
217.1490008096779
 20
78.2347981062411
 30
0.0
 10
217.1544036161954
 20
78.25067866693792
 30
0.0
  0
SPLINE
  5
A7
330
1F
100
AcDbEntity
  8
0
  6
Continuous
 62
     7
370
    15
100
AcDbSpline
210
0.0
220
0.0
230
1.0
 70
     8
 71
     3
 72
     9
 73
     5
 74
     0
 42
0.00000001
 43
0.00000001
 12
1.0
 22
0.0
 32
0.0
 13
1.0
 23
0.0
 33
0.0
 40
0.0
 40
0.0
 40
0.0
 40
0.0
 40
0.4684394644595248
 40
1.0
 40
1.0
 40
1.0
 40
1.0
 10
217.1597054493481
 20
78.16195119272527
 30
0.0
 10
217.1153207116136
 20
78.18728639144845
 30
0.0
 10
217.02057050139
 20
78.24137064490134
 30
0.0
 10
216.9323242660692
 20
78.24915271110189
 30
0.0
 10
216.8854160499627
 20
78.25328935037908
 30
0.0
  0
ARC
  5
A8
330
1F
100
AcDbEntity
  8
0
  6
Continuous
 62
     7
370
    15
100
AcDbCircle
 10
216.9115974642
 20
78.3925056067
 30
0.0
 40
0.1416567416929221
100
AcDbArc
 50
185.4654548275
 51
259.3491909344
  0
ARC
  5
A9
330
1F
100
AcDbEntity
  8
0
  6
Continuous
 62
     7
370
    15
100
AcDbCircle
 10
223.7413460184
 20
78.3925072833
 30
0.0
 40
0.1416587287501836
100
AcDbArc
 50
280.6514134111
 51
354.533940827
  0
SPLINE
  5
AA
330
1F
100
AcDbEntity
  8
0
  6
Continuous
 62
     7
370
    15
100
AcDbSpline
210
0.0
220
0.0
230
1.0
 70
     8
 71
     3
 72
     9
 73
     5
 74
     0
 42
0.00000001
 43
0.00000001
 12
1.0
 22
0.0
 32
0.0
 13
1.0
 23
0.0
 33
0.0
 40
0.0
 40
0.0
 40
0.0
 40
0.0
 40
0.5315614952682782
 40
1.0
 40
1.0
 40
1.0
 40
1.0
 10
223.7675292682702
 20
78.25328935037908
 30
0.0
 10
223.7206210294086
 20
78.24915274448907
 30
0.0
 10
223.6323749106076
 20
78.24137075514855
 30
0.0
 10
223.5376250819859
 20
78.18728639126992
 30
0.0
 10
223.4932406139428
 20
78.16195119272525
 30
0.0
  0
LINE
  5
AB
330
1F
100
AcDbEntity
  8
0
  6
Continuous
 62
     7
370
    15
100
AcDbLine
 10
218.0012969565
 20
74.4266294325
 30
0.0
 11
218.0010868502
 21
74.42865003
 31
0.0
  0
LINE
  5
AC
330
1F
100
AcDbEntity
  8
0
  6
Continuous
 62
     7
370
    15
100
AcDbLine
 10
225.8910654378
 20
78.2532893504
 30
0.0
 11
223.7675292683
 21
78.2532893504
 31
0.0
  0
LINE
  5
AD
330
1F
100
AcDbEntity
  8
0
  6
Continuous
 62
     7
370
    15
100
AcDbLine
 10
216.88541605
 20
78.2532893504
 30
0.0
 11
214.7618791354
 21
78.2532893504
 31
0.0
  0
LINE
  5
AE
330
1F
100
AcDbEntity
  8
0
  6
Continuous
 62
     7
370
    15
100
AcDbLine
 10
220.2264724565
 20
74.5532893027
 30
0.0
 11
220.2264724565
 21
74.6624134864
 31
0.0
  0
ARC
  5
AF
330
1F
100
AcDbEntity
  8
0
  6
Continuous
 62
     7
370
    15
100
AcDbCircle
 10
220.2264727027
 20
74.3532904056
 30
0.0
 40
0.2000000000000171
100
AcDbArc
 50
90.0
 51
180.0
  0
ARC
  5
B0
330
1F
100
AcDbEntity
  8
0
  6
Continuous
 62
     7
370
    15
100
AcDbCircle
 10
220.4264727027
 20
74.3532904056
 30
0.0
 40
0.2000000000000171
100
AcDbArc
 50
0.0
 51
90.0
  0
LINE
  5
B1
330
1F
100
AcDbEntity
  8
0
  6
Continuous
 62
     7
370
    15
100
AcDbLine
 10
220.4264728618
 20
74.6624134864
 30
0.0
 11
220.4264728618
 21
74.5532893027
 31
0.0
  0
ARC
  5
B2
330
1F
100
AcDbEntity
  8
0
  6
Continuous
 62
     7
370
    15
100
AcDbCircle
 10
222.4245239394
 20
74.3823531072
 30
0.0
 40
0.1322581155356379
100
AcDbArc
 50
282.6257308056
 51
355.1691160396
  0
LINE
  5
B3
330
1F
100
AcDbEntity
  8
0
  6
Continuous
 62
     7
370
    15
100
AcDbLine
 10
222.4534331155
 20
74.2532931651
 30
0.0
 11
220.6264732671
 21
74.2532931651
 31
0.0
  0
SPLINE
  5
B4
330
1F
100
AcDbEntity
  8
0
  6
Continuous
 62
     7
370
    15
100
AcDbSpline
210
0.0
220
0.0
230
1.0
 70
    24
 71
     3
 72
    11
 73
     7
 74
     0
 42
0.00000001
 43
0.00000001
 12
1.0
 22
0.0
 32
0.0
 13
1.0
 23
0.0
 33
0.0
 40
0.0
 40
0.0
 40
0.0
 40
0.0
 40
0.2947400188417535
 40
0.5894902775386633
 40
0.8837915600974182
 40
1.0
 40
1.0
 40
1.0
 40
1.0
 10
220.6264732670838
 20
74.25329316507634
 30
0.0
 10
220.6264732670838
 20
74.25550908606154
 30
0.0
 10
220.6264732670838
 20
74.25994100501737
 30
0.0
 10
220.6264732670838
 20
74.29463515169307
 30
0.0
 10
220.6264732670838
 20
74.33520397512633
 30
0.0
 10
220.6264732670838
 20
74.36326997805315
 30
0.0
 10
220.6264732670838
 20
74.37121499429996
 30
0.0
  0
LINE
  5
B5
330
1F
100
AcDbEntity
  8
0
  6
Continuous
 62
     7
370
    15
100
AcDbLine
 10
220.0264720511
 20
74.2532931651
 30
0.0
 11
218.1995122027
 21
74.2532931651
 31
0.0
  0
ARC
  5
B6
330
1F
100
AcDbEntity
  8
0
  6
Continuous
 62
     7
370
    15
100
AcDbCircle
 10
218.2284218222
 20
74.3823534939
 30
0.0
 40
0.1322585898276913
100
AcDbArc
 50
184.8310347354
 51
257.3741184194
  0
SPLINE
  5
B7
330
1F
100
AcDbEntity
  8
0
  6
Continuous
 62
     7
370
    15
100
AcDbSpline
210
0.0
220
0.0
230
1.0
 70
    24
 71
     3
 72
    11
 73
     7
 74
     0
 42
0.00000001
 43
0.00000001
 12
1.0
 22
0.0
 32
0.0
 13
1.0
 23
0.0
 33
0.0
 40
0.0
 40
0.0
 40
0.0
 40
0.0
 40
0.2933091451804769
 40
0.586596659377762
 40
0.8805005092469591
 40
1.0
 40
1.0
 40
1.0
 40
1.0
 10
220.0264720511491
 20
74.37121499429998
 30
0.0
 10
220.0264720511491
 20
74.351604455076
 30
0.0
 10
220.0264720511491
 20
74.31238482286749
 30
0.0
 10
220.0264720511491
 20
74.27216975539173
 30
0.0
 10
220.0264720511491
 20
74.25496925813053
 30
0.0
 10
220.0264720511491
 20
74.2536690164598
 30
0.0
 10
220.0264720511491
 20
74.25329316507634
 30
0.0
  0
LINE
  5
B8
330
1F
100
AcDbEntity
  8
0
  6
Continuous
 62
     7
370
    15
100
AcDbLine
 10
220.4264728618
 20
74.5532893027
 30
0.0
 11
220.2264724565
 21
74.5532893027
 31
0.0
  0
LINE
  5
B9
330
1F
100
AcDbEntity
  8
0
  6
Continuous
 62
     7
370
    15
100
AcDbLine
 10
220.6264732671
 20
74.3532918776
 30
0.0
 11
220.0264720511
 21
74.3532918776
 31
0.0
  0
LINE
  5
BA
330
1F
100
AcDbEntity
  8
0
  6
Continuous
 62
     7
370
    15
100
AcDbLine
 10
220.0264720511
 20
74.2532931651
 30
0.0
 11
220.6264732671
 21
74.2532931651
 31
0.0
  0
LINE
  5
BB
330
1F
100
AcDbEntity
  8
0
  6
Continuous
 62
     7
370
    15
100
AcDbLine
 10
238.1864724946
 20
239.8084424819
 30
0.0
 11
240.3864739728
 21
239.8084424819
 31
0.0
  0
LINE
  5
BC
330
1F
100
AcDbEntity
  8
0
  6
Continuous
 62
     7
370
    15
100
AcDbLine
 10
235.9864739966
 20
239.8084424819
 30
0.0
 11
238.1864724946
 21
239.8084424819
 31
0.0
  0
LINE
  5
BD
330
1F
100
AcDbEntity
  8
0
  6
Continuous
 62
     7
370
    15
100
AcDbLine
 10
238.1864724946
 20
240.2084432925
 30
0.0
 11
239.9864731622
 21
240.2084432925
 31
0.0
  0
LINE
  5
BE
330
1F
100
AcDbEntity
  8
0
  6
Continuous
 62
     7
370
    15
100
AcDbLine
 10
236.386471827
 20
240.2084432925
 30
0.0
 11
238.1864724946
 21
240.2084432925
 31
0.0
  0
LINE
  5
BF
330
1F
100
AcDbEntity
  8
0
  6
Continuous
 62
     7
370
    15
100
AcDbLine
 10
238.1864724946
 20
240.6084441031
 30
0.0
 11
240.3864739728
 21
240.6084441031
 31
0.0
  0
LINE
  5
C0
330
1F
100
AcDbEntity
  8
0
  6
Continuous
 62
     7
370
    15
100
AcDbLine
 10
235.9864739966
 20
240.6084441031
 30
0.0
 11
238.1864724946
 21
240.6084441031
 31
0.0
  0
LINE
  5
C1
330
1F
100
AcDbEntity
  8
0
  6
Continuous
 62
     7
370
    15
100
AcDbLine
 10
238.1864724946
 20
241.0084449137
 30
0.0
 11
239.9864731622
 21
241.0084449137
 31
0.0
  0
LINE
  5
C2
330
1F
100
AcDbEntity
  8
0
  6
Continuous
 62
     7
370
    15
100
AcDbLine
 10
236.386471827
 20
241.0084449137
 30
0.0
 11
238.1864724946
 21
241.0084449137
 31
0.0
  0
LINE
  5
C3
330
1F
100
AcDbEntity
  8
0
  6
Continuous
 62
     7
370
    15
100
AcDbLine
 10
238.1864724946
 20
241.4084457244
 30
0.0
 11
240.3864739728
 21
241.4084457244
 31
0.0
  0
LINE
  5
C4
330
1F
100
AcDbEntity
  8
0
  6
Continuous
 62
     7
370
    15
100
AcDbLine
 10
235.9864739966
 20
241.4084457244
 30
0.0
 11
238.1864724946
 21
241.4084457244
 31
0.0
  0
LINE
  5
C5
330
1F
100
AcDbEntity
  8
0
  6
Continuous
 62
     7
370
    15
100
AcDbLine
 10
238.1864724946
 20
241.808446535
 30
0.0
 11
239.9864731622
 21
241.808446535
 31
0.0
  0
LINE
  5
C6
330
1F
100
AcDbEntity
  8
0
  6
Continuous
 62
     7
370
    15
100
AcDbLine
 10
236.386471827
 20
241.808446535
 30
0.0
 11
238.1864724946
 21
241.808446535
 31
0.0
  0
LINE
  5
C7
330
1F
100
AcDbEntity
  8
0
  6
Continuous
 62
     7
370
    15
100
AcDbLine
 10
238.1864724946
 20
242.2084473456
 30
0.0
 11
240.3864739728
 21
242.2084473456
 31
0.0
  0
LINE
  5
C8
330
1F
100
AcDbEntity
  8
0
  6
Continuous
 62
     7
370
    15
100
AcDbLine
 10
235.9864739966
 20
242.2084473456
 30
0.0
 11
238.1864724946
 21
242.2084473456
 31
0.0
  0
LINE
  5
C9
330
1F
100
AcDbEntity
  8
0
  6
Continuous
 62
     7
370
    15
100
AcDbLine
 10
238.1864724946
 20
242.6084421958
 30
0.0
 11
239.9864731622
 21
242.6084421958
 31
0.0
  0
LINE
  5
CA
330
1F
100
AcDbEntity
  8
0
  6
Continuous
 62
     7
370
    15
100
AcDbLine
 10
236.386471827
 20
242.6084421958
 30
0.0
 11
238.1864724946
 21
242.6084421958
 31
0.0
  0
LINE
  5
CB
330
1F
100
AcDbEntity
  8
0
  6
Continuous
 62
     7
370
    15
100
AcDbLine
 10
240.3864739728
 20
239.4084416712
 30
0.0
 11
235.9864739966
 21
239.4084416712
 31
0.0
  0
SPLINE
  5
CC
330
1F
100
AcDbEntity
  8
0
  6
Continuous
 62
     7
370
    15
100
AcDbSpline
210
0.0
220
0.0
230
1.0
 70
     8
 71
     3
 72
    10
 73
     6
 74
     0
 42
0.00000001
 43
0.00000001
 12
1.0
 22
0.0
 32
0.0
 13
1.0
 23
0.0
 33
0.0
 40
0.0
 40
0.0
 40
0.0
 40
0.0
 40
0.364405549001502
 40
0.8375259317833981
 40
1.0
 40
1.0
 40
1.0
 40
1.0
 10
245.3688441109711
 20
93.87938011537845
 30
0.0
 10
245.3943733031236
 20
93.86468504327509
 30
0.0
 10
245.4530479322663
 20
93.83091084859079
 30
0.0
 10
245.4830960471305
 20
93.79048214520795
 30
0.0
 10
245.4857862048632
 20
93.76496509626674
 30
0.0
 10
245.4864738774354
 20
93.7584422911292
 30
0.0
  0
LINE
  5
CD
330
1F
100
AcDbEntity
  8
0
  6
Continuous
 62
     7
370
    15
100
AcDbLine
 10
245.4864738774
 20
93.7584422911
 30
0.0
 11
245.4864738774
 21
82.6584421481
 31
0.0
  0
SPLINE
  5
CE
330
1F
100
AcDbEntity
  8
0
  6
Continuous
 62
     7
370
    15
100
AcDbSpline
210
0.0
220
0.0
230
1.0
 70
     8
 71
     3
 72
     9
 73
     5
 74
     0
 42
0.00000001
 43
0.00000001
 12
1.0
 22
0.0
 32
0.0
 13
1.0
 23
0.0
 33
0.0
 40
0.0
 40
0.0
 40
0.0
 40
0.0
 40
0.5070122645150591
 40
1.0
 40
1.0
 40
1.0
 40
1.0
 10
245.4864738774354
 20
82.65844214807805
 30
0.0
 10
245.4809426326582
 20
82.66331444298841
 30
0.0
 10
245.4700331435506
 20
82.67292425965624
 30
0.0
 10
245.4022569454115
 20
82.68252697361696
 30
0.0
 10
245.3688441109711
 20
82.68726099382695
 30
0.0
  0
LINE
  5
CF
330
1F
100
AcDbEntity
  8
0
  6
Continuous
 62
     7
370
    15
100
AcDbLine
 10
245.368844111
 20
82.6584421481
 30
0.0
 11
245.4864738774
 21
82.6584421481
 31
0.0
  0
SPLINE
  5
D0
330
1F
100
AcDbEntity
  8
0
  6
Continuous
 62
     7
370
    15
100
AcDbSpline
210
0.0
220
0.0
230
1.0
 70
     8
 71
     3
 72
    10
 73
     6
 74
     0
 42
0.00000001
 43
0.00000001
 12
1.0
 22
0.0
 32
0.0
 13
1.0
 23
0.0
 33
0.0
 40
0.0
 40
0.0
 40
0.0
 40
0.0
 40
0.5252817665014355
 40
0.9127745429236628
 40
1.0
 40
1.0
 40
1.0
 40
1.0
 10
245.4864738774354
 20
93.7584422911292
 30
0.0
 10
245.4800652144511
 20
93.81215480699176
 30
0.0
 10
245.468928973296
 20
93.90549027043697
 30
0.0
 10
245.4144749384078
 20
93.999988062973
 30
0.0
 10
245.3759269732698
 20
94.03685808122451
 30
0.0
 10
245.3688441109711
 20
94.04363263498601
 30
0.0
  0
ARC
  5
D1
330
1F
100
AcDbEntity
  8
0
  6
Continuous
 62
     7
370
    15
100
AcDbCircle
 10
245.0764727027
 20
82.6584444337
 30
0.0
 40
0.4099999999999875
100
AcDbArc
 50
315.487696213
 51
0.0
  0
LINE
  5
D2
330
1F
100
AcDbEntity
  8
0
  6
Continuous
 62
     7
370
    15
100
AcDbLine
 10
245.368844111
 20
80.1201425875
 30
0.0
 11
245.368844111
 21
82.4684463824
 31
0.0
  0
LINE
  5
D3
330
1F
100
AcDbEntity
  8
0
  6
Continuous
 62
     7
370
    15
100
AcDbLine
 10
245.368844111
 20
80.1201425875
 30
0.0
 11
165.3688429189
 21
80.1201425875
 31
0.0
  0
LINE
  5
D4
330
1F
100
AcDbEntity
  8
0
  6
Continuous
 62
     7
370
    15
100
AcDbLine
 10
165.3688429189
 20
80.1201425875
 30
0.0
 11
165.3688429189
 21
82.4684463824
 31
0.0
  0
LINE
  5
D5
330
1F
100
AcDbEntity
  8
0
  6
Continuous
 62
     7
370
    15
100
AcDbLine
 10
165.3688429189
 20
78.6989055956
 30
0.0
 11
165.3688429189
 21
80.1201425875
 31
0.0
  0
LINE
  5
D6
330
1F
100
AcDbEntity
  8
0
  6
Continuous
 62
     7
370
    15
100
AcDbLine
 10
245.368844111
 20
78.6989055956
 30
0.0
 11
245.368844111
 21
80.1201425875
 31
0.0
  0
SPLINE
  5
D7
330
1F
100
AcDbEntity
  8
0
  6
Continuous
 62
     7
370
    15
100
AcDbSpline
210
0.0
220
0.0
230
1.0
 70
     8
 71
     3
 72
     9
 73
     5
 74
     0
 42
0.00000001
 43
0.00000001
 12
1.0
 22
0.0
 32
0.0
 13
1.0
 23
0.0
 33
0.0
 40
0.0
 40
0.0
 40
0.0
 40
0.0
 40
0.5070172063844968
 40
0.9999999999999999
 40
0.9999999999999999
 40
0.9999999999999999
 40
0.9999999999999999
 10
245.4864738774354
 20
235.2784417952186
 30
0.0
 10
245.4809428286434
 20
235.299158578218
 30
0.0
 10
245.4700338324153
 20
235.3400186964519
 30
0.0
 10
245.4022569485309
 20
235.380876535543
 30
0.0
 10
245.3688441109711
 20
235.4010187471991
 30
0.0
  0
LINE
  5
D8
330
1F
100
AcDbEntity
  8
0
  6
Continuous
 62
     7
370
    15
100
AcDbLine
 10
245.4864738774
 20
235.2784417952
 30
0.0
 11
245.4864738774
 21
94.5784472312
 31
0.0
  0
SPLINE
  5
D9
330
1F
100
AcDbEntity
  8
0
  6
Continuous
 62
     7
370
    15
100
AcDbSpline
210
0.0
220
0.0
230
1.0
 70
     8
 71
     3
 72
    10
 73
     6
 74
     0
 42
0.00000001
 43
0.00000001
 12
1.0
 22
0.0
 32
0.0
 13
1.0
 23
0.0
 33
0.0
 40
0.0
 40
0.0
 40
0.0
 40
0.0
 40
0.159510280520085
 40
0.5615230196738578
 40
1.0
 40
1.0
 40
1.0
 40
1.0
 10
245.3688441109711
 20
94.40827597032842
 30
0.0
 10
245.3817734111754
 20
94.41533751761257
 30
0.0
 10
245.4272883439389
 20
94.44019623732422
 30
0.0
 10
245.4728895856556
 20
94.50062088829068
 30
0.0
 10
245.4818166809342
 20
94.55176548892658
 30
0.0
 10
245.4864738774354
 20
94.57844723116216
 30
0.0
  0
SPLINE
  5
DA
330
1F
100
AcDbEntity
  8
0
  6
Continuous
 62
     7
370
    15
100
AcDbSpline
210
0.0
220
0.0
230
1.0
 70
     8
 71
     3
 72
    10
 73
     6
 74
     0
 42
0.00000001
 43
0.00000001
 12
1.0
 22
0.0
 32
0.0
 13
1.0
 23
0.0
 33
0.0
 40
0.0
 40
0.0
 40
0.0
 40
0.0
 40
0.2046936801985227
 40
0.6930643912485804
 40
1.0
 40
1.0
 40
1.0
 40
1.0
 10
245.368742783075
 20
235.5589352930671
 30
0.0
 10
245.3849180161365
 20
235.5430828109247
 30
0.0
 10
245.439685110285
 20
235.4894085065928
 30
0.0
 10
245.4782086857263
 20
235.389269090454
 30
0.0
 10
245.48417231225
 20
235.3093032988941
 30
0.0
 10
245.4864738774354
 20
235.2784417952186
 30
0.0
  0
SPLINE
  5
DB
330
1F
100
AcDbEntity
  8
0
  6
Continuous
 62
     7
370
    15
100
AcDbSpline
210
0.0
220
0.0
230
1.0
 70
     8
 71
     3
 72
     9
 73
     5
 74
     0
 42
0.00000001
 43
0.00000001
 12
1.0
 22
0.0
 32
0.0
 13
1.0
 23
0.0
 33
0.0
 40
0.0
 40
0.0
 40
0.0
 40
0.0
 40
0.5070172063844968
 40
0.9999999999999999
 40
0.9999999999999999
 40
0.9999999999999999
 40
0.9999999999999999
 10
245.4864738774354
 20
94.57844723116217
 30
0.0
 10
245.4809428286434
 20
94.52412777761577
 30
0.0
 10
245.4700338324153
 20
94.41699245190618
 30
0.0
 10
245.4022569485309
 20
94.33341171213979
 30
0.0
 10
245.3688441109711
 20
94.2922078455573
 30
0.0
  0
LINE
  5
DC
330
1F
100
AcDbEntity
  8
0
  6
Continuous
 62
     7
370
    15
100
AcDbLine
 10
165.4864726853
 20
105.6684457148
 30
0.0
 11
165.4864726853
 21
105.7984434451
 31
0.0
  0
LINE
  5
DD
330
1F
100
AcDbEntity
  8
0
  6
Continuous
 62
     7
370
    15
100
AcDbLine
 10
207.1188436621
 20
82.4350856627
 30
0.0
 11
207.1188436621
 21
82.0493899668
 31
0.0
  0
LINE
  5
DE
330
1F
100
AcDbEntity
  8
0
  6
Continuous
 62
     7
370
    15
100
AcDbLine
 10
207.1188436621
 20
82.0493899668
 30
0.0
 11
173.1188444686
 21
82.0493899668
 31
0.0
  0
LINE
  5
DF
330
1F
100
AcDbEntity
  8
0
  6
Continuous
 62
     7
370
    15
100
AcDbLine
 10
173.1188444686
 20
82.4350856627
 30
0.0
 11
173.1188444686
 21
82.0493899668
 31
0.0
  0
LINE
  5
E0
330
1F
100
AcDbEntity
  8
0
  6
Continuous
 62
     7
370
    15
100
AcDbLine
 10
207.1188436621
 20
82.0493899668
 30
0.0
 11
207.1188436621
 21
81.6167675341
 31
0.0
  0
LWPOLYLINE
  5
E1
330
1F
100
AcDbEntity
  8
0
  6
Continuous
 62
     7
370
    15
100
AcDbPolyline
 90
        9
 70
   128
 43
0.0
 10
205.1188436602
 20
80.9987329329
 10
205.5090243262
 20
81.0106061782
 10
205.8842105125
 20
81.045778879
 10
206.2299841349
 20
81.1028920497
 10
206.5330572342
 20
81.1797522391
 10
206.7817828883
 20
81.273403057
 10
206.9666027357
 20
81.3802563037
 10
207.0804142193
 20
81.4961932982
 10
207.1188436621
 20
81.6167675341
  0
LINE
  5
E2
330
1F
100
AcDbEntity
  8
0
  6
Continuous
 62
     7
370
    15
100
AcDbLine
 10
205.1188436602
 20
80.9987329329
 30
0.0
 11
175.1188425613
 21
80.9987329329
 31
0.0
  0
LWPOLYLINE
  5
E3
330
1F
100
AcDbEntity
  8
0
  6
Continuous
 62
     7
370
    15
100
AcDbPolyline
 90
        9
 70
   128
 43
0.0
 10
173.1188444686
 20
81.6167675341
 10
173.1572745633
 20
81.4961932982
 10
173.2710836721
 20
81.3802563037
 10
173.4559057546
 20
81.273403057
 10
173.7046299768
 20
81.1797522391
 10
174.007701714
 20
81.1028920497
 10
174.3534771991
 20
81.045778879
 10
174.7286616159
 20
81.0106061782
 10
175.1188425613
 20
80.9987329329
  0
LINE
  5
E4
330
1F
100
AcDbEntity
  8
0
  6
Continuous
 62
     7
370
    15
100
AcDbLine
 10
173.1188444686
 20
82.0493899668
 30
0.0
 11
173.1188444686
 21
81.6167675341
 31
0.0
  0
SPLINE
  5
E5
330
1F
100
AcDbEntity
  8
0
  6
Continuous
 62
     7
370
    15
100
AcDbSpline
210
0.0
220
0.0
230
1.0
 70
     8
 71
     3
 72
    13
 73
     9
 74
     0
 42
0.00000001
 43
0.00000001
 12
1.0
 22
0.0
 32
0.0
 13
1.0
 23
0.0
 33
0.0
 40
0.0
 40
0.0
 40
0.0
 40
0.0
 40
0.0075414152971553
 40
0.2722583873227161
 40
0.4814912822062659
 40
0.6613661103066343
 40
0.8304168357951838
 40
0.9999999999999999
 40
0.9999999999999999
 40
0.9999999999999999
 40
0.9999999999999999
 10
223.8531364393288
 20
238.1684445227271
 30
0.0
 10
223.8530932287048
 20
238.1684441775137
 30
0.0
 10
223.8515332490013
 20
238.1684317147012
 30
0.0
 10
223.8487554406955
 20
238.170796786603
 30
0.0
 10
223.8452789623867
 20
238.1793229346237
 30
0.0
 10
223.842849480429
 20
238.1904655864338
 30
0.0
 10
223.8412264969078
 20
238.2036905552731
 30
0.0
 10
223.841012655192
 20
238.213522938047
 30
0.0
 10
223.8409055662209
 20
238.2184468592292
 30
0.0
  0
LINE
  5
E6
330
1F
100
AcDbEntity
  8
0
  6
Continuous
 62
     7
370
    15
100
AcDbLine
 10
223.8531364393
 20
238.1684445227
 30
0.0
 11
222.3525001001
 21
238.1684445227
 31
0.0
  0
SPLINE
  5
E7
330
1F
100
AcDbEntity
  8
0
  6
Continuous
 62
     7
370
    15
100
AcDbSpline
210
0.0
220
0.0
230
1.0
 70
     8
 71
     3
 72
    13
 73
     9
 74
     0
 42
0.00000001
 43
0.00000001
 12
1.0
 22
0.0
 32
0.0
 13
1.0
 23
0.0
 33
0.0
 40
0.0
 40
0.0
 40
0.0
 40
0.0
 40
0.1695247892752628
 40
0.3386447730186543
 40
0.5184822577072754
 40
0.7277266508685578
 40
0.9924581702685484
 40
1.0
 40
1.0
 40
1.0
 40
1.0
 10
223.8409055662209
 20
238.3584462488776
 30
0.0
 10
223.8410128055594
 20
238.3633678320137
 30
0.0
 10
223.8412270281613
 20
238.3731992461163
 30
0.0
 10
223.8428486794499
 20
238.3864266912634
 30
0.0
 10
223.8452795154364
 20
238.3975634348729
 30
0.0
 10
223.8487553231574
 20
238.4060909036797
 30
0.0
 10
223.8515332496413
 20
238.4084554299866
 30
0.0
 10
223.8530932287221
 20
238.408442970049
 30
0.0
 10
223.8531364393288
 20
238.4084426249152
 30
0.0
  0
LINE
  5
E8
330
1F
100
AcDbEntity
  8
0
  6
Continuous
 62
     7
370
    15
100
AcDbLine
 10
222.28794976
 20
238.4084426249
 30
0.0
 11
223.8531364393
 21
238.4084426249
 31
0.0
  0
LINE
  5
E9
330
1F
100
AcDbEntity
  8
0
  6
Continuous
 62
     7
370
    15
100
AcDbLine
 10
223.8409055662
 20
238.2184468592
 30
0.0
 11
223.8409055662
 21
238.3584462489
 31
0.0
  0
SPLINE
  5
EA
330
1F
100
AcDbEntity
  8
0
  6
Continuous
 62
     7
370
    15
100
AcDbSpline
210
0.0
220
0.0
230
1.0
 70
     8
 71
     3
 72
    12
 73
     8
 74
     0
 42
0.00000001
 43
0.00000001
 12
1.0
 22
0.0
 32
0.0
 13
1.0
 23
0.0
 33
0.0
 40
0.0
 40
0.0
 40
0.0
 40
0.0
 40
0.2289426912756045
 40
0.459418673748279
 40
0.6825272398167661
 40
0.8947079876629871
 40
1.0
 40
1.0
 40
1.0
 40
1.0
 10
223.8976327967698
 20
238.4084426249152
 30
0.0
 10
223.920842265296
 20
238.4049762330638
 30
0.0
 10
223.9674166424439
 20
238.398020233996
 30
0.0
 10
224.0291937079204
 20
238.3432455166869
 30
0.0
 10
224.0737687082244
 20
238.2638416061883
 30
0.0
 10
224.0938184700539
 20
238.1836649297935
 30
0.0
 10
224.0955238431351
 20
238.1346862878315
 30
0.0
 10
224.0960894417817
 20
238.118442186225
 30
0.0
  0
SPLINE
  5
EB
330
1F
100
AcDbEntity
  8
0
  6
Continuous
 62
     7
370
    15
100
AcDbSpline
210
0.0
220
0.0
230
1.0
 70
     8
 71
     3
 72
    12
 73
     8
 74
     0
 42
0.00000001
 43
0.00000001
 12
1.0
 22
0.0
 32
0.0
 13
1.0
 23
0.0
 33
0.0
 40
0.0
 40
0.0
 40
0.0
 40
0.0
 40
0.2028296096707041
 40
0.4049461781738754
 40
0.6098357398824004
 40
0.8226967644084315
 40
1.0
 40
1.0
 40
1.0
 40
1.0
 10
224.9805612754876
 20
238.118442186225
 30
0.0
 10
224.978318459023
 20
238.1498722981559
 30
0.0
 10
224.9738407106451
 20
238.2126220304394
 30
0.0
 10
224.9390232900955
 20
238.2966989130635
 30
0.0
 10
224.8872194092101
 20
238.3621198796141
 30
0.0
 10
224.8248147013853
 20
238.4017619784193
 30
0.0
 10
224.7805443142705
 20
238.4063552802681
 30
0.0
 10
224.7604264211709
 20
238.4084426249152
 30
0.0
  0
LINE
  5
EC
330
1F
100
AcDbEntity
  8
0
  6
Continuous
 62
     7
370
    15
100
AcDbLine
 10
224.9805612755
 20
238.1184421862
 30
0.0
 11
224.0960894418
 21
238.1184421862
 31
0.0
  0
LINE
  5
ED
330
1F
100
AcDbEntity
  8
0
  6
Continuous
 62
     7
370
    15
100
AcDbLine
 10
223.8976327968
 20
238.4084426249
 30
0.0
 11
224.7604264212
 21
238.4084426249
 31
0.0
  0
LINE
  5
EE
330
1F
100
AcDbEntity
  8
0
  6
Continuous
 62
     7
370
    15
100
AcDbLine
 10
224.0960894418
 20
238.1184421862
 30
0.0
 11
224.0960894418
 21
237.0984457816
 31
0.0
  0
LINE
  5
EF
330
1F
100
AcDbEntity
  8
0
  6
Continuous
 62
     7
370
    15
100
AcDbLine
 10
224.9805612755
 20
237.0984457816
 30
0.0
 11
224.9805612755
 21
238.1184421862
 31
0.0
  0
LINE
  5
F0
330
1F
100
AcDbEntity
  8
0
  6
Continuous
 62
     7
370
    15
100
AcDbLine
 10
224.0960894418
 20
237.0984457816
 30
0.0
 11
224.9805612755
 21
237.0984457816
 31
0.0
  0
ARC
  5
F1
330
1F
100
AcDbEntity
  8
0
  6
Continuous
 62
     7
370
    15
100
AcDbCircle
 10
224.9333617669
 20
237.0956174308
 30
0.0
 40
0.0472841747434794
100
AcDbArc
 50
273.9123095541
 51
3.4292520518
  0
LINE
  5
F2
330
1F
100
AcDbEntity
  8
0
  6
Continuous
 62
     7
370
    15
100
AcDbLine
 10
224.9365879488
 20
237.0484434451
 30
0.0
 11
224.0737943244
 21
237.0484434451
 31
0.0
  0
LWPOLYLINE
  5
F3
330
1F
100
AcDbEntity
  8
0
  6
Continuous
 62
     7
370
    15
100
AcDbPolyline
 90
        9
 70
   128
 43
0.0
 10
224.0960894418
 20
237.0984457816
 10
224.0956617785
 20
237.0886885012
 10
224.0943921995
 20
237.0793126906
 10
224.092332859
 20
237.0706640566
 10
224.0895597529
 20
237.0630883063
 10
224.0861816597
 20
237.0568715418
 10
224.0823267293
 20
237.0522521819
 10
224.0781439734
 20
237.0494030799
 10
224.0737943244
 20
237.0484434451
  0
LINE
  5
F4
330
1F
100
AcDbEntity
  8
0
  6
Continuous
 62
     7
370
    15
100
AcDbLine
 10
224.0960894418
 20
238.1184421862
 30
0.0
 11
224.037845273
 21
238.1184421862
 31
0.0
  0
SPLINE
  5
F5
330
1F
100
AcDbEntity
  8
0
  6
Continuous
 62
     7
370
    15
100
AcDbSpline
210
0.0
220
0.0
230
1.0
 70
     8
 71
     3
 72
    12
 73
     8
 74
     0
 42
0.00000001
 43
0.00000001
 12
1.0
 22
0.0
 32
0.0
 13
1.0
 23
0.0
 33
0.0
 40
0.0
 40
0.0
 40
0.0
 40
0.0
 40
0.1044238460568233
 40
0.3151814870106485
 40
0.5377537710017617
 40
0.7690283389003778
 40
1.0
 40
1.0
 40
1.0
 40
1.0
 10
224.0378452730233
 20
238.118442186225
 30
0.0
 10
224.0373477654574
 20
238.131886637479
 30
0.0
 10
224.0358461431716
 20
238.1724658949789
 30
0.0
 10
224.0181508033193
 20
238.2389389550538
 30
0.0
 10
223.9787444511821
 20
238.3046688149707
 30
0.0
 10
223.9239629841626
 20
238.3498762908508
 30
0.0
 10
223.8824344205192
 20
238.355590844438
 30
0.0
 10
223.8616837453896
 20
238.3584462488776
 30
0.0
  0
ARC
  5
F6
330
1F
100
AcDbEntity
  8
0
  6
Continuous
 62
     7
370
    15
100
AcDbCircle
 10
223.9060253804
 20
238.3644856114
 30
0.0
 40
0.0447510278558473
100
AcDbArc
 50
100.8092246192
 51
187.7560017296
  0
LINE
  5
F7
330
1F
100
AcDbEntity
  8
0
  6
Continuous
 62
     7
370
    15
100
AcDbLine
 10
224.0960894418
 20
237.0984457816
 30
0.0
 11
224.037845273
 21
237.0984457816
 31
0.0
  0
LINE
  5
F8
330
1F
100
AcDbEntity
  8
0
  6
Continuous
 62
     7
370
    15
100
AcDbLine
 10
224.037845273
 20
237.0984457816
 30
0.0
 11
224.037845273
 21
238.1184421862
 31
0.0
  0
ARC
  5
F9
330
1F
100
AcDbEntity
  8
0
  6
Continuous
 62
     7
370
    15
100
AcDbCircle
 10
224.0821971801
 20
237.0924085639
 30
0.0
 40
0.0447609166660486
100
AcDbArc
 50
172.2484932092
 51
259.1798057231
  0
LINE
  5
FA
330
1F
100
AcDbEntity
  8
0
  6
Continuous
 62
     7
370
    15
100
AcDbLine
 10
223.8616837454
 20
238.3584462489
 30
0.0
 11
223.8409055662
 21
238.3584462489
 31
0.0
  0
LINE
  5
FB
330
1F
100
AcDbEntity
  8
0
  6
Continuous
 62
     7
370
    15
100
AcDbLine
 10
223.9354042602
 20
237.0984457816
 30
0.0
 11
224.037845273
 21
237.0984457816
 31
0.0
  0
LINE
  5
FC
330
1F
100
AcDbEntity
  8
0
  6
Continuous
 62
     7
370
    15
100
AcDbLine
 10
223.9354042602
 20
238.1184421862
 30
0.0
 11
223.9354042602
 21
237.0984457816
 31
0.0
  0
SPLINE
  5
FD
330
1F
100
AcDbEntity
  8
0
  6
Continuous
 62
     7
370
    15
100
AcDbSpline
210
0.0
220
0.0
230
1.0
 70
     8
 71
     3
 72
    12
 73
     8
 74
     0
 42
0.00000001
 43
0.00000001
 12
1.0
 22
0.0
 32
0.0
 13
1.0
 23
0.0
 33
0.0
 40
0.0
 40
0.0
 40
0.0
 40
0.0
 40
0.1009302351881653
 40
0.3119764332004837
 40
0.535966638373711
 40
0.768115632030491
 40
1.0
 40
1.0
 40
1.0
 40
1.0
 10
223.9354042601639
 20
238.118442186225
 30
0.0
 10
223.9352084522625
 20
238.1238669588039
 30
0.0
 10
223.934603207951
 20
238.1406349886902
 30
0.0
 10
223.9272826946428
 20
238.1683288680679
 30
0.0
 10
223.9107574389762
 20
238.1958741573807
 30
0.0
 10
223.887784040462
 20
238.2148313879816
 30
0.0
 10
223.8703805354975
 20
238.2172421604128
 30
0.0
 10
223.8616837453896
 20
238.2184468592292
 30
0.0
  0
LINE
  5
FE
330
1F
100
AcDbEntity
  8
0
  6
Continuous
 62
     7
370
    15
100
AcDbLine
 10
223.8409055662
 20
238.2184468592
 30
0.0
 11
223.8616837454
 21
238.2184468592
 31
0.0
  0
ARC
  5
FF
330
1F
100
AcDbEntity
  8
0
  6
Continuous
 62
     7
370
    15
100
AcDbCircle
 10
223.9797587939
 20
237.0924107028
 30
0.0
 40
0.0447632308417713
100
AcDbArc
 50
172.2516593166
 51
259.1788908646
  0
LINE
  5
100
330
1F
100
AcDbEntity
  8
0
  6
Continuous
 62
     7
370
    15
100
AcDbLine
 10
224.0737943244
 20
237.0484434451
 30
0.0
 11
223.9713548017
 21
237.0484434451
 31
0.0
  0
ARC
  5
101
330
1F
100
AcDbEntity
  8
0
  6
Continuous
 62
     7
370
    15
100
AcDbCircle
 10
223.906032703
 20
238.2124075211
 30
0.0
 40
0.0447582802173086
100
AcDbArc
 50
172.2452942501
 51
259.1830046822
  0
LINE
  5
102
330
1F
100
AcDbEntity
  8
0
  6
Continuous
 62
     7
370
    15
100
AcDbLine
 10
223.8976327968
 20
238.1684445227
 30
0.0
 11
223.8531364393
 21
238.1684445227
 31
0.0
  0
LINE
  5
103
330
1F
100
AcDbEntity
  8
0
  6
Continuous
 62
     7
370
    15
100
AcDbLine
 10
223.8531364393
 20
238.4084426249
 30
0.0
 11
223.8976327968
 21
238.4084426249
 31
0.0
  0
LINE
  5
104
330
1F
100
AcDbEntity
  8
0
  6
Continuous
 62
     7
370
    15
100
AcDbLine
 10
224.9865873051
 20
238.1184421862
 30
0.0
 11
224.9805612755
 21
238.1184421862
 31
0.0
  0
LINE
  5
105
330
1F
100
AcDbEntity
  8
0
  6
Continuous
 62
     7
370
    15
100
AcDbLine
 10
224.7604264212
 20
238.4084426249
 30
0.0
 11
224.8764721942
 21
238.4084426249
 31
0.0
  0
LINE
  5
106
330
1F
100
AcDbEntity
  8
0
  6
Continuous
 62
     7
370
    15
100
AcDbLine
 10
221.4004082871
 20
237.0984457816
 30
0.0
 11
221.5028478098
 21
237.0984457816
 31
0.0
  0
LINE
  5
107
330
1F
100
AcDbEntity
  8
0
  6
Continuous
 62
     7
370
    15
100
AcDbLine
 10
221.5028478098
 20
237.0984457816
 30
0.0
 11
221.5833289814
 21
237.0984457816
 31
0.0
  0
ARC
  5
108
330
1F
100
AcDbEntity
  8
0
  6
Continuous
 62
     7
370
    15
100
AcDbCircle
 10
221.5358922824
 20
237.0958615176
 30
0.0
 40
0.0475070398711335
100
AcDbArc
 50
273.5070487022
 51
3.1182860843
  0
ARC
  5
109
330
1F
100
AcDbEntity
  8
0
  6
Continuous
 62
     7
370
    15
100
AcDbCircle
 10
221.5472012154
 20
237.0924098917
 30
0.0
 40
0.0447622224458368
100
AcDbArc
 50
172.2504359852
 51
259.180114196
  0
LINE
  5
10A
330
1F
100
AcDbEntity
  8
0
  6
Continuous
 62
     7
370
    15
100
AcDbLine
 10
221.5387983513
 20
237.0484434451
 30
0.0
 11
221.4363573384
 21
237.0484434451
 31
0.0
  0
ARC
  5
10B
330
1F
100
AcDbEntity
  8
0
  6
Continuous
 62
     7
370
    15
100
AcDbCircle
 10
221.4447601942
 20
237.0924085639
 30
0.0
 40
0.0447609166661902
100
AcDbArc
 50
172.2484932093
 51
259.1798057229
  0
LINE
  5
10C
330
1F
100
AcDbEntity
  8
0
  6
Continuous
 62
     7
370
    15
100
AcDbLine
 10
222.086208899
 20
237.0484434451
 30
0.0
 11
221.5387983513
 21
237.0484434451
 31
0.0
  0
SPLINE
  5
10D
330
1F
100
AcDbEntity
  8
0
  6
Continuous
 62
     7
370
    15
100
AcDbSpline
210
0.0
220
0.0
230
1.0
 70
     8
 71
     3
 72
    13
 73
     9
 74
     0
 42
0.00000001
 43
0.00000001
 12
1.0
 22
0.0
 32
0.0
 13
1.0
 23
0.0
 33
0.0
 40
0.0
 40
0.0
 40
0.0
 40
0.0
 40
0.0075485775795356
 40
0.2722597120449088
 40
0.481487671337341
 40
0.6613620289709973
 40
0.8304173173317245
 40
1.0
 40
1.0
 40
1.0
 40
1.0
 10
222.3678080630357
 20
238.1684445227271
 30
0.0
 10
222.367829414868
 20
238.1684428483726
 30
0.0
 10
222.3685995260128
 20
238.168382458283
 30
0.0
 10
222.3700063098771
 20
238.1661190886187
 30
0.0
 10
222.3717781595342
 20
238.157560570979
 30
0.0
 10
222.3730344679681
 20
238.1464244860174
 30
0.0
 10
222.3738788794178
 20
238.1331984464214
 30
0.0
 10
222.3739910210745
 20
238.1233660439472
 30
0.0
 10
222.3740471792275
 20
238.118442186225
 30
0.0
  0
LINE
  5
10E
330
1F
100
AcDbEntity
  8
0
  6
Continuous
 62
     7
370
    15
100
AcDbLine
 10
222.367808063
 20
238.1684445227
 30
0.0
 11
223.8531364393
 21
238.1684445227
 31
0.0
  0
SPLINE
  5
10F
330
1F
100
AcDbEntity
  8
0
  6
Continuous
 62
     7
370
    15
100
AcDbSpline
210
0.0
220
0.0
230
1.0
 70
     8
 71
     3
 72
    13
 73
     9
 74
     0
 42
0.00000001
 43
0.00000001
 12
1.0
 22
0.0
 32
0.0
 13
1.0
 23
0.0
 33
0.0
 40
0.0
 40
0.0
 40
0.0
 40
0.0
 40
0.1695224183369491
 40
0.3386450793593727
 40
0.5184800894206528
 40
0.7277172152790987
 40
0.9924514048908273
 40
1.0
 40
1.0
 40
1.0
 40
1.0
 10
222.3740471792275
 20
237.9784427965766
 30
0.0
 10
222.3739909431865
 20
237.9735211735023
 30
0.0
 10
222.3738786037168
 20
237.963689533222
 30
0.0
 10
222.37303488067
 20
237.9504625954537
 30
0.0
 10
222.3717778844536
 20
237.9393256986734
 30
0.0
 10
222.3700062929746
 20
237.9307979261648
 30
0.0
 10
222.368599590441
 20
237.9284336047485
 30
0.0
 10
222.3678294148937
 20
237.9284460748265
 30
0.0
 10
222.3678080630357
 20
237.928446420539
 30
0.0
  0
LINE
  5
110
330
1F
100
AcDbEntity
  8
0
  6
Continuous
 62
     7
370
    15
100
AcDbLine
 10
223.9213539553
 20
237.9284464205
 30
0.0
 11
222.367808063
 21
237.9284464205
 31
0.0
  0
LINE
  5
111
330
1F
100
AcDbEntity
  8
0
  6
Continuous
 62
     7
370
    15
100
AcDbLine
 10
222.3740471792
 20
238.1184421862
 30
0.0
 11
222.3740471792
 21
237.9784427966
 31
0.0
  0
SPLINE
  5
112
330
1F
100
AcDbEntity
  8
0
  6
Continuous
 62
     7
370
    15
100
AcDbSpline
210
0.0
220
0.0
230
1.0
 70
     8
 71
     3
 72
    12
 73
     8
 74
     0
 42
0.00000001
 43
0.00000001
 12
1.0
 22
0.0
 32
0.0
 13
1.0
 23
0.0
 33
0.0
 40
0.0
 40
0.0
 40
0.0
 40
0.0
 40
0.2289419123285731
 40
0.4594195985444685
 40
0.6825256411566137
 40
0.8947079103468587
 40
1.0
 40
1.0
 40
1.0
 40
1.0
 10
222.3189292740876
 20
237.928446420539
 30
0.0
 10
222.2931535009345
 20
237.9319129213114
 30
0.0
 10
222.2414290471911
 20
237.9388691766209
 30
0.0
 10
222.172907437566
 20
237.9936425625396
 30
0.0
 10
222.1234956202003
 20
238.0730485904066
 30
0.0
 10
222.1012769689829
 20
238.1532237809629
 30
0.0
 10
222.0993880931208
 20
238.2022027267331
 30
0.0
 10
222.0987616372163
 20
238.2184468592292
 30
0.0
  0
SPLINE
  5
113
330
1F
100
AcDbEntity
  8
0
  6
Continuous
 62
     7
370
    15
100
AcDbSpline
210
0.0
220
0.0
230
1.0
 70
     8
 71
     3
 72
    12
 73
     8
 74
     0
 42
0.00000001
 43
0.00000001
 12
1.0
 22
0.0
 32
0.0
 13
1.0
 23
0.0
 33
0.0
 40
0.0
 40
0.0
 40
0.0
 40
0.0
 40
0.2028289861927181
 40
0.404944479883202
 40
0.6098335912584079
 40
0.822693931115323
 40
0.9999999999999999
 40
0.9999999999999999
 40
0.9999999999999999
 40
0.9999999999999999
 10
221.304252583986
 20
238.2184468592292
 30
0.0
 10
221.3066967232399
 20
238.1870167689322
 30
0.0
 10
221.3115764039873
 20
238.1242671501182
 30
0.0
 10
221.3495097203177
 20
238.040189969065
 30
0.0
 10
221.4059316605183
 20
237.9747692295952
 30
0.0
 10
221.4738626666177
 20
237.9351268190916
 30
0.0
 10
221.5220121496409
 20
237.9305337027468
 30
0.0
 10
221.5438930583054
 20
237.928446420539
 30
0.0
  0
LINE
  5
114
330
1F
100
AcDbEntity
  8
0
  6
Continuous
 62
     7
370
    15
100
AcDbLine
 10
221.304252584
 20
238.2184468592
 30
0.0
 11
222.0987616372
 21
238.2184468592
 31
0.0
  0
LINE
  5
115
330
1F
100
AcDbEntity
  8
0
  6
Continuous
 62
     7
370
    15
100
AcDbLine
 10
222.3189292741
 20
237.9284464205
 30
0.0
 11
221.5438930583
 21
237.9284464205
 31
0.0
  0
LINE
  5
116
330
1F
100
AcDbEntity
  8
0
  6
Continuous
 62
     7
370
    15
100
AcDbLine
 10
222.0987616372
 20
238.2184468592
 30
0.0
 11
222.0987616372
 21
239.2384432639
 31
0.0
  0
LINE
  5
117
330
1F
100
AcDbEntity
  8
0
  6
Continuous
 62
     7
370
    15
100
AcDbLine
 10
221.304252584
 20
239.2384432639
 30
0.0
 11
221.304252584
 21
238.2184468592
 31
0.0
  0
LINE
  5
118
330
1F
100
AcDbEntity
  8
0
  6
Continuous
 62
     7
370
    15
100
AcDbLine
 10
222.0987616372
 20
239.2384432639
 30
0.0
 11
221.304252584
 21
239.2384432639
 31
0.0
  0
ARC
  5
119
330
1F
100
AcDbEntity
  8
0
  6
Continuous
 62
     7
370
    15
100
AcDbCircle
 10
221.3524023905
 20
239.24030217
 30
0.0
 40
0.048185676253958
100
AcDbArc
 50
92.3993988147
 51
182.2109041258
  0
LINE
  5
11A
330
1F
100
AcDbEntity
  8
0
  6
Continuous
 62
     7
370
    15
100
AcDbLine
 10
221.3503850889
 20
239.2884456004
 30
0.0
 11
222.1254213047
 21
239.2884456004
 31
0.0
  0
LWPOLYLINE
  5
11B
330
1F
100
AcDbEntity
  8
0
  6
Continuous
 62
     7
370
    15
100
AcDbPolyline
 90
        9
 70
   128
 43
0.0
 10
222.0987616372
 20
239.2384432639
 10
222.0992742372
 20
239.2482005442
 10
222.1007911754
 20
239.2575763548
 10
222.1032543373
 20
239.2662249888
 10
222.1065698457
 20
239.2738007392
 10
222.1106110406
 20
239.2800175036
 10
222.1152199698
 20
239.2846368636
 10
222.1202207995
 20
239.2874859656
 10
222.1254213047
 20
239.2884456004
  0
LINE
  5
11C
330
1F
100
AcDbEntity
  8
0
  6
Continuous
 62
     7
370
    15
100
AcDbLine
 10
222.0987616372
 20
238.2184468592
 30
0.0
 11
222.1577151012
 21
238.2184468592
 31
0.0
  0
SPLINE
  5
11D
330
1F
100
AcDbEntity
  8
0
  6
Continuous
 62
     7
370
    15
100
AcDbSpline
210
0.0
220
0.0
230
1.0
 70
     8
 71
     3
 72
    12
 73
     8
 74
     0
 42
0.00000001
 43
0.00000001
 12
1.0
 22
0.0
 32
0.0
 13
1.0
 23
0.0
 33
0.0
 40
0.0
 40
0.0
 40
0.0
 40
0.0
 40
0.1044239198995369
 40
0.3151820934054911
 40
0.5377545329377824
 40
0.7690283762374155
 40
1.0
 40
1.0
 40
1.0
 40
1.0
 10
222.1577151012475
 20
238.2184468592292
 30
0.0
 10
222.1582616622648
 20
238.2050024031732
 30
0.0
 10
222.1599113441171
 20
238.1644230818022
 30
0.0
 10
222.1793472729207
 20
238.0979501770994
 30
0.0
 10
222.2226368143123
 20
238.032220347881
 30
0.0
 10
222.2828101411097
 20
237.9870126920315
 30
0.0
 10
222.3284287027065
 20
237.9812981829987
 30
0.0
 10
222.3512230706269
 20
237.9784427965766
 30
0.0
  0
LWPOLYLINE
  5
11E
330
1F
100
AcDbEntity
  8
0
  6
Continuous
 62
     7
370
    15
100
AcDbPolyline
 90
        9
 70
   128
 43
0.0
 10
222.3189292741
 20
237.9284464205
 10
222.325229485
 20
237.9294060553
 10
222.3312882972
 20
237.9322491969
 10
222.3368717623
 20
237.9368685568
 10
222.3417653036
 20
237.9430912818
 10
222.3457811666
 20
237.9506670321
 10
222.348764379
 20
237.9593097056
 10
222.3506031823
 20
237.9686914767
 10
222.3512230706
 20
237.9784427966
  0
LINE
  5
11F
330
1F
100
AcDbEntity
  8
0
  6
Continuous
 62
     7
370
    15
100
AcDbLine
 10
222.0987616372
 20
239.2384432639
 30
0.0
 11
222.1577151012
 21
239.2384432639
 31
0.0
  0
LINE
  5
120
330
1F
100
AcDbEntity
  8
0
  6
Continuous
 62
     7
370
    15
100
AcDbLine
 10
222.1577151012
 20
239.2384432639
 30
0.0
 11
222.1577151012
 21
238.2184468592
 31
0.0
  0
LWPOLYLINE
  5
121
330
1F
100
AcDbEntity
  8
0
  6
Continuous
 62
     7
370
    15
100
AcDbPolyline
 90
        9
 70
   128
 43
0.0
 10
222.1254213047
 20
239.2884456004
 10
222.1317215157
 20
239.2874859656
 10
222.1377803278
 20
239.2846368636
 10
222.1433623028
 20
239.2800175036
 10
222.1482558441
 20
239.2738007392
 10
222.1522717071
 20
239.2662249888
 10
222.1552564097
 20
239.2575763548
 10
222.1570937228
 20
239.2482005442
 10
222.1577151012
 20
239.2384432639
  0
LINE
  5
122
330
1F
100
AcDbEntity
  8
0
  6
Continuous
 62
     7
370
    15
100
AcDbLine
 10
222.3512230706
 20
237.9784427966
 30
0.0
 11
222.3740471792
 21
237.9784427966
 31
0.0
  0
LINE
  5
123
330
1F
100
AcDbEntity
  8
0
  6
Continuous
 62
     7
370
    15
100
AcDbLine
 10
222.2702427101
 20
239.2384432639
 30
0.0
 11
222.1577151012
 21
239.2384432639
 31
0.0
  0
LINE
  5
124
330
1F
100
AcDbEntity
  8
0
  6
Continuous
 62
     7
370
    15
100
AcDbLine
 10
222.2702427101
 20
238.2184468592
 30
0.0
 11
222.2702427101
 21
239.2384432639
 31
0.0
  0
SPLINE
  5
125
330
1F
100
AcDbEntity
  8
0
  6
Continuous
 62
     7
370
    15
100
AcDbSpline
210
0.0
220
0.0
230
1.0
 70
     8
 71
     3
 72
    12
 73
     8
 74
     0
 42
0.00000001
 43
0.00000001
 12
1.0
 22
0.0
 32
0.0
 13
1.0
 23
0.0
 33
0.0
 40
0.0
 40
0.0
 40
0.0
 40
0.0
 40
0.1009312690905156
 40
0.3119750571604841
 40
0.535965520534156
 40
0.7681209865904489
 40
1.0
 40
1.0
 40
1.0
 40
1.0
 10
222.2702427101189
 20
238.2184468592292
 30
0.0
 10
222.2704583721298
 20
238.2130221080847
 30
0.0
 10
222.2711249759362
 20
238.1962543901748
 30
0.0
 10
222.2791628871061
 20
238.1685598943043
 30
0.0
 10
222.2973166870476
 20
238.1410145514423
 30
0.0
 10
222.3225533772826
 20
238.1220580397295
 30
0.0
 10
222.3416703025379
 20
238.1196469919255
 30
0.0
 10
222.3512230706269
 20
238.118442186225
 30
0.0
  0
LINE
  5
126
330
1F
100
AcDbEntity
  8
0
  6
Continuous
 62
     7
370
    15
100
AcDbLine
 10
222.3740471792
 20
238.1184421862
 30
0.0
 11
222.3512230706
 21
238.1184421862
 31
0.0
  0
LWPOLYLINE
  5
127
330
1F
100
AcDbEntity
  8
0
  6
Continuous
 62
     7
370
    15
100
AcDbPolyline
 90
        9
 70
   128
 43
0.0
 10
222.2379489136
 20
239.2884456004
 10
222.2442491245
 20
239.2874859656
 10
222.2503079367
 20
239.2846368636
 10
222.2558899117
 20
239.2800175036
 10
222.260783453
 20
239.2738007392
 10
222.2647993159
 20
239.2662249888
 10
222.2677840185
 20
239.2575763548
 10
222.2696213317
 20
239.2482005442
 10
222.2702427101
 20
239.2384432639
  0
LINE
  5
128
330
1F
100
AcDbEntity
  8
0
  6
Continuous
 62
     7
370
    15
100
AcDbLine
 10
222.1254213047
 20
239.2884456004
 30
0.0
 11
222.2379489136
 21
239.2884456004
 31
0.0
  0
LWPOLYLINE
  5
129
330
1F
100
AcDbEntity
  8
0
  6
Continuous
 62
     7
370
    15
100
AcDbPolyline
 90
        9
 70
   128
 43
0.0
 10
222.3512230706
 20
238.1184421862
 10
222.3506031823
 20
238.1281994666
 10
222.348764379
 20
238.1375812377
 10
222.3457811666
 20
238.1462239112
 10
222.3417653036
 20
238.1537996615
 10
222.3368717623
 20
238.160016426
 10
222.3312882972
 20
238.1646357859
 10
222.325229485
 20
238.1674848879
 10
222.3189292741
 20
238.1684445227
  0
LINE
  5
12A
330
1F
100
AcDbEntity
  8
0
  6
Continuous
 62
     7
370
    15
100
AcDbLine
 10
222.3189292741
 20
238.1684445227
 30
0.0
 11
222.367808063
 21
238.1684445227
 31
0.0
  0
LINE
  5
12B
330
1F
100
AcDbEntity
  8
0
  6
Continuous
 62
     7
370
    15
100
AcDbLine
 10
222.367808063
 20
237.9284464205
 30
0.0
 11
222.3189292741
 21
237.9284464205
 31
0.0
  0
LINE
  5
12C
330
1F
100
AcDbEntity
  8
0
  6
Continuous
 62
     7
370
    15
100
AcDbLine
 10
221.3003842425
 20
238.2184468592
 30
0.0
 11
221.304252584
 21
238.2184468592
 31
0.0
  0
LINE
  5
12D
330
1F
100
AcDbEntity
  8
0
  6
Continuous
 62
     7
370
    15
100
AcDbLine
 10
221.5438930583
 20
237.9284464205
 30
0.0
 11
221.496473093
 21
237.9284464205
 31
0.0
  0
LINE
  5
12E
330
1F
100
AcDbEntity
  8
0
  6
Continuous
 62
     7
370
    15
100
AcDbLine
 10
225.0548539949
 20
239.2384432639
 30
0.0
 11
224.942326386
 21
239.2384432639
 31
0.0
  0
LINE
  5
12F
330
1F
100
AcDbEntity
  8
0
  6
Continuous
 62
     7
370
    15
100
AcDbLine
 10
225.0548539949
 20
238.2184468592
 30
0.0
 11
225.0548539949
 21
239.2384432639
 31
0.0
  0
SPLINE
  5
130
330
1F
100
AcDbEntity
  8
0
  6
Continuous
 62
     7
370
    15
100
AcDbSpline
210
0.0
220
0.0
230
1.0
 70
     8
 71
     3
 72
    10
 73
     6
 74
     0
 42
0.00000001
 43
0.00000001
 12
1.0
 22
0.0
 32
0.0
 13
1.0
 23
0.0
 33
0.0
 40
0.0
 40
0.0
 40
0.0
 40
0.0
 40
0.381696602754239
 40
0.7620505095294393
 40
1.0
 40
1.0
 40
1.0
 40
1.0
 10
225.0686927032525
 20
238.2184468592292
 30
0.0
 10
225.0661218837404
 20
238.1871947464452
 30
0.0
 10
225.0609892881003
 20
238.1248004565849
 30
0.0
 10
225.0295914374003
 20
238.0492120184575
 30
0.0
 10
224.9985379933837
 20
238.0166641611525
 30
0.0
 10
224.9865873050744
 20
238.0041383589393
 30
0.0
  0
LINE
  5
131
330
1F
100
AcDbEntity
  8
0
  6
Continuous
 62
     7
370
    15
100
AcDbLine
 10
224.942326386
 20
239.2384432639
 30
0.0
 11
224.8634500694
 21
239.2384432639
 31
0.0
  0
ARC
  5
132
330
1F
100
AcDbEntity
  8
0
  6
Continuous
 62
     7
370
    15
100
AcDbCircle
 10
224.9118089692
 20
239.2400912468
 30
0.0
 40
0.0483869717257947
100
AcDbArc
 50
92.1039121618
 51
181.9517801654
  0
LWPOLYLINE
  5
133
330
1F
100
AcDbEntity
  8
0
  6
Continuous
 62
     7
370
    15
100
AcDbPolyline
 90
        9
 70
   128
 43
0.0
 10
224.942326386
 20
239.2384432639
 10
224.9417050076
 20
239.2482005442
 10
224.9398676944
 20
239.2575763548
 10
224.9368844819
 20
239.2662249888
 10
224.9328671289
 20
239.2738007392
 10
224.9279735875
 20
239.2800175036
 10
224.9223916125
 20
239.2846368636
 10
224.9163328004
 20
239.2874859656
 10
224.9100325894
 20
239.2884456004
  0
LINE
  5
134
330
1F
100
AcDbEntity
  8
0
  6
Continuous
 62
     7
370
    15
100
AcDbLine
 10
224.9100325894
 20
239.2884456004
 30
0.0
 11
225.0225601983
 21
239.2884456004
 31
0.0
  0
LWPOLYLINE
  5
135
330
1F
100
AcDbEntity
  8
0
  6
Continuous
 62
     7
370
    15
100
AcDbPolyline
 90
        9
 70
   128
 43
0.0
 10
225.0548539949
 20
239.2384432639
 10
225.0542326164
 20
239.2482005442
 10
225.0523953033
 20
239.2575763548
 10
225.0494106007
 20
239.2662249888
 10
225.0453947377
 20
239.2738007392
 10
225.0405011964
 20
239.2800175036
 10
225.0349192214
 20
239.2846368636
 10
225.0288604093
 20
239.2874859656
 10
225.0225601983
 20
239.2884456004
  0
LINE
  5
136
330
1F
100
AcDbEntity
  8
0
  6
Continuous
 62
     7
370
    15
100
AcDbLine
 10
224.249814291
 20
239.2884456004
 30
0.0
 11
224.9100325894
 21
239.2884456004
 31
0.0
  0
LINE
  5
137
330
1F
100
AcDbEntity
  8
0
  6
Continuous
 62
     7
370
    15
100
AcDbLine
 10
224.107988019
 20
238.4977601851
 30
0.0
 11
223.5763175678
 21
238.4084426249
 31
0.0
  0
SPLINE
  5
138
330
1F
100
AcDbEntity
  8
0
  6
Continuous
 62
     7
370
    15
100
AcDbSpline
210
0.0
220
0.0
230
1.0
 70
     8
 71
     3
 72
     9
 73
     5
 74
     0
 42
0.00000001
 43
0.00000001
 12
1.0
 22
0.0
 32
0.0
 13
1.0
 23
0.0
 33
0.0
 40
0.0
 40
0.0
 40
0.0
 40
0.0
 40
0.0702021156831064
 40
1.0
 40
1.0
 40
1.0
 40
1.0
 10
223.5763175678307
 20
238.4084426249152
 30
0.0
 10
223.5637137223258
 20
238.4085327909772
 30
0.0
 10
223.3841771744264
 20
238.4098171691053
 30
0.0
 10
223.208236439638
 20
238.4553882709914
 30
0.0
 10
223.0446471166665
 20
238.4977601851112
 30
0.0
  0
LINE
  5
139
330
1F
100
AcDbEntity
  8
0
  6
Continuous
 62
     7
370
    15
100
AcDbLine
 10
223.0446471167
 20
238.4977601851
 30
0.0
 11
223.0446471167
 21
239.3591307486
 31
0.0
  0
SPLINE
  5
13A
330
1F
100
AcDbEntity
  8
0
  6
Continuous
 62
     7
370
    15
100
AcDbSpline
210
0.0
220
0.0
230
1.0
 70
     8
 71
     3
 72
     9
 73
     5
 74
     0
 42
0.00000001
 43
0.00000001
 12
1.0
 22
0.0
 32
0.0
 13
1.0
 23
0.0
 33
0.0
 40
0.0
 40
0.0
 40
0.0
 40
0.0
 40
0.070202003494146
 40
1.0
 40
1.0
 40
1.0
 40
1.0
 10
223.5763175678307
 20
239.4484423483497
 30
0.0
 10
223.5637137215853
 20
239.4483542385975
 30
0.0
 10
223.3841768762236
 20
239.4470991497428
 30
0.0
 10
223.2082363061889
 20
239.4015148962179
 30
0.0
 10
223.0446471166665
 20
239.3591307486182
 30
0.0
  0
LINE
  5
13B
330
1F
100
AcDbEntity
  8
0
  6
Continuous
 62
     7
370
    15
100
AcDbLine
 10
224.107988019
 20
239.3591307486
 30
0.0
 11
223.5763175678
 21
239.4484423483
 31
0.0
  0
LINE
  5
13C
330
1F
100
AcDbEntity
  8
0
  6
Continuous
 62
     7
370
    15
100
AcDbLine
 10
224.107988019
 20
238.4977601851
 30
0.0
 11
224.107988019
 21
239.3591307486
 31
0.0
  0
SPLINE
  5
13D
330
1F
100
AcDbEntity
  8
0
  6
Continuous
 62
     7
370
    15
100
AcDbSpline
210
0.0
220
0.0
230
1.0
 70
     8
 71
     3
 72
     9
 73
     5
 74
     0
 42
0.00000001
 43
0.00000001
 12
1.0
 22
0.0
 32
0.0
 13
1.0
 23
0.0
 33
0.0
 40
0.0
 40
0.0
 40
0.0
 40
0.0
 40
0.2575498261165121
 40
1.0
 40
1.0
 40
1.0
 40
1.0
 10
223.0446471166665
 20
239.3591307486182
 30
0.0
 10
223.0059658352613
 20
239.3726124292329
 30
0.0
 10
222.8557763282893
 20
239.424958341548
 30
0.0
 10
222.6997394264273
 20
239.4384359187859
 30
0.0
 10
222.5838898015076
 20
239.4484423483497
 30
0.0
  0
LINE
  5
13E
330
1F
100
AcDbEntity
  8
0
  6
Continuous
 62
     7
370
    15
100
AcDbLine
 10
222.5838898015
 20
239.4484423483
 30
0.0
 11
223.5763175678
 21
239.4484423483
 31
0.0
  0
SPLINE
  5
13F
330
1F
100
AcDbEntity
  8
0
  6
Continuous
 62
     7
370
    15
100
AcDbSpline
210
0.0
220
0.0
230
1.0
 70
     8
 71
     3
 72
     9
 73
     5
 74
     0
 42
0.00000001
 43
0.00000001
 12
1.0
 22
0.0
 32
0.0
 13
1.0
 23
0.0
 33
0.0
 40
0.0
 40
0.0
 40
0.0
 40
0.0
 40
0.2575517259153951
 40
1.0
 40
1.0
 40
1.0
 40
1.0
 10
223.0446471166665
 20
238.4977601851112
 30
0.0
 10
223.0059658871547
 20
238.4842762630918
 30
0.0
 10
222.8557776895246
 20
238.4319220341638
 30
0.0
 10
222.699739836315
 20
238.4184470807906
 30
0.0
 10
222.5838898015076
 20
238.4084426249152
 30
0.0
  0
SPLINE
  5
140
330
1F
100
AcDbEntity
  8
0
  6
Continuous
 62
     7
370
    15
100
AcDbSpline
210
0.0
220
0.0
230
1.0
 70
     8
 71
     3
 72
     9
 73
     5
 74
     0
 42
0.00000001
 43
0.00000001
 12
1.0
 22
0.0
 32
0.0
 13
1.0
 23
0.0
 33
0.0
 40
0.0
 40
0.0
 40
0.0
 40
0.0
 40
0.4193711572796252
 40
1.0
 40
1.0
 40
1.0
 40
1.0
 10
222.5838898015076
 20
238.4084426249152
 30
0.0
 10
222.5419380878701
 20
238.4091891627979
 30
0.0
 10
222.4419032788247
 20
238.4109692992468
 30
0.0
 10
222.3445031082735
 20
238.440311378458
 30
0.0
 10
222.2879497599656
 20
238.4573482359534
 30
0.0
  0
LINE
  5
141
330
1F
100
AcDbEntity
  8
0
  6
Continuous
 62
     7
370
    15
100
AcDbLine
 10
222.1231309962
 20
239.2884456004
 30
0.0
 11
222.1231309962
 21
239.3591307486
 31
0.0
  0
SPLINE
  5
142
330
1F
100
AcDbEntity
  8
0
  6
Continuous
 62
     7
370
    15
100
AcDbSpline
210
0.0
220
0.0
230
1.0
 70
     8
 71
     3
 72
     9
 73
     5
 74
     0
 42
0.00000001
 43
0.00000001
 12
1.0
 22
0.0
 32
0.0
 13
1.0
 23
0.0
 33
0.0
 40
0.0
 40
0.0
 40
0.0
 40
0.0
 40
0.2686344346698664
 40
1.0
 40
1.0
 40
1.0
 40
1.0
 10
222.5838898015076
 20
239.4484423483497
 30
0.0
 10
222.5419936073772
 20
239.4471172628796
 30
0.0
 10
222.3860337276176
 20
239.4421845911926
 30
0.0
 10
222.2341866904294
 20
239.3942144546498
 30
0.0
 10
222.1231309962327
 20
239.3591307486182
 30
0.0
  0
SPLINE
  5
143
330
1F
100
AcDbEntity
  8
0
  6
Continuous
 62
     7
370
    15
100
AcDbSpline
210
0.0
220
0.0
230
1.0
 70
     8
 71
     3
 72
     9
 73
     5
 74
     0
 42
0.00000001
 43
0.00000001
 12
1.0
 22
0.0
 32
0.0
 13
1.0
 23
0.0
 33
0.0
 40
0.0
 40
0.0
 40
0.0
 40
0.0
 40
0.0702023090960525
 40
0.9999999999999999
 40
0.9999999999999999
 40
0.9999999999999999
 40
0.9999999999999999
 10
224.1789011550004
 20
238.4084426249152
 30
0.0
 10
224.1772200104992
 20
238.4085327905442
 30
0.0
 10
224.1532728708276
 20
238.4098171589664
 30
0.0
 10
224.1298067572313
 20
238.4553882706737
 30
0.0
 10
224.107988018995
 20
238.4977601851112
 30
0.0
  0
SPLINE
  5
144
330
1F
100
AcDbEntity
  8
0
  6
Continuous
 62
     7
370
    15
100
AcDbSpline
210
0.0
220
0.0
230
1.0
 70
     8
 71
     3
 72
     9
 73
     5
 74
     0
 42
0.00000001
 43
0.00000001
 12
1.0
 22
0.0
 32
0.0
 13
1.0
 23
0.0
 33
0.0
 40
0.0
 40
0.0
 40
0.0
 40
0.0
 40
0.0702021969076688
 40
0.9999999999999999
 40
0.9999999999999999
 40
0.9999999999999999
 40
0.9999999999999999
 10
224.1789011550004
 20
239.4484423483497
 30
0.0
 10
224.1772200104004
 20
239.4483542390307
 30
0.0
 10
224.1532728310528
 20
239.4470991598041
 30
0.0
 10
224.1298067394316
 20
239.4015148964969
 30
0.0
 10
224.107988018995
 20
239.3591307486182
 30
0.0
  0
LINE
  5
145
330
1F
100
AcDbEntity
  8
0
  6
Continuous
 62
     7
370
    15
100
AcDbLine
 10
223.5763175678
 20
239.4484423483
 30
0.0
 11
224.178901155
 21
239.4484423483
 31
0.0
  0
LINE
  5
146
330
1F
100
AcDbEntity
  8
0
  6
Continuous
 62
     7
370
    15
100
AcDbLine
 10
222.1231309962
 20
239.3591307486
 30
0.0
 11
222.1940441322
 21
239.4484423483
 31
0.0
  0
LINE
  5
147
330
1F
100
AcDbEntity
  8
0
  6
Continuous
 62
     7
370
    15
100
AcDbLine
 10
222.5838898015
 20
239.4484423483
 30
0.0
 11
222.1865026546
 21
239.4484423483
 31
0.0
  0
LINE
  5
148
330
1F
100
AcDbEntity
  8
0
  6
Continuous
 62
     7
370
    15
100
AcDbLine
 10
224.249814291
 20
238.4977601851
 30
0.0
 11
224.178901155
 21
238.4084426249
 31
0.0
  0
LINE
  5
149
330
1F
100
AcDbEntity
  8
0
  6
Continuous
 62
     7
370
    15
100
AcDbLine
 10
224.249814291
 20
239.3591307486
 30
0.0
 11
224.178901155
 21
239.4484423483
 31
0.0
  0
LINE
  5
14A
330
1F
100
AcDbEntity
  8
0
  6
Continuous
 62
     7
370
    15
100
AcDbLine
 10
224.249814291
 20
238.4977601851
 30
0.0
 11
224.249814291
 21
239.3591307486
 31
0.0
  0
LINE
  5
14B
330
1F
100
AcDbEntity
  8
0
  6
Continuous
 62
     7
370
    15
100
AcDbLine
 10
222.052022655
 20
235.9684430445
 30
0.0
 11
222.052022655
 21
236.7491268004
 31
0.0
  0
SPLINE
  5
14C
330
1F
100
AcDbEntity
  8
0
  6
Continuous
 62
     7
370
    15
100
AcDbSpline
210
0.0
220
0.0
230
1.0
 70
     8
 71
     3
 72
     9
 73
     5
 74
     0
 42
0.00000001
 43
0.00000001
 12
1.0
 22
0.0
 32
0.0
 13
1.0
 23
0.0
 33
0.0
 40
0.0
 40
0.0
 40
0.0
 40
0.0
 40
0.0702010270718331
 40
1.0
 40
1.0
 40
1.0
 40
1.0
 10
222.4288640809113
 20
236.8384443606025
 30
0.0
 10
222.4199306160539
 20
236.8383541921037
 30
0.0
 10
222.2926751437335
 20
236.8370697593458
 30
0.0
 10
222.1679717460771
 20
236.7914987127378
 30
0.0
 10
222.0520226550156
 20
236.7491268004065
 30
0.0
  0
LINE
  5
14D
330
1F
100
AcDbEntity
  8
0
  6
Continuous
 62
     7
370
    15
100
AcDbLine
 10
222.8057055068
 20
236.7491268004
 30
0.0
 11
222.4288640809
 21
236.8384443606
 31
0.0
  0
LINE
  5
14E
330
1F
100
AcDbEntity
  8
0
  6
Continuous
 62
     7
370
    15
100
AcDbLine
 10
222.8057055068
 20
235.9684430445
 30
0.0
 11
222.8057055068
 21
236.7491268004
 31
0.0
  0
SPLINE
  5
14F
330
1F
100
AcDbEntity
  8
0
  6
Continuous
 62
     7
370
    15
100
AcDbSpline
210
0.0
220
0.0
230
1.0
 70
     8
 71
     3
 72
     9
 73
     5
 74
     0
 42
0.00000001
 43
0.00000001
 12
1.0
 22
0.0
 32
0.0
 13
1.0
 23
0.0
 33
0.0
 40
0.0
 40
0.0
 40
0.0
 40
0.0
 40
0.2686341541478472
 40
1.0
 40
1.0
 40
1.0
 40
1.0
 10
223.3729316186959
 20
236.8384443606025
 30
0.0
 10
223.3213546395519
 20
236.837119370141
 30
0.0
 10
223.1293575373682
 20
236.8321870469756
 30
0.0
 10
222.9424230247483
 20
236.7842132193943
 30
0.0
 10
222.805705506807
 20
236.7491268004065
 30
0.0
  0
LINE
  5
150
330
1F
100
AcDbEntity
  8
0
  6
Continuous
 62
     7
370
    15
100
AcDbLine
 10
222.4288640809
 20
236.8384443606
 30
0.0
 11
223.3729316187
 21
236.8384443606
 31
0.0
  0
SPLINE
  5
151
330
1F
100
AcDbEntity
  8
0
  6
Continuous
 62
     7
370
    15
100
AcDbSpline
210
0.0
220
0.0
230
1.0
 70
     8
 71
     3
 72
     9
 73
     5
 74
     0
 42
0.00000001
 43
0.00000001
 12
1.0
 22
0.0
 32
0.0
 13
1.0
 23
0.0
 33
0.0
 40
0.0
 40
0.0
 40
0.0
 40
0.0
 40
0.2575517351660612
 40
1.0
 40
1.0
 40
1.0
 40
1.0
 10
223.9401562404687
 20
236.7491268004065
 30
0.0
 10
223.8925368745337
 20
236.7626107224198
 30
0.0
 10
223.7076444454291
 20
236.8149649494433
 30
0.0
 10
223.5155510366959
 20
236.8284399039846
 30
0.0
 10
223.3729316186959
 20
236.8384443606025
 30
0.0
  0
LINE
  5
152
330
1F
100
AcDbEntity
  8
0
  6
Continuous
 62
     7
370
    15
100
AcDbLine
 10
223.9401562405
 20
235.9684430445
 30
0.0
 11
223.9401562405
 21
236.7491268004
 31
0.0
  0
SPLINE
  5
153
330
1F
100
AcDbEntity
  8
0
  6
Continuous
 62
     7
370
    15
100
AcDbSpline
210
0.0
220
0.0
230
1.0
 70
     8
 71
     3
 72
     9
 73
     5
 74
     0
 42
0.00000001
 43
0.00000001
 12
1.0
 22
0.0
 32
0.0
 13
1.0
 23
0.0
 33
0.0
 40
0.0
 40
0.0
 40
0.0
 40
0.0
 40
0.070199703256862
 40
1.0
 40
1.0
 40
1.0
 40
1.0
 10
224.1305394363457
 20
236.8384443606025
 30
0.0
 10
224.1260262392368
 20
236.8383541891403
 30
0.0
 10
224.0617354103647
 20
236.837069689948
 30
0.0
 10
223.9987345029127
 20
236.7914987105623
 30
0.0
 10
223.9401562404687
 20
236.7491268004065
 30
0.0
  0
LINE
  5
154
330
1F
100
AcDbEntity
  8
0
  6
Continuous
 62
     7
370
    15
100
AcDbLine
 10
223.3729316187
 20
236.8384443606
 30
0.0
 11
224.1305394363
 21
236.8384443606
 31
0.0
  0
LINE
  5
155
330
1F
100
AcDbEntity
  8
0
  6
Continuous
 62
     7
370
    15
100
AcDbLine
 10
224.3209226322
 20
236.7491268004
 30
0.0
 11
224.1305394363
 21
236.8384443606
 31
0.0
  0
LINE
  5
156
330
1F
100
AcDbEntity
  8
0
  6
Continuous
 62
     7
370
    15
100
AcDbLine
 10
224.3209226322
 20
235.9684430445
 30
0.0
 11
224.3209226322
 21
236.7491268004
 31
0.0
  0
LINE
  5
157
330
1F
100
AcDbEntity
  8
0
  6
Continuous
 62
     7
370
    15
100
AcDbLine
 10
222.052022655
 20
236.7491268004
 30
0.0
 11
222.12702914
 21
236.7843173827
 31
0.0
  0
LINE
  5
158
330
1F
100
AcDbEntity
  8
0
  6
Continuous
 62
     7
370
    15
100
AcDbLine
 10
222.1864728522
 20
236.8384443606
 30
0.0
 11
222.4288640809
 21
236.8384443606
 31
0.0
  0
LINE
  5
159
330
1F
100
AcDbEntity
  8
0
  6
Continuous
 62
     7
370
    15
100
AcDbLine
 10
224.1305394363
 20
236.8384443606
 30
0.0
 11
224.186472435
 21
236.8384443606
 31
0.0
  0
LINE
  5
15A
330
1F
100
AcDbEntity
  8
0
  6
Continuous
 62
     7
370
    15
100
AcDbLine
 10
224.2867363882
 20
236.9777582968
 30
0.0
 11
223.859959681
 21
236.8884466971
 31
0.0
  0
SPLINE
  5
15B
330
1F
100
AcDbEntity
  8
0
  6
Continuous
 62
     7
370
    15
100
AcDbSpline
210
0.0
220
0.0
230
1.0
 70
     8
 71
     3
 72
     9
 73
     5
 74
     0
 42
0.00000001
 43
0.00000001
 12
1.0
 22
0.0
 32
0.0
 13
1.0
 23
0.0
 33
0.0
 40
0.0
 40
0.0
 40
0.0
 40
0.0
 40
0.0702004937194348
 40
0.9999999999999999
 40
0.9999999999999999
 40
0.9999999999999999
 40
0.9999999999999999
 10
223.8599596810395
 20
236.8884466971046
 30
0.0
 10
223.8498425081289
 20
236.8885348102379
 30
0.0
 10
223.7057242494874
 20
236.8897899742491
 30
0.0
 10
223.5644964821814
 20
236.935374151414
 30
0.0
 10
223.4331829738671
 20
236.977758296836
 30
0.0
  0
LINE
  5
15C
330
1F
100
AcDbEntity
  8
0
  6
Continuous
 62
     7
370
    15
100
AcDbLine
 10
223.4331829739
 20
236.9777582968
 30
0.0
 11
223.4331829739
 21
237.8391288603
 31
0.0
  0
SPLINE
  5
15D
330
1F
100
AcDbEntity
  8
0
  6
Continuous
 62
     7
370
    15
100
AcDbSpline
210
0.0
220
0.0
230
1.0
 70
     8
 71
     3
 72
     9
 73
     5
 74
     0
 42
0.00000001
 43
0.00000001
 12
1.0
 22
0.0
 32
0.0
 13
1.0
 23
0.0
 33
0.0
 40
0.0
 40
0.0
 40
0.0
 40
0.0
 40
0.070200605910916
 40
1.0
 40
1.0
 40
1.0
 40
1.0
 10
223.8599596810395
 20
237.928446420539
 30
0.0
 10
223.8498425087232
 20
237.9283562510974
 30
0.0
 10
223.7057244888715
 20
237.9270717972042
 30
0.0
 10
223.5644965893089
 20
237.8815007719823
 30
0.0
 10
223.4331829738671
 20
237.8391288603431
 30
0.0
  0
LINE
  5
15E
330
1F
100
AcDbEntity
  8
0
  6
Continuous
 62
     7
370
    15
100
AcDbLine
 10
223.9213539553
 20
237.9155956591
 30
0.0
 11
223.859959681
 21
237.9284464205
 31
0.0
  0
LINE
  5
15F
330
1F
100
AcDbEntity
  8
0
  6
Continuous
 62
     7
370
    15
100
AcDbLine
 10
224.2867363882
 20
236.9777582968
 30
0.0
 11
224.2867363882
 21
237.0484434451
 31
0.0
  0
SPLINE
  5
160
330
1F
100
AcDbEntity
  8
0
  6
Continuous
 62
     7
370
    15
100
AcDbSpline
210
0.0
220
0.0
230
1.0
 70
     8
 71
     3
 72
     9
 73
     5
 74
     0
 42
0.00000001
 43
0.00000001
 12
1.0
 22
0.0
 32
0.0
 13
1.0
 23
0.0
 33
0.0
 40
0.0
 40
0.0
 40
0.0
 40
0.0
 40
0.2575507886626971
 40
1.0
 40
1.0
 40
1.0
 40
1.0
 10
223.4331829738671
 20
237.8391288603431
 30
0.0
 10
223.3869981945021
 20
237.8526104515596
 30
0.0
 10
223.2076751972603
 20
237.9049558211331
 30
0.0
 10
223.0213712228521
 20
237.9184371893435
 30
0.0
 10
222.8830499839837
 20
237.928446420539
 30
0.0
  0
SPLINE
  5
161
330
1F
100
AcDbEntity
  8
0
  6
Continuous
 62
     7
370
    15
100
AcDbSpline
210
0.0
220
0.0
230
1.0
 70
     8
 71
     3
 72
     9
 73
     5
 74
     0
 42
0.00000001
 43
0.00000001
 12
1.0
 22
0.0
 32
0.0
 13
1.0
 23
0.0
 33
0.0
 40
0.0
 40
0.0
 40
0.0
 40
0.0
 40
0.2575510992415979
 40
1.0
 40
1.0
 40
1.0
 40
1.0
 10
223.4331829738671
 20
236.977758296836
 30
0.0
 10
223.3869982046312
 20
236.9642766170734
 30
0.0
 10
223.207675462962
 20
236.9119309668224
 30
0.0
 10
223.0213713028589
 20
236.8984532288482
 30
0.0
 10
222.8830499839837
 20
236.8884466971046
 30
0.0
  0
LINE
  5
162
330
1F
100
AcDbEntity
  8
0
  6
Continuous
 62
     7
370
    15
100
AcDbLine
 10
223.859959681
 20
236.8884466971
 30
0.0
 11
222.883049984
 21
236.8884466971
 31
0.0
  0
SPLINE
  5
163
330
1F
100
AcDbEntity
  8
0
  6
Continuous
 62
     7
370
    15
100
AcDbSpline
210
0.0
220
0.0
230
1.0
 70
     8
 71
     3
 72
     9
 73
     5
 74
     0
 42
0.00000001
 43
0.00000001
 12
1.0
 22
0.0
 32
0.0
 13
1.0
 23
0.0
 33
0.0
 40
0.0
 40
0.0
 40
0.0
 40
0.0
 40
0.2686321757248341
 40
1.0
 40
1.0
 40
1.0
 40
1.0
 10
222.8830499839837
 20
236.8884466971046
 30
0.0
 10
222.8330279112346
 20
236.8897718068281
 30
0.0
 10
222.6468176308985
 20
236.8947046102795
 30
0.0
 10
222.4655163832485
 20
236.9426745941223
 30
0.0
 10
222.3329184842164
 20
236.977758296836
 30
0.0
  0
LINE
  5
164
330
1F
100
AcDbEntity
  8
0
  6
Continuous
 62
     7
370
    15
100
AcDbLine
 10
222.3329184842
 20
236.9777582968
 30
0.0
 11
222.3329184842
 21
237.8391288603
 31
0.0
  0
SPLINE
  5
165
330
1F
100
AcDbEntity
  8
0
  6
Continuous
 62
     7
370
    15
100
AcDbSpline
210
0.0
220
0.0
230
1.0
 70
     8
 71
     3
 72
     9
 73
     5
 74
     0
 42
0.00000001
 43
0.00000001
 12
1.0
 22
0.0
 32
0.0
 13
1.0
 23
0.0
 33
0.0
 40
0.0
 40
0.0
 40
0.0
 40
0.0
 40
0.2686325110865396
 40
1.0
 40
1.0
 40
1.0
 40
1.0
 10
222.8830499839837
 20
237.928446420539
 30
0.0
 10
222.8330279223272
 20
237.9271190607322
 30
0.0
 10
222.6468179157491
 20
237.9221778873743
 30
0.0
 10
222.465516468458
 20
237.8742105854797
 30
0.0
 10
222.3329184842164
 20
237.8391288603431
 30
0.0
  0
LINE
  5
166
330
1F
100
AcDbEntity
  8
0
  6
Continuous
 62
     7
370
    15
100
AcDbLine
 10
222.3329184842
 20
236.9777582968
 30
0.0
 11
222.2095636916
 21
236.8884466971
 31
0.0
  0
LINE
  5
167
330
1F
100
AcDbEntity
  8
0
  6
Continuous
 62
     7
370
    15
100
AcDbLine
 10
222.883049984
 20
236.8884466971
 30
0.0
 11
222.2095636916
 21
236.8884466971
 31
0.0
  0
LINE
  5
168
330
1F
100
AcDbEntity
  8
0
  6
Continuous
 62
     7
370
    15
100
AcDbLine
 10
222.3329184842
 20
237.8391288603
 30
0.0
 11
222.2095636916
 21
237.9284464205
 31
0.0
  0
LINE
  5
169
330
1F
100
AcDbEntity
  8
0
  6
Continuous
 62
     7
370
    15
100
AcDbLine
 10
224.2099939179
 20
236.9182669009
 30
0.0
 11
224.2867363882
 21
236.9777582968
 31
0.0
  0
LINE
  5
16A
330
1F
100
AcDbEntity
  8
0
  6
Continuous
 62
     7
370
    15
100
AcDbLine
 10
224.186472435
 20
236.8884466971
 30
0.0
 11
223.859959681
 21
236.8884466971
 31
0.0
  0
SPLINE
  5
16B
330
1F
100
AcDbEntity
  8
0
  6
Continuous
 62
     7
370
    15
100
AcDbSpline
210
0.0
220
0.0
230
1.0
 70
     8
 71
     3
 72
     9
 73
     5
 74
     0
 42
0.00000001
 43
0.00000001
 12
1.0
 22
0.0
 32
0.0
 13
1.0
 23
0.0
 33
0.0
 40
0.0
 40
0.0
 40
0.0
 40
0.0
 40
0.0702004277755031
 40
1.0
 40
1.0
 40
1.0
 40
1.0
 10
222.2095636916214
 20
236.8884466971046
 30
0.0
 10
222.206639714621
 20
236.8885348103855
 30
0.0
 10
222.1649878744092
 20
236.8897899776796
 30
0.0
 10
222.1241655131047
 20
236.9353741515091
 30
0.0
 10
222.0862088990266
 20
236.977758296836
 30
0.0
  0
LINE
  5
16C
330
1F
100
AcDbEntity
  8
0
  6
Continuous
 62
     7
370
    15
100
AcDbLine
 10
222.086208899
 20
236.9777582968
 30
0.0
 11
222.086208899
 21
237.8391288603
 31
0.0
  0
LINE
  5
16D
330
1F
100
AcDbEntity
  8
0
  6
Continuous
 62
     7
370
    15
100
AcDbLine
 10
222.1629513693
 20
237.8986202563
 30
0.0
 11
222.086208899
 21
237.8391288603
 31
0.0
  0
LINE
  5
16E
330
1F
100
AcDbEntity
  8
0
  6
Continuous
 62
     7
370
    15
100
AcDbLine
 10
222.2095636916
 20
236.8884466971
 30
0.0
 11
222.1864728522
 21
236.8884466971
 31
0.0
  0
LINE
  5
16F
330
1F
100
AcDbEntity
  8
0
  6
Continuous
 62
     7
370
    15
100
AcDbLine
 10
245.1288430286
 20
87.0950840796
 30
0.0
 11
245.1288430286
 21
105.3584419573
 31
0.0
  0
LINE
  5
170
330
1F
100
AcDbEntity
  8
0
  6
Continuous
 62
     7
370
    15
100
AcDbLine
 10
245.1288430286
 20
87.0950840796
 30
0.0
 11
165.6088440013
 21
87.0950840796
 31
0.0
  0
LINE
  5
171
330
1F
100
AcDbEntity
  8
0
  6
Continuous
 62
     7
370
    15
100
AcDbLine
 10
165.6088440013
 20
87.0950840796
 30
0.0
 11
165.6088440013
 21
105.3584419573
 31
0.0
  0
LINE
  5
172
330
1F
100
AcDbEntity
  8
0
  6
Continuous
 62
     7
370
    15
100
AcDbLine
 10
245.1288430286
 20
105.8484457816
 30
0.0
 11
244.5688424897
 21
105.8484457816
 31
0.0
  0
LINE
  5
173
330
1F
100
AcDbEntity
  8
0
  6
Continuous
 62
     7
370
    15
100
AcDbLine
 10
166.1688445401
 20
105.8484457816
 30
0.0
 11
165.6088440013
 21
105.8484457816
 31
0.0
  0
LINE
  5
174
330
1F
100
AcDbEntity
  8
0
  6
Continuous
 62
     7
370
    15
100
AcDbLine
 10
245.1288430286
 20
105.3584419573
 30
0.0
 11
245.1288430286
 21
105.8484457816
 31
0.0
  0
LINE
  5
175
330
1F
100
AcDbEntity
  8
0
  6
Continuous
 62
     7
370
    15
100
AcDbLine
 10
165.6088440013
 20
105.3584419573
 30
0.0
 11
165.6088440013
 21
105.8484457816
 31
0.0
  0
LINE
  5
176
330
1F
100
AcDbEntity
  8
0
  6
Continuous
 62
     7
370
    15
100
AcDbLine
 10
245.1288430286
 20
82.4350856627
 30
0.0
 11
245.1288430286
 21
87.0950840796
 31
0.0
  0
LINE
  5
177
330
1F
100
AcDbEntity
  8
0
  6
Continuous
 62
     7
370
    15
100
AcDbLine
 10
165.6088440013
 20
82.4350856627
 30
0.0
 11
165.6088440013
 21
87.0950840796
 31
0.0
  0
LINE
  5
178
330
1F
100
AcDbEntity
  8
0
  6
Continuous
 62
     7
370
    15
100
AcDbLine
 10
244.8688445878
 20
105.8484457816
 30
0.0
 11
244.8688445878
 21
106.0484432067
 31
0.0
  0
LINE
  5
179
330
1F
100
AcDbEntity
  8
0
  6
Continuous
 62
     7
370
    15
100
AcDbLine
 10
165.868842442
 20
106.0484432067
 30
0.0
 11
165.868842442
 21
105.8484457816
 31
0.0
  0
LINE
  5
17A
330
1F
100
AcDbEntity
  8
0
  6
Continuous
 62
     7
370
    15
100
AcDbLine
 10
167.908844192
 20
224.968441614
 30
0.0
 11
167.908844192
 21
224.9162994708
 31
0.0
  0
LINE
  5
17B
330
1F
100
AcDbEntity
  8
0
  6
Continuous
 62
     7
370
    15
100
AcDbLine
 10
242.8288428378
 20
224.9162994708
 30
0.0
 11
242.8288428378
 21
224.968441614
 31
0.0
  0
LINE
  5
17C
330
1F
100
AcDbEntity
  8
0
  6
Continuous
 62
     7
370
    15
100
AcDbLine
 10
245.368844111
 20
106.0984455432
 30
0.0
 11
245.368844111
 21
225.1484416808
 31
0.0
  0
LINE
  5
17D
330
1F
100
AcDbEntity
  8
0
  6
Continuous
 62
     7
370
    15
100
AcDbLine
 10
245.1688437057
 20
106.0984455432
 30
0.0
 11
245.368844111
 21
106.0984455432
 31
0.0
  0
LINE
  5
17E
330
1F
100
AcDbEntity
  8
0
  6
Continuous
 62
     7
370
    15
100
AcDbLine
 10
242.9488448691
 20
224.9162994708
 30
0.0
 11
242.9488448691
 21
224.968441614
 31
0.0
  0
LINE
  5
17F
330
1F
100
AcDbEntity
  8
0
  6
Continuous
 62
     7
370
    15
100
AcDbLine
 10
167.7888451409
 20
224.968441614
 30
0.0
 11
167.7888451409
 21
224.9162994708
 31
0.0
  0
LINE
  5
180
330
1F
100
AcDbEntity
  8
0
  6
Continuous
 62
     7
370
    15
100
AcDbLine
 10
165.5688433242
 20
106.0984455432
 30
0.0
 11
165.3688429189
 21
106.0984455432
 31
0.0
  0
LINE
  5
181
330
1F
100
AcDbEntity
  8
0
  6
Continuous
 62
     7
370
    15
100
AcDbLine
 10
165.3688429189
 20
106.0984455432
 30
0.0
 11
165.3688429189
 21
225.1484416808
 31
0.0
  0
LINE
  5
182
330
1F
100
AcDbEntity
  8
0
  6
Continuous
 62
     7
370
    15
100
AcDbLine
 10
165.3688429189
 20
105.7984434451
 30
0.0
 11
165.6088440013
 21
105.7984434451
 31
0.0
  0
LINE
  5
183
330
1F
100
AcDbEntity
  8
0
  6
Continuous
 62
     7
370
    15
100
AcDbLine
 10
165.3688429189
 20
105.7984434451
 30
0.0
 11
165.3688429189
 21
106.0984455432
 31
0.0
  0
LINE
  5
184
330
1F
100
AcDbEntity
  8
0
  6
Continuous
 62
     7
370
    15
100
AcDbLine
 10
165.6088440013
 20
105.8484457816
 30
0.0
 11
165.6088440013
 21
106.0484432067
 31
0.0
  0
LINE
  5
185
330
1F
100
AcDbEntity
  8
0
  6
Continuous
 62
     7
370
    15
100
AcDbLine
 10
245.368844111
 20
105.7984434451
 30
0.0
 11
245.1288430286
 21
105.7984434451
 31
0.0
  0
LINE
  5
186
330
1F
100
AcDbEntity
  8
0
  6
Continuous
 62
     7
370
    15
100
AcDbLine
 10
245.368844111
 20
106.0984455432
 30
0.0
 11
245.368844111
 21
105.7984434451
 31
0.0
  0
LINE
  5
187
330
1F
100
AcDbEntity
  8
0
  6
Continuous
 62
     7
370
    15
100
AcDbLine
 10
245.1288430286
 20
106.0484432067
 30
0.0
 11
245.1288430286
 21
105.8484457816
 31
0.0
  0
LINE
  5
188
330
1F
100
AcDbEntity
  8
0
  6
Continuous
 62
     7
370
    15
100
AcDbLine
 10
244.768842895
 20
106.0484432067
 30
0.0
 11
244.768842895
 21
106.0556374873
 31
0.0
  0
LINE
  5
189
330
1F
100
AcDbEntity
  8
0
  6
Continuous
 62
     7
370
    15
100
AcDbLine
 10
244.768842895
 20
106.0484432067
 30
0.0
 11
244.5688424897
 21
106.0484432067
 31
0.0
  0
LINE
  5
18A
330
1F
100
AcDbEntity
  8
0
  6
Continuous
 62
     7
370
    15
100
AcDbLine
 10
166.1688445401
 20
106.0484432067
 30
0.0
 11
165.9688441348
 21
106.0484432067
 31
0.0
  0
LINE
  5
18B
330
1F
100
AcDbEntity
  8
0
  6
Continuous
 62
     7
370
    15
100
AcDbLine
 10
165.9688441348
 20
106.0484432067
 30
0.0
 11
165.9688441348
 21
106.0556374873
 31
0.0
  0
LINE
  5
18C
330
1F
100
AcDbEntity
  8
0
  6
Continuous
 62
     7
370
    15
100
AcDbLine
 10
244.768842895
 20
106.2884472693
 30
0.0
 11
244.5688424897
 21
106.2884472693
 31
0.0
  0
LINE
  5
18D
330
1F
100
AcDbEntity
  8
0
  6
Continuous
 62
     7
370
    15
100
AcDbLine
 10
166.1688445401
 20
106.2884472693
 30
0.0
 11
165.9688441348
 21
106.2884472693
 31
0.0
  0
LINE
  5
18E
330
1F
100
AcDbEntity
  8
0
  6
Continuous
 62
     7
370
    15
100
AcDbLine
 10
244.768842895
 20
125.8369319523
 30
0.0
 11
165.9688441348
 21
125.8369319523
 31
0.0
  0
LINE
  5
18F
330
1F
100
AcDbEntity
  8
0
  6
Continuous
 62
     7
370
    15
100
AcDbLine
 10
244.768842895
 20
119.4646887864
 30
0.0
 11
165.9688441348
 21
119.4646887864
 31
0.0
  0
LINE
  5
190
330
1F
100
AcDbEntity
  8
0
  6
Continuous
 62
     7
370
    15
100
AcDbLine
 10
165.9688441348
 20
119.4320582236
 30
0.0
 11
244.768842895
 21
119.4320582236
 31
0.0
  0
LINE
  5
191
330
1F
100
AcDbEntity
  8
0
  6
Continuous
 62
     7
370
    15
100
AcDbLine
 10
182.1088431668
 20
110.0646905984
 30
0.0
 11
181.7955447626
 21
110.0893818225
 31
0.0
  0
LINE
  5
192
330
1F
100
AcDbEntity
  8
0
  6
Continuous
 62
     7
370
    15
100
AcDbLine
 10
182.1088431668
 20
108.8646911467
 30
0.0
 11
182.1088431668
 21
110.0646905984
 31
0.0
  0
LINE
  5
193
330
1F
100
AcDbEntity
  8
0
  6
Continuous
 62
     7
370
    15
100
AcDbLine
 10
182.1088431668
 20
108.8646911467
 30
0.0
 11
181.6013006759
 21
108.8646911467
 31
0.0
  0
LWPOLYLINE
  5
194
330
1F
100
AcDbEntity
  8
0
  6
Continuous
 62
     7
370
    15
100
AcDbPolyline
 90
        9
 70
   128
 43
0.0
 10
181.6013006759
 20
108.8646911467
 10
181.639197309
 20
109.1036163653
 10
181.6756351185
 20
109.3333594884
 10
181.7092178655
 20
109.545093068
 10
181.7386521292
 20
109.73067809
 10
181.7628098917
 20
109.8829828585
 10
181.7807598305
 20
109.9961571778
 10
181.7918135119
 20
110.0658499087
 10
181.7955447626
 20
110.0893818225
  0
LINE
  5
195
330
1F
100
AcDbEntity
  8
0
  6
Continuous
 62
     7
370
    15
100
AcDbLine
 10
182.1088431668
 20
118.8646905507
 30
0.0
 11
181.6013006759
 21
118.8646905507
 31
0.0
  0
ARC
  5
196
330
1F
100
AcDbEntity
  8
0
  6
Continuous
 62
     7
370
    15
100
AcDbCircle
 10
182.1088436692
 20
115.6646901161
 30
0.0
 40
3.240000000000009
100
AcDbArc
 50
99.0124514993
 51
180.0
  0
LINE
  5
197
330
1F
100
AcDbEntity
  8
0
  6
Continuous
 62
     7
370
    15
100
AcDbLine
 10
178.8688449454
 20
115.6646900262
 30
0.0
 11
178.8688449454
 21
112.064688691
 31
0.0
  0
ARC
  5
198
330
1F
100
AcDbEntity
  8
0
  6
Continuous
 62
     7
370
    15
100
AcDbCircle
 10
182.1088436692
 20
112.0646901161
 30
0.0
 40
3.240000000000009
100
AcDbArc
 50
180.0
 51
260.9875485007
  0
LINE
  5
199
330
1F
100
AcDbEntity
  8
0
  6
Continuous
 62
     7
370
    15
100
AcDbLine
 10
193.7088443232
 20
108.8646911467
 30
0.0
 11
182.1088431668
 21
108.8646911467
 31
0.0
  0
LINE
  5
19A
330
1F
100
AcDbEntity
  8
0
  6
Continuous
 62
     7
370
    15
100
AcDbLine
 10
194.2163868141
 20
108.8646911467
 30
0.0
 11
193.7088443232
 21
108.8646911467
 31
0.0
  0
ARC
  5
19B
330
1F
100
AcDbEntity
  8
0
  6
Continuous
 62
     7
370
    15
100
AcDbCircle
 10
193.7088436692
 20
112.0646901161
 30
0.0
 40
3.240000000000009
100
AcDbArc
 50
279.0124514993
 51
0.0
  0
LINE
  5
19C
330
1F
100
AcDbEntity
  8
0
  6
Continuous
 62
     7
370
    15
100
AcDbLine
 10
196.9488440347
 20
112.064688691
 30
0.0
 11
196.9488440347
 21
115.6646900262
 31
0.0
  0
ARC
  5
19D
330
1F
100
AcDbEntity
  8
0
  6
Continuous
 62
     7
370
    15
100
AcDbCircle
 10
193.7088436692
 20
115.6646901161
 30
0.0
 40
3.240000000000009
100
AcDbArc
 50
0.0
 51
80.9875485007
  0
LINE
  5
19E
330
1F
100
AcDbEntity
  8
0
  6
Continuous
 62
     7
370
    15
100
AcDbLine
 10
194.2163868141
 20
118.8646905507
 30
0.0
 11
193.7088443232
 21
118.8646905507
 31
0.0
  0
LINE
  5
19F
330
1F
100
AcDbEntity
  8
0
  6
Continuous
 62
     7
370
    15
100
AcDbLine
 10
193.7088443232
 20
118.8646905507
 30
0.0
 11
182.1088431668
 21
118.8646905507
 31
0.0
  0
LINE
  5
1A0
330
1F
100
AcDbEntity
  8
0
  6
Continuous
 62
     7
370
    15
100
AcDbLine
 10
193.7088443232
 20
110.0646905984
 30
0.0
 11
182.1088431668
 21
110.0646905984
 31
0.0
  0
LINE
  5
1A1
330
1F
100
AcDbEntity
  8
0
  6
Continuous
 62
     7
370
    15
100
AcDbLine
 10
193.7088443232
 20
110.0646905984
 30
0.0
 11
193.7088443232
 21
108.8646911467
 31
0.0
  0
ARC
  5
1A2
330
1F
100
AcDbEntity
  8
0
  6
Continuous
 62
     7
370
    15
100
AcDbCircle
 10
193.7088436692
 20
115.6646901161
 30
0.0
 40
2.000000000000005
100
AcDbArc
 50
0.0
 51
80.9875485007
  0
LWPOLYLINE
  5
1A3
330
1F
100
AcDbEntity
  8
0
  6
Continuous
 62
     7
370
    15
100
AcDbPolyline
 90
        9
 70
   128
 43
0.0
 10
194.0221412373
 20
117.6399998749
 10
194.0258739781
 20
117.6635317887
 10
194.0369276595
 20
117.7332215394
 10
194.0548775983
 20
117.8463958586
 10
194.0790353608
 20
117.9987036074
 10
194.1084696245
 20
118.1842886294
 10
194.1420523715
 20
118.396022209
 10
194.1784916711
 20
118.6257653321
 10
194.2163868141
 20
118.8646905507
  0
LINE
  5
1A4
330
1F
100
AcDbEntity
  8
0
  6
Continuous
 62
     7
370
    15
100
AcDbLine
 10
195.7088439059
 20
115.6646900262
 30
0.0
 11
196.9488440347
 21
115.6646900262
 31
0.0
  0
LINE
  5
1A5
330
1F
100
AcDbEntity
  8
0
  6
Continuous
 62
     7
370
    15
100
AcDbLine
 10
193.7088443232
 20
117.664691099
 30
0.0
 11
194.0221412373
 21
117.6399998749
 31
0.0
  0
LINE
  5
1A6
330
1F
100
AcDbEntity
  8
0
  6
Continuous
 62
     7
370
    15
100
AcDbLine
 10
193.7088443232
 20
117.664691099
 30
0.0
 11
193.7088443232
 21
118.8646905507
 31
0.0
  0
LINE
  5
1A7
330
1F
100
AcDbEntity
  8
0
  6
Continuous
 62
     7
370
    15
100
AcDbLine
 10
182.1088431668
 20
117.664691099
 30
0.0
 11
193.7088443232
 21
117.664691099
 31
0.0
  0
LINE
  5
1A8
330
1F
100
AcDbEntity
  8
0
  6
Continuous
 62
     7
370
    15
100
AcDbLine
 10
182.1088431668
 20
118.8646905507
 30
0.0
 11
182.1088431668
 21
117.664691099
 31
0.0
  0
ARC
  5
1A9
330
1F
100
AcDbEntity
  8
0
  6
Continuous
 62
     7
370
    15
100
AcDbCircle
 10
193.7088436692
 20
112.0646901161
 30
0.0
 40
2.000000000000005
100
AcDbArc
 50
279.0124514993
 51
0.0
  0
LINE
  5
1AA
330
1F
100
AcDbEntity
  8
0
  6
Continuous
 62
     7
370
    15
100
AcDbLine
 10
195.7088439059
 20
112.064688691
 30
0.0
 11
196.9488440347
 21
112.064688691
 31
0.0
  0
LWPOLYLINE
  5
1AB
330
1F
100
AcDbEntity
  8
0
  6
Continuous
 62
     7
370
    15
100
AcDbPolyline
 90
        9
 70
   128
 43
0.0
 10
194.0221412373
 20
110.0893818225
 10
194.0258739781
 20
110.0658499087
 10
194.0369276595
 20
109.9961571778
 10
194.0548775983
 20
109.8829828585
 10
194.0790353608
 20
109.73067809
 10
194.1084696245
 20
109.545093068
 10
194.1420523715
 20
109.3333594884
 10
194.1784916711
 20
109.1036163653
 10
194.2163868141
 20
108.8646911467
  0
LINE
  5
1AC
330
1F
100
AcDbEntity
  8
0
  6
Continuous
 62
     7
370
    15
100
AcDbLine
 10
181.7955447626
 20
117.6399998749
 30
0.0
 11
182.1088431668
 21
117.664691099
 31
0.0
  0
LWPOLYLINE
  5
1AD
330
1F
100
AcDbEntity
  8
0
  6
Continuous
 62
     7
370
    15
100
AcDbPolyline
 90
        9
 70
   128
 43
0.0
 10
181.6013006759
 20
118.8646905507
 10
181.639197309
 20
118.6257653321
 10
181.6756351185
 20
118.396022209
 10
181.7092178655
 20
118.1842886294
 10
181.7386521292
 20
117.9987036074
 10
181.7628098917
 20
117.8463958586
 10
181.7807598305
 20
117.7332215394
 10
181.7918135119
 20
117.6635317887
 10
181.7955447626
 20
117.6399998749
  0
LINE
  5
1AE
330
1F
100
AcDbEntity
  8
0
  6
Continuous
 62
     7
370
    15
100
AcDbLine
 10
195.7088439059
 20
115.6646900262
 30
0.0
 11
195.7088439059
 21
112.064688691
 31
0.0
  0
ARC
  5
1AF
330
1F
100
AcDbEntity
  8
0
  6
Continuous
 62
     7
370
    15
100
AcDbCircle
 10
182.1088436692
 20
115.6646901161
 30
0.0
 40
2.000000000000009
100
AcDbArc
 50
99.0124514993
 51
180.0
  0
LINE
  5
1B0
330
1F
100
AcDbEntity
  8
0
  6
Continuous
 62
     7
370
    15
100
AcDbLine
 10
178.8688449454
 20
115.6646900262
 30
0.0
 11
180.1088450742
 21
115.6646900262
 31
0.0
  0
LINE
  5
1B1
330
1F
100
AcDbEntity
  8
0
  6
Continuous
 62
     7
370
    15
100
AcDbLine
 10
194.0221412373
 20
110.0893818225
 30
0.0
 11
193.7088443232
 21
110.0646905984
 31
0.0
  0
ARC
  5
1B2
330
1F
100
AcDbEntity
  8
0
  6
Continuous
 62
     7
370
    15
100
AcDbCircle
 10
182.1088436692
 20
112.0646901161
 30
0.0
 40
2.000000000000009
100
AcDbArc
 50
180.0
 51
260.9875485007
  0
LINE
  5
1B3
330
1F
100
AcDbEntity
  8
0
  6
Continuous
 62
     7
370
    15
100
AcDbLine
 10
178.8688449454
 20
112.064688691
 30
0.0
 11
180.1088450742
 21
112.064688691
 31
0.0
  0
LINE
  5
1B4
330
1F
100
AcDbEntity
  8
0
  6
Continuous
 62
     7
370
    15
100
AcDbLine
 10
180.1088450742
 20
112.064688691
 30
0.0
 11
180.1088450742
 21
115.6646900262
 31
0.0
  0
LINE
  5
1B5
330
1F
100
AcDbEntity
  8
0
  6
Continuous
 62
     7
370
    15
100
AcDbLine
 10
165.9688441348
 20
125.8484445895
 30
0.0
 11
244.768842895
 21
125.8484445895
 31
0.0
  0
LINE
  5
1B6
330
1F
100
AcDbEntity
  8
0
  6
Continuous
 62
     7
370
    15
100
AcDbLine
 10
167.268842299
 20
224.5537780608
 30
0.0
 11
167.268842299
 21
224.9162994708
 31
0.0
  0
LWPOLYLINE
  5
1B7
330
1F
100
AcDbEntity
  8
0
  6
Continuous
 62
     7
370
    15
100
AcDbPolyline
 90
        9
 70
   128
 43
0.0
 10
166.2688432527
 20
224.1311572875
 10
166.2880597901
 20
224.2136083926
 10
166.3449643445
 20
224.2928885306
 10
166.4373753858
 20
224.3659519042
 10
166.5617374969
 20
224.4299911345
 10
166.7132733655
 20
224.4825505103
 10
166.8861596179
 20
224.5216034735
 10
167.0737533164
 20
224.5456539477
 10
167.268842299
 20
224.5537780608
  0
LINE
  5
1B8
330
1F
100
AcDbEntity
  8
0
  6
Continuous
 62
     7
370
    15
100
AcDbLine
 10
166.2688432527
 20
224.1311572875
 30
0.0
 11
166.2688432527
 21
224.4936786975
 31
0.0
  0
LWPOLYLINE
  5
1B9
330
1F
100
AcDbEntity
  8
0
  6
Continuous
 62
     7
370
    15
100
AcDbPolyline
 90
        9
 70
   128
 43
0.0
 10
166.2688432527
 20
224.4936786975
 10
166.2880597901
 20
224.5761298026
 10
166.3449643445
 20
224.6554099406
 10
166.4373753858
 20
224.7284733142
 10
166.5617374969
 20
224.792518505
 10
166.7132733655
 20
224.8450778807
 10
166.8861596179
 20
224.884130844
 10
167.0737533164
 20
224.9081813182
 10
167.268842299
 20
224.9162994708
  0
LINE
  5
1BA
330
1F
100
AcDbEntity
  8
0
  6
Continuous
 62
     7
370
    15
100
AcDbLine
 10
167.268842299
 20
224.5537780608
 30
0.0
 11
243.4688447309
 21
224.5537780608
 31
0.0
  0
LWPOLYLINE
  5
1BB
330
1F
100
AcDbEntity
  8
0
  6
Continuous
 62
     7
370
    15
100
AcDbPolyline
 90
        9
 70
   128
 43
0.0
 10
243.4688447309
 20
224.5537780608
 10
243.6639337134
 20
224.5456539477
 10
243.8515274119
 20
224.5216034735
 10
244.0244136643
 20
224.4825505103
 10
244.175949533
 20
224.4299911345
 10
244.3003146243
 20
224.3659519042
 10
244.3927226853
 20
224.2928885306
 10
244.4496302199
 20
224.2136083926
 10
244.4688437772
 20
224.1311572875
  0
LINE
  5
1BC
330
1F
100
AcDbEntity
  8
0
  6
Continuous
 62
     7
370
    15
100
AcDbLine
 10
244.4688437772
 20
224.1311572875
 30
0.0
 11
244.4688437772
 21
223.3140312518
 31
0.0
  0
LINE
  5
1BD
330
1F
100
AcDbEntity
  8
0
  6
Continuous
 62
     7
370
    15
100
AcDbLine
 10
166.2688432527
 20
223.3140312518
 30
0.0
 11
244.4688437772
 21
223.3140312518
 31
0.0
  0
LINE
  5
1BE
330
1F
100
AcDbEntity
  8
0
  6
Continuous
 62
     7
370
    15
100
AcDbLine
 10
166.2688432527
 20
223.3140312518
 30
0.0
 11
166.2688432527
 21
224.1311572875
 31
0.0
  0
LINE
  5
1BF
330
1F
100
AcDbEntity
  8
0
  6
Continuous
 62
     7
370
    15
100
AcDbLine
 10
243.4688447309
 20
224.5537780608
 30
0.0
 11
243.4688447309
 21
224.9162994708
 31
0.0
  0
LINE
  5
1C0
330
1F
100
AcDbEntity
  8
0
  6
Continuous
 62
     7
370
    15
100
AcDbLine
 10
167.268842299
 20
224.9162994708
 30
0.0
 11
243.4688447309
 21
224.9162994708
 31
0.0
  0
LINE
  5
1C1
330
1F
100
AcDbEntity
  8
0
  6
Continuous
 62
     7
370
    15
100
AcDbLine
 10
244.4688437772
 20
224.1311572875
 30
0.0
 11
244.4688437772
 21
224.4936786975
 31
0.0
  0
LWPOLYLINE
  5
1C2
330
1F
100
AcDbEntity
  8
0
  6
Continuous
 62
     7
370
    15
100
AcDbPolyline
 90
        9
 70
   128
 43
0.0
 10
243.4688447309
 20
224.9162994708
 10
243.6639337134
 20
224.9081813182
 10
243.8515274119
 20
224.884130844
 10
244.0244136643
 20
224.8450778807
 10
244.175949533
 20
224.792518505
 10
244.3003146243
 20
224.7284733142
 10
244.3927226853
 20
224.6554099406
 10
244.4496302199
 20
224.5761298026
 10
244.4688437772
 20
224.4936786975
  0
LINE
  5
1C3
330
1F
100
AcDbEntity
  8
0
  6
Continuous
 62
     7
370
    15
100
AcDbLine
 10
166.2688432527
 20
223.2484423007
 30
0.0
 11
166.2688432527
 21
223.3140312518
 31
0.0
  0
LINE
  5
1C4
330
1F
100
AcDbEntity
  8
0
  6
Continuous
 62
     7
370
    15
100
AcDbLine
 10
244.4688437772
 20
223.3140312518
 30
0.0
 11
244.4688437772
 21
223.2484423007
 31
0.0
  0
LINE
  5
1C5
330
1F
100
AcDbEntity
  8
0
  6
Continuous
 62
     7
370
    15
100
AcDbLine
 10
244.4688437772
 20
223.2484423007
 30
0.0
 11
166.2688432527
 21
223.2484423007
 31
0.0
  0
SPLINE
  5
1C6
330
1F
100
AcDbEntity
  8
0
  6
Continuous
 62
     7
370
    15
100
AcDbSpline
210
0.0
220
0.0
230
1.0
 70
     8
 71
     3
 72
    11
 73
     7
 74
     0
 42
0.00000001
 43
0.00000001
 12
1.0
 22
0.0
 32
0.0
 13
1.0
 23
0.0
 33
0.0
 40
0.0
 40
0.0
 40
0.0
 40
0.0
 40
0.2499991700150671
 40
0.4999997524883875
 40
0.7500029633530217
 40
1.0
 40
1.0
 40
1.0
 40
1.0
 10
166.2688432526643
 20
223.6484431112891
 30
0.0
 10
166.1771173597226
 20
223.6379225508213
 30
0.0
 10
165.9936650556018
 20
223.616881370446
 30
0.0
 10
165.7622828423668
 20
223.4550046805362
 30
0.0
 10
165.600410054508
 20
223.2236227716551
 30
0.0
 10
165.5793654810067
 20
223.0401709441357
 30
0.0
 10
165.5688433241898
 20
222.9484461630469
 30
0.0
  0
LINE
  5
1C7
330
1F
100
AcDbEntity
  8
0
  6
Continuous
 62
     7
370
    15
100
AcDbLine
 10
165.9688441348
 20
222.948446163
 30
0.0
 11
165.5688433242
 21
222.948446163
 31
0.0
  0
SPLINE
  5
1C8
330
1F
100
AcDbEntity
  8
0
  6
Continuous
 62
     7
370
    15
100
AcDbSpline
210
0.0
220
0.0
230
1.0
 70
     8
 71
     3
 72
    11
 73
     7
 74
     0
 42
0.00000001
 43
0.00000001
 12
1.0
 22
0.0
 32
0.0
 13
1.0
 23
0.0
 33
0.0
 40
0.0
 40
0.0
 40
0.0
 40
0.0
 40
0.2499983811920329
 40
0.4999972867865902
 40
0.7500016188079671
 40
0.9999999999999999
 40
0.9999999999999999
 40
0.9999999999999999
 40
0.9999999999999999
 10
166.2688432526643
 20
223.2484423006659
 30
0.0
 10
166.2295325339255
 20
223.2439331587303
 30
0.0
 10
166.150911013989
 20
223.2349148654005
 30
0.0
 10
166.051743920769
 20
223.165544100465
 30
0.0
 10
165.9823714475026
 20
223.0663797660058
 30
0.0
 10
165.9733532032657
 20
222.9877570521214
 30
0.0
 10
165.968844134813
 20
222.9484461630469
 30
0.0
  0
LINE
  5
1C9
330
1F
100
AcDbEntity
  8
0
  6
Continuous
 62
     7
370
    15
100
AcDbLine
 10
244.768842895
 20
222.948446163
 30
0.0
 11
245.1688437057
 21
222.948446163
 31
0.0
  0
SPLINE
  5
1CA
330
1F
100
AcDbEntity
  8
0
  6
Continuous
 62
     7
370
    15
100
AcDbSpline
210
0.0
220
0.0
230
1.0
 70
     8
 71
     3
 72
    11
 73
     7
 74
     0
 42
0.00000001
 43
0.00000001
 12
1.0
 22
0.0
 32
0.0
 13
1.0
 23
0.0
 33
0.0
 40
0.0
 40
0.0
 40
0.0
 40
0.0
 40
0.2499983811920329
 40
0.5000027132134097
 40
0.7500016188079671
 40
0.9999999999999999
 40
0.9999999999999999
 40
0.9999999999999999
 40
0.9999999999999999
 10
244.7688428950364
 20
222.9484461630469
 30
0.0
 10
244.7643338265837
 20
222.9877570521214
 30
0.0
 10
244.7553155823468
 20
223.0663797660058
 30
0.0
 10
244.6859431090803
 20
223.165544100465
 30
0.0
 10
244.5867760158604
 20
223.2349148654005
 30
0.0
 10
244.5081544959239
 20
223.2439331587303
 30
0.0
 10
244.4688437771851
 20
223.2484423006659
 30
0.0
  0
SPLINE
  5
1CB
330
1F
100
AcDbEntity
  8
0
  6
Continuous
 62
     7
370
    15
100
AcDbSpline
210
0.0
220
0.0
230
1.0
 70
     8
 71
     3
 72
    11
 73
     7
 74
     0
 42
0.00000001
 43
0.00000001
 12
1.0
 22
0.0
 32
0.0
 13
1.0
 23
0.0
 33
0.0
 40
0.0
 40
0.0
 40
0.0
 40
0.0
 40
0.2499970366469784
 40
0.5000002475116126
 40
0.750000829984933
 40
1.0
 40
1.0
 40
1.0
 40
1.0
 10
245.1688437056596
 20
222.9484461630469
 30
0.0
 10
245.1583215488426
 20
223.0401709441357
 30
0.0
 10
245.1372769753413
 20
223.2236227716551
 30
0.0
 10
244.9754041874826
 20
223.4550046805362
 30
0.0
 10
244.7440219742475
 20
223.616881370446
 30
0.0
 10
244.5605696701267
 20
223.6379225508213
 30
0.0
 10
244.4688437771851
 20
223.6484431112891
 30
0.0
  0
LINE
  5
1CC
330
1F
100
AcDbEntity
  8
0
  6
Continuous
 62
     7
370
    15
100
AcDbLine
 10
245.1688437057
 20
108.9542381848
 30
0.0
 11
244.768842895
 21
108.9542381848
 31
0.0
  0
LINE
  5
1CD
330
1F
100
AcDbEntity
  8
0
  6
Continuous
 62
     7
370
    15
100
AcDbLine
 10
244.768842895
 20
222.948446163
 30
0.0
 11
244.768842895
 21
108.9542381848
 31
0.0
  0
LINE
  5
1CE
330
1F
100
AcDbEntity
  8
0
  6
Continuous
 62
     7
370
    15
100
AcDbLine
 10
245.1688437057
 20
222.948446163
 30
0.0
 11
245.1688437057
 21
108.9542381848
 31
0.0
  0
LINE
  5
1CF
330
1F
100
AcDbEntity
  8
0
  6
Continuous
 62
     7
370
    15
100
AcDbLine
 10
165.5688433242
 20
108.9542381848
 30
0.0
 11
165.9688441348
 21
108.9542381848
 31
0.0
  0
LINE
  5
1D0
330
1F
100
AcDbEntity
  8
0
  6
Continuous
 62
     7
370
    15
100
AcDbLine
 10
165.5688433242
 20
108.9542381848
 30
0.0
 11
165.5688433242
 21
222.948446163
 31
0.0
  0
LINE
  5
1D1
330
1F
100
AcDbEntity
  8
0
  6
Continuous
 62
     7
370
    15
100
AcDbLine
 10
165.9688441348
 20
108.9542381848
 30
0.0
 11
165.9688441348
 21
222.948446163
 31
0.0
  0
LINE
  5
1D2
330
1F
100
AcDbEntity
  8
0
  6
Continuous
 62
     7
370
    15
100
AcDbLine
 10
165.5688433242
 20
107.6392345513
 30
0.0
 11
165.9688441348
 21
107.6392345513
 31
0.0
  0
LINE
  5
1D3
330
1F
100
AcDbEntity
  8
0
  6
Continuous
 62
     7
370
    15
100
AcDbLine
 10
165.5688433242
 20
107.6392345513
 30
0.0
 11
165.5688433242
 21
108.9542381848
 31
0.0
  0
LINE
  5
1D4
330
1F
100
AcDbEntity
  8
0
  6
Continuous
 62
     7
370
    15
100
AcDbLine
 10
165.9688441348
 20
107.6392345513
 30
0.0
 11
165.9688441348
 21
108.9542381848
 31
0.0
  0
LINE
  5
1D5
330
1F
100
AcDbEntity
  8
0
  6
Continuous
 62
     7
370
    15
100
AcDbLine
 10
245.1688437057
 20
107.6392345513
 30
0.0
 11
244.768842895
 21
107.6392345513
 31
0.0
  0
LINE
  5
1D6
330
1F
100
AcDbEntity
  8
0
  6
Continuous
 62
     7
370
    15
100
AcDbLine
 10
244.768842895
 20
108.9542381848
 30
0.0
 11
244.768842895
 21
107.6392345513
 31
0.0
  0
LINE
  5
1D7
330
1F
100
AcDbEntity
  8
0
  6
Continuous
 62
     7
370
    15
100
AcDbLine
 10
245.1688437057
 20
108.9542381848
 30
0.0
 11
245.1688437057
 21
107.6392345513
 31
0.0
  0
LINE
  5
1D8
330
1F
100
AcDbEntity
  8
0
  6
Continuous
 62
     7
370
    15
100
AcDbLine
 10
245.1688437057
 20
106.0484432067
 30
0.0
 11
244.768842895
 21
106.0484432067
 31
0.0
  0
LINE
  5
1D9
330
1F
100
AcDbEntity
  8
0
  6
Continuous
 62
     7
370
    15
100
AcDbLine
 10
244.768842895
 20
107.6392345513
 30
0.0
 11
244.768842895
 21
106.0556374873
 31
0.0
  0
LINE
  5
1DA
330
1F
100
AcDbEntity
  8
0
  6
Continuous
 62
     7
370
    15
100
AcDbLine
 10
245.1688437057
 20
107.6392345513
 30
0.0
 11
245.1688437057
 21
106.0484432067
 31
0.0
  0
LINE
  5
1DB
330
1F
100
AcDbEntity
  8
0
  6
Continuous
 62
     7
370
    15
100
AcDbLine
 10
165.5688433242
 20
106.0484432067
 30
0.0
 11
165.9688441348
 21
106.0484432067
 31
0.0
  0
LINE
  5
1DC
330
1F
100
AcDbEntity
  8
0
  6
Continuous
 62
     7
370
    15
100
AcDbLine
 10
165.5688433242
 20
106.0484432067
 30
0.0
 11
165.5688433242
 21
107.6392345513
 31
0.0
  0
LINE
  5
1DD
330
1F
100
AcDbEntity
  8
0
  6
Continuous
 62
     7
370
    15
100
AcDbLine
 10
165.9688441348
 20
106.0556374873
 30
0.0
 11
165.9688441348
 21
107.6392345513
 31
0.0
  0
LINE
  5
1DE
330
1F
100
AcDbEntity
  8
0
  6
Continuous
 62
     7
370
    15
100
AcDbLine
 10
245.2088443828
 20
235.9684430445
 30
0.0
 11
165.5288426471
 21
235.9684430445
 31
0.0
  0
LINE
  5
1DF
330
1F
100
AcDbEntity
  8
0
  6
Continuous
 62
     7
370
    15
100
AcDbLine
 10
245.2088443828
 20
235.4523264254
 30
0.0
 11
165.5288426471
 21
235.4523264254
 31
0.0
  0
LINE
  5
1E0
330
1F
100
AcDbEntity
  8
0
  6
Continuous
 62
     7
370
    15
100
AcDbLine
 10
245.2088443828
 20
235.9684430445
 30
0.0
 11
245.2088443828
 21
235.4523264254
 31
0.0
  0
LINE
  5
1E1
330
1F
100
AcDbEntity
  8
0
  6
Continuous
 62
     7
370
    15
100
AcDbLine
 10
165.5288426471
 20
235.9684430445
 30
0.0
 11
165.5288426471
 21
235.4523264254
 31
0.0
  0
ARC
  5
1E2
330
1F
100
AcDbEntity
  8
0
  6
Continuous
 62
     7
370
    15
100
AcDbCircle
 10
182.265557049
 20
229.7884097727
 30
0.0
 40
1.000133662825947
100
AcDbArc
 50
275.5341767309
 51
331.7848845089
  0
LINE
  5
1E3
330
1F
100
AcDbEntity
  8
0
  6
Continuous
 62
     7
370
    15
100
AcDbLine
 10
183.1468535852
 20
229.3155633296
 30
0.0
 11
185.1299045873
 21
233.0826722468
 31
0.0
  0
ARC
  5
1E4
330
1F
100
AcDbEntity
  8
0
  6
Continuous
 62
     7
370
    15
100
AcDbCircle
 10
184.2652885519
 20
233.5185166465
 30
0.0
 40
0.968256799273502
100
AcDbArc
 50
333.2477784894
 51
91.5842021225
  0
LINE
  5
1E5
330
1F
100
AcDbEntity
  8
0
  6
Continuous
 62
     7
370
    15
100
AcDbLine
 10
184.2385201049
 20
234.4864033545
 30
0.0
 11
170.368844111
 21
234.4864033545
 31
0.0
  0
ARC
  5
1E6
330
1F
100
AcDbEntity
  8
0
  6
Continuous
 62
     7
370
    15
100
AcDbCircle
 10
170.3520976224
 20
233.5031406202
 30
0.0
 40
0.983405333262408
100
AcDbArc
 50
89.0242583932
 51
178.9900406081
  0
LINE
  5
1E7
330
1F
100
AcDbEntity
  8
0
  6
Continuous
 62
     7
370
    15
100
AcDbLine
 10
169.3688450646
 20
233.5204743231
 30
0.0
 11
169.3688450646
 21
229.7533654059
 31
0.0
  0
ARC
  5
1E8
330
1F
100
AcDbEntity
  8
0
  6
Continuous
 62
     7
370
    15
100
AcDbCircle
 10
170.3477694065
 20
229.7682376728
 30
0.0
 40
0.979037308448973
100
AcDbArc
 50
180.8703967593
 51
264.9919579594
  0
LINE
  5
1E9
330
1F
100
AcDbEntity
  8
0
  6
Continuous
 62
     7
370
    15
100
AcDbLine
 10
170.2623037887
 20
228.7929378832
 30
0.0
 11
165.5288426471
 21
228.7929378832
 31
0.0
  0
LINE
  5
1EA
330
1F
100
AcDbEntity
  8
0
  6
Continuous
 62
     7
370
    15
100
AcDbLine
 10
165.5288426471
 20
235.4523264254
 30
0.0
 11
165.5288426471
 21
228.7929378832
 31
0.0
  0
LINE
  5
1EB
330
1F
100
AcDbEntity
  8
0
  6
Continuous
 62
     7
370
    15
100
AcDbLine
 10
245.2088443828
 20
228.7929378832
 30
0.0
 11
240.4753832412
 21
228.7929378832
 31
0.0
  0
ARC
  5
1EC
330
1F
100
AcDbEntity
  8
0
  6
Continuous
 62
     7
370
    15
100
AcDbCircle
 10
240.3899138804
 20
229.7682441924
 30
0.0
 40
0.9790441299203899
100
AcDbArc
 50
275.0082269434
 51
359.1292277198
  0
LINE
  5
1ED
330
1F
100
AcDbEntity
  8
0
  6
Continuous
 62
     7
370
    15
100
AcDbLine
 10
241.3688449454
 20
229.7533654059
 30
0.0
 11
241.3688449454
 21
233.5204743231
 31
0.0
  0
ARC
  5
1EE
330
1F
100
AcDbEntity
  8
0
  6
Continuous
 62
     7
370
    15
100
AcDbCircle
 10
240.3855877385
 20
233.5031358586
 30
0.0
 40
0.9834100657467371
100
AcDbArc
 50
1.010231996
 51
90.9756396548
  0
LINE
  5
1EF
330
1F
100
AcDbEntity
  8
0
  6
Continuous
 62
     7
370
    15
100
AcDbLine
 10
240.3688429189
 20
234.4864033545
 30
0.0
 11
228.482217927
 21
234.4864033545
 31
0.0
  0
ARC
  5
1F0
330
1F
100
AcDbEntity
  8
0
  6
Continuous
 62
     7
370
    15
100
AcDbCircle
 10
228.4750389483
 20
233.4822020155
 30
0.0
 40
1.004226999792321
100
AcDbArc
 50
89.590402682
 51
151.7007669212
  0
LINE
  5
1F1
330
1F
100
AcDbEntity
  8
0
  6
Continuous
 62
     7
370
    15
100
AcDbLine
 10
227.5908334446
 20
233.9582823599
 30
0.0
 11
225.6077824426
 21
230.1911674822
 31
0.0
  0
ARC
  5
1F2
330
1F
100
AcDbEntity
  8
0
  6
Continuous
 62
     7
370
    15
100
AcDbCircle
 10
226.4676186787
 20
229.7544182277
 30
0.0
 40
0.9644004688427406
100
AcDbArc
 50
153.07194928
 51
265.5401603725
  0
LINE
  5
1F3
330
1F
100
AcDbEntity
  8
0
  6
Continuous
 62
     7
370
    15
100
AcDbLine
 10
226.3926266027
 20
228.7929378832
 30
0.0
 11
222.3620100212
 21
228.7929378832
 31
0.0
  0
ARC
  5
1F4
330
1F
100
AcDbEntity
  8
0
  6
Continuous
 62
     7
370
    15
100
AcDbCircle
 10
222.2655552761
 20
229.7884133303
 30
0.0
 40
1.000137432314601
100
AcDbArc
 50
275.5342921582
 51
331.7847690816
  0
LINE
  5
1F5
330
1F
100
AcDbEntity
  8
0
  6
Continuous
 62
     7
370
    15
100
AcDbLine
 10
223.1468541813
 20
229.3155633296
 30
0.0
 11
225.1299051833
 21
233.0826722468
 31
0.0
  0
ARC
  5
1F6
330
1F
100
AcDbEntity
  8
0
  6
Continuous
 62
     7
370
    15
100
AcDbCircle
 10
224.2652885256
 20
233.5185162797
 30
0.0
 40
0.9682571898946732
100
AcDbArc
 50
333.2478144461
 51
91.5842528534
  0
LINE
  5
1F7
330
1F
100
AcDbEntity
  8
0
  6
Continuous
 62
     7
370
    15
100
AcDbLine
 10
224.2385192108
 20
234.4864033545
 30
0.0
 11
208.4822185603
 21
234.4864033545
 31
0.0
  0
ARC
  5
1F8
330
1F
100
AcDbEntity
  8
0
  6
Continuous
 62
     7
370
    15
100
AcDbCircle
 10
208.4750386888
 20
233.4822025868
 30
0.0
 40
1.00422643486225
100
AcDbArc
 50
89.5903515125
 51
151.7007865882
  0
LINE
  5
1F9
330
1F
100
AcDbEntity
  8
0
  6
Continuous
 62
     7
370
    15
100
AcDbLine
 10
207.5908335191
 20
233.9582823599
 30
0.0
 11
205.6077827033
 21
230.1911674822
 31
0.0
  0
ARC
  5
1FA
330
1F
100
AcDbEntity
  8
0
  6
Continuous
 62
     7
370
    15
100
AcDbCircle
 10
206.4676188302
 20
229.7544181689
 30
0.0
 40
0.9644003980359251
100
AcDbArc
 50
153.0719432208
 51
265.5401693336
  0
LINE
  5
1FB
330
1F
100
AcDbEntity
  8
0
  6
Continuous
 62
     7
370
    15
100
AcDbLine
 10
206.39262691
 20
228.7929378832
 30
0.0
 11
202.3620097232
 21
228.7929378832
 31
0.0
  0
ARC
  5
1FC
330
1F
100
AcDbEntity
  8
0
  6
Continuous
 62
     7
370
    15
100
AcDbCircle
 10
202.2655564142
 20
229.7884111736
 30
0.0
 40
1.00013514716765
100
AcDbArc
 50
275.5342221838
 51
331.784839056
  0
LINE
  5
1FD
330
1F
100
AcDbEntity
  8
0
  6
Continuous
 62
     7
370
    15
100
AcDbLine
 10
203.1468538833
 20
229.3155633296
 30
0.0
 11
205.129904699
 21
233.0826722468
 31
0.0
  0
ARC
  5
1FE
330
1F
100
AcDbEntity
  8
0
  6
Continuous
 62
     7
370
    15
100
AcDbCircle
 10
204.2652887535
 20
233.5185167177
 30
0.0
 40
0.9682567511549464
100
AcDbArc
 50
333.2477723341
 51
91.5842516216
  0
LINE
  5
1FF
330
1F
100
AcDbEntity
  8
0
  6
Continuous
 62
     7
370
    15
100
AcDbLine
 10
204.2385194716
 20
234.4864033545
 30
0.0
 11
188.4822188211
 21
234.4864033545
 31
0.0
  0
ARC
  5
200
330
1F
100
AcDbEntity
  8
0
  6
Continuous
 62
     7
370
    15
100
AcDbCircle
 10
188.4750390134
 20
233.4822009198
 30
0.0
 40
1.004228101376336
100
AcDbArc
 50
89.5903558347
 51
151.7007297621
  0
LINE
  5
201
330
1F
100
AcDbEntity
  8
0
  6
Continuous
 62
     7
370
    15
100
AcDbLine
 10
187.5908328486
 20
233.9582823599
 30
0.0
 11
185.6077833366
 21
230.1911674822
 31
0.0
  0
ARC
  5
202
330
1F
100
AcDbEntity
  8
0
  6
Continuous
 62
     7
370
    15
100
AcDbCircle
 10
186.4676188345
 20
229.7544178133
 30
0.0
 40
0.9643999983002847
100
AcDbArc
 50
153.071907467
 51
265.5402021855
  0
LINE
  5
203
330
1F
100
AcDbEntity
  8
0
  6
Continuous
 62
     7
370
    15
100
AcDbLine
 10
186.3926274967
 20
228.7929378832
 30
0.0
 11
182.3620094252
 21
228.7929378832
 31
0.0
  0
LINE
  5
204
330
1F
100
AcDbEntity
  8
0
  6
Continuous
 62
     7
370
    15
100
AcDbLine
 10
245.2088443828
 20
235.4523264254
 30
0.0
 11
245.2088443828
 21
228.7929378832
 31
0.0
  0
LINE
  5
205
330
1F
100
AcDbEntity
  8
0
  6
Continuous
 62
     7
370
    15
100
AcDbLine
 10
245.368844111
 20
235.7884429778
 30
0.0
 11
245.2088443828
 21
235.7884429778
 31
0.0
  0
LINE
  5
206
330
1F
100
AcDbEntity
  8
0
  6
Continuous
 62
     7
370
    15
100
AcDbLine
 10
245.368844111
 20
235.7884429778
 30
0.0
 11
245.368844111
 21
235.4989134158
 31
0.0
  0
LINE
  5
207
330
1F
100
AcDbEntity
  8
0
  6
Continuous
 62
     7
370
    15
100
AcDbLine
 10
245.368844111
 20
235.4989134158
 30
0.0
 11
245.2088443828
 21
235.4989134158
 31
0.0
  0
LINE
  5
208
330
1F
100
AcDbEntity
  8
0
  6
Continuous
 62
     7
370
    15
100
AcDbLine
 10
165.3688429189
 20
235.4989134158
 30
0.0
 11
165.5288426471
 21
235.4989134158
 31
0.0
  0
LINE
  5
209
330
1F
100
AcDbEntity
  8
0
  6
Continuous
 62
     7
370
    15
100
AcDbLine
 10
165.3688429189
 20
235.7884429778
 30
0.0
 11
165.5288426471
 21
235.7884429778
 31
0.0
  0
LINE
  5
20A
330
1F
100
AcDbEntity
  8
0
  6
Continuous
 62
     7
370
    15
100
AcDbLine
 10
165.3688429189
 20
235.7884429778
 30
0.0
 11
165.3688429189
 21
235.4989134158
 31
0.0
  0
LINE
  5
20B
330
1F
100
AcDbEntity
  8
0
  6
Continuous
 62
     7
370
    15
100
AcDbLine
 10
165.3688429189
 20
228.8395248736
 30
0.0
 11
165.5288426471
 21
228.8395248736
 31
0.0
  0
LINE
  5
20C
330
1F
100
AcDbEntity
  8
0
  6
Continuous
 62
     7
370
    15
100
AcDbLine
 10
165.3688429189
 20
235.4989134158
 30
0.0
 11
165.3688429189
 21
228.8395248736
 31
0.0
  0
LINE
  5
20D
330
1F
100
AcDbEntity
  8
0
  6
Continuous
 62
     7
370
    15
100
AcDbLine
 10
245.368844111
 20
228.8395248736
 30
0.0
 11
245.2088443828
 21
228.8395248736
 31
0.0
  0
LINE
  5
20E
330
1F
100
AcDbEntity
  8
0
  6
Continuous
 62
     7
370
    15
100
AcDbLine
 10
245.368844111
 20
235.4989134158
 30
0.0
 11
245.368844111
 21
228.8395248736
 31
0.0
  0
LINE
  5
20F
330
1F
100
AcDbEntity
  8
0
  6
Continuous
 62
     7
370
    15
100
AcDbLine
 10
185.1299045873
 20
233.124085554
 30
0.0
 11
185.1299045873
 21
233.0826722468
 31
0.0
  0
LWPOLYLINE
  5
210
330
1F
100
AcDbEntity
  8
0
  6
Continuous
 62
     7
370
    15
100
AcDbPolyline
 90
        3
 70
   128
 43
0.0
 10
185.1299045873
 20
233.124085554
 10
185.2154417229
 20
233.3555721129
 10
185.2382896733
 20
233.5411809767
  0
LINE
  5
211
330
1F
100
AcDbEntity
  8
0
  6
Continuous
 62
     7
370
    15
100
AcDbLine
 10
205.129904699
 20
233.124085554
 30
0.0
 11
205.129904699
 21
233.0826722468
 31
0.0
  0
LWPOLYLINE
  5
212
330
1F
100
AcDbEntity
  8
0
  6
Continuous
 62
     7
370
    15
100
AcDbPolyline
 90
        3
 70
   128
 43
0.0
 10
205.129904699
 20
233.124085554
 10
205.2154416484
 20
233.3555721129
 10
205.2382897851
 20
233.5411809767
  0
LINE
  5
213
330
1F
100
AcDbEntity
  8
0
  6
Continuous
 62
     7
370
    15
100
AcDbLine
 10
225.1299051833
 20
233.124085554
 30
0.0
 11
225.1299051833
 21
233.0826722468
 31
0.0
  0
LWPOLYLINE
  5
214
330
1F
100
AcDbEntity
  8
0
  6
Continuous
 62
     7
370
    15
100
AcDbPolyline
 90
        3
 70
   128
 43
0.0
 10
225.1299051833
 20
233.124085554
 10
225.2154423189
 20
233.3555721129
 10
225.2382902694
 20
233.5411809767
  0
LINE
  5
215
330
1F
100
AcDbEntity
  8
0
  6
Continuous
 62
     7
370
    15
100
AcDbLine
 10
223.1468541813
 20
229.3569766368
 30
0.0
 11
223.1468541813
 21
229.3155633296
 31
0.0
  0
LINE
  5
216
330
1F
100
AcDbEntity
  8
0
  6
Continuous
 62
     7
370
    15
100
AcDbLine
 10
223.1468541813
 20
229.3569766368
 30
0.0
 11
225.1299051833
 21
233.124085554
 31
0.0
  0
LINE
  5
217
330
1F
100
AcDbEntity
  8
0
  6
Continuous
 62
     7
370
    15
100
AcDbLine
 10
183.1468535852
 20
229.3569766368
 30
0.0
 11
183.1468535852
 21
229.3155633296
 31
0.0
  0
LINE
  5
218
330
1F
100
AcDbEntity
  8
0
  6
Continuous
 62
     7
370
    15
100
AcDbLine
 10
183.1468535852
 20
229.3569766368
 30
0.0
 11
185.1299045873
 21
233.124085554
 31
0.0
  0
LINE
  5
219
330
1F
100
AcDbEntity
  8
0
  6
Continuous
 62
     7
370
    15
100
AcDbLine
 10
203.1468538833
 20
229.3569766368
 30
0.0
 11
203.1468538833
 21
229.3155633296
 31
0.0
  0
LINE
  5
21A
330
1F
100
AcDbEntity
  8
0
  6
Continuous
 62
     7
370
    15
100
AcDbLine
 10
203.1468538833
 20
229.3569766368
 30
0.0
 11
205.129904699
 21
233.124085554
 31
0.0
  0
LINE
  5
21B
330
1F
100
AcDbEntity
  8
0
  6
Continuous
 62
     7
370
    15
100
AcDbLine
 10
206.4991677911
 20
228.787442335
 30
0.0
 11
206.39262691
 21
228.7929378832
 31
0.0
  0
ARC
  5
21C
330
1F
100
AcDbEntity
  8
0
  6
Continuous
 62
     7
370
    15
100
AcDbCircle
 10
206.499152161
 20
229.8629201576
 30
0.0
 40
1.034070476005502
100
AcDbArc
 50
264.0871589782
 51
270.0008660296
  0
LINE
  5
21D
330
1F
100
AcDbEntity
  8
0
  6
Continuous
 62
     7
370
    15
100
AcDbLine
 10
206.4991677911
 20
228.8288496817
 30
0.0
 11
206.4991677911
 21
228.787442335
 31
0.0
  0
ARC
  5
21E
330
1F
100
AcDbEntity
  8
0
  6
Continuous
 62
     7
370
    15
100
AcDbCircle
 10
206.4786020228
 20
229.810452234
 30
0.0
 40
0.9798800779814055
100
AcDbArc
 50
182.1277191691
 51
264.9663702713
  0
LINE
  5
21F
330
1F
100
AcDbEntity
  8
0
  6
Continuous
 62
     7
370
    15
100
AcDbLine
 10
186.499167819
 20
228.787442335
 30
0.0
 11
186.3926274967
 21
228.7929378832
 31
0.0
  0
ARC
  5
220
330
1F
100
AcDbEntity
  8
0
  6
Continuous
 62
     7
370
    15
100
AcDbCircle
 10
186.4991525878
 20
229.8629170617
 30
0.0
 40
1.03406738011091
100
AcDbArc
 50
264.0871501223
 51
270.0008439328
  0
LINE
  5
221
330
1F
100
AcDbEntity
  8
0
  6
Continuous
 62
     7
370
    15
100
AcDbLine
 10
186.499167819
 20
228.8288496817
 30
0.0
 11
186.499167819
 21
228.787442335
 31
0.0
  0
ARC
  5
222
330
1F
100
AcDbEntity
  8
0
  6
Continuous
 62
     7
370
    15
100
AcDbCircle
 10
186.4786001047
 20
229.8104497075
 30
0.0
 40
0.9798773414909
100
AcDbArc
 50
182.1275772836
 51
264.9665032074
  0
LINE
  5
223
330
1F
100
AcDbEntity
  8
0
  6
Continuous
 62
     7
370
    15
100
AcDbLine
 10
226.4991684151
 20
228.787442335
 30
0.0
 11
226.3926266027
 21
228.7929378832
 31
0.0
  0
ARC
  5
224
330
1F
100
AcDbEntity
  8
0
  6
Continuous
 62
     7
370
    15
100
AcDbCircle
 10
226.4991516933
 20
229.8629170481
 30
0.0
 40
1.034067366511097
100
AcDbArc
 50
264.087150071
 51
270.000926524
  0
LINE
  5
225
330
1F
100
AcDbEntity
  8
0
  6
Continuous
 62
     7
370
    15
100
AcDbLine
 10
226.4991684151
 20
228.8288496817
 30
0.0
 11
226.4991684151
 21
228.787442335
 31
0.0
  0
ARC
  5
226
330
1F
100
AcDbEntity
  8
0
  6
Continuous
 62
     7
370
    15
100
AcDbCircle
 10
226.4786037438
 20
229.8104540164
 30
0.0
 40
0.9798820314852322
100
AcDbArc
 50
182.1278192185
 51
264.9662612726
  0
LINE
  5
227
330
1F
100
AcDbEntity
  8
0
  6
Continuous
 62
     7
370
    15
100
AcDbLine
 10
240.4753832412
 20
228.7929378832
 30
0.0
 11
240.3688429189
 21
228.787442335
 31
0.0
  0
LINE
  5
228
330
1F
100
AcDbEntity
  8
0
  6
Continuous
 62
     7
370
    15
100
AcDbLine
 10
240.3688429189
 20
228.8288496817
 30
0.0
 11
240.3688429189
 21
228.787442335
 31
0.0
  0
ARC
  5
229
330
1F
100
AcDbEntity
  8
0
  6
Continuous
 62
     7
370
    15
100
AcDbCircle
 10
240.3688581501
 20
229.8629170617
 30
0.0
 40
1.034067380110225
100
AcDbArc
 50
269.9991560672
 51
275.9128498777
  0
ARC
  5
22A
330
1F
100
AcDbEntity
  8
0
  6
Continuous
 62
     7
370
    15
100
AcDbCircle
 10
240.38991769
 20
229.8096539557
 30
0.0
 40
0.9790402669386989
100
AcDbArc
 50
275.0080229552
 51
359.129431708
  0
LINE
  5
22B
330
1F
100
AcDbEntity
  8
0
  6
Continuous
 62
     7
370
    15
100
AcDbLine
 10
170.368844111
 20
228.787442335
 30
0.0
 11
170.2623037887
 21
228.7929378832
 31
0.0
  0
ARC
  5
22C
330
1F
100
AcDbEntity
  8
0
  6
Continuous
 62
     7
370
    15
100
AcDbCircle
 10
170.3688288798
 20
229.8629170617
 30
0.0
 40
1.034067380109967
100
AcDbArc
 50
264.0871501223
 51
270.0008439328
  0
LINE
  5
22D
330
1F
100
AcDbEntity
  8
0
  6
Continuous
 62
     7
370
    15
100
AcDbLine
 10
170.368844111
 20
228.8288496817
 30
0.0
 11
170.368844111
 21
228.787442335
 31
0.0
  0
ARC
  5
22E
330
1F
100
AcDbEntity
  8
0
  6
Continuous
 62
     7
370
    15
100
AcDbCircle
 10
170.3477655969
 20
229.8096474361
 30
0.0
 40
0.9790334455341679
100
AcDbArc
 50
180.8701927712
 51
264.9921619475
  0
LINE
  5
22F
330
1F
100
AcDbEntity
  8
0
  6
Continuous
 62
     7
370
    15
100
AcDbLine
 10
222.3620100212
 20
228.7929378832
 30
0.0
 11
222.2554682088
 21
228.787442335
 31
0.0
  0
LINE
  5
230
330
1F
100
AcDbEntity
  8
0
  6
Continuous
 62
     7
370
    15
100
AcDbLine
 10
222.2554682088
 20
228.8288496817
 30
0.0
 11
222.2554682088
 21
228.787442335
 31
0.0
  0
ARC
  5
231
330
1F
100
AcDbEntity
  8
0
  6
Continuous
 62
     7
370
    15
100
AcDbCircle
 10
222.2554839373
 20
229.8629362842
 30
0.0
 40
1.0340866026222
100
AcDbArc
 50
269.999128529
 51
275.912794876
  0
ARC
  5
232
330
1F
100
AcDbEntity
  8
0
  6
Continuous
 62
     7
370
    15
100
AcDbCircle
 10
222.2655635827
 20
229.8298141632
 30
0.0
 40
1.000124215104329
100
AcDbArc
 50
275.5338874235
 51
331.7851738163
  0
LINE
  5
233
330
1F
100
AcDbEntity
  8
0
  6
Continuous
 62
     7
370
    15
100
AcDbLine
 10
202.3620097232
 20
228.7929378832
 30
0.0
 11
202.2554686558
 21
228.787442335
 31
0.0
  0
LINE
  5
234
330
1F
100
AcDbEntity
  8
0
  6
Continuous
 62
     7
370
    15
100
AcDbLine
 10
202.2554686558
 20
228.8288496817
 30
0.0
 11
202.2554686558
 21
228.787442335
 31
0.0
  0
ARC
  5
235
330
1F
100
AcDbEntity
  8
0
  6
Continuous
 62
     7
370
    15
100
AcDbCircle
 10
202.255484384
 20
229.8629218637
 30
0.0
 40
1.03407218213168
100
AcDbArc
 50
269.9991285342
 51
275.9128361404
  0
ARC
  5
236
330
1F
100
AcDbEntity
  8
0
  6
Continuous
 62
     7
370
    15
100
AcDbCircle
 10
202.2655647207
 20
229.8298120066
 30
0.0
 40
1.000121930048663
100
AcDbArc
 50
275.5338174498
 51
331.78524379
  0
LINE
  5
237
330
1F
100
AcDbEntity
  8
0
  6
Continuous
 62
     7
370
    15
100
AcDbLine
 10
182.3620094252
 20
228.7929378832
 30
0.0
 11
182.2554691029
 21
228.787442335
 31
0.0
  0
LINE
  5
238
330
1F
100
AcDbEntity
  8
0
  6
Continuous
 62
     7
370
    15
100
AcDbLine
 10
182.2554691029
 20
228.8288496817
 30
0.0
 11
182.2554691029
 21
228.787442335
 31
0.0
  0
ARC
  5
239
330
1F
100
AcDbEntity
  8
0
  6
Continuous
 62
     7
370
    15
100
AcDbCircle
 10
182.2554843341
 20
229.8629170617
 30
0.0
 40
1.034067380110678
100
AcDbArc
 50
269.9991560672
 51
275.9128498777
  0
ARC
  5
23A
330
1F
100
AcDbEntity
  8
0
  6
Continuous
 62
     7
370
    15
100
AcDbCircle
 10
182.2655653556
 20
229.8298106056
 30
0.0
 40
1.0001204456299
100
AcDbArc
 50
275.5337719932
 51
331.7852892466
  0
LINE
  5
23B
330
1F
100
AcDbEntity
  8
0
  6
Continuous
 62
     7
370
    15
100
AcDbLine
 10
222.2554682088
 20
228.787442335
 30
0.0
 11
206.4991677911
 21
228.787442335
 31
0.0
  0
LINE
  5
23C
330
1F
100
AcDbEntity
  8
0
  6
Continuous
 62
     7
370
    15
100
AcDbLine
 10
240.3688429189
 20
228.787442335
 30
0.0
 11
226.4991684151
 21
228.787442335
 31
0.0
  0
LINE
  5
23D
330
1F
100
AcDbEntity
  8
0
  6
Continuous
 62
     7
370
    15
100
AcDbLine
 10
245.2088443828
 20
228.7929378832
 30
0.0
 11
245.2088443828
 21
224.968441614
 31
0.0
  0
LINE
  5
23E
330
1F
100
AcDbEntity
  8
0
  6
Continuous
 62
     7
370
    15
100
AcDbLine
 10
245.2088443828
 20
224.968441614
 30
0.0
 11
165.5288426471
 21
224.968441614
 31
0.0
  0
LINE
  5
23F
330
1F
100
AcDbEntity
  8
0
  6
Continuous
 62
     7
370
    15
100
AcDbLine
 10
165.5288426471
 20
228.7929378832
 30
0.0
 11
165.5288426471
 21
224.968441614
 31
0.0
  0
LINE
  5
240
330
1F
100
AcDbEntity
  8
0
  6
Continuous
 62
     7
370
    15
100
AcDbLine
 10
182.2554691029
 20
228.787442335
 30
0.0
 11
170.368844111
 21
228.787442335
 31
0.0
  0
LINE
  5
241
330
1F
100
AcDbEntity
  8
0
  6
Continuous
 62
     7
370
    15
100
AcDbLine
 10
202.2554686558
 20
228.787442335
 30
0.0
 11
186.499167819
 21
228.787442335
 31
0.0
  0
LINE
  5
242
330
1F
100
AcDbEntity
  8
0
  6
Continuous
 62
     7
370
    15
100
AcDbLine
 10
186.499167819
 20
228.8288496817
 30
0.0
 11
202.2554686558
 21
228.8288496817
 31
0.0
  0
LINE
  5
243
330
1F
100
AcDbEntity
  8
0
  6
Continuous
 62
     7
370
    15
100
AcDbLine
 10
226.4991684151
 20
228.8288496817
 30
0.0
 11
240.3688429189
 21
228.8288496817
 31
0.0
  0
LINE
  5
244
330
1F
100
AcDbEntity
  8
0
  6
Continuous
 62
     7
370
    15
100
AcDbLine
 10
206.4991677911
 20
228.8288496817
 30
0.0
 11
222.2554682088
 21
228.8288496817
 31
0.0
  0
LINE
  5
245
330
1F
100
AcDbEntity
  8
0
  6
Continuous
 62
     7
370
    15
100
AcDbLine
 10
170.368844111
 20
228.8288496817
 30
0.0
 11
182.2554691029
 21
228.8288496817
 31
0.0
  0
LINE
  5
246
330
1F
100
AcDbEntity
  8
0
  6
Continuous
 62
     7
370
    15
100
AcDbLine
 10
202.3620097232
 20
228.8343511904
 30
0.0
 11
186.3926274967
 21
228.8343511904
 31
0.0
  0
LINE
  5
247
330
1F
100
AcDbEntity
  8
0
  6
Continuous
 62
     7
370
    15
100
AcDbLine
 10
240.4753832412
 20
228.8343511904
 30
0.0
 11
226.3926266027
 21
228.8343511904
 31
0.0
  0
LINE
  5
248
330
1F
100
AcDbEntity
  8
0
  6
Continuous
 62
     7
370
    15
100
AcDbLine
 10
222.3620100212
 20
228.8343511904
 30
0.0
 11
206.39262691
 21
228.8343511904
 31
0.0
  0
LINE
  5
249
330
1F
100
AcDbEntity
  8
0
  6
Continuous
 62
     7
370
    15
100
AcDbLine
 10
182.3620094252
 20
228.8343511904
 30
0.0
 11
170.2623037887
 21
228.8343511904
 31
0.0
  0
LINE
  5
24A
330
1F
100
AcDbEntity
  8
0
  6
Continuous
 62
     7
370
    15
100
AcDbLine
 10
245.368844111
 20
225.1484416808
 30
0.0
 11
245.2088443828
 21
225.1484416808
 31
0.0
  0
LINE
  5
24B
330
1F
100
AcDbEntity
  8
0
  6
Continuous
 62
     7
370
    15
100
AcDbLine
 10
245.368844111
 20
228.8395248736
 30
0.0
 11
245.368844111
 21
225.1484416808
 31
0.0
  0
LINE
  5
24C
330
1F
100
AcDbEntity
  8
0
  6
Continuous
 62
     7
370
    15
100
AcDbLine
 10
165.3688429189
 20
225.1484416808
 30
0.0
 11
165.5288426471
 21
225.1484416808
 31
0.0
  0
LINE
  5
24D
330
1F
100
AcDbEntity
  8
0
  6
Continuous
 62
     7
370
    15
100
AcDbLine
 10
165.3688429189
 20
228.8395248736
 30
0.0
 11
165.3688429189
 21
225.1484416808
 31
0.0
  0
LWPOLYLINE
  5
24E
330
1F
100
AcDbEntity
  8
0
  6
Continuous
 62
     7
370
    15
100
AcDbPolyline
 90
        3
 70
   128
 43
0.0
 10
165.5288426471
 20
235.8834050978
 10
165.4889313769
 20
235.8483575667
 10
165.4394326997
 20
235.7884429778
  0
LWPOLYLINE
  5
24F
330
1F
100
AcDbEntity
  8
0
  6
Continuous
 62
     7
370
    15
100
AcDbPolyline
 90
        3
 70
   128
 43
0.0
 10
245.2982543302
 20
235.7884429778
 10
245.2487586331
 20
235.8483575667
 10
245.2088443828
 20
235.8834050978
  0
LWPOLYLINE
  5
250
330
1F
100
AcDbEntity
  8
0
  6
Continuous
 62
     7
370
    15
100
AcDbPolyline
 90
        3
 70
   128
 43
0.0
 10
165.4394326997
 20
225.1484416808
 10
165.4889313769
 20
225.0885330523
 10
165.5288426471
 20
225.0534855212
  0
LWPOLYLINE
  5
251
330
1F
100
AcDbEntity
  8
0
  6
Continuous
 62
     7
370
    15
100
AcDbPolyline
 90
        3
 70
   128
 43
0.0
 10
245.2088443828
 20
225.0534855212
 10
245.2487586331
 20
225.0885330523
 10
245.2982543302
 20
225.1484416808
  0
LINE
  5
252
330
1F
100
AcDbEntity
  8
0
  6
Continuous
 62
     7
370
    15
100
AcDbLine
 10
245.368844111
 20
105.2684449042
 30
0.0
 11
245.1288430286
 21
105.2684449042
 31
0.0
  0
LINE
  5
253
330
1F
100
AcDbEntity
  8
0
  6
Continuous
 62
     7
370
    15
100
AcDbLine
 10
245.368844111
 20
87.0684467639
 30
0.0
 11
245.1288430286
 21
87.0684467639
 31
0.0
  0
LINE
  5
254
330
1F
100
AcDbEntity
  8
0
  6
Continuous
 62
     7
370
    15
100
AcDbLine
 10
245.368844111
 20
87.0684467639
 30
0.0
 11
245.368844111
 21
105.2684449042
 31
0.0
  0
LINE
  5
255
330
1F
100
AcDbEntity
  8
0
  6
Continuous
 62
     7
370
    15
100
AcDbLine
 10
245.368844111
 20
82.4684463824
 30
0.0
 11
245.368844111
 21
87.0684467639
 31
0.0
  0
LINE
  5
256
330
1F
100
AcDbEntity
  8
0
  6
Continuous
 62
     7
370
    15
100
AcDbLine
 10
245.368844111
 20
105.6684457148
 30
0.0
 11
245.1288430286
 21
105.6684457148
 31
0.0
  0
LINE
  5
257
330
1F
100
AcDbEntity
  8
0
  6
Continuous
 62
     7
370
    15
100
AcDbLine
 10
245.368844111
 20
105.2684449042
 30
0.0
 11
245.368844111
 21
105.6684457148
 31
0.0
  0
LINE
  5
258
330
1F
100
AcDbEntity
  8
0
  6
Continuous
 62
     7
370
    15
100
AcDbLine
 10
244.5688424897
 20
101.8813573207
 30
0.0
 11
244.5688424897
 21
101.754536518
 31
0.0
  0
LINE
  5
259
330
1F
100
AcDbEntity
  8
0
  6
Continuous
 62
     7
370
    15
100
AcDbLine
 10
244.5688424897
 20
101.754536518
 30
0.0
 11
166.1688445401
 21
101.754536518
 31
0.0
  0
LINE
  5
25A
330
1F
100
AcDbEntity
  8
0
  6
Continuous
 62
     7
370
    15
100
AcDbLine
 10
166.1688445401
 20
101.8813573207
 30
0.0
 11
244.5688424897
 21
101.8813573207
 31
0.0
  0
LINE
  5
25B
330
1F
100
AcDbEntity
  8
0
  6
Continuous
 62
     7
370
    15
100
AcDbLine
 10
166.1688445401
 20
101.754536518
 30
0.0
 11
166.1688445401
 21
101.8813573207
 31
0.0
  0
LINE
  5
25C
330
1F
100
AcDbEntity
  8
0
  6
Continuous
 62
     7
370
    15
100
AcDbLine
 10
244.5688424897
 20
101.8813573207
 30
0.0
 11
244.5688424897
 21
106.5984450663
 31
0.0
  0
LINE
  5
25D
330
1F
100
AcDbEntity
  8
0
  6
Continuous
 62
     7
370
    15
100
AcDbLine
 10
166.1688445401
 20
106.5984450663
 30
0.0
 11
166.1688445401
 21
101.8813573207
 31
0.0
  0
LINE
  5
25E
330
1F
100
AcDbEntity
  8
0
  6
Continuous
 62
     7
370
    15
100
AcDbLine
 10
244.5688424897
 20
106.5984450663
 30
0.0
 11
166.1688445401
 21
106.5984450663
 31
0.0
  0
LINE
  5
25F
330
1F
100
AcDbEntity
  8
0
  6
Continuous
 62
     7
370
    15
100
AcDbLine
 10
166.1688445401
 20
106.5984450663
 30
0.0
 11
166.1688445401
 21
107.0884459103
 31
0.0
  0
LINE
  5
260
330
1F
100
AcDbEntity
  8
0
  6
Continuous
 62
     7
370
    15
100
AcDbLine
 10
244.5688424897
 20
107.0884459103
 30
0.0
 11
166.1688445401
 21
107.0884459103
 31
0.0
  0
LINE
  5
261
330
1F
100
AcDbEntity
  8
0
  6
Continuous
 62
     7
370
    15
100
AcDbLine
 10
244.5688424897
 20
107.0884459103
 30
0.0
 11
244.5688424897
 21
106.5984450663
 31
0.0
  0
ARC
  5
262
330
1F
100
AcDbEntity
  8
0
  6
Continuous
 62
     7
370
    15
100
AcDbCircle
 10
243.5855923098
 20
101.2241071411
 30
0.0
 40
0.983403019392323
100
AcDbArc
 50
269.0241175397
 51
358.9898281174
  0
LINE
  5
263
330
1F
100
AcDbEntity
  8
0
  6
Continuous
 62
     7
370
    15
100
AcDbLine
 10
243.5688434434
 20
100.2408467616
 30
0.0
 11
167.1688435865
 21
100.2408467616
 31
0.0
  0
ARC
  5
264
330
1F
100
AcDbEntity
  8
0
  6
Continuous
 62
     7
370
    15
100
AcDbCircle
 10
167.15209472
 20
101.2241071411
 30
0.0
 40
0.9834030193923632
100
AcDbArc
 50
181.0101718826
 51
270.9758824603
  0
LINE
  5
265
330
1F
100
AcDbEntity
  8
0
  6
Continuous
 62
     7
370
    15
100
AcDbLine
 10
166.1688445401
 20
101.2067698325
 30
0.0
 11
166.1688445401
 21
101.754536518
 31
0.0
  0
LINE
  5
266
330
1F
100
AcDbEntity
  8
0
  6
Continuous
 62
     7
370
    15
100
AcDbLine
 10
244.5688424897
 20
101.754536518
 30
0.0
 11
244.5688424897
 21
101.2067698325
 31
0.0
  0
LINE
  5
267
330
1F
100
AcDbEntity
  8
0
  6
Continuous
 62
     7
370
    15
100
AcDbLine
 10
165.6088440013
 20
87.0684467639
 30
0.0
 11
165.3688429189
 21
87.0684467639
 31
0.0
  0
LINE
  5
268
330
1F
100
AcDbEntity
  8
0
  6
Continuous
 62
     7
370
    15
100
AcDbLine
 10
165.3688429189
 20
82.4684463824
 30
0.0
 11
165.3688429189
 21
87.0684467639
 31
0.0
  0
LINE
  5
269
330
1F
100
AcDbEntity
  8
0
  6
Continuous
 62
     7
370
    15
100
AcDbLine
 10
165.6088440013
 20
105.2684449042
 30
0.0
 11
165.3688429189
 21
105.2684449042
 31
0.0
  0
LINE
  5
26A
330
1F
100
AcDbEntity
  8
0
  6
Continuous
 62
     7
370
    15
100
AcDbLine
 10
165.3688429189
 20
87.0684467639
 30
0.0
 11
165.3688429189
 21
105.2684449042
 31
0.0
  0
LINE
  5
26B
330
1F
100
AcDbEntity
  8
0
  6
Continuous
 62
     7
370
    15
100
AcDbLine
 10
165.6088440013
 20
105.6684457148
 30
0.0
 11
165.3688429189
 21
105.6684457148
 31
0.0
  0
LINE
  5
26C
330
1F
100
AcDbEntity
  8
0
  6
Continuous
 62
     7
370
    15
100
AcDbLine
 10
165.3688429189
 20
105.2684449042
 30
0.0
 11
165.3688429189
 21
105.6684457148
 31
0.0
  0
LINE
  5
26D
330
1F
100
AcDbEntity
  8
0
  6
Continuous
 62
     7
370
    15
100
AcDbLine
 10
239.0388427568
 20
228.9284430827
 30
0.0
 11
240.8110885215
 21
228.9284430827
 31
0.0
  0
LINE
  5
26E
330
1F
100
AcDbEntity
  8
0
  6
Continuous
 62
     7
370
    15
100
AcDbLine
 10
239.0388427568
 20
228.9284430827
 30
0.0
 11
239.0388427568
 21
229.1684471453
 31
0.0
  0
LINE
  5
26F
330
1F
100
AcDbEntity
  8
0
  6
Continuous
 62
     7
370
    15
100
AcDbLine
 10
239.0388427568
 20
229.1684471453
 30
0.0
 11
241.1301194024
 21
229.1684471453
 31
0.0
  0
ARC
  5
270
330
1F
100
AcDbEntity
  8
0
  6
Continuous
 62
     7
370
    15
100
AcDbCircle
 10
239.0388436692
 20
228.6784444337
 30
0.0
 40
0.2499999999999858
100
AcDbArc
 50
90.0
 51
141.4190954621
  0
ARC
  5
271
330
1F
100
AcDbEntity
  8
0
  6
Continuous
 62
     7
370
    15
100
AcDbCircle
 10
239.0388436692
 20
228.6784444337
 30
0.0
 40
0.4899999999999807
100
AcDbArc
 50
90.0
 51
161.4475278524
  0
ARC
  5
272
330
1F
100
AcDbEntity
  8
0
  6
Continuous
 62
     7
370
    15
100
AcDbCircle
 10
234.8888436692
 20
229.8884444337
 30
0.0
 40
0.4000000000000057
100
AcDbArc
 50
180.0
 51
270.0
  0
LINE
  5
273
330
1F
100
AcDbEntity
  8
0
  6
Continuous
 62
     7
370
    15
100
AcDbLine
 10
234.4888447118
 20
229.8884474124
 30
0.0
 11
234.4888447118
 21
234.4864033545
 31
0.0
  0
LINE
  5
274
330
1F
100
AcDbEntity
  8
0
  6
Continuous
 62
     7
370
    15
100
AcDbLine
 10
241.3172213626
 20
229.4884466017
 30
0.0
 11
240.3864739728
 21
229.4884466017
 31
0.0
  0
LINE
  5
275
330
1F
100
AcDbEntity
  8
0
  6
Continuous
 62
     7
370
    15
100
AcDbLine
 10
235.9864739966
 20
229.4884466017
 30
0.0
 11
234.8888425422
 21
229.4884466017
 31
0.0
  0
LWPOLYLINE
  5
276
330
1F
100
AcDbEntity
  8
0
  6
Continuous
 62
     7
370
    15
100
AcDbPolyline
 90
        3
 70
   128
 43
0.0
 10
235.8488438916
 20
232.718446144
 10
235.8874408794
 20
232.9373382414
 10
235.9864739966
 20
233.1149600829
  0
LINE
  5
277
330
1F
100
AcDbEntity
  8
0
  6
Continuous
 62
     7
370
    15
100
AcDbLine
 10
235.8488438916
 20
231.4584456767
 30
0.0
 11
235.8488438916
 21
232.718446144
 31
0.0
  0
LWPOLYLINE
  5
278
330
1F
100
AcDbEntity
  8
0
  6
Continuous
 62
     7
370
    15
100
AcDbPolyline
 90
        3
 70
   128
 43
0.0
 10
235.9864739966
 20
231.0619317378
 10
235.8874408794
 20
231.2395535792
 10
235.8488438916
 20
231.4584456767
  0
LINE
  5
279
330
1F
100
AcDbEntity
  8
0
  6
Continuous
 62
     7
370
    15
100
AcDbLine
 10
171.7564730239
 20
228.9284430827
 30
0.0
 11
171.7564730239
 21
229.1684471453
 31
0.0
  0
LINE
  5
27A
330
1F
100
AcDbEntity
  8
0
  6
Continuous
 62
     7
370
    15
100
AcDbLine
 10
171.7564730239
 20
228.9284430827
 30
0.0
 11
169.9265985084
 21
228.9284430827
 31
0.0
  0
LINE
  5
27B
330
1F
100
AcDbEntity
  8
0
  6
Continuous
 62
     7
370
    15
100
AcDbLine
 10
171.7564730239
 20
229.1684471453
 30
0.0
 11
169.6075676274
 21
229.1684471453
 31
0.0
  0
ARC
  5
27C
330
1F
100
AcDbEntity
  8
0
  6
Continuous
 62
     7
370
    15
100
AcDbCircle
 10
171.7564727027
 20
228.6784444337
 30
0.0
 40
0.4900000000000317
100
AcDbArc
 50
18.5524721476
 51
90.0
  0
ARC
  5
27D
330
1F
100
AcDbEntity
  8
0
  6
Continuous
 62
     7
370
    15
100
AcDbCircle
 10
171.7564727027
 20
228.6784444337
 30
0.0
 40
0.2500000000000215
100
AcDbArc
 50
38.5809045379
 51
90.0
  0
LINE
  5
27E
330
1F
100
AcDbEntity
  8
0
  6
Continuous
 62
     7
370
    15
100
AcDbLine
 10
176.3064740491
 20
234.4864033545
 30
0.0
 11
176.3064740491
 21
229.8884474124
 31
0.0
  0
ARC
  5
27F
330
1F
100
AcDbEntity
  8
0
  6
Continuous
 62
     7
370
    15
100
AcDbCircle
 10
175.9064727027
 20
229.8884444337
 30
0.0
 40
0.4000000000000057
100
AcDbArc
 50
270.0
 51
0.0
  0
LINE
  5
280
330
1F
100
AcDbEntity
  8
0
  6
Continuous
 62
     7
370
    15
100
AcDbLine
 10
175.9064732385
 20
229.4884466017
 30
0.0
 11
169.4204656673
 21
229.4884466017
 31
0.0
  0
LINE
  5
281
330
1F
100
AcDbEntity
  8
0
  6
Continuous
 62
     7
370
    15
100
AcDbLine
 10
174.946471889
 20
232.718446144
 30
0.0
 11
174.946471889
 21
231.4584456767
 31
0.0
  0
ARC
  5
282
330
1F
100
AcDbEntity
  8
0
  6
Continuous
 62
     7
370
    15
100
AcDbCircle
 10
174.3064727027
 20
232.7184444337
 30
0.0
 40
0.6400000000000148
100
AcDbArc
 50
0.0
 51
180.0
  0
LINE
  5
283
330
1F
100
AcDbEntity
  8
0
  6
Continuous
 62
     7
370
    15
100
AcDbLine
 10
173.6664740634
 20
231.4584456767
 30
0.0
 11
173.6664740634
 21
232.718446144
 31
0.0
  0
ARC
  5
284
330
1F
100
AcDbEntity
  8
0
  6
Continuous
 62
     7
370
    15
100
AcDbCircle
 10
174.3064727027
 20
231.4584444337
 30
0.0
 40
0.6400000000000148
100
AcDbArc
 50
180.0
 51
0.0
  0
LINE
  5
285
330
1F
100
AcDbEntity
  8
0
  6
Continuous
 62
     7
370
    15
100
AcDbLine
 10
241.2445841622
 20
229.3284438933
 30
0.0
 11
240.3864739728
 21
229.3284438933
 31
0.0
  0
LINE
  5
286
330
1F
100
AcDbEntity
  8
0
  6
Continuous
 62
     7
370
    15
100
AcDbLine
 10
172.8864727807
 20
229.3284438933
 30
0.0
 11
169.4931028676
 21
229.3284438933
 31
0.0
  0
LINE
  5
287
330
1F
100
AcDbEntity
  8
0
  6
Continuous
 62
     7
370
    15
100
AcDbLine
 10
172.8864727807
 20
229.3284438933
 30
0.0
 11
172.8864727807
 21
228.8343511904
 31
0.0
  0
LINE
  5
288
330
1F
100
AcDbEntity
  8
0
  6
Continuous
 62
     7
370
    15
100
AcDbLine
 10
176.0808287454
 20
229.5284472788
 30
0.0
 11
181.6088436437
 21
229.5284472788
 31
0.0
  0
LINE
  5
289
330
1F
100
AcDbEntity
  8
0
  6
Continuous
 62
     7
370
    15
100
AcDbLine
 10
229.1288433862
 20
229.5284472788
 30
0.0
 11
234.7144870353
 21
229.5284472788
 31
0.0
  0
CIRCLE
  5
28A
330
1F
100
AcDbEntity
  8
0
  6
Continuous
 62
     7
370
    15
100
AcDbCircle
 10
174.3864727027
 20
231.9284444337
 30
0.0
 40
0.4499999999999602
  0
LINE
  5
28B
330
1F
100
AcDbEntity
  8
0
  6
Continuous
 62
     7
370
    15
100
AcDbLine
 10
229.1288433862
 20
234.4184421385
 30
0.0
 11
229.1231720042
 21
234.4864033545
 31
0.0
  0
LINE
  5
28C
330
1F
100
AcDbEntity
  8
0
  6
Continuous
 62
     7
370
    15
100
AcDbLine
 10
228.968843658
 20
234.4184421385
 30
0.0
 11
229.1288433862
 21
234.4184421385
 31
0.0
  0
LWPOLYLINE
  5
28D
330
1F
100
AcDbEntity
  8
0
  6
Continuous
 62
     7
370
    15
100
AcDbPolyline
 90
        3
 70
   128
 43
0.0
 10
228.968843658
 20
234.4184421385
 10
228.9640395236
 20
234.4672166194
 10
228.9594291043
 20
234.4864033545
  0
LINE
  5
28E
330
1F
100
AcDbEntity
  8
0
  6
Continuous
 62
     7
370
    15
100
AcDbLine
 10
181.6145150256
 20
234.4864033545
 30
0.0
 11
181.6088436437
 21
234.4184421385
 31
0.0
  0
LWPOLYLINE
  5
28F
330
1F
100
AcDbEntity
  8
0
  6
Continuous
 62
     7
370
    15
100
AcDbPolyline
 90
        3
 70
   128
 43
0.0
 10
181.7782579255
 20
234.4864033545
 10
181.7736475062
 20
234.4672166194
 10
181.7688433719
 20
234.4184421385
  0
LINE
  5
290
330
1F
100
AcDbEntity
  8
0
  6
Continuous
 62
     7
370
    15
100
AcDbLine
 10
181.7688433719
 20
234.4184421385
 30
0.0
 11
181.6088436437
 21
234.4184421385
 31
0.0
  0
LINE
  5
291
330
1F
100
AcDbEntity
  8
0
  6
Continuous
 62
     7
370
    15
100
AcDbLine
 10
229.1288433862
 20
232.8284465159
 30
0.0
 11
228.968843658
 21
232.8284465159
 31
0.0
  0
LINE
  5
292
330
1F
100
AcDbEntity
  8
0
  6
Continuous
 62
     7
370
    15
100
AcDbLine
 10
229.1288433862
 20
234.4184421385
 30
0.0
 11
229.1288433862
 21
232.8284465159
 31
0.0
  0
LINE
  5
293
330
1F
100
AcDbEntity
  8
0
  6
Continuous
 62
     7
370
    15
100
AcDbLine
 10
228.968843658
 20
234.4184421385
 30
0.0
 11
228.968843658
 21
232.8284465159
 31
0.0
  0
LINE
  5
294
330
1F
100
AcDbEntity
  8
0
  6
Continuous
 62
     7
370
    15
100
AcDbLine
 10
181.7688433719
 20
232.8284465159
 30
0.0
 11
181.7688433719
 21
234.4184421385
 31
0.0
  0
LINE
  5
295
330
1F
100
AcDbEntity
  8
0
  6
Continuous
 62
     7
370
    15
100
AcDbLine
 10
181.6088436437
 20
232.8284465159
 30
0.0
 11
181.6088436437
 21
234.4184421385
 31
0.0
  0
LINE
  5
296
330
1F
100
AcDbEntity
  8
0
  6
Continuous
 62
     7
370
    15
100
AcDbLine
 10
181.6088436437
 20
232.8284465159
 30
0.0
 11
181.7688433719
 21
232.8284465159
 31
0.0
  0
LINE
  5
297
330
1F
100
AcDbEntity
  8
0
  6
Continuous
 62
     7
370
    15
100
AcDbLine
 10
229.1288433862
 20
232.7766798819
 30
0.0
 11
229.1288433862
 21
232.8284465159
 31
0.0
  0
LINE
  5
298
330
1F
100
AcDbEntity
  8
0
  6
Continuous
 62
     7
370
    15
100
AcDbLine
 10
228.968843658
 20
232.7766798819
 30
0.0
 11
229.1288433862
 21
232.7766798819
 31
0.0
  0
LINE
  5
299
330
1F
100
AcDbEntity
  8
0
  6
Continuous
 62
     7
370
    15
100
AcDbLine
 10
229.1288433862
 20
232.7766798819
 30
0.0
 11
229.1288433862
 21
228.8343511904
 31
0.0
  0
LINE
  5
29A
330
1F
100
AcDbEntity
  8
0
  6
Continuous
 62
     7
370
    15
100
AcDbLine
 10
181.6088436437
 20
228.8343511904
 30
0.0
 11
181.6088436437
 21
232.7766798819
 31
0.0
  0
LINE
  5
29B
330
1F
100
AcDbEntity
  8
0
  6
Continuous
 62
     7
370
    15
100
AcDbLine
 10
181.6088436437
 20
232.7766798819
 30
0.0
 11
181.7688433719
 21
232.7766798819
 31
0.0
  0
LINE
  5
29C
330
1F
100
AcDbEntity
  8
0
  6
Continuous
 62
     7
370
    15
100
AcDbLine
 10
181.6088436437
 20
232.8284465159
 30
0.0
 11
181.6088436437
 21
232.7766798819
 31
0.0
  0
LINE
  5
29D
330
1F
100
AcDbEntity
  8
0
  6
Continuous
 62
     8
370
    15
100
AcDbLine
 10
223.8823605967
 20
78.3790134276
 30
0.0
 11
226.0767607284
 21
78.3790134276
 31
0.0
  0
LINE
  5
29E
330
1F
100
AcDbEntity
  8
0
  6
Continuous
 62
     8
370
    15
100
AcDbLine
 10
214.5761838448
 20
78.3790134276
 30
0.0
 11
216.7705847216
 21
78.3790134276
 31
0.0
  0
LWPOLYLINE
  5
29F
330
1F
100
AcDbEntity
  8
0
  6
Continuous
 62
     8
370
    15
100
AcDbPolyline
 90
        7
 70
   128
 43
0.0
 10
223.1559051466
 20
77.6320778216
 10
223.1524316859
 20
77.6223920668
 10
223.1425283742
 20
77.6108645285
 10
223.1268672538
 20
77.6011072482
 10
223.1059385729
 20
77.5934242095
 10
223.080402453
 20
77.5880597914
 10
223.0510561061
 20
77.5851808871
  0
LWPOLYLINE
  5
2A0
330
1F
100
AcDbEntity
  8
0
  6
Continuous
 62
     8
370
    15
100
AcDbPolyline
 90
        7
 70
   128
 43
0.0
 10
217.4968837094
 20
77.6331209029
 10
217.5005128872
 20
77.6223920668
 10
217.510416944
 20
77.6108645285
 10
217.5260788095
 20
77.6011072482
 10
217.5470067453
 20
77.5934242095
 10
217.5725436103
 20
77.5880597914
 10
217.6018884671
 20
77.5851808871
  0
LWPOLYLINE
  5
2A1
330
1F
100
AcDbEntity
  8
0
  6
Continuous
 62
     8
370
    15
100
AcDbPolyline
 90
        8
 70
   128
 43
0.0
 10
218.0966330957
 20
74.3712149943
 10
218.0715171886
 20
74.3759118403
 10
218.0495059383
 20
74.3824862326
 10
218.0311342967
 20
74.3907772387
 10
218.0168478084
 20
74.4005881632
 10
218.0069929254
 20
74.4116746272
 10
218.0018088114
 20
74.4237684096
 10
218.0012969565
 20
74.4266294325
  0
ARC
  5
2A2
330
1F
100
AcDbEntity
  8
0
  6
Continuous
 62
     8
370
    15
100
AcDbCircle
 10
222.5612315892
 20
74.4724358011
 30
0.0
 40
0.1013402778101788
100
AcDbArc
 50
267.2175943104
 51
333.1615645192
  0
LINE
  5
2A3
330
1F
100
AcDbEntity
  8
0
  6
Continuous
 62
     8
370
    15
100
AcDbLine
 10
222.28794976
 20
238.2184468592
 30
0.0
 11
223.8409055662
 21
238.2184468592
 31
0.0
  0
LINE
  5
2A4
330
1F
100
AcDbEntity
  8
0
  6
Continuous
 62
     8
370
    15
100
AcDbLine
 10
223.8409055662
 20
238.3584462489
 30
0.0
 11
222.28794976
 21
238.3584462489
 31
0.0
  0
LINE
  5
2A5
330
1F
100
AcDbEntity
  8
0
  6
Continuous
 62
     8
370
    15
100
AcDbLine
 10
223.9213569355
 20
238.1184421862
 30
0.0
 11
223.9354042602
 21
238.1184421862
 31
0.0
  0
LINE
  5
2A6
330
1F
100
AcDbEntity
  8
0
  6
Continuous
 62
     8
370
    15
100
AcDbLine
 10
223.9213539553
 20
237.0984457816
 30
0.0
 11
223.9354042602
 21
237.0984457816
 31
0.0
  0
LINE
  5
2A7
330
1F
100
AcDbEntity
  8
0
  6
Continuous
 62
     8
370
    15
100
AcDbLine
 10
224.9865873051
 20
237.0984457816
 30
0.0
 11
224.9805612755
 21
237.0984457816
 31
0.0
  0
LINE
  5
2A8
330
1F
100
AcDbEntity
  8
0
  6
Continuous
 62
     8
370
    15
100
AcDbLine
 10
221.5028478098
 20
237.0984457816
 30
0.0
 11
221.5028478098
 21
237.9284464205
 31
0.0
  0
LINE
  5
2A9
330
1F
100
AcDbEntity
  8
0
  6
Continuous
 62
     8
370
    15
100
AcDbLine
 10
221.4004082871
 20
237.9878066863
 30
0.0
 11
221.4004082871
 21
237.0984457816
 31
0.0
  0
LINE
  5
2AA
330
1F
100
AcDbEntity
  8
0
  6
Continuous
 62
     8
370
    15
100
AcDbLine
 10
221.5833289814
 20
237.9284464205
 30
0.0
 11
221.5833289814
 21
237.0984457816
 31
0.0
  0
LINE
  5
2AB
330
1F
100
AcDbEntity
  8
0
  6
Continuous
 62
     8
370
    15
100
AcDbLine
 10
221.5833289814
 20
237.0984457816
 30
0.0
 11
222.086208899
 21
237.0984457816
 31
0.0
  0
LINE
  5
2AC
330
1F
100
AcDbEntity
  8
0
  6
Continuous
 62
     8
370
    15
100
AcDbLine
 10
221.4004082871
 20
237.0984457816
 30
0.0
 11
221.3863579822
 21
237.0984457816
 31
0.0
  0
LINE
  5
2AD
330
1F
100
AcDbEntity
  8
0
  6
Continuous
 62
     8
370
    15
100
AcDbLine
 10
223.9361403775
 20
238.1184421862
 30
0.0
 11
222.3740471792
 21
238.1184421862
 31
0.0
  0
LINE
  5
2AE
330
1F
100
AcDbEntity
  8
0
  6
Continuous
 62
     8
370
    15
100
AcDbLine
 10
222.3740471792
 20
237.9784427966
 30
0.0
 11
223.9213539553
 21
237.9784427966
 31
0.0
  0
LINE
  5
2AF
330
1F
100
AcDbEntity
  8
0
  6
Continuous
 62
     8
370
    15
100
AcDbLine
 10
222.2879482698
 20
238.2184468592
 30
0.0
 11
222.2702427101
 21
238.2184468592
 31
0.0
  0
LINE
  5
2B0
330
1F
100
AcDbEntity
  8
0
  6
Continuous
 62
     8
370
    15
100
AcDbLine
 10
222.28794976
 20
239.2384432639
 30
0.0
 11
222.2702427101
 21
239.2384432639
 31
0.0
  0
LINE
  5
2B1
330
1F
100
AcDbEntity
  8
0
  6
Continuous
 62
     8
370
    15
100
AcDbLine
 10
221.3003842425
 20
239.2384432639
 30
0.0
 11
221.304252584
 21
239.2384432639
 31
0.0
  0
LINE
  5
2B2
330
1F
100
AcDbEntity
  8
0
  6
Continuous
 62
     8
370
    15
100
AcDbLine
 10
224.942326386
 20
239.2384432639
 30
0.0
 11
224.942326386
 21
238.2784806574
 31
0.0
  0
SPLINE
  5
2B3
330
1F
100
AcDbEntity
  8
0
  6
Continuous
 62
     8
370
    15
100
AcDbSpline
210
0.0
220
0.0
230
1.0
 70
     8
 71
     3
 72
    10
 73
     6
 74
     0
 42
0.00000001
 43
0.00000001
 12
1.0
 22
0.0
 32
0.0
 13
1.0
 23
0.0
 33
0.0
 40
0.0
 40
0.0
 40
0.0
 40
0.0
 40
0.2513407706019191
 40
0.6255547563991506
 40
1.0
 40
1.0
 40
1.0
 40
1.0
 10
224.9865873050744
 20
238.038834222663
 30
0.0
 10
224.9969190963433
 20
238.0498726760667
 30
0.0
 10
225.0226335920653
 20
238.0773459626864
 30
0.0
 10
225.0486357346985
 20
238.1408104827016
 30
0.0
 10
225.0527808146679
 20
238.192562738366
 30
0.0
 10
225.0548539948518
 20
238.2184468592292
 30
0.0
  0
LINE
  5
2B4
330
1F
100
AcDbEntity
  8
0
  6
Continuous
 62
     8
370
    15
100
AcDbLine
 10
225.0548539949
 20
238.2184468592
 30
0.0
 11
225.0725610447
 21
238.2184468592
 31
0.0
  0
LINE
  5
2B5
330
1F
100
AcDbEntity
  8
0
  6
Continuous
 62
     8
370
    15
100
AcDbLine
 10
224.8634500694
 20
238.4084426249
 30
0.0
 11
224.8634500694
 21
239.2384432639
 31
0.0
  0
LINE
  5
2B6
330
1F
100
AcDbEntity
  8
0
  6
Continuous
 62
     8
370
    15
100
AcDbLine
 10
224.8634500694
 20
239.2384432639
 30
0.0
 11
224.249814291
 21
239.2384432639
 31
0.0
  0
LINE
  5
2B7
330
1F
100
AcDbEntity
  8
0
  6
Continuous
 62
     8
370
    15
100
AcDbLine
 10
225.0548539949
 20
239.2384432639
 30
0.0
 11
225.0725610447
 21
239.2384432639
 31
0.0
  0
LINE
  5
2B8
330
1F
100
AcDbEntity
  8
0
  6
Continuous
 62
     8
370
    15
100
AcDbLine
 10
245.1288430286
 20
105.3584419573
 30
0.0
 11
244.5688424897
 21
105.3584419573
 31
0.0
  0
LINE
  5
2B9
330
1F
100
AcDbEntity
  8
0
  6
Continuous
 62
     8
370
    15
100
AcDbLine
 10
166.1688445401
 20
105.3584419573
 30
0.0
 11
165.6088440013
 21
105.3584419573
 31
0.0
  0
LINE
  5
2BA
330
1F
100
AcDbEntity
  8
0
  6
Continuous
 62
     8
370
    15
100
AcDbLine
 10
244.878843267
 20
223.5002003993
 30
0.0
 11
244.878843267
 21
224.968441614
 31
0.0
  0
LINE
  5
2BB
330
1F
100
AcDbEntity
  8
0
  6
Continuous
 62
     8
370
    15
100
AcDbLine
 10
165.8588437629
 20
224.968441614
 30
0.0
 11
165.8588437629
 21
223.5002003993
 31
0.0
  0
LINE
  5
2BC
330
1F
100
AcDbEntity
  8
0
  6
Continuous
 62
     8
370
    15
100
AcDbLine
 10
244.878843267
 20
106.0484432067
 30
0.0
 11
244.878843267
 21
105.8484457816
 31
0.0
  0
LINE
  5
2BD
330
1F
100
AcDbEntity
  8
0
  6
Continuous
 62
     8
370
    15
100
AcDbLine
 10
165.8588437629
 20
105.8484457816
 30
0.0
 11
165.8588437629
 21
106.0484432067
 31
0.0
  0
LINE
  5
2BE
330
1F
100
AcDbEntity
  8
0
  6
Continuous
 62
     8
370
    15
100
AcDbLine
 10
244.768842895
 20
106.5384440507
 30
0.0
 11
244.5688424897
 21
106.5384440507
 31
0.0
  0
LINE
  5
2BF
330
1F
100
AcDbEntity
  8
0
  6
Continuous
 62
     8
370
    15
100
AcDbLine
 10
166.1688445401
 20
106.5384440507
 30
0.0
 11
165.9688441348
 21
106.5384440507
 31
0.0
  0
LINE
  5
2C0
330
1F
100
AcDbEntity
  8
0
  6
Continuous
 62
     8
370
    15
100
AcDbLine
 10
228.7188438964
 20
234.4864033545
 30
0.0
 11
228.7188438964
 21
228.8343511904
 31
0.0
  0
LINE
  5
2C1
330
1F
100
AcDbEntity
  8
0
  6
Continuous
 62
     8
370
    15
100
AcDbLine
 10
182.0188431335
 20
228.8343511904
 30
0.0
 11
182.0188431335
 21
234.4864033545
 31
0.0
  0
ENDSEC
  0
SECTION
  2
OBJECTS
  0
DICTIONARY
  5
C
330
0
100
AcDbDictionary
281
     1
  3
ACAD_GROUP
350
D
  3
ACAD_LAYOUT
350
1A
  3
ACAD_MLINESTYLE
350
17
  3
ACAD_PLOTSETTINGS
350
19
  3
ACAD_PLOTSTYLENAME
350
E
  0
DICTIONARY
  5
D
102
{ACAD_REACTORS
330
C
102
}
330
C
100
AcDbDictionary
281
     1
  0
DICTIONARY
  5
1A
102
{ACAD_REACTORS
330
C
102
}
330
C
100
AcDbDictionary
281
     1
  3
Layout1
350
1E
  3
Layout2
350
26
  3
Model
350
22
  0
DICTIONARY
  5
17
102
{ACAD_REACTORS
330
C
102
}
330
C
100
AcDbDictionary
281
     1
  3
Standard
350
18
  0
DICTIONARY
  5
19
102
{ACAD_REACTORS
330
C
102
}
330
C
100
AcDbDictionary
281
     1
  0
ACDBDICTIONARYWDFLT
  5
E
102
{ACAD_REACTORS
330
C
102
}
330
C
100
AcDbDictionary
281
     1
  3
Normal
350
F
100
AcDbDictionaryWithDefault
340
F
  0
LAYOUT
  5
1E
102
{ACAD_REACTORS
330
1A
102
}
330
1A
100
AcDbPlotSettings
  1

  2
none_device
  4

  6

 40
0.0
 41
0.0
 42
0.0
 43
0.0
 44
0.0
 45
0.0
 46
0.0
 47
0.0
 48
0.0
 49
0.0
140
0.0
141
0.0
142
1.0
143
1.0
 70
   688
 72
     0
 73
     0
 74
     5
  7

 75
    16
147
1.0
148
0.0
149
0.0
100
AcDbLayout
  1
Layout1
 70
     1
 71
     1
 10
0.0
 20
0.0
 11
420.0
 21
297.0
 12
0.0
 22
0.0
 32
0.0
 14
1.0000000000E+20
 24
1.0000000000E+20
 34
1.0000000000E+20
 15
-1.0000000000E+20
 25
-1.0000000000E+20
 35
-1.0000000000E+20
146
0.0
 13
0.0
 23
0.0
 33
0.0
 16
1.0
 26
0.0
 36
0.0
 17
0.0
 27
1.0
 37
0.0
 76
     0
330
1B
  0
LAYOUT
  5
26
102
{ACAD_REACTORS
330
1A
102
}
330
1A
100
AcDbPlotSettings
  1

  2
none_device
  4

  6

 40
0.0
 41
0.0
 42
0.0
 43
0.0
 44
0.0
 45
0.0
 46
0.0
 47
0.0
 48
0.0
 49
0.0
140
0.0
141
0.0
142
1.0
143
1.0
 70
   688
 72
     0
 73
     0
 74
     5
  7

 75
    16
147
1.0
148
0.0
149
0.0
100
AcDbLayout
  1
Layout2
 70
     1
 71
     2
 10
0.0
 20
0.0
 11
0.0
 21
0.0
 12
0.0
 22
0.0
 32
0.0
 14
0.0
 24
0.0
 34
0.0
 15
0.0
 25
0.0
 35
0.0
146
0.0
 13
0.0
 23
0.0
 33
0.0
 16
1.0
 26
0.0
 36
0.0
 17
0.0
 27
1.0
 37
0.0
 76
     0
330
23
  0
LAYOUT
  5
22
102
{ACAD_REACTORS
330
1A
102
}
330
1A
100
AcDbPlotSettings
  1

  2
none_device
  4

  6

 40
0.0
 41
0.0
 42
0.0
 43
0.0
 44
0.0
 45
0.0
 46
0.0
 47
0.0
 48
0.0
 49
0.0
140
0.0
141
0.0
142
1.0
143
1.0
 70
  1712
 72
     0
 73
     0
 74
     0
  7

 75
     0
147
1.0
148
0.0
149
0.0
100
AcDbLayout
  1
Model
 70
     1
 71
     0
 10
0.0
 20
0.0
 11
420.0
 21
297.0
 12
0.0
 22
0.0
 32
0.0
 14
0.0
 24
0.0
 34
0.0
 15
420.0
 25
297.0
 35
0.0
146
0.0
 13
0.0
 23
0.0
 33
0.0
 16
1.0
 26
0.0
 36
0.0
 17
0.0
 27
1.0
 37
0.0
 76
     0
330
1F
331
29
  0
MLINESTYLE
  5
18
102
{ACAD_REACTORS
330
17
102
}
330
17
100
AcDbMlineStyle
  2
Standard
 70
     0
  3

 62
   256
 51
90.0
 52
90.0
 71
     2
 49
0.5
 62
   256
  6
BYLAYER
 49
-0.5
 62
   256
  6
BYLAYER
  0
ACDBPLACEHOLDER
  5
F
102
{ACAD_REACTORS
330
E
102
}
330
E
  0
ENDSEC
  0
EOF
