  0
SECTION
  2
HEADER
  9
$ACADVER
  1
AC1015
  9
$ACADMAINTVER
 70
     6
  9
$DWGCODEPAGE
  3
ANSI_1252
  9
$INSBASE
 10
0.0
 20
0.0
 30
0.0
  9
$EXTMIN
 10
0.0
 20
0.0
 30
0.0
  9
$EXTMAX
 10
420.0
 20
297.0
 30
0.0
  9
$LIMMIN
 10
0.0
 20
0.0
  9
$LIMMAX
 10
420.0
 20
297.0
  9
$ORTHOMODE
 70
     0
  9
$REGENMODE
 70
     1
  9
$FILLMODE
 70
     1
  9
$QTEXTMODE
 70
     0
  9
$MIRRTEXT
 70
     1
  9
$LTSCALE
 40
1.0
  9
$ATTMODE
 70
     1
  9
$TEXTSIZE
 40
3.5
  9
$TRACEWID
 40
1.0
  9
$TEXTSTYLE
  7
Standard
  9
$CLAYER
  8
0
  9
$CELTYPE
  6
ByLayer
  9
$CECOLOR
 62
   256
  9
$CELTSCALE
 40
1.0
  9
$DISPSILH
 70
     0
  9
$DIMSCALE
 40
1.0
  9
$DIMASZ
 40
3.302
  9
$DIMEXO
 40
1.0
  9
$DIMDLI
 40
3.75
  9
$DIMRND
 40
0.0
  9
$DIMDLE
 40
0.0
  9
$DIMEXE
 40
1.0
  9
$DIMTP
 40
0.0
  9
$DIMTM
 40
0.0
  9
$DIMTXT
 40
3.5
  9
$DIMCEN
 40
2.5
  9
$DIMTSZ
 40
0.0
  9
$DIMTOL
 70
     0
  9
$DIMLIM
 70
     0
  9
$DIMTIH
 70
     1
  9
$DIMTOH
 70
     1
  9
$DIMSE1
 70
     0
  9
$DIMSE2
 70
     0
  9
$DIMTAD
 70
     1
  9
$DIMZIN
 70
     0
  9
$DIMBLK
  1

  9
$DIMASO
 70
     1
  9
$DIMSHO
 70
     1
  9
$DIMPOST
  1

  9
$DIMAPOST
  1

  9
$DIMALT
 70
     0
  9
$DIMALTD
 70
     3
  9
$DIMALTF
 40
0.0393700787
  9
$DIMLFAC
 40
5.0
  9
$DIMTOFL
 70
     1
  9
$DIMTVP
 40
0.0
  9
$DIMTIX
 70
     0
  9
$DIMSOXD
 70
     0
  9
$DIMSAH
 70
     0
  9
$DIMBLK1
  1

  9
$DIMBLK2
  1

  9
$DIMSTYLE
  2
ISO-25
  9
$DIMCLRD
 70
     0
  9
$DIMCLRE
 70
     0
  9
$DIMCLRT
 70
     0
  9
$DIMTFAC
 40
1.0
  9
$DIMGAP
 40
1.524
  9
$DIMJUST
 70
     0
  9
$DIMSD1
 70
     0
  9
$DIMSD2
 70
     0
  9
$DIMTOLJ
 70
     0
  9
$DIMTZIN
 70
     0
  9
$DIMALTZ
 70
     0
  9
$DIMALTTZ
 70
     0
  9
$DIMUPT
 70
     0
  9
$DIMDEC
 70
     1
  9
$DIMTDEC
 70
     1
  9
$DIMALTU
 70
     2
  9
$DIMALTTD
 70
     3
  9
$DIMTXSTY
  7
Standard
  9
$DIMAUNIT
 70
     0
  9
$DIMADEC
 70
     1
  9
$DIMALTRND
 40
0.0
  9
$DIMAZIN
 70
     0
  9
$DIMDSEP
 70
    44
  9
$DIMATFIT
 70
     3
  9
$DIMFRAC
 70
     0
  9
$DIMLDRBLK
  1

  9
$DIMLUNIT
 70
     2
  9
$DIMLWD
 70
    -2
  9
$DIMLWE
 70
    -2
  9
$DIMTMOVE
 70
     0
  9
$LUNITS
 70
     2
  9
$LUPREC
 70
     1
  9
$SKETCHINC
 40
1.0
  9
$FILLETRAD
 40
10.0
  9
$AUNITS
 70
     0
  9
$AUPREC
 70
     1
  9
$MENU
  1
.
  9
$ELEVATION
 40
0.0
  9
$PELEVATION
 40
0.0
  9
$THICKNESS
 40
0.0
  9
$LIMCHECK
 70
     0
  9
$CHAMFERA
 40
10.0
  9
$CHAMFERB
 40
10.0
  9
$CHAMFERC
 40
20.0
  9
$CHAMFERD
 40
0.0
  9
$SKPOLY
 70
     0
  9
$TDCREATE
 40
2455848.409244398
  9
$TDUCREATE
 40
2455848.367577732
  9
$TDUPDATE
 40
2455848.40924441
  9
$TDUUPDATE
 40
2455848.367577743
  9
$TDINDWG
 40
0.0000000116
  9
$TDUSRTIMER
 40
0.0000000116
  9
$USRTIMER
 70
     1
  9
$ANGBASE
 50
0.0
  9
$ANGDIR
 70
     0
  9
$PDMODE
 70
     0
  9
$PDSIZE
 40
-1.0
  9
$PLINEWID
 40
0.0
  9
$SPLFRAME
 70
     0
  9
$SPLINETYPE
 70
     6
  9
$SPLINESEGS
 70
     8
  9
$HANDSEED
  5
2FB
  9
$SURFTAB1
 70
     6
  9
$SURFTAB2
 70
     6
  9
$SURFTYPE
 70
     6
  9
$SURFU
 70
     6
  9
$SURFV
 70
     6
  9
$UCSBASE
  2

  9
$UCSNAME
  2

  9
$UCSORG
 10
0.0
 20
0.0
 30
0.0
  9
$UCSXDIR
 10
1.0
 20
0.0
 30
0.0
  9
$UCSYDIR
 10
0.0
 20
1.0
 30
0.0
  9
$UCSORTHOREF
  2

  9
$UCSORTHOVIEW
 70
     0
  9
$UCSORGTOP
 10
0.0
 20
0.0
 30
0.0
  9
$UCSORGBOTTOM
 10
0.0
 20
0.0
 30
0.0
  9
$UCSORGLEFT
 10
0.0
 20
0.0
 30
0.0
  9
$UCSORGRIGHT
 10
0.0
 20
0.0
 30
0.0
  9
$UCSORGFRONT
 10
0.0
 20
0.0
 30
0.0
  9
$UCSORGBACK
 10
0.0
 20
0.0
 30
0.0
  9
$PUCSBASE
  2

  9
$PUCSNAME
  2

  9
$PUCSORG
 10
0.0
 20
0.0
 30
0.0
  9
$PUCSXDIR
 10
1.0
 20
0.0
 30
0.0
  9
$PUCSYDIR
 10
0.0
 20
1.0
 30
0.0
  9
$PUCSORTHOREF
  2

  9
$PUCSORTHOVIEW
 70
     0
  9
$PUCSORGTOP
 10
0.0
 20
0.0
 30
0.0
  9
$PUCSORGBOTTOM
 10
0.0
 20
0.0
 30
0.0
  9
$PUCSORGLEFT
 10
0.0
 20
0.0
 30
0.0
  9
$PUCSORGRIGHT
 10
0.0
 20
0.0
 30
0.0
  9
$PUCSORGFRONT
 10
0.0
 20
0.0
 30
0.0
  9
$PUCSORGBACK
 10
0.0
 20
0.0
 30
0.0
  9
$USERI1
 70
     0
  9
$USERI2
 70
     0
  9
$USERI3
 70
     0
  9
$USERI4
 70
     0
  9
$USERI5
 70
     0
  9
$USERR1
 40
0.0
  9
$USERR2
 40
0.0
  9
$USERR3
 40
0.0
  9
$USERR4
 40
0.0
  9
$USERR5
 40
0.0
  9
$WORLDVIEW
 70
     1
  9
$SHADEDGE
 70
     3
  9
$SHADEDIF
 70
    70
  9
$TILEMODE
 70
     1
  9
$MAXACTVP
 70
    64
  9
$PINSBASE
 10
0.0
 20
0.0
 30
0.0
  9
$PLIMCHECK
 70
     0
  9
$PEXTMIN
 10
1.0000000000E+20
 20
1.0000000000E+20
 30
1.0000000000E+20
  9
$PEXTMAX
 10
-1.0000000000E+20
 20
-1.0000000000E+20
 30
-1.0000000000E+20
  9
$PLIMMIN
 10
0.0
 20
0.0
  9
$PLIMMAX
 10
420.0
 20
297.0
  9
$UNITMODE
 70
     0
  9
$VISRETAIN
 70
     1
  9
$PLINEGEN
 70
     0
  9
$PSLTSCALE
 70
     1
  9
$TREEDEPTH
 70
  3020
  9
$CMLSTYLE
  2
Standard
  9
$CMLJUST
 70
     0
  9
$CMLSCALE
 40
20.0
  9
$PROXYGRAPHICS
 70
     1
  9
$MEASUREMENT
 70
     1
  9
$CELWEIGHT
370
    -1
  9
$ENDCAPS
280
     0
  9
$JOINSTYLE
280
     0
  9
$LWDISPLAY
290
     1
  9
$INSUNITS
 70
     4
  9
$HYPERLINKBASE
  1

  9
$STYLESHEET
  1

  9
$XEDIT
290
     1
  9
$CEPSNTYPE
380
     0
  9
$PSTYLEMODE
290
     1
  9
$FINGERPRINTGUID
  2
{2C0E6863-67C6-4DCD-9758-73E5D2C2A556}
  9
$VERSIONGUID
  2
{FAEB1C32-E019-11D5-929B-00C0DF256EC4}
  9
$EXTNAMES
290
     1
  9
$PSVPSCALE
 40
0.0
  9
$OLESTARTUP
290
     0
  0
ENDSEC
  0
SECTION
  2
CLASSES
  0
CLASS
  1
ACDBDICTIONARYWDFLT
  2
AcDbDictionaryWithDefault
  3
ObjectDBX Classes
 90
        0
280
     0
281
     0
  0
CLASS
  1
VISUALSTYLE
  2
AcDbVisualStyle
  3
ObjectDBX Classes
 90
     4095
280
     0
281
     0
  0
CLASS
  1
MATERIAL
  2
AcDbMaterial
  3
ObjectDBX Classes
 90
     1153
280
     0
281
     0
  0
CLASS
  1
ACDBPLACEHOLDER
  2
AcDbPlaceHolder
  3
ObjectDBX Classes
 90
        0
280
     0
281
     0
  0
CLASS
  1
LAYOUT
  2
AcDbLayout
  3
ObjectDBX Classes
 90
        0
280
     0
281
     0
  0
ENDSEC
  0
SECTION
  2
TABLES
  0
TABLE
  2
VPORT
  5
8
330
0
100
AcDbSymbolTable
 70
     1
  0
VPORT
  5
29
330
8
100
AcDbSymbolTableRecord
100
AcDbViewportTableRecord
  2
*Active
 70
     0
 10
0.0
 20
0.0
 11
1.0
 21
1.0
 12
210.0
 22
148.5
 13
0.0
 23
0.0
 14
10.0
 24
10.0
 15
10.0
 25
10.0
 16
0.0
 26
0.0
 36
1.0
 17
0.0
 27
0.0
 37
0.0
 40
297.0
 41
1.4141414141
 42
50.0
 43
0.0
 44
0.0
 50
0.0
 51
0.0
 71
     0
 72
  2000
 73
     1
 74
     3
 75
     0
 76
     0
 77
     0
 78
     0
281
     0
 65
     1
110
0.0
120
0.0
130
0.0
111
1.0
121
0.0
131
0.0
112
0.0
122
1.0
132
0.0
 79
     0
146
0.0
  0
ENDTAB
  0
TABLE
  2
LTYPE
  5
5
330
0
100
AcDbSymbolTable
 70
     6
  0
LTYPE
  5
14
330
5
100
AcDbSymbolTableRecord
100
AcDbLinetypeTableRecord
  2
ByBlock
 70
     0
  3

 72
    65
 73
     0
 40
0.0
  0
LTYPE
  5
15
330
5
100
AcDbSymbolTableRecord
100
AcDbLinetypeTableRecord
  2
ByLayer
 70
     0
  3

 72
    65
 73
     0
 40
0.0
  0
LTYPE
  5
16
330
5
100
AcDbSymbolTableRecord
100
AcDbLinetypeTableRecord
  2
Continuous
 70
     0
  3
Solid line
 72
    65
 73
     0
 40
0.0
  0
LTYPE
  5
3F
330
5
100
AcDbSymbolTableRecord
100
AcDbLinetypeTableRecord
  2
HIDDEN
 70
     0
  3
Hidden __ __ __ __ __ __ __ __ __ __ __ __ __ __
 72
    65
 73
     2
 40
1.905
 49
1.27
 74
     0
 49
-0.635
 74
     0
  0
LTYPE
  5
40
330
5
100
AcDbSymbolTableRecord
100
AcDbLinetypeTableRecord
  2
PHANTOM
 70
     0
  3
Phantom ______  __  __  ______  __  __  ______
 72
    65
 73
     6
 40
12.7
 49
6.35
 74
     0
 49
-1.27
 74
     0
 49
1.27
 74
     0
 49
-1.27
 74
     0
 49
1.27
 74
     0
 49
-1.27
 74
     0
  0
LTYPE
  5
41
330
5
100
AcDbSymbolTableRecord
100
AcDbLinetypeTableRecord
  2
CENTER
 70
     0
  3
Center ____ _ ____ _ ____ _ ____ _ ____ _ ____
 72
    65
 73
     4
 40
10.16
 49
6.35
 74
     0
 49
-1.27
 74
     0
 49
1.27
 74
     0
 49
-1.27
 74
     0
  0
LTYPE
  5
42
330
5
100
AcDbSymbolTableRecord
100
AcDbLinetypeTableRecord
  2
CENTERX2
 70
     0
  3
Center (2x) ________  __  ________  __  _____
 72
    65
 73
     4
 40
20.32
 49
12.7
 74
     0
 49
-2.54
 74
     0
 49
2.54
 74
     0
 49
-2.54
 74
     0
  0
LTYPE
  5
43
330
5
100
AcDbSymbolTableRecord
100
AcDbLinetypeTableRecord
  2
DOT2
 70
     0
  3
Dot (.5x) ........................................
 72
    65
 73
     2
 40
0.635
 49
0.0
 74
     0
 49
-0.635
 74
     0
  0
ENDTAB
  0
TABLE
  2
LAYER
  5
2
330
0
100
AcDbSymbolTable
 70
     1
  0
LAYER
  5
10
330
2
100
AcDbSymbolTableRecord
100
AcDbLayerTableRecord
  2
0
 70
     0
 62
     7
  6
Continuous
370
    -3
390
F
  0
ENDTAB
  0
TABLE
  2
STYLE
  5
3
330
0
100
AcDbSymbolTable
 70
     1
  0
STYLE
  5
11
330
3
100
AcDbSymbolTableRecord
100
AcDbTextStyleTableRecord
  2
Standard
 70
     0
 40
0.0
 41
1.0
 50
0.0
 71
     0
 42
2.5
  3
txt
  4

  0
ENDTAB
  0
TABLE
  2
VIEW
  5
6
330
0
100
AcDbSymbolTable
 70
     0
  0
ENDTAB
  0
TABLE
  2
UCS
  5
7
330
0
100
AcDbSymbolTable
 70
     0
  0
ENDTAB
  0
TABLE
  2
APPID
  5
9
330
0
100
AcDbSymbolTable
 70
     1
  0
APPID
  5
12
330
9
100
AcDbSymbolTableRecord
100
AcDbRegAppTableRecord
  2
ACAD
 70
     0
  0
ENDTAB
  0
TABLE
  2
DIMSTYLE
  5
A
330
0
100
AcDbSymbolTable
 70
     1
100
AcDbDimStyleTable
  0
DIMSTYLE
105
27
330
A
100
AcDbSymbolTableRecord
100
AcDbDimStyleTableRecord
  2
ISO-25
 70
     0
 41
2.5
 42
0.625
 43
3.75
 44
1.25
 73
     0
 74
     0
 77
     1
 78
     8
140
2.5
141
2.5
143
0.0393700787
147
0.625
171
     3
172
     1
178
     0
271
     2
272
     2
274
     3
278
    44
283
     0
284
     8
340
11
  0
ENDTAB
  0
TABLE
  2
BLOCK_RECORD
  5
1
330
0
100
AcDbSymbolTable
 70
     1
  0
BLOCK_RECORD
  5
1F
330
1
100
AcDbSymbolTableRecord
100
AcDbBlockTableRecord
  2
*Model_Space
340
22
  0
BLOCK_RECORD
  5
1B
330
1
100
AcDbSymbolTableRecord
100
AcDbBlockTableRecord
  2
*Paper_Space
340
1E
  0
BLOCK_RECORD
  5
23
330
1
100
AcDbSymbolTableRecord
100
AcDbBlockTableRecord
  2
*Paper_Space0
340
26
  0
ENDTAB
  0
ENDSEC
  0
SECTION
  2
BLOCKS
  0
BLOCK
  5
20
330
1F
100
AcDbEntity
  8
0
100
AcDbBlockBegin
  2
*Model_Space
 70
     0
 10
0.0
 20
0.0
 30
0.0
  3
*Model_Space
  1

  0
ENDBLK
  5
21
330
1F
100
AcDbEntity
  8
0
100
AcDbBlockEnd
  0
BLOCK
  5
1C
330
1B
100
AcDbEntity
 67
     1
  8
0
100
AcDbBlockBegin
  2
*Paper_Space
 70
     0
 10
0.0
 20
0.0
 30
0.0
  3
*Paper_Space
  1

  0
ENDBLK
  5
1D
330
1B
100
AcDbEntity
 67
     1
  8
0
100
AcDbBlockEnd
  0
BLOCK
  5
24
330
23
100
AcDbEntity
  8
0
100
AcDbBlockBegin
  2
*Paper_Space0
 70
     0
 10
0.0
 20
0.0
 30
0.0
  3
*Paper_Space0
  1

  0
ENDBLK
  5
25
330
23
100
AcDbEntity
  8
0
100
AcDbBlockEnd
  0
ENDSEC
  0
SECTION
  2
ENTITIES
  0
CIRCLE
  5
44
330
1F
100
AcDbEntity
  8
0
  6
Continuous
 62
     7
100
AcDbCircle
 10
131.0333314572
 20
184.3840488199
 30
0.0
 40
0.8000000000000237
  0
LINE
  5
45
330
1F
100
AcDbEntity
  8
0
  6
Continuous
 62
     7
370
    15
100
AcDbLine
 10
208.1608506791
 20
186.5840475668
 30
0.0
 11
208.9813324563
 21
186.5840475668
 31
0.0
  0
LINE
  5
46
330
1F
100
AcDbEntity
  8
0
  6
Continuous
 62
     7
370
    15
100
AcDbLine
 10
209.3813332669
 20
188.1840478291
 30
0.0
 11
208.1608506791
 21
188.1840478291
 31
0.0
  0
LINE
  5
47
330
1F
100
AcDbEntity
  8
0
  6
Continuous
 62
     7
370
    15
100
AcDbLine
 10
209.8455998055
 20
193.6983417381
 30
0.0
 11
209.3813332669
 21
193.8840489496
 31
0.0
  0
LINE
  5
48
330
1F
100
AcDbEntity
  8
0
  6
Continuous
 62
     7
370
    15
100
AcDbLine
 10
211.3813313596
 20
193.0840503086
 30
0.0
 11
210.7740494363
 21
193.3269630779
 31
0.0
  0
LINE
  5
49
330
1F
100
AcDbEntity
  8
0
  6
Continuous
 62
     7
370
    15
100
AcDbLine
 10
214.3809351079
 20
183.0338697542
 30
0.0
 11
215.2634057156
 21
183.4309827198
 31
0.0
  0
LINE
  5
4A
330
1F
100
AcDbEntity
  8
0
  6
Continuous
 62
     7
370
    15
100
AcDbLine
 10
211.4725264661
 20
193.0430125107
 30
0.0
 11
211.3813313596
 21
193.0840503086
 31
0.0
  0
ARC
  5
4B
330
1F
100
AcDbEntity
  8
0
  6
Continuous
 62
     7
370
    15
100
AcDbCircle
 10
215.1813326179
 20
183.6133659419
 30
0.0
 40
0.2000000000000213
100
AcDbArc
 50
294.2277453179
 51
360.0
  0
LINE
  5
4C
330
1F
100
AcDbEntity
  8
0
  6
Continuous
 62
     7
370
    15
100
AcDbLine
 10
208.9813324563
 20
185.9616856684
 30
0.0
 11
209.3813332669
 21
185.9547059645
 31
0.0
  0
LINE
  5
4D
330
1F
100
AcDbEntity
  8
0
  6
Continuous
 62
     7
370
    15
100
AcDbLine
 10
210.7753190152
 20
193.3286081661
 30
0.0
 11
209.8458263032
 21
193.7004040588
 31
0.0
  0
ARC
  5
4E
330
1F
100
AcDbEntity
  8
0
  6
Continuous
 62
     7
370
    15
100
AcDbCircle
 10
224.7866283294
 20
169.4365005669
 30
0.0
 40
0.2000000000000162
100
AcDbArc
 50
227.2050709766
 51
308.6743053666
  0
ARC
  5
4F
330
1F
100
AcDbEntity
  8
0
  6
Continuous
 62
     7
370
    15
100
AcDbCircle
 10
234.0261468616
 20
179.416044509
 30
0.0
 40
0.2000000000000162
100
AcDbArc
 50
325.7358365865
 51
47.2050709766
  0
LINE
  5
50
330
1F
100
AcDbEntity
  8
0
  6
Continuous
 62
     7
370
    15
100
AcDbLine
 10
224.3368658177
 20
169.5803548802
 30
0.0
 11
224.650755798
 21
169.2897420038
 31
0.0
  0
LINE
  5
51
330
1F
100
AcDbEntity
  8
0
  6
Continuous
 62
     7
370
    15
100
AcDbLine
 10
234.1620239369
 20
179.5628022064
 30
0.0
 11
233.8481339566
 21
179.8534135927
 31
0.0
  0
LINE
  5
52
330
1F
100
AcDbEntity
  8
0
  6
Continuous
 62
     7
370
    15
100
AcDbLine
 10
224.9116095654
 20
169.2803587426
 30
0.0
 11
227.6659819238
 21
171.4850034227
 31
0.0
  0
LINE
  5
53
330
1F
100
AcDbEntity
  8
0
  6
Continuous
 62
     7
370
    15
100
AcDbLine
 10
232.2051200024
 20
176.3876940717
 30
0.0
 11
234.1914388291
 21
179.3034415354
 31
0.0
  0
ARC
  5
54
330
1F
100
AcDbEntity
  8
0
  6
Continuous
 62
     7
370
    15
100
AcDbCircle
 10
227.9159403882
 20
171.1727185083
 30
0.0
 40
0.4000000000000116
100
AcDbArc
 50
47.2050709765
 51
128.6743053666
  0
ARC
  5
55
330
1F
100
AcDbEntity
  8
0
  6
Continuous
 62
     7
370
    15
100
AcDbCircle
 10
232.5356996543
 20
176.1624904794
 30
0.0
 40
0.3999999999999923
100
AcDbArc
 50
145.7358365865
 51
227.2050709766
  0
LINE
  5
56
330
1F
100
AcDbEntity
  8
0
  6
Continuous
 62
     7
370
    15
100
AcDbLine
 10
228.1876894586
 20
171.46623392
 30
0.0
 11
228.5219523065
 21
171.156762134
 31
0.0
  0
LINE
  5
57
330
1F
100
AcDbEntity
  8
0
  6
Continuous
 62
     7
370
    15
100
AcDbLine
 10
232.5982066743
 20
175.5595009436
 30
0.0
 11
232.2639497868
 21
175.8689742197
 31
0.0
  0
LINE
  5
58
330
1F
100
AcDbEntity
  8
0
  6
Continuous
 62
     7
370
    15
100
AcDbLine
 10
228.5219523065
 20
171.156762134
 30
0.0
 11
228.8154694192
 21
170.8850111474
 31
0.0
  0
LINE
  5
59
330
1F
100
AcDbEntity
  8
0
  6
Continuous
 62
     7
370
    15
100
AcDbLine
 10
232.891723787
 20
175.2877514471
 30
0.0
 11
232.5982066743
 21
175.5595009436
 31
0.0
  0
LINE
  5
5A
330
1F
100
AcDbEntity
  8
0
  6
Continuous
 62
     7
370
    15
100
AcDbLine
 10
228.8154694192
 20
170.8850111474
 30
0.0
 11
228.8360032193
 21
170.8803396334
 31
0.0
  0
LINE
  5
5B
330
1F
100
AcDbEntity
  8
0
  6
Continuous
 62
     7
370
    15
100
AcDbLine
 10
232.8979643933
 20
175.2676363696
 30
0.0
 11
232.891723787
 21
175.2877514471
 31
0.0
  0
ARC
  5
5C
330
1F
100
AcDbEntity
  8
0
  6
Continuous
 62
     7
370
    15
100
AcDbCircle
 10
229.3025681266
 20
168.5261273576
 30
0.0
 40
2.400000000000003
100
AcDbArc
 50
3.7963922801
 51
101.2098427387
  0
ARC
  5
5D
330
1F
100
AcDbEntity
  8
0
  6
Continuous
 62
     7
370
    15
100
AcDbCircle
 10
235.281080118
 20
174.9834793201
 30
0.0
 40
2.399999999999986
100
AcDbArc
 50
173.2002992144
 51
270.613749673
  0
LINE
  5
5E
330
1F
100
AcDbEntity
  8
0
  6
Continuous
 62
     7
370
    15
100
AcDbLine
 10
232.0157322041
 20
168.0174555291
 30
0.0
 11
243.9790937058
 21
156.9412231107
 31
0.0
  0
LINE
  5
5F
330
1F
100
AcDbEntity
  8
0
  6
Continuous
 62
     7
370
    15
100
AcDbLine
 10
247.9602429025
 20
161.2412329425
 30
0.0
 11
235.9968754403
 21
172.3174642433
 31
0.0
  0
ARC
  5
60
330
1F
100
AcDbEntity
  8
0
  6
Continuous
 62
     7
370
    15
100
AcDbCircle
 10
232.6951073004
 20
168.7512450027
 30
0.0
 40
0.9999999999999831
100
AcDbArc
 50
183.7963922801
 51
227.2050709766
  0
ARC
  5
61
330
1F
100
AcDbEntity
  8
0
  6
Continuous
 62
     7
370
    15
100
AcDbCircle
 10
235.3175000603
 20
171.5836743863
 30
0.0
 40
1.000000000000024
100
AcDbArc
 50
47.2050709766
 51
90.613749673
  0
ARC
  5
62
330
1F
100
AcDbEntity
  8
0
  6
Continuous
 62
     7
370
    15
100
AcDbCircle
 10
244.658473263
 20
157.675013247
 30
0.0
 40
1.000000000000022
100
AcDbArc
 50
227.2050709766
 51
317.2050709766
  0
ARC
  5
63
330
1F
100
AcDbEntity
  8
0
  6
Continuous
 62
     7
370
    15
100
AcDbCircle
 10
247.2808660229
 20
160.5074426305
 30
0.0
 40
1.00000000000002
100
AcDbArc
 50
317.2050709766
 51
47.2050709766
  0
LINE
  5
64
330
1F
100
AcDbEntity
  8
0
  6
Continuous
 62
     7
370
    15
100
AcDbLine
 10
220.6380578629
 20
182.9925667156
 30
0.0
 11
212.0271953694
 21
183.0494057049
 31
0.0
  0
LINE
  5
65
330
1F
100
AcDbEntity
  8
0
  6
Continuous
 62
     7
370
    15
100
AcDbLine
 10
202.0255955808
 20
183.1154267897
 30
0.0
 11
196.9613346211
 21
183.1488530745
 31
0.0
  0
LINE
  5
66
330
1F
100
AcDbEntity
  8
0
  6
Continuous
 62
     7
370
    15
100
AcDbLine
 10
196.9613346211
 20
181.5488200296
 30
0.0
 11
220.6274959199
 21
181.3926022162
 31
0.0
  0
LINE
  5
67
330
1F
100
AcDbEntity
  8
0
  6
Continuous
 62
     7
370
    15
100
AcDbLine
 10
229.6359988801
 20
175.3039162268
 30
0.0
 11
221.8490513913
 21
182.5134288181
 31
0.0
  0
LINE
  5
68
330
1F
100
AcDbEntity
  8
0
  6
Continuous
 62
     7
370
    15
100
AcDbLine
 10
220.762047445
 20
181.3393663277
 30
0.0
 11
228.5490008942
 21
174.1298522462
 31
0.0
  0
ARC
  5
69
330
1F
100
AcDbEntity
  8
0
  6
Continuous
 62
     7
370
    15
100
AcDbCircle
 10
220.6261751089
 20
181.1926073904
 30
0.0
 40
0.2000000000000109
100
AcDbArc
 50
47.2050709766
 51
89.62180729
  0
ARC
  5
6A
330
1F
100
AcDbEntity
  8
0
  6
Continuous
 62
     7
370
    15
100
AcDbCircle
 10
220.6261751089
 20
181.1926073904
 30
0.0
 40
1.799999999999984
100
AcDbArc
 50
47.2050709766
 51
89.62180729
  0
LINE
  5
6B
330
1F
100
AcDbEntity
  8
0
  6
Continuous
 62
     7
370
    15
100
AcDbLine
 10
197.6325425259
 20
184.0444426645
 30
0.0
 11
196.9613346211
 21
184.0488742699
 31
0.0
  0
LINE
  5
6C
330
1F
100
AcDbEntity
  8
0
  6
Continuous
 62
     7
370
    15
100
AcDbLine
 10
206.2422546498
 20
185.487643968
 30
0.0
 11
206.2274667375
 21
183.2476924767
 31
0.0
  0
LINE
  5
6D
330
1F
100
AcDbEntity
  8
0
  6
Continuous
 62
     7
370
    15
100
AcDbLine
 10
207.8274342172
 20
183.2371335138
 30
0.0
 11
207.8422221295
 21
185.477082025
 31
0.0
  0
LINE
  5
6E
330
1F
100
AcDbEntity
  8
0
  6
Continuous
 62
     7
370
    15
100
AcDbLine
 10
117.6613333575
 20
151.7440488224
 30
0.0
 11
117.6613333575
 21
151.8440488388
 31
0.0
  0
LINE
  5
6F
330
1F
100
AcDbEntity
  8
0
  6
Continuous
 62
     7
370
    15
100
AcDbLine
 10
113.2613333814
 20
151.8440488388
 30
0.0
 11
113.2613333814
 21
151.7440488224
 31
0.0
  0
LINE
  5
70
330
1F
100
AcDbEntity
  8
0
  6
Continuous
 62
     7
370
    15
100
AcDbLine
 10
179.6613338344
 20
151.7440488224
 30
0.0
 11
179.6613338344
 21
151.8440488388
 31
0.0
  0
LINE
  5
71
330
1F
100
AcDbEntity
  8
0
  6
Continuous
 62
     7
370
    15
100
AcDbLine
 10
175.2613338582
 20
151.8440488388
 30
0.0
 11
175.2613338582
 21
151.7440488224
 31
0.0
  0
LINE
  5
72
330
1F
100
AcDbEntity
  8
0
  6
Continuous
 62
     7
370
    15
100
AcDbLine
 10
211.3813313596
 20
192.1240042557
 30
0.0
 11
211.3813313596
 21
193.0840503086
 31
0.0
  0
SPLINE
  5
73
330
1F
100
AcDbEntity
  8
0
  6
Continuous
 62
     7
370
    15
100
AcDbSpline
210
0.0
220
0.0
230
1.0
 70
     8
 71
     3
 72
    16
 73
    12
 74
     0
 42
0.00000001
 43
0.00000001
 40
0.0
 40
0.0
 40
0.0
 40
0.0
 40
0.0000605692058828
 40
0.1251207416137283
 40
0.2500903093063508
 40
0.37505722435137
 40
0.500026058969088
 40
0.6249870201031744
 40
0.7499515008300497
 40
0.8749156672925785
 40
0.9999999999999999
 40
0.9999999999999999
 40
0.9999999999999999
 40
0.9999999999999999
 10
209.8455998055349
 20
193.6983387579062
 30
0.0
 10
209.8455938424863
 20
193.6983417394223
 30
0.0
 10
209.8332756842817
 20
193.7045008017526
 30
0.0
 10
209.8747772910481
 20
193.6839576846582
 30
0.0
 10
209.9681405048056
 20
193.6395222613841
 30
0.0
 10
210.1218463534641
 20
193.5698611951546
 30
0.0
 10
210.3022509475445
 20
193.4942078453512
 30
0.0
 10
210.4859449035801
 20
193.4238028638483
 30
0.0
 10
210.6420700584982
 20
193.3692196156661
 30
0.0
 10
210.7522926754467
 20
193.3336873502208
 30
0.0
 10
210.7667948595503
 20
193.3292052200262
 30
0.0
 10
210.7740494362722
 20
193.3269630779364
 30
0.0
  0
LINE
  5
74
330
1F
100
AcDbEntity
  8
0
  6
Continuous
 62
     7
370
    15
100
AcDbLine
 10
209.3813332669
 20
183.2268755545
 30
0.0
 11
209.3813332669
 21
193.8840489496
 31
0.0
  0
LINE
  5
75
330
1F
100
AcDbEntity
  8
0
  6
Continuous
 62
     7
370
    15
100
AcDbLine
 10
211.3813313596
 20
191.7571287264
 30
0.0
 11
211.3813313596
 21
183.2136731257
 31
0.0
  0
SPLINE
  5
76
330
1F
100
AcDbEntity
  8
0
  6
Continuous
 62
     7
370
    15
100
AcDbSpline
210
0.0
220
0.0
230
1.0
 70
     8
 71
     3
 72
    12
 73
     8
 74
     0
 42
0.00000001
 43
0.00000001
 40
0.0
 40
0.0
 40
0.0
 40
0.0
 40
0.0304692025084719
 40
0.0888189548121409
 40
0.392557110342125
 40
0.6962804363593059
 40
1.0
 40
1.0
 40
1.0
 40
1.0
 10
211.4726754776846
 20
191.9272761453726
 30
0.0
 10
211.4727235887393
 20
191.9293964805195
 30
0.0
 10
211.4728638344051
 20
191.935577343033
 30
0.0
 10
211.4720924073827
 20
191.9631862735006
 30
0.0
 10
211.4623090533592
 20
192.0111786746037
 30
0.0
 10
211.4315847378782
 20
192.0730244960986
 30
0.0
 10
211.3998228757222
 20
192.1033096165763
 30
0.0
 10
211.3839420430074
 20
192.1184520830252
 30
0.0
  0
SPLINE
  5
77
330
1F
100
AcDbEntity
  8
0
  6
Continuous
 62
     7
370
    15
100
AcDbSpline
210
0.0
220
0.0
230
1.0
 70
     8
 71
     3
 72
    11
 73
     7
 74
     0
 42
0.00000001
 43
0.00000001
 40
0.0
 40
0.0
 40
0.0
 40
0.0
 40
0.3705080410240771
 40
0.7443117021186031
 40
0.9444006332773113
 40
1.0
 40
1.0
 40
1.0
 40
1.0
 10
211.3813313595663
 20
192.124004255686
 30
0.0
 10
211.3813656358602
 20
192.1233724443947
 30
0.0
 10
211.3814344933313
 20
192.1221032019341
 30
0.0
 10
211.3821856331411
 20
192.1202791424767
 30
0.0
 10
211.3832641391352
 20
192.1190211083092
 30
0.0
 10
211.3838209619937
 20
192.1185537171374
 30
0.0
 10
211.3839420430074
 20
192.1184520830252
 30
0.0
  0
SPLINE
  5
78
330
1F
100
AcDbEntity
  8
0
  6
Continuous
 62
     7
370
    15
100
AcDbSpline
210
0.0
220
0.0
230
1.0
 70
     8
 71
     3
 72
    12
 73
     8
 74
     0
 42
0.00000001
 43
0.00000001
 40
0.0
 40
0.0
 40
0.0
 40
0.0
 40
0.2239142268103801
 40
0.4478049909500078
 40
0.6716691356863218
 40
0.8955866606903929
 40
1.0
 40
1.0
 40
1.0
 40
1.0
 10
211.5150841824423
 20
193.0236111988165
 30
0.0
 10
211.5100039794941
 20
193.0259061075354
 30
0.0
 10
211.4998441059228
 20
193.0304956845029
 30
0.0
 10
211.4867487928925
 20
193.0364655157163
 30
0.0
 10
211.4772286449274
 20
193.0408391556973
 30
0.0
 10
211.4729891209113
 20
193.0427934388523
 30
0.0
 10
211.4726380963065
 20
193.0429596526237
 30
0.0
 10
211.4725264660726
 20
193.0430125106909
 30
0.0
  0
LINE
  5
79
330
1F
100
AcDbEntity
  8
0
  6
Continuous
 62
     7
370
    15
100
AcDbLine
 10
211.5150841824
 20
193.0236111988
 30
0.0
 11
214.9938317887
 21
191.4473633875
 31
0.0
  0
LINE
  5
7A
330
1F
100
AcDbEntity
  8
0
  6
Continuous
 62
     7
370
    15
100
AcDbLine
 10
214.9938317887
 20
191.4473633875
 30
0.0
 11
215.2634057156
 21
191.325716268
 31
0.0
  0
LINE
  5
7B
330
1F
100
AcDbEntity
  8
0
  6
Continuous
 62
     7
370
    15
100
AcDbLine
 10
215.3813335053
 20
190.4975812544
 30
0.0
 11
215.3813335053
 21
184.2705171217
 31
0.0
  0
LINE
  5
7C
330
1F
100
AcDbEntity
  8
0
  6
Continuous
 62
     7
370
    15
100
AcDbLine
 10
215.3813335053
 20
184.2705171217
 30
0.0
 11
215.3813335053
 21
183.6133669724
 31
0.0
  0
LINE
  5
7D
330
1F
100
AcDbEntity
  8
0
  6
Continuous
 62
     7
370
    15
100
AcDbLine
 10
215.3813335053
 20
191.1427776922
 30
0.0
 11
215.3813335053
 21
190.4975812544
 31
0.0
  0
SPLINE
  5
7E
330
1F
100
AcDbEntity
  8
0
  6
Continuous
 62
     7
370
    15
100
AcDbSpline
210
0.0
220
0.0
230
1.0
 70
     8
 71
     3
 72
    11
 73
     7
 74
     0
 42
0.00000001
 43
0.00000001
 40
0.0
 40
0.0
 40
0.0
 40
0.0
 40
0.2933053290406057
 40
0.5865942416798957
 40
0.8805020640118846
 40
1.0
 40
1.0
 40
1.0
 40
1.0
 10
215.2634057156454
 20
191.325716267977
 30
0.0
 10
215.2830165096723
 20
191.3144377149488
 30
0.0
 10
215.3222370001032
 20
191.2918812401569
 30
0.0
 10
215.3624486715301
 20
191.2357887896629
 30
0.0
 10
215.3796580539939
 20
191.1834999976458
 30
0.0
 10
215.3809578033463
 20
191.1519092323165
 30
0.0
 10
215.3813335053335
 20
191.1427776922323
 30
0.0
  0
LINE
  5
7F
330
1F
100
AcDbEntity
  8
0
  6
Continuous
 62
     7
370
    15
100
AcDbLine
 10
208.9813324563
 20
187.6340489496
 30
0.0
 11
208.9813324563
 21
187.5552516092
 31
0.0
  0
SPLINE
  5
80
330
1F
100
AcDbEntity
  8
0
  6
Continuous
 62
     7
370
    15
100
AcDbSpline
210
0.0
220
0.0
230
1.0
 70
    24
 71
     3
 72
    15
 73
    11
 74
     0
 42
0.00000001
 43
0.00000001
 40
0.0
 40
0.0
 40
0.0
 40
0.0
 40
0.0013072156224046
 40
0.0031180354811221
 40
0.0059058093103991
 40
0.0102797708402842
 40
0.0184902773669242
 40
0.0492117910643028
 40
0.1106098361425454
 40
1.0
 40
1.0
 40
1.0
 40
1.0
 10
208.9813324562917
 20
187.6340489496329
 30
0.0
 10
208.9813484502653
 20
187.6340489496329
 30
0.0
 10
208.9813865998837
 20
187.6340489496328
 30
0.0
 10
208.9817768008627
 20
187.6340489496329
 30
0.0
 10
208.982615682928
 20
187.6340489496329
 30
0.0
 10
208.9843560868137
 20
187.6340489496329
 30
0.0
 10
208.9896993478125
 20
187.6340489496328
 30
0.0
 10
209.0028572686649
 20
187.6340489496329
 30
0.0
 10
209.1331217635292
 20
187.6340489496328
 30
0.0
 10
209.2613683369215
 20
187.6340489496328
 30
0.0
 10
209.3813332669149
 20
187.6340489496329
 30
0.0
  0
LINE
  5
81
330
1F
100
AcDbEntity
  8
0
  6
Continuous
 62
     7
370
    15
100
AcDbLine
 10
208.9813324563
 20
187.5552516092
 30
0.0
 11
208.9813324563
 21
187.234048139
 31
0.0
  0
LINE
  5
82
330
1F
100
AcDbEntity
  8
0
  6
Continuous
 62
     7
370
    15
100
AcDbLine
 10
208.9813324563
 20
187.234048139
 30
0.0
 11
208.9813324563
 21
187.1340494265
 31
0.0
  0
LINE
  5
83
330
1F
100
AcDbEntity
  8
0
  6
Continuous
 62
     7
370
    15
100
AcDbLine
 10
209.3813332669
 20
187.1270667423
 30
0.0
 11
208.9813324563
 21
187.1340494265
 31
0.0
  0
LINE
  5
84
330
1F
100
AcDbEntity
  8
0
  6
Continuous
 62
     7
370
    15
100
AcDbLine
 10
209.3813332669
 20
186.5318398584
 30
0.0
 11
208.9813324563
 21
186.532578956
 31
0.0
  0
LINE
  5
85
330
1F
100
AcDbEntity
  8
0
  6
Continuous
 62
     7
370
    15
100
AcDbLine
 10
208.9813324563
 20
187.1340494265
 30
0.0
 11
208.9813324563
 21
186.532578956
 31
0.0
  0
LINE
  5
86
330
1F
100
AcDbEntity
  8
0
  6
Continuous
 62
     7
370
    15
100
AcDbLine
 10
208.9813324563
 20
186.3086055626
 30
0.0
 11
208.9813324563
 21
186.1896674742
 31
0.0
  0
LINE
  5
87
330
1F
100
AcDbEntity
  8
0
  6
Continuous
 62
     7
370
    15
100
AcDbLine
 10
208.9813324563
 20
186.532578956
 30
0.0
 11
208.9813324563
 21
186.3086055626
 31
0.0
  0
LINE
  5
88
330
1F
100
AcDbEntity
  8
0
  6
Continuous
 62
     7
370
    15
100
AcDbLine
 10
208.9813324563
 20
186.1896674742
 30
0.0
 11
208.9813324563
 21
185.9788339247
 31
0.0
  0
LINE
  5
89
330
1F
100
AcDbEntity
  8
0
  6
Continuous
 62
     7
370
    15
100
AcDbLine
 10
208.9813324563
 20
185.9788339247
 30
0.0
 11
208.9813324563
 21
185.9616856684
 31
0.0
  0
SPLINE
  5
8A
330
1F
100
AcDbEntity
  8
0
  6
Continuous
 62
     7
370
    15
100
AcDbSpline
210
0.0
220
0.0
230
1.0
 70
     8
 71
     3
 72
    16
 73
    12
 74
     0
 42
0.00000001
 43
0.00000001
 40
0.0
 40
0.0
 40
0.0
 40
0.0
 40
0.000175203006603
 40
0.1252143419425531
 40
0.2502422061700899
 40
0.3752581469451521
 40
0.5002631575750376
 40
0.6252651772354313
 40
0.7502646914100072
 40
0.8753605940629818
 40
1.0
 40
1.0
 40
1.0
 40
1.0
 10
209.846374665917
 20
193.7001805414297
 30
0.0
 10
209.8463587508101
 20
193.7001884989148
 30
0.0
 10
209.8349845188971
 20
193.705875566021
 30
0.0
 10
209.8751377060405
 20
193.6860081768109
 30
0.0
 10
209.9691158180742
 20
193.6412603276854
 30
0.0
 10
210.1227990806725
 20
193.5716259333093
 30
0.0
 10
210.3033598163224
 20
193.4959074898095
 30
0.0
 10
210.4871087468104
 20
193.4255005360949
 30
0.0
 10
210.643231563837
 20
193.3709316016241
 30
0.0
 10
210.7531673516156
 20
193.3355050032319
 30
0.0
 10
210.7675902611023
 20
193.3310454589247
 30
0.0
 10
210.7747885338674
 20
193.3288197626212
 30
0.0
  0
LWPOLYLINE
  5
8B
330
1F
100
AcDbEntity
  8
0
  6
Continuous
 62
     7
370
    15
100
AcDbPolyline
 90
        9
 70
   128
 43
0.0
 10
212.0282503716
 20
183.2094024529
 10
212.0281669251
 20
183.1964622845
 10
212.0279225461
 20
183.1596117128
 10
212.0275589578
 20
183.1044625153
 10
212.0271298043
 20
183.0394070257
 10
212.0267006509
 20
182.9743515362
 10
212.0263370625
 20
182.9192023386
 10
212.0260926835
 20
182.882351767
 10
212.026009237
 20
182.8694115986
  0
LINE
  5
8C
330
1F
100
AcDbEntity
  8
0
  6
Continuous
 62
     7
370
    15
100
AcDbLine
 10
202.0244034879
 20
182.9354297032
 30
0.0
 11
212.026009237
 21
182.8694115986
 31
0.0
  0
LWPOLYLINE
  5
8D
330
1F
100
AcDbEntity
  8
0
  6
Continuous
 62
     7
370
    15
100
AcDbPolyline
 90
        9
 70
   128
 43
0.0
 10
202.0244034879
 20
182.9354297032
 10
202.0244928948
 20
182.9483698715
 10
202.0247372739
 20
182.9852204432
 10
202.0251008622
 20
183.0403696407
 10
202.0255300156
 20
183.1054251303
 10
202.0259591691
 20
183.1704806198
 10
202.0263227574
 20
183.2256298174
 10
202.0265671365
 20
183.262480389
 10
202.026650583
 20
183.2754205574
  0
LINE
  5
8E
330
1F
100
AcDbEntity
  8
0
  6
Continuous
 62
     7
370
    15
100
AcDbLine
 10
202.026650583
 20
183.2754205574
 30
0.0
 11
212.0282503716
 21
183.2094024529
 31
0.0
  0
LINE
  5
8F
330
1F
100
AcDbEntity
  8
0
  6
Continuous
 62
     7
370
    15
100
AcDbLine
 10
212.0157512776
 20
181.3153516163
 30
0.0
 11
212.0166334264
 21
181.4494412054
 31
0.0
  0
LINE
  5
90
330
1F
100
AcDbEntity
  8
0
  6
Continuous
 62
     7
370
    15
100
AcDbLine
 10
215.8707234017
 20
181.2899063934
 30
0.0
 11
212.0157512776
 21
181.3153516163
 31
0.0
  0
LINE
  5
91
330
1F
100
AcDbEntity
  8
0
  6
Continuous
 62
     7
370
    15
100
AcDbLine
 10
212.3227688424
 20
175.2372856845
 30
0.0
 11
215.8707234017
 21
181.2899063934
 31
0.0
  0
LINE
  5
92
330
1F
100
AcDbEntity
  8
0
  6
Continuous
 62
     7
370
    15
100
AcDbLine
 10
212.0256456487
 20
175.2392466773
 30
0.0
 11
212.3227688424
 21
175.2372856845
 31
0.0
  0
LINE
  5
93
330
1F
100
AcDbEntity
  8
0
  6
Continuous
 62
     7
370
    15
100
AcDbLine
 10
212.0255145184
 20
175.2192478289
 30
0.0
 11
212.0256456487
 21
175.2392466773
 31
0.0
  0
LINE
  5
94
330
1F
100
AcDbEntity
  8
0
  6
Continuous
 62
     7
370
    15
100
AcDbLine
 10
201.924041187
 20
175.3059249033
 30
0.0
 11
201.9239100568
 21
175.2859260549
 31
0.0
  0
LINE
  5
95
330
1F
100
AcDbEntity
  8
0
  6
Continuous
 62
     7
370
    15
100
AcDbLine
 10
201.6269239537
 20
175.3078873862
 30
0.0
 11
201.924041187
 21
175.3059249033
 31
0.0
  0
LINE
  5
96
330
1F
100
AcDbEntity
  8
0
  6
Continuous
 62
     7
370
    15
100
AcDbLine
 10
198.1591734044
 20
181.4068179239
 30
0.0
 11
201.6269239537
 21
175.3078873862
 31
0.0
  0
LINE
  5
97
330
1F
100
AcDbEntity
  8
0
  6
Continuous
 62
     7
370
    15
100
AcDbLine
 10
202.0141455285
 20
181.3813727011
 30
0.0
 11
198.1591734044
 21
181.4068179239
 31
0.0
  0
LINE
  5
98
330
1F
100
AcDbEntity
  8
0
  6
Continuous
 62
     7
370
    15
100
AcDbLine
 10
202.0150336377
 20
181.51545931
 30
0.0
 11
202.0141455285
 21
181.3813727011
 31
0.0
  0
LWPOLYLINE
  5
99
330
1F
100
AcDbEntity
  8
0
  6
Continuous
 62
     7
370
    15
100
AcDbPolyline
 90
        9
 70
   128
 43
0.0
 10
212.0255145184
 20
175.2192478289
 10
212.0249840371
 20
175.1392613758
 10
212.0244773976
 20
175.0623505224
 10
212.0240065209
 20
174.9914686789
 10
212.0236012093
 20
174.9293397774
 10
212.0232614629
 20
174.8783524741
 10
212.0230111234
 20
174.8404647817
 10
212.0228561513
 20
174.8171340336
 10
212.0228084676
 20
174.8092557897
  0
LINE
  5
9A
330
1F
100
AcDbEntity
  8
0
  6
Continuous
 62
     7
370
    15
100
AcDbLine
 10
212.0228084676
 20
174.8092557897
 30
0.0
 11
201.9212040059
 21
174.8759355058
 31
0.0
  0
LWPOLYLINE
  5
9B
330
1F
100
AcDbEntity
  8
0
  6
Continuous
 62
     7
370
    15
100
AcDbPolyline
 90
        9
 70
   128
 43
0.0
 10
201.9212040059
 20
174.8759355058
 10
201.9212576501
 20
174.8838122596
 10
201.9214126222
 20
174.9071430077
 10
201.9216629617
 20
174.9450307001
 10
201.9219967477
 20
174.9960180034
 10
201.9224080197
 20
175.0581469049
 10
201.9228788964
 20
175.1290287484
 10
201.9233855359
 20
175.2059410919
 10
201.9239100568
 20
175.2859260549
  0
LINE
  5
9C
330
1F
100
AcDbEntity
  8
0
  6
Continuous
 62
     7
370
    15
100
AcDbLine
 10
197.9450317971
 20
181.3282291998
 30
0.0
 11
196.9613346211
 21
181.3347231258
 31
0.0
  0
LINE
  5
9D
330
1F
100
AcDbEntity
  8
0
  6
Continuous
 62
     7
370
    15
100
AcDbLine
 10
197.9439767949
 20
181.1682324518
 30
0.0
 11
196.9613346211
 21
181.1747204174
 31
0.0
  0
LINE
  5
9E
330
1F
100
AcDbEntity
  8
0
  6
Continuous
 62
     7
370
    15
100
AcDbLine
 10
201.6865882031
 20
175.1624893059
 30
0.0
 11
201.5474948041
 21
175.0834058632
 31
0.0
  0
LINE
  5
9F
330
1F
100
AcDbEntity
  8
0
  6
Continuous
 62
     7
370
    15
100
AcDbLine
 10
201.5474948041
 20
175.0834058632
 30
0.0
 11
198.159656202
 21
181.0418050398
 31
0.0
  0
LINE
  5
A0
330
1F
100
AcDbEntity
  8
0
  6
Continuous
 62
     7
370
    15
100
AcDbLine
 10
201.6865882031
 20
175.1624893059
 30
0.0
 11
198.2987436406
 21
181.1208914627
 31
0.0
  0
ARC
  5
A1
330
1F
100
AcDbEntity
  8
0
  6
Continuous
 62
     7
370
    15
100
AcDbCircle
 10
197.9423269242
 20
180.9182382803
 30
0.0
 40
0.4100000000000265
100
AcDbArc
 50
29.62180729
 51
89.62180729
  0
ARC
  5
A2
330
1F
100
AcDbEntity
  8
0
  6
Continuous
 62
     7
370
    15
100
AcDbCircle
 10
197.9423269242
 20
180.9182382803
 30
0.0
 40
0.2499999999999998
100
AcDbArc
 50
29.62180729
 51
89.62180729
  0
LINE
  5
A3
330
1F
100
AcDbEntity
  8
0
  6
Continuous
 62
     7
370
    15
100
AcDbLine
 10
212.2611912839
 20
175.0926892866
 30
0.0
 11
212.3992237203
 21
175.0117759813
 31
0.0
  0
LINE
  5
A4
330
1F
100
AcDbEntity
  8
0
  6
Continuous
 62
     7
370
    15
100
AcDbLine
 10
215.807846462
 20
181.1430941929
 30
0.0
 11
212.2611912839
 21
175.0926892866
 31
0.0
  0
LINE
  5
A5
330
1F
100
AcDbEntity
  8
0
  6
Continuous
 62
     7
370
    15
100
AcDbLine
 10
215.9458788983
 20
181.0621808876
 30
0.0
 11
212.3992237203
 21
175.0117759813
 31
0.0
  0
ARC
  5
A6
330
1F
100
AcDbEntity
  8
0
  6
Continuous
 62
     7
370
    15
100
AcDbCircle
 10
215.9545057464
 20
181.0571247178
 30
0.0
 40
0.1700000000000024
100
AcDbArc
 50
329.62180729
 51
149.62180729
  0
ARC
  5
A7
330
1F
100
AcDbEntity
  8
0
  6
Continuous
 62
     7
370
    15
100
AcDbCircle
 10
215.9545057464
 20
181.0571247178
 30
0.0
 40
0.0100000000000153
100
AcDbArc
 50
329.6218072899
 51
149.62180729
  0
LINE
  5
A8
330
1F
100
AcDbEntity
  8
0
  6
Continuous
 62
     7
370
    15
100
AcDbLine
 10
215.1757272832
 20
179.3924014677
 30
0.0
 11
216.1011668794
 21
180.9711556543
 31
0.0
  0
LINE
  5
A9
330
1F
100
AcDbEntity
  8
0
  6
Continuous
 62
     7
370
    15
100
AcDbLine
 10
215.0376888863
 20
179.473314773
 30
0.0
 11
215.1757272832
 21
179.3924014677
 31
0.0
  0
LINE
  5
AA
330
1F
100
AcDbEntity
  8
0
  6
Continuous
 62
     7
370
    15
100
AcDbLine
 10
215.0376888863
 20
179.473314773
 30
0.0
 11
215.963134443
 21
181.0520689596
 31
0.0
  0
LINE
  5
AB
330
1F
100
AcDbEntity
  8
0
  6
Continuous
 62
     7
370
    15
100
AcDbLine
 10
201.9212040059
 20
174.8759355058
 30
0.0
 11
201.9012066476
 21
174.876066636
 31
0.0
  0
LINE
  5
AC
330
1F
100
AcDbEntity
  8
0
  6
Continuous
 62
     7
370
    15
100
AcDbLine
 10
201.9222590081
 20
175.0359307636
 30
0.0
 11
201.9022616498
 21
175.036063384
 31
0.0
  0
ARC
  5
AD
330
1F
100
AcDbEntity
  8
0
  6
Continuous
 62
     7
370
    15
100
AcDbCircle
 10
201.9039122529
 20
175.2860580114
 30
0.0
 40
0.4099999999999738
100
AcDbArc
 50
209.62180729
 51
269.62180729
  0
ARC
  5
AE
330
1F
100
AcDbEntity
  8
0
  6
Continuous
 62
     7
370
    15
100
AcDbCircle
 10
201.9039122529
 20
175.2860580114
 30
0.0
 40
0.2499999999999857
100
AcDbArc
 50
209.62180729
 51
269.62180729
  0
ARC
  5
AF
330
1F
100
AcDbEntity
  8
0
  6
Continuous
 62
     7
370
    15
100
AcDbCircle
 10
212.0455120106
 20
175.2191153006
 30
0.0
 40
0.2500000000000208
100
AcDbArc
 50
269.62180729
 51
329.62180729
  0
ARC
  5
B0
330
1F
100
AcDbEntity
  8
0
  6
Continuous
 62
     7
370
    15
100
AcDbCircle
 10
212.0455120106
 20
175.2191153006
 30
0.0
 40
0.4100000000000241
100
AcDbArc
 50
269.62180729
 51
329.62180729
  0
LINE
  5
B1
330
1F
100
AcDbEntity
  8
0
  6
Continuous
 62
     7
370
    15
100
AcDbLine
 10
212.0228084676
 20
174.8092557897
 30
0.0
 11
212.0428058259
 21
174.8091246595
 31
0.0
  0
LINE
  5
B2
330
1F
100
AcDbEntity
  8
0
  6
Continuous
 62
     7
370
    15
100
AcDbLine
 10
212.0238634698
 20
174.9692525376
 30
0.0
 11
212.0438608281
 21
174.9691214074
 31
0.0
  0
LINE
  5
B3
330
1F
100
AcDbEntity
  8
0
  6
Continuous
 62
     7
370
    15
100
AcDbLine
 10
198.5921832673
 20
153.3089548826
 30
0.0
 11
198.6006888501
 21
153.3090737077
 31
0.0
  0
LINE
  5
B4
330
1F
100
AcDbEntity
  8
0
  6
Continuous
 62
     7
370
    15
100
AcDbLine
 10
196.9613346211
 20
158.4744777192
 30
0.0
 11
198.5921832673
 21
153.3089548826
 31
0.0
  0
LINE
  5
B5
330
1F
100
AcDbEntity
  8
0
  6
Continuous
 62
     7
370
    15
100
AcDbLine
 10
209.8708006493
 20
159.360984679
 30
0.0
 11
196.9613346211
 21
161.6158160974
 31
0.0
  0
LINE
  5
B6
330
1F
100
AcDbEntity
  8
0
  6
Continuous
 62
     7
370
    15
100
AcDbLine
 10
208.1185671441
 20
153.4567386156
 30
0.0
 11
209.8708006493
 21
159.360984679
 31
0.0
  0
LINE
  5
B7
330
1F
100
AcDbEntity
  8
0
  6
Continuous
 62
     7
370
    15
100
AcDbLine
 10
208.1119867913
 20
153.4566467552
 30
0.0
 11
208.1185671441
 21
153.4567386156
 31
0.0
  0
LINE
  5
B8
330
1F
100
AcDbEntity
  8
0
  6
Continuous
 62
     7
370
    15
100
AcDbLine
 10
208.1000122182
 20
153.4164756344
 30
0.0
 11
208.1119867913
 21
153.4566467552
 31
0.0
  0
LINE
  5
B9
330
1F
100
AcDbEntity
  8
0
  6
Continuous
 62
     7
370
    15
100
AcDbLine
 10
198.6089500539
 20
153.2839468109
 30
0.0
 11
198.6006888501
 21
153.3090737077
 31
0.0
  0
LINE
  5
BA
330
1F
100
AcDbEntity
  8
0
  6
Continuous
 62
     7
370
    15
100
AcDbLine
 10
207.8585955254
 20
153.0030646023
 30
0.0
 11
198.8618227593
 21
152.8774378017
 31
0.0
  0
SPLINE
  5
BB
330
1F
100
AcDbEntity
  8
0
  6
Continuous
 62
     7
370
    15
100
AcDbSpline
210
0.0
220
0.0
230
1.0
 70
     8
 71
     3
 72
    12
 73
     8
 74
     0
 42
0.00000001
 43
0.00000001
 40
0.0
 40
0.0
 40
0.0
 40
0.0
 40
0.2159958918139615
 40
0.4359938961711532
 40
0.6815306075321933
 40
0.9520699425709922
 40
1.0
 40
1.0
 40
1.0
 40
1.0
 10
198.6341330162893
 20
153.1872756906637
 30
0.0
 10
198.6428056678863
 20
153.1474844266563
 30
0.0
 10
198.6603116636169
 20
153.0671646201893
 30
0.0
 10
198.7083626399577
 20
152.9702035167039
 30
0.0
 10
198.7701520042199
 20
152.8999589666417
 30
0.0
 10
198.8246605502173
 20
152.8780797488736
 30
0.0
 10
198.8569614343006
 20
152.8775217771995
 30
0.0
 10
198.8618227593313
 20
152.8774378017374
 30
0.0
  0
LINE
  5
BC
330
1F
100
AcDbEntity
  8
0
  6
Continuous
 62
     7
370
    15
100
AcDbLine
 10
198.6089500539
 20
153.2839468109
 30
0.0
 11
198.6341330163
 21
153.1872756907
 31
0.0
  0
SPLINE
  5
BD
330
1F
100
AcDbEntity
  8
0
  6
Continuous
 62
     7
370
    15
100
AcDbSpline
210
0.0
220
0.0
230
1.0
 70
     8
 71
     3
 72
    11
 73
     7
 74
     0
 42
0.00000001
 43
0.00000001
 40
0.0
 40
0.0
 40
0.0
 40
0.0
 40
0.2798651841243684
 40
0.5726103256569822
 40
0.84678661961446
 40
1.0
 40
1.0
 40
1.0
 40
1.0
 10
207.8585955254445
 20
153.0030646023192
 30
0.0
 10
207.8845247213058
 20
153.0083982694917
 30
0.0
 10
207.9375764266568
 20
153.0193110699037
 30
0.0
 10
208.0034996419217
 20
153.1043408822029
 30
0.0
 10
208.050152629409
 20
153.2130568478487
 30
0.0
 10
208.0703137719439
 20
153.2911453987217
 30
0.0
 10
208.077541267098
 20
153.3191390812248
 30
0.0
  0
LINE
  5
BE
330
1F
100
AcDbEntity
  8
0
  6
Continuous
 62
     7
370
    15
100
AcDbLine
 10
208.0775412671
 20
153.3191390812
 30
0.0
 11
208.1000122182
 21
153.4164756344
 31
0.0
  0
SPLINE
  5
BF
330
1F
100
AcDbEntity
  8
0
  6
Continuous
 62
     7
370
    15
100
AcDbSpline
210
0.0
220
0.0
230
1.0
 70
     8
 71
     3
 72
    11
 73
     7
 74
     0
 42
0.00000001
 43
0.00000001
 40
0.0
 40
0.0
 40
0.0
 40
0.0
 40
0.2499963943425067
 40
0.4999993848993264
 40
0.7500018015745096
 40
1.0
 40
1.0
 40
1.0
 40
1.0
 10
198.8618227593313
 20
152.8774378017374
 30
0.0
 10
198.8184417986715
 20
152.8808126396418
 30
0.0
 10
198.731678732735
 20
152.8875624044966
 30
0.0
 10
198.6144570185435
 20
152.9486292775757
 30
0.0
 10
198.5185530315658
 20
153.0395827573105
 30
0.0
 10
198.4839230475925
 20
153.1194214816608
 30
0.0
 10
198.4666082016836
 20
153.1593405070566
 30
0.0
  0
LINE
  5
C0
330
1F
100
AcDbEntity
  8
0
  6
Continuous
 62
     7
370
    15
100
AcDbLine
 10
198.6186060063
 20
153.209314089
 30
0.0
 11
198.4666082017
 21
153.1593405071
 31
0.0
  0
LINE
  5
C1
330
1F
100
AcDbEntity
  8
0
  6
Continuous
 62
     7
370
    15
100
AcDbLine
 10
198.6186060063
 20
153.209314089
 30
0.0
 11
196.9613346211
 21
158.2499328662
 31
0.0
  0
LINE
  5
C2
330
1F
100
AcDbEntity
  8
0
  6
Continuous
 62
     7
370
    15
100
AcDbLine
 10
198.4666082017
 20
153.1593405071
 30
0.0
 11
196.9613346211
 21
157.7376622368
 31
0.0
  0
SPLINE
  5
C3
330
1F
100
AcDbEntity
  8
0
  6
Continuous
 62
     7
370
    15
100
AcDbSpline
210
0.0
220
0.0
230
1.0
 70
     8
 71
     3
 72
    11
 73
     7
 74
     0
 42
0.00000001
 43
0.00000001
 40
0.0
 40
0.0
 40
0.0
 40
0.0
 40
0.249996469293311
 40
0.5000012980869686
 40
0.7500068091997291
 40
1.0
 40
1.0
 40
1.0
 40
1.0
 10
208.245781337441
 20
153.2958923966475
 30
0.0
 10
208.2295893866271
 20
153.2555053373984
 30
0.0
 10
208.1972049435651
 20
153.1747298684185
 30
0.0
 10
208.1038753328627
 20
153.0811353333528
 30
0.0
 10
207.9884043466244
 20
153.0168196424816
 30
0.0
 10
207.9018644217034
 20
153.0076495403875
 30
0.0
 10
207.8585955254445
 20
153.0030646023192
 30
0.0
  0
LINE
  5
C4
330
1F
100
AcDbEntity
  8
0
  6
Continuous
 62
     7
370
    15
100
AcDbLine
 10
208.0924483888
 20
153.3416025352
 30
0.0
 11
208.2457813374
 21
153.2958923966
 31
0.0
  0
LINE
  5
C5
330
1F
100
AcDbEntity
  8
0
  6
Continuous
 62
     7
370
    15
100
AcDbLine
 10
210.039571201
 20
159.3130323698
 30
0.0
 11
209.8862382523
 21
159.3587424268
 31
0.0
  0
LINE
  5
C6
330
1F
100
AcDbEntity
  8
0
  6
Continuous
 62
     7
370
    15
100
AcDbLine
 10
208.2457813374
 20
153.2958923966
 30
0.0
 11
210.039571201
 21
159.3130323698
 31
0.0
  0
LINE
  5
C7
330
1F
100
AcDbEntity
  8
0
  6
Continuous
 62
     7
370
    15
100
AcDbLine
 10
208.0924483888
 20
153.3416025352
 30
0.0
 11
209.8862382523
 21
159.3587424268
 31
0.0
  0
LINE
  5
C8
330
1F
100
AcDbEntity
  8
0
  6
Continuous
 62
     7
370
    15
100
AcDbLine
 10
207.0829424016
 20
159.8479259421
 30
0.0
 11
209.8757537953
 21
159.3607876112
 31
0.0
  0
LINE
  5
C9
330
1F
100
AcDbEntity
  8
0
  6
Continuous
 62
     7
370
    15
100
AcDbLine
 10
209.8757537953
 20
159.3607876112
 30
0.0
 11
208.1164690606
 21
153.4419476726
 31
0.0
  0
LINE
  5
CA
330
1F
100
AcDbEntity
  8
0
  6
Continuous
 62
     7
370
    15
100
AcDbLine
 10
208.1164690606
 20
153.4419476726
 30
0.0
 11
208.1075700871
 21
153.4418234131
 31
0.0
  0
ARC
  5
CB
330
1F
100
AcDbEntity
  8
0
  6
Continuous
 62
     7
370
    15
100
AcDbCircle
 10
197.2859376206
 20
184.5326496215
 30
0.0
 40
0.4000000000225872
100
AcDbArc
 50
269.62180729
 51
359.6218067793
  0
LWPOLYLINE
  5
CC
330
1F
100
AcDbEntity
  8
0
  6
Continuous
 62
     7
370
    15
100
AcDbPolyline
 90
        7
 70
   128
 43
0.0
 10
197.2832950704
 20
184.1326575388
 10
197.2717675321
 20
184.1327350248
 10
197.2376259915
 20
184.1329585423
 10
197.182181751
 20
184.1333251108
 10
197.1075686566
 20
184.1338168491
 10
197.0166477315
 20
184.1344188561
 10
196.9613346211
 20
184.1347824444
  0
LINE
  5
CD
330
1F
100
AcDbEntity
  8
0
  6
Continuous
 62
     7
370
    15
100
AcDbLine
 10
197.6859304063
 20
184.530008923
 30
0.0
 11
197.7228912465
 21
190.1298861612
 31
0.0
  0
ARC
  5
CE
330
1F
100
AcDbEntity
  8
0
  6
Continuous
 62
     7
370
    15
100
AcDbCircle
 10
197.322901317
 20
190.1325276277
 30
0.0
 40
0.4000000000226154
100
AcDbArc
 50
359.6218067793
 51
89.62180729
  0
LWPOLYLINE
  5
CF
330
1F
100
AcDbEntity
  8
0
  6
Continuous
 62
     7
370
    15
100
AcDbPolyline
 90
        7
 70
   128
 43
0.0
 10
196.9613346211
 20
190.5349235643
 10
197.0588895432
 20
190.5342798342
 10
197.1498104684
 20
190.5336778273
 10
197.2244235627
 20
190.533186089
 10
197.2798737637
 20
190.5328195204
 10
197.3140153043
 20
190.532596003
 10
197.3255428426
 20
190.5325185169
  0
LWPOLYLINE
  5
D0
330
1F
100
AcDbEntity
  8
0
  6
Continuous
 62
     7
370
    15
100
AcDbPolyline
 90
        9
 70
   128
 43
0.0
 10
197.3255368821
 20
190.5325185169
 10
197.3298522584
 20
190.5324916948
 10
197.3427268617
 20
190.5324052681
 10
197.3639937989
 20
190.5322651972
 10
197.3933252446
 20
190.5320714821
 10
197.4303158872
 20
190.5318271031
 10
197.4744292848
 20
190.5315350403
 10
197.5250276677
 20
190.5312012543
 10
197.5813838593
 20
190.5308287253
  0
LWPOLYLINE
  5
D1
330
1F
100
AcDbEntity
  8
0
  6
Continuous
 62
     7
370
    15
100
AcDbPolyline
 90
        9
 70
   128
 43
0.0
 10
197.5391360871
 20
184.1309707274
 10
197.4827798955
 20
184.1313402762
 10
197.4321815125
 20
184.1316770424
 10
197.3880740754
 20
184.1319661249
 10
197.3510834329
 20
184.132210504
 10
197.3217460267
 20
184.1324042191
 10
197.3004850499
 20
184.13254429
 10
197.2876044862
 20
184.1326307167
 10
197.2832891099
 20
184.1326575388
  0
LINE
  5
D2
330
1F
100
AcDbEntity
  8
0
  6
Continuous
 62
     7
370
    15
100
AcDbLine
 10
199.9375435464
 20
184.1151367535
 30
0.0
 11
197.5391360871
 21
184.1309707274
 31
0.0
  0
LINE
  5
D3
330
1F
100
AcDbEntity
  8
0
  6
Continuous
 62
     7
370
    15
100
AcDbLine
 10
197.5813838593
 20
190.5308287253
 30
0.0
 11
199.9797853581
 21
190.5149977316
 31
0.0
  0
ARC
  5
D4
330
1F
100
AcDbEntity
  8
0
  6
Continuous
 62
     7
370
    15
100
AcDbCircle
 10
199.977147511
 20
190.1150074692
 30
0.0
 40
0.4000000000112983
100
AcDbArc
 50
44.6218072917
 51
89.62180729
  0
ARC
  5
D5
330
1F
100
AcDbEntity
  8
0
  6
Continuous
 62
     7
370
    15
100
AcDbCircle
 10
199.9401838146
 20
184.5151294629
 30
0.0
 40
0.4000000000112842
100
AcDbArc
 50
269.62180729
 51
314.6218072882
  0
LINE
  5
D6
330
1F
100
AcDbEntity
  8
0
  6
Continuous
 62
     7
370
    15
100
AcDbLine
 10
200.2618524186
 20
190.3959761967
 30
0.0
 11
202.5920006387
 21
188.0348603834
 31
0.0
  0
LINE
  5
D7
330
1F
100
AcDbEntity
  8
0
  6
Continuous
 62
     7
370
    15
100
AcDbLine
 10
202.5822672002
 20
186.5605782379
 30
0.0
 11
200.2211543671
 21
184.2304270376
 31
0.0
  0
LWPOLYLINE
  5
D8
330
1F
100
AcDbEntity
  8
0
  6
Continuous
 62
     7
370
    15
100
AcDbPolyline
 90
        4
 70
   128
 43
0.0
 10
202.7072879426
 20
187.7512495627
 10
202.7070972077
 20
187.7226959576
 10
202.7068885915
 20
187.6912694086
 10
202.7066680543
 20
187.6574378122
  0
LWPOLYLINE
  5
D9
330
1F
100
AcDbEntity
  8
0
  6
Continuous
 62
     7
370
    15
100
AcDbPolyline
 90
        4
 70
   128
 43
0.0
 10
202.7019056432
 20
186.9364510883
 10
202.701685106
 20
186.9026224722
 10
202.7014764897
 20
186.871192943
 10
202.7012917153
 20
186.8426393379
  0
LINE
  5
DA
330
1F
100
AcDbEntity
  8
0
  6
Continuous
 62
     7
370
    15
100
AcDbLine
 10
202.7066680543
 20
187.6574378122
 30
0.0
 11
202.7019056432
 21
186.9364510883
 31
0.0
  0
ARC
  5
DB
330
1F
100
AcDbEntity
  8
0
  6
Continuous
 62
     7
370
    15
100
AcDbCircle
 10
202.3072952009
 20
187.7538900955
 30
0.0
 40
0.4000002094871926
100
AcDbArc
 50
359.62180729
 51
44.62180729
  0
ARC
  5
DC
330
1F
100
AcDbEntity
  8
0
  6
Continuous
 62
     7
370
    15
100
AcDbCircle
 10
202.3012976487
 20
186.8452807395
 30
0.0
 40
0.4000002094871643
100
AcDbArc
 50
314.6218072899
 51
359.62180729
  0
LINE
  5
DD
330
1F
100
AcDbEntity
  8
0
  6
Continuous
 62
     7
370
    15
100
AcDbLine
 10
199.9796959512
 20
190.5150007118
 30
0.0
 11
199.9892744176
 21
190.5148218979
 31
0.0
  0
LWPOLYLINE
  5
DE
330
1F
100
AcDbEntity
  8
0
  6
Continuous
 62
     7
370
    15
100
AcDbPolyline
 90
       33
 70
   128
 43
0.0
 10
224.3368658177
 20
169.5803548802
 10
224.3429693334
 20
169.586947154
 10
224.3917080514
 20
169.639586996
 10
224.488678848
 20
169.744327258
 10
224.632892286
 20
169.9000920762
 10
224.8228701703
 20
170.1052840461
 10
225.0566574685
 20
170.3577976336
 10
225.3318580739
 20
170.6550415267
 10
225.6456526868
 20
170.9939639677
 10
225.9948107354
 20
171.3710900058
 10
226.3757559411
 20
171.7825483193
 10
226.7845782391
 20
172.224115919
 10
227.217087423
 20
172.6912643422
 10
227.6688369862
 20
173.1791969051
 10
228.1351956479
 20
173.6829083075
 10
228.6113831155
 20
174.1972308268
 10
229.0924998872
 20
174.7168849815
 10
229.5736166589
 20
175.2365391363
 10
230.0498041264
 20
175.7508601655
 10
230.5161627881
 20
176.2545715679
 10
230.9679123513
 20
176.7425056209
 10
231.4004155747
 20
177.2096525539
 10
231.8092438332
 20
177.6512201537
 10
232.1901890389
 20
178.0626784672
 10
232.5393470876
 20
178.4398045053
 10
232.8531417004
 20
178.7787269463
 10
233.1283423058
 20
179.0759723295
 10
233.362129604
 20
179.3284844269
 10
233.5521074883
 20
179.5336763968
 10
233.6963209264
 20
179.689441215
 10
233.793291723
 20
179.794181477
 10
233.842030441
 20
179.846821319
 10
233.8481339566
 20
179.8534135927
  0
LWPOLYLINE
  5
DF
330
1F
100
AcDbEntity
  8
0
  6
Continuous
 62
     7
370
    15
100
AcDbPolyline
 90
       22
 70
   128
 43
0.0
 10
228.5219523065
 20
171.156762134
 10
228.5353991143
 20
171.1712862958
 10
228.5948070638
 20
171.235452186
 10
228.7002774827
 20
171.3493730535
 10
228.8493427388
 20
171.5103771199
 10
229.0385099999
 20
171.7146914114
 10
229.2633327596
 20
171.9575266947
 10
229.5185598485
 20
172.2331907262
 10
229.7981950395
 20
172.5352223624
 10
230.095687782
 20
172.8565420617
 10
230.4040643327
 20
173.1896187772
 10
230.7160946481
 20
173.5266443004
 10
231.0244771592
 20
173.8597210158
 10
231.3219699017
 20
174.1810407151
 10
231.6015991322
 20
174.4830723514
 10
231.8568262212
 20
174.7587363829
 10
232.0816489808
 20
175.0015716662
 10
232.2708162419
 20
175.2058859576
 10
232.419881498
 20
175.3668900241
 10
232.525351917
 20
175.4808108915
 10
232.5847598664
 20
175.5449767818
 10
232.5982066743
 20
175.5595009436
  0
LINE
  5
E0
330
1F
100
AcDbEntity
  8
0
  6
Continuous
 62
     7
370
    15
100
AcDbLine
 10
232.8843983762
 20
175.2798374404
 30
0.0
 11
232.891723787
 21
175.2877514471
 31
0.0
  0
LWPOLYLINE
  5
E1
330
1F
100
AcDbEntity
  8
0
  6
Continuous
 62
     7
370
    15
100
AcDbPolyline
 90
       21
 70
   128
 43
0.0
 10
228.8154694192
 20
170.8850111474
 10
228.8368734471
 20
170.908130299
 10
228.9054783933
 20
170.9822322835
 10
229.0197464578
 20
171.1056541313
 10
229.1770013921
 20
171.275502037
 10
229.3735536687
 20
171.4877959003
 10
229.6047958485
 20
171.7375587334
 10
229.865303909
 20
172.0189358701
 10
230.1489862553
 20
172.3253350367
 10
230.4491790883
 20
172.6495708932
 10
230.7588490598
 20
172.9840468277
 10
231.0707422845
 20
173.320920359
 10
231.3775452725
 20
173.6522953619
 10
231.6720697038
 20
173.9704083313
 10
231.9474073998
 20
174.2677982558
 10
232.1971031777
 20
174.5374973525
 10
232.4153157822
 20
174.7731845488
 10
232.596919214
 20
174.9693330039
 10
232.7376636617
 20
175.1213471998
 10
232.8342410676
 20
175.2256642689
 10
232.8843983762
 20
175.2798374404
  0
LINE
  5
E2
330
1F
100
AcDbEntity
  8
0
  6
Continuous
 62
     7
370
    15
100
AcDbLine
 10
232.5908812634
 20
175.551588427
 30
0.0
 11
232.5982066743
 21
175.5595009436
 31
0.0
  0
LWPOLYLINE
  5
E3
330
1F
100
AcDbEntity
  8
0
  6
Continuous
 62
     7
370
    15
100
AcDbPolyline
 90
       21
 70
   128
 43
0.0
 10
228.5219523065
 20
171.156762134
 10
228.5433563344
 20
171.1798812856
 10
228.6119612805
 20
171.2539832701
 10
228.726229345
 20
171.3774051179
 10
228.8834842793
 20
171.5472530235
 10
229.0800365559
 20
171.7595453967
 10
229.3112787358
 20
172.0093082298
 10
229.5717927567
 20
172.2906868567
 10
229.8554691426
 20
172.5970860232
 10
230.1556619756
 20
172.9213218798
 10
230.465331947
 20
173.2557963242
 10
230.7772251717
 20
173.5926698555
 10
231.0840281598
 20
173.9240463485
 10
231.378552591
 20
174.2421578278
 10
231.6538902871
 20
174.5395492424
 10
231.9035920255
 20
174.8092483391
 10
232.1217986695
 20
175.0449340452
 10
232.3034021012
 20
175.2410839905
 10
232.4441465489
 20
175.3930981864
 10
232.5407239549
 20
175.4974152555
 10
232.5908812634
 20
175.551588427
  0
LINE
  5
E4
330
1F
100
AcDbEntity
  8
0
  6
Continuous
 62
     7
370
    15
100
AcDbLine
 10
232.8906628243
 20
175.2597506751
 30
0.0
 11
232.8979643933
 21
175.2676363696
 31
0.0
  0
LWPOLYLINE
  5
E5
330
1F
100
AcDbEntity
  8
0
  6
Continuous
 62
     7
370
    15
100
AcDbPolyline
 90
       21
 70
   128
 43
0.0
 10
228.8360032193
 20
170.8803396334
 10
228.8573297612
 20
170.9033783187
 10
228.9256962888
 20
170.9772195329
 10
229.0395650021
 20
171.100209247
 10
229.1962656133
 20
171.2694611062
 10
229.392126476
 20
171.4810099115
 10
229.6225580327
 20
171.7298965563
 10
229.8821601025
 20
172.0102872361
 10
230.1648410909
 20
172.3156105389
 10
230.4639789216
 20
172.6387109269
 10
230.772570049
 20
172.9720126499
 10
231.0833665482
 20
173.3077045192
 10
231.3890906922
 20
173.6379187216
 10
231.6825839631
 20
173.9549141039
 10
231.9569560639
 20
174.2512609471
 10
232.205781614
 20
174.5200153102
 10
232.4232253186
 20
174.7548740019
 10
232.6041909806
 20
174.9503355135
 10
232.7444407098
 20
175.1018162479
 10
232.8406783692
 20
175.2057667483
 10
232.8906628243
 20
175.2597506751
  0
LINE
  5
E6
330
1F
100
AcDbEntity
  8
0
  6
Continuous
 62
     7
370
    15
100
AcDbLine
 10
248.0099412553
 20
159.8229754378
 30
0.0
 11
248.0146619431
 21
159.8280664195
 31
0.0
  0
LWPOLYLINE
  5
E7
330
1F
100
AcDbEntity
  8
0
  6
Continuous
 62
     7
370
    15
100
AcDbPolyline
 90
       17
 70
   128
 43
0.0
 10
245.3922602288
 20
156.995636936
 10
245.4004141442
 20
157.0044364442
 10
245.4539152734
 20
157.0622313429
 10
245.5554458253
 20
157.1718912233
 10
245.7010957353
 20
157.3292024095
 10
245.8852621667
 20
157.5281191279
 10
246.1008640878
 20
157.7609970827
 10
246.3396402947
 20
158.0188870092
 10
246.5923878304
 20
158.2918781449
 10
246.8494030587
 20
158.5694800724
 10
247.1008035294
 20
158.8410243054
 10
247.3369452111
 20
159.0960759331
 10
247.5487443559
 20
159.3248329718
 10
247.7280470483
 20
159.5185044815
 10
247.8679868333
 20
159.669648077
 10
247.9631635301
 20
159.7724552859
 10
248.0099412553
 20
159.8229754378
  0
LWPOLYLINE
  5
E8
330
1F
100
AcDbEntity
  8
0
  6
Continuous
 62
     7
370
    15
100
AcDbPolyline
 90
       10
 70
   128
 43
0.0
 10
197.6325425259
 20
184.0444426645
 10
197.6323160283
 20
184.0101878752
 10
197.6316722981
 20
183.912644874
 10
197.6307067029
 20
183.7666552176
 10
197.6295682542
 20
183.5944514383
 10
197.6284357659
 20
183.4222476591
 10
197.6274701707
 20
183.2762609829
 10
197.6268264405
 20
183.1787150015
 10
197.6265999429
 20
183.1444631924
 10
197.6265999429
 20
183.1444631924
  0
LWPOLYLINE
  5
E9
330
1F
100
AcDbEntity
  8
0
  6
Continuous
 62
     7
370
    15
100
AcDbPolyline
 90
       12
 70
   128
 43
0.0
 10
207.8422221295
 20
185.477082025
 10
207.8221651666
 20
185.4772161354
 10
207.7350410573
 20
185.4777913202
 10
207.5863632314
 20
185.4787718166
 10
207.3893341176
 20
185.4800711979
 10
207.1614655606
 20
185.4815762152
 10
206.9230052583
 20
185.4831497778
 10
206.6951367013
 20
185.4846547951
 10
206.4981075875
 20
185.4859541763
 10
206.3494297616
 20
185.486937653
 10
206.2623116128
 20
185.4875128378
 10
206.2422546498
 20
185.487643968
  0
SPLINE
  5
EA
330
1F
100
AcDbEntity
  8
0
  6
Continuous
 62
     7
370
    15
100
AcDbSpline
210
0.0
220
0.0
230
1.0
 70
     8
 71
     3
 72
    12
 73
     8
 74
     0
 42
0.00000001
 43
0.00000001
 40
0.0
 40
0.0
 40
0.0
 40
0.0
 40
0.3486391467072729
 40
0.5715696504064138
 40
0.7575634336453274
 40
0.9445177768759652
 40
1.0
 40
1.0
 40
1.0
 40
1.0
 10
197.3708542935262
 20
210.6257747520544
 30
0.0
 10
197.3318358999379
 20
210.5865866753635
 30
0.0
 10
197.2678679554505
 20
210.5223405472226
 30
0.0
 10
197.1906985256756
 20
210.4469980172307
 30
0.0
 10
197.1416413907746
 20
210.40328491799
 30
0.0
 10
197.1223450526014
 20
210.3835499553934
 30
0.0
 10
197.121132115644
 20
210.3783724954046
 30
0.0
 10
197.1208545319448
 20
210.3771876205542
 30
0.0
  0
LINE
  5
EB
330
1F
100
AcDbEntity
  8
0
  6
Continuous
 62
     7
370
    15
100
AcDbLine
 10
196.9608518235
 20
210.3771876206
 30
0.0
 11
197.1208545319
 21
210.3771876206
 31
0.0
  0
SPLINE
  5
EC
330
1F
100
AcDbEntity
  8
0
  6
Continuous
 62
     7
370
    15
100
AcDbSpline
210
0.0
220
0.0
230
1.0
 70
     8
 71
     3
 72
    12
 73
     8
 74
     0
 42
0.00000001
 43
0.00000001
 40
0.0
 40
0.0
 40
0.0
 40
0.0
 40
0.2353755330330393
 40
0.5035796711556877
 40
0.7398191079960991
 40
0.9425357789472553
 40
0.9999999999999999
 40
0.9999999999999999
 40
0.9999999999999999
 40
0.9999999999999999
 10
197.3708542935262
 20
210.6257747520544
 30
0.0
 10
197.3241133502412
 20
210.5974379513293
 30
0.0
 10
197.2241123495184
 20
210.5368121224384
 30
0.0
 10
197.0902049955593
 20
210.4546548035153
 30
0.0
 10
196.9949537147478
 20
210.4035456258717
 30
0.0
 10
196.963071708653
 20
210.3832447957163
 30
0.0
 10
196.9612534162475
 20
210.3782834058761
 30
0.0
 10
196.9608518235098
 20
210.3771876205542
 30
0.0
  0
SPLINE
  5
ED
330
1F
100
AcDbEntity
  8
0
  6
Continuous
 62
     7
370
    15
100
AcDbSpline
210
0.0
220
0.0
230
1.0
 70
     8
 71
     3
 72
    11
 73
     7
 74
     0
 42
0.00000001
 43
0.00000001
 40
0.0
 40
0.0
 40
0.0
 40
0.0
 40
0.2499967593929835
 40
0.4999954827328116
 40
0.7499963180618168
 40
1.0
 40
1.0
 40
1.0
 40
1.0
 10
197.122267162026
 20
210.3757690300085
 30
0.0
 10
197.1429810886384
 20
210.3795278453252
 30
0.0
 10
197.1844091045895
 20
210.3870455054874
 30
0.0
 10
197.2465635218509
 20
210.4448545025212
 30
0.0
 10
197.3087027983017
 20
210.5274983504642
 30
0.0
 10
197.3501370498207
 20
210.5930158271904
 30
0.0
 10
197.3708542935262
 20
210.6257747520544
 30
0.0
  0
SPLINE
  5
EE
330
1F
100
AcDbEntity
  8
0
  6
Continuous
 62
     7
370
    15
100
AcDbSpline
210
0.0
220
0.0
230
1.0
 70
     8
 71
     3
 72
    11
 73
     7
 74
     0
 42
0.00000001
 43
0.00000001
 40
0.0
 40
0.0
 40
0.0
 40
0.0
 40
0.2499945021023287
 40
0.4999960310949308
 40
0.7499944159912995
 40
1.0
 40
1.0
 40
1.0
 40
1.0
 10
197.122267162026
 20
210.2157722820379
 30
0.0
 10
197.1429812385693
 20
210.2219354057858
 30
0.0
 10
197.1844099738909
 20
210.2342618265157
 30
0.0
 10
197.2465625458241
 20
210.3290713740337
 30
0.0
 10
197.308703564577
 20
210.4645980461384
 30
0.0
 10
197.3501371850212
 20
210.5720486677205
 30
0.0
 10
197.3708542935262
 20
210.6257747520544
 30
0.0
  0
LINE
  5
EF
330
1F
100
AcDbEntity
  8
0
  6
Continuous
 62
     7
370
    15
100
AcDbLine
 10
197.122267162
 20
210.37576903
 30
0.0
 11
197.122267162
 21
210.215772282
 31
0.0
  0
LINE
  5
F0
330
1F
100
AcDbEntity
  8
0
  6
Continuous
 62
     7
370
    15
100
AcDbLine
 10
196.9608518235
 20
247.9357730259
 30
0.0
 11
196.9608518235
 21
247.7085243572
 31
0.0
  0
SPLINE
  5
F1
330
1F
100
AcDbEntity
  8
0
  6
Continuous
 62
     7
370
    15
100
AcDbSpline
210
0.0
220
0.0
230
1.0
 70
     8
 71
     3
 72
    11
 73
     7
 74
     0
 42
0.00000001
 43
0.00000001
 40
0.0
 40
0.0
 40
0.0
 40
0.0
 40
0.2499968693280966
 40
0.4999944584401878
 40
0.7499952047313434
 40
1.0
 40
1.0
 40
1.0
 40
1.0
 10
196.9608518235098
 20
247.9357730259039
 30
0.0
 10
196.9670146245488
 20
247.9566075134698
 30
0.0
 10
196.9793402443707
 20
247.9982765485876
 30
0.0
 10
197.0741528717951
 20
248.0607682011643
 30
0.0
 10
197.2096762927689
 20
248.1232724445693
 30
0.0
 10
197.3171280032306
 20
248.164939227376
 30
0.0
 10
197.3708542935262
 20
248.1857727874853
 30
0.0
  0
LINE
  5
F2
330
1F
100
AcDbEntity
  8
0
  6
Continuous
 62
     7
370
    15
100
AcDbLine
 10
207.7508541695
 20
210.215772282
 30
0.0
 11
197.122267162
 21
210.215772282
 31
0.0
  0
LINE
  5
F3
330
1F
100
AcDbEntity
  8
0
  6
Continuous
 62
     7
370
    15
100
AcDbLine
 10
207.7508541695
 20
210.6257747521
 30
0.0
 11
207.7508541695
 21
210.215772282
 31
0.0
  0
ARC
  5
F4
330
1F
100
AcDbEntity
  8
0
  6
Continuous
 62
     7
370
    15
100
AcDbCircle
 10
202.9909419848
 20
243.1857719101
 30
0.0
 40
4.999999999999996
100
AcDbArc
 50
0.3437767398
 51
90.0
  0
LINE
  5
F5
330
1F
100
AcDbEntity
  8
0
  6
Continuous
 62
     7
370
    15
100
AcDbLine
 10
207.9908522717
 20
243.2157706131
 30
0.0
 11
207.7408525102
 21
243.2157706131
 31
0.0
  0
LINE
  5
F6
330
1F
100
AcDbEntity
  8
0
  6
Continuous
 62
     7
370
    15
100
AcDbLine
 10
207.7408525102
 20
243.2157706131
 30
0.0
 11
207.7408525102
 21
243.0557738651
 31
0.0
  0
LINE
  5
F7
330
1F
100
AcDbEntity
  8
0
  6
Continuous
 62
     7
370
    15
100
AcDbLine
 10
207.7408525102
 20
243.0557738651
 30
0.0
 11
207.7508541695
 21
243.0557738651
 31
0.0
  0
LINE
  5
F8
330
1F
100
AcDbEntity
  8
0
  6
Continuous
 62
     7
370
    15
100
AcDbLine
 10
197.3708542935
 20
248.1857727875
 30
0.0
 11
202.9909404866
 21
248.1857727875
 31
0.0
  0
LINE
  5
F9
330
1F
100
AcDbEntity
  8
0
  6
Continuous
 62
     7
370
    15
100
AcDbLine
 10
208.1608506791
 20
243.0557738651
 30
0.0
 11
208.1608506791
 21
210.6257747521
 31
0.0
  0
LINE
  5
FA
330
1F
100
AcDbEntity
  8
0
  6
Continuous
 62
     7
370
    15
100
AcDbLine
 10
208.1608506791
 20
210.6257747521
 30
0.0
 11
207.7508541695
 21
210.6257747521
 31
0.0
  0
LINE
  5
FB
330
1F
100
AcDbEntity
  8
0
  6
Continuous
 62
     7
370
    15
100
AcDbLine
 10
207.7508541695
 20
243.0557738651
 30
0.0
 11
208.1608506791
 21
243.0557738651
 31
0.0
  0
SPLINE
  5
FC
330
1F
100
AcDbEntity
  8
0
  6
Continuous
 62
     7
370
    15
100
AcDbSpline
210
0.0
220
0.0
230
1.0
 70
     8
 71
     3
 72
    12
 73
     8
 74
     0
 42
0.00000001
 43
0.00000001
 40
0.0
 40
0.0
 40
0.0
 40
0.0
 40
0.2303448123534643
 40
0.4607669913933413
 40
0.6911898463846826
 40
0.9216117796827932
 40
1.0
 40
1.0
 40
1.0
 40
1.0
 10
197.3708542935262
 20
248.3757745136359
 30
0.0
 10
197.3214003840106
 20
248.3705501229003
 30
0.0
 10
197.2224759547284
 20
248.3600995866955
 30
0.0
 10
197.0931845344402
 20
248.279041505693
 30
0.0
 10
197.0004009396349
 20
248.1612849884895
 30
0.0
 10
196.9639770438557
 20
248.0485154832402
 30
0.0
 10
196.9614845236385
 20
247.9825234336341
 30
0.0
 10
196.9608518235098
 20
247.9657720436194
 30
0.0
  0
LINE
  5
FD
330
1F
100
AcDbEntity
  8
0
  6
Continuous
 62
     7
370
    15
100
AcDbLine
 10
197.3708542935
 20
248.2157718052
 30
0.0
 11
197.3708542935
 21
248.3757745136
 31
0.0
  0
SPLINE
  5
FE
330
1F
100
AcDbEntity
  8
0
  6
Continuous
 62
     7
370
    15
100
AcDbSpline
210
0.0
220
0.0
230
1.0
 70
     8
 71
     3
 72
    10
 73
     6
 74
     0
 42
0.00000001
 43
0.00000001
 40
0.0
 40
0.0
 40
0.0
 40
0.0
 40
0.4056472845625071
 40
0.8115906134920381
 40
1.0
 40
1.0
 40
1.0
 40
1.0
 10
197.3708542935262
 20
248.2157718052008
 30
0.0
 10
197.3378701260256
 20
248.211645635961
 30
0.0
 10
197.2718777189367
 20
248.2033902861729
 30
0.0
 10
197.198252169487
 20
248.1568461700889
 30
0.0
 10
197.1741425128551
 20
248.1144217653731
 30
0.0
 10
197.1664997689138
 20
248.1009732593634
 30
0.0
  0
LINE
  5
FF
330
1F
100
AcDbEntity
  8
0
  6
Continuous
 62
     7
370
    15
100
AcDbLine
 10
196.9613346211
 20
247.9657720436
 30
0.0
 11
196.9608518235
 21
247.9657720436
 31
0.0
  0
ARC
  5
100
330
1F
100
AcDbEntity
  8
0
  6
Continuous
 62
     7
370
    15
100
AcDbCircle
 10
203.000851984
 20
243.2157719101
 30
0.0
 40
5.159999999999997
100
AcDbArc
 50
0.0
 51
90.0
  0
ARC
  5
101
330
1F
100
AcDbEntity
  8
0
  6
Continuous
 62
     7
370
    15
100
AcDbCircle
 10
203.000851984
 20
243.2157719101
 30
0.0
 40
5.000000000000028
100
AcDbArc
 50
0.0
 51
90.0
  0
LINE
  5
102
330
1F
100
AcDbEntity
  8
0
  6
Continuous
 62
     7
370
    15
100
AcDbLine
 10
208.1608506791
 20
243.2157706131
 30
0.0
 11
208.1608506791
 21
243.2117711414
 31
0.0
  0
LINE
  5
103
330
1F
100
AcDbEntity
  8
0
  6
Continuous
 62
     7
370
    15
100
AcDbLine
 10
208.0008539311
 20
243.2117711414
 30
0.0
 11
208.1608506791
 21
243.2117711414
 31
0.0
  0
LINE
  5
104
330
1F
100
AcDbEntity
  8
0
  6
Continuous
 62
     7
370
    15
100
AcDbLine
 10
208.0008539311
 20
243.2157706131
 30
0.0
 11
208.0008539311
 21
243.2117711414
 31
0.0
  0
LINE
  5
105
330
1F
100
AcDbEntity
  8
0
  6
Continuous
 62
     7
370
    15
100
AcDbLine
 10
203.000852739
 20
248.3757745136
 30
0.0
 11
197.3708542935
 21
248.3757745136
 31
0.0
  0
LINE
  5
106
330
1F
100
AcDbEntity
  8
0
  6
Continuous
 62
     7
370
    15
100
AcDbLine
 10
203.000852739
 20
248.2157718052
 30
0.0
 11
197.3708542935
 21
248.2157718052
 31
0.0
  0
LINE
  5
107
330
1F
100
AcDbEntity
  8
0
  6
Continuous
 62
     7
370
    15
100
AcDbLine
 10
208.1608506791
 20
243.2117711414
 30
0.0
 11
208.1608506791
 21
243.0557738651
 31
0.0
  0
LINE
  5
108
330
1F
100
AcDbEntity
  8
0
  6
Continuous
 62
     7
370
    15
100
AcDbLine
 10
208.0008539311
 20
243.2117711414
 30
0.0
 11
208.0008539311
 21
243.0557738651
 31
0.0
  0
SPLINE
  5
109
330
1F
100
AcDbEntity
  8
0
  6
Continuous
 62
     7
370
    15
100
AcDbSpline
210
0.0
220
0.0
230
1.0
 70
     8
 71
     3
 72
    11
 73
     7
 74
     0
 42
0.00000001
 43
0.00000001
 40
0.0
 40
0.0
 40
0.0
 40
0.0
 40
0.249995569336717
 40
0.4999955207328963
 40
0.7499954721290757
 40
1.0
 40
1.0
 40
1.0
 40
1.0
 10
207.7508541695485
 20
210.2157722820379
 30
0.0
 10
207.8045783161416
 20
210.2219352586972
 30
0.0
 10
207.912027551034
 20
210.2342613200439
 30
0.0
 10
208.0475505496436
 20
210.3290723989941
 30
0.0
 10
208.14236282839
 20
210.4645970241036
 30
0.0
 10
208.1546880245934
 20
210.5720485149077
 30
0.0
 10
208.1608506791005
 20
210.6257747520544
 30
0.0
  0
SPLINE
  5
10A
330
1F
100
AcDbEntity
  8
0
  6
Continuous
 62
     7
370
    15
100
AcDbSpline
210
0.0
220
0.0
230
1.0
 70
     8
 71
     3
 72
    11
 73
     7
 74
     0
 42
0.00000001
 43
0.00000001
 40
0.0
 40
0.0
 40
0.0
 40
0.0
 40
0.2500002946116797
 40
0.4999939700062069
 40
0.7499997053883204
 40
1.0
 40
1.0
 40
1.0
 40
1.0
 10
207.7508541695485
 20
210.3757690300085
 30
0.0
 10
207.7836135832926
 20
210.379527556853
 30
0.0
 10
207.8491315434151
 20
210.3870445110282
 30
0.0
 10
207.9317689064445
 20
210.4448564799058
 30
0.0
 10
207.989577336556
 20
210.5274963809243
 30
0.0
 10
207.9970950935399
 20
210.593015532658
 30
0.0
 10
208.00085393113
 20
210.6257747520544
 30
0.0
  0
LINE
  5
10B
330
1F
100
AcDbEntity
  8
0
  6
Continuous
 62
     7
370
    15
100
AcDbLine
 10
197.122267162
 20
210.215772282
 30
0.0
 11
197.1208545319
 21
210.215772282
 31
0.0
  0
LWPOLYLINE
  5
10C
330
1F
100
AcDbEntity
  8
0
  6
Continuous
 62
     7
370
    15
100
AcDbPolyline
 90
        3
 70
   128
 43
0.0
 10
200.2358111493
 20
210.215772282
 10
200.2517553918
 20
210.1935576309
 10
200.2800616376
 20
210.144050013
  0
ARC
  5
10D
330
1F
100
AcDbEntity
  8
0
  6
Continuous
 62
     7
370
    15
100
AcDbCircle
 10
199.910851984
 20
209.9657719101
 30
0.0
 40
0.2499999999999918
100
AcDbArc
 50
45.4883272258
 51
90.0
  0
ARC
  5
10E
330
1F
100
AcDbEntity
  8
0
  6
Continuous
 62
     7
370
    15
100
AcDbCircle
 10
202.990940933
 20
243.185947731
 30
0.0
 40
5.000000000000013
100
AcDbArc
 50
0.3417619453
 51
89.5195047779
  0
SPLINE
  5
10F
330
1F
100
AcDbEntity
  8
0
  6
Continuous
 62
     7
370
    15
100
AcDbSpline
210
0.0
220
0.0
230
1.0
 70
     8
 71
     3
 72
    11
 73
     7
 74
     0
 42
0.00000001
 43
0.00000001
 40
0.0
 40
0.0
 40
0.0
 40
0.0
 40
0.2500010038584158
 40
0.5000014528113728
 40
0.750002341179533
 40
1.0
 40
1.0
 40
1.0
 40
1.0
 10
197.3708542935262
 20
153.5940488229357
 30
0.0
 10
197.3500204676843
 20
153.5403236637327
 30
0.0
 10
197.3083528622435
 20
153.4328734645758
 30
0.0
 10
197.2458517226704
 20
153.2973496836299
 30
0.0
 10
197.1833489011456
 20
153.2025380999808
 30
0.0
 10
197.1416858986431
 20
153.1902118874042
 30
0.0
 10
197.1208545319448
 20
153.1840488209241
 30
0.0
  0
LINE
  5
110
330
1F
100
AcDbEntity
  8
0
  6
Continuous
 62
     7
370
    15
100
AcDbLine
 10
197.1208545319
 20
153.3440488169
 30
0.0
 11
197.1208545319
 21
153.1840488209
 31
0.0
  0
SPLINE
  5
111
330
1F
100
AcDbEntity
  8
0
  6
Continuous
 62
     7
370
    15
100
AcDbSpline
210
0.0
220
0.0
230
1.0
 70
     8
 71
     3
 72
    11
 73
     7
 74
     0
 42
0.00000001
 43
0.00000001
 40
0.0
 40
0.0
 40
0.0
 40
0.0
 40
0.2500010406386969
 40
0.5000033978055227
 40
0.750004438367028
 40
1.0
 40
1.0
 40
1.0
 40
1.0
 10
197.3708542935262
 20
153.5940488229357
 30
0.0
 10
197.350020418805
 20
153.5612895152918
 30
0.0
 10
197.3083525596495
 20
153.4957707274905
 30
0.0
 10
197.2458519876974
 20
153.4131350641521
 30
0.0
 10
197.1833491995066
 20
153.3553229044726
 30
0.0
 10
197.1416859356177
 20
153.3478068186254
 30
0.0
 10
197.1208545319448
 20
153.3440488168821
 30
0.0
  0
LINE
  5
112
330
1F
100
AcDbEntity
  8
0
  6
Continuous
 62
     7
370
    15
100
AcDbLine
 10
198.6327263467
 20
153.1840488209
 30
0.0
 11
198.6316296212
 21
153.1840488209
 31
0.0
  0
LINE
  5
113
330
1F
100
AcDbEntity
  8
0
  6
Continuous
 62
     7
370
    15
100
AcDbLine
 10
198.4584840886
 20
153.1840488209
 30
0.0
 11
197.122267162
 21
153.1840488209
 31
0.0
  0
LINE
  5
114
330
1F
100
AcDbEntity
  8
0
  6
Continuous
 62
     7
370
    15
100
AcDbLine
 10
197.1208545319
 20
153.1840488209
 30
0.0
 11
197.122267162
 21
153.1840488209
 31
0.0
  0
LINE
  5
115
330
1F
100
AcDbEntity
  8
0
  6
Continuous
 62
     7
370
    15
100
AcDbLine
 10
197.3708542935
 20
209.734047543
 30
0.0
 11
196.9613346211
 21
209.734047543
 31
0.0
  0
LINE
  5
116
330
1F
100
AcDbEntity
  8
0
  6
Continuous
 62
     7
370
    15
100
AcDbLine
 10
196.9613346211
 20
153.5940488229
 30
0.0
 11
197.3708542935
 21
153.5940488229
 31
0.0
  0
SPLINE
  5
117
330
1F
100
AcDbEntity
  8
0
  6
Continuous
 62
     7
370
    15
100
AcDbSpline
210
0.0
220
0.0
230
1.0
 70
     8
 71
     3
 72
    12
 73
     8
 74
     0
 42
0.00000001
 43
0.00000001
 40
0.0
 40
0.0
 40
0.0
 40
0.0
 40
0.23034124789868
 40
0.4607655610761977
 40
0.6911888222676363
 40
0.92161176529266
 40
1.0
 40
1.0
 40
1.0
 40
1.0
 10
197.1208545319448
 20
210.1440500129797
 30
0.0
 10
197.1400543023594
 20
210.1388254063392
 30
0.0
 10
197.178460766978
 20
210.1283743089692
 30
0.0
 10
197.2360895495005
 20
210.0473175249659
 30
0.0
 10
197.2936807077993
 20
209.9295601536971
 30
0.0
 10
197.3387330521274
 20
209.816791247017
 30
0.0
 10
197.3643513719593
 20
209.7507989446584
 30
0.0
 10
197.3708542935262
 20
209.7340475429632
 30
0.0
  0
LINE
  5
118
330
1F
100
AcDbEntity
  8
0
  6
Continuous
 62
     7
370
    15
100
AcDbLine
 10
197.122267162
 20
210.144050013
 30
0.0
 11
197.1208545319
 21
210.144050013
 31
0.0
  0
LINE
  5
119
330
1F
100
AcDbEntity
  8
0
  6
Continuous
 62
     7
370
    15
100
AcDbLine
 10
197.122267162
 20
210.144050013
 30
0.0
 11
207.7508541695
 21
210.144050013
 31
0.0
  0
LINE
  5
11A
330
1F
100
AcDbEntity
  8
0
  6
Continuous
 62
     7
370
    15
100
AcDbLine
 10
207.7508541695
 20
209.734047543
 30
0.0
 11
207.7508541695
 21
210.144050013
 31
0.0
  0
SPLINE
  5
11B
330
1F
100
AcDbEntity
  8
0
  6
Continuous
 62
     7
370
    15
100
AcDbSpline
210
0.0
220
0.0
230
1.0
 70
     8
 71
     3
 72
    11
 73
     7
 74
     0
 42
0.00000001
 43
0.00000001
 40
0.0
 40
0.0
 40
0.0
 40
0.0
 40
0.2547110558108957
 40
0.5096034538136808
 40
0.7644917030403459
 40
1.0
 40
1.0
 40
1.0
 40
1.0
 10
197.1208545319448
 20
209.9840473045447
 30
0.0
 10
197.1420836353857
 20
209.9801442737775
 30
0.0
 10
197.1845569563824
 20
209.9723354334705
 30
0.0
 10
197.2482756661213
 20
209.912353483554
 30
0.0
 10
197.3104016434094
 20
209.8291055691446
 30
0.0
 10
197.351241391353
 20
209.7648876097705
 30
0.0
 10
197.3708542935262
 20
209.7340475429632
 30
0.0
  0
LINE
  5
11C
330
1F
100
AcDbEntity
  8
0
  6
Continuous
 62
     7
370
    15
100
AcDbLine
 10
197.1208545319
 20
209.9840473045
 30
0.0
 11
197.1208545319
 21
210.144050013
 31
0.0
  0
LINE
  5
11D
330
1F
100
AcDbEntity
  8
0
  6
Continuous
 62
     7
370
    15
100
AcDbLine
 10
208.1608506791
 20
209.734047543
 30
0.0
 11
208.1608506791
 21
183.2349311222
 31
0.0
  0
LINE
  5
11E
330
1F
100
AcDbEntity
  8
0
  6
Continuous
 62
     7
370
    15
100
AcDbLine
 10
208.1608506791
 20
174.8347486962
 30
0.0
 11
208.1608506791
 21
159.6599105407
 31
0.0
  0
LINE
  5
11F
330
1F
100
AcDbEntity
  8
0
  6
Continuous
 62
     7
370
    15
100
AcDbLine
 10
208.1608506791
 20
209.734047543
 30
0.0
 11
207.7508541695
 21
209.734047543
 31
0.0
  0
LINE
  5
120
330
1F
100
AcDbEntity
  8
0
  6
Continuous
 62
     7
370
    15
100
AcDbLine
 10
196.9613346211
 20
209.9826346745
 30
0.0
 11
197.1208545319
 21
209.9826346745
 31
0.0
  0
LINE
  5
121
330
1F
100
AcDbEntity
  8
0
  6
Continuous
 62
     7
370
    15
100
AcDbLine
 10
197.1208545319
 20
209.734047543
 30
0.0
 11
197.1208545319
 21
209.9826346745
 31
0.0
  0
LINE
  5
122
330
1F
100
AcDbEntity
  8
0
  6
Continuous
 62
     7
370
    15
100
AcDbLine
 10
196.9613346211
 20
153.3454630302
 30
0.0
 11
197.1208545319
 21
153.3454630302
 31
0.0
  0
LINE
  5
123
330
1F
100
AcDbEntity
  8
0
  6
Continuous
 62
     7
370
    15
100
AcDbLine
 10
197.1208545319
 20
153.5940488229
 30
0.0
 11
197.1208545319
 21
153.3454630302
 31
0.0
  0
LINE
  5
124
330
1F
100
AcDbEntity
  8
0
  6
Continuous
 62
     7
370
    15
100
AcDbLine
 10
208.1590744607
 20
153.5650851682
 30
0.0
 11
208.1608506791
 21
153.5940488229
 31
0.0
  0
SPLINE
  5
125
330
1F
100
AcDbEntity
  8
0
  6
Continuous
 62
     7
370
    15
100
AcDbSpline
210
0.0
220
0.0
230
1.0
 70
     8
 71
     3
 72
    12
 73
     8
 74
     0
 42
0.00000001
 43
0.00000001
 40
0.0
 40
0.0
 40
0.0
 40
0.0
 40
0.2303456642820527
 40
0.4607677852956287
 40
0.6911977189442992
 40
0.9216195942144905
 40
1.0
 40
1.0
 40
1.0
 40
1.0
 10
208.1608506791005
 20
209.7340475429632
 30
0.0
 10
208.1556287818524
 20
209.7835013318834
 30
0.0
 10
208.1451832540949
 20
209.8824253245108
 30
0.0
 10
208.0641230373884
 20
210.0117195866772
 30
0.0
 10
207.9463620877235
 20
210.1044992125845
 30
0.0
 10
207.8335925021286
 20
210.1409242907507
 30
0.0
 10
207.7676035343886
 20
210.143417248693
 30
0.0
 10
207.7508541695485
 20
210.1440500129797
 30
0.0
  0
SPLINE
  5
126
330
1F
100
AcDbEntity
  8
0
  6
Continuous
 62
     7
370
    15
100
AcDbSpline
210
0.0
220
0.0
230
1.0
 70
     8
 71
     3
 72
    11
 73
     7
 74
     0
 42
0.00000001
 43
0.00000001
 40
0.0
 40
0.0
 40
0.0
 40
0.0
 40
0.2547173031561358
 40
0.5096080938088348
 40
0.7645053707735068
 40
1.0
 40
1.0
 40
1.0
 40
1.0
 10
208.00085393113
 20
209.7340475429632
 30
0.0
 10
207.99694866317
 20
209.767428960416
 30
0.0
 10
207.9891354673792
 20
209.8342145313448
 30
0.0
 10
207.9291524562532
 20
209.9178902739655
 30
0.0
 10
207.8459096008571
 20
209.9737529411591
 30
0.0
 10
207.781692382492
 20
209.9807075714454
 30
0.0
 10
207.7508541695485
 20
209.9840473045447
 30
0.0
  0
LINE
  5
127
330
1F
100
AcDbEntity
  8
0
  6
Continuous
 62
     7
370
    15
100
AcDbLine
 10
208.4808501355
 20
159.6040945162
 30
0.0
 11
208.4808501355
 21
166.7851727118
 31
0.0
  0
LINE
  5
128
330
1F
100
AcDbEntity
  8
0
  6
Continuous
 62
     7
370
    15
100
AcDbLine
 10
208.1608506791
 20
167.1840484847
 30
0.0
 11
208.4808501355
 21
167.1840484847
 31
0.0
  0
SPLINE
  5
129
330
1F
100
AcDbEntity
  8
0
  6
Continuous
 62
     7
370
    15
100
AcDbSpline
210
0.0
220
0.0
230
1.0
 70
    24
 71
     3
 72
    11
 73
     7
 74
     0
 42
0.00000001
 43
0.00000001
 40
0.0
 40
0.0
 40
0.0
 40
0.0
 40
0.2833525378971801
 40
0.5581113906325942
 40
0.775479921783001
 40
0.9999999999999999
 40
0.9999999999999999
 40
0.9999999999999999
 40
0.9999999999999999
 10
208.4808501355062
 20
166.7851727117636
 30
0.0
 10
208.4808501355062
 20
166.8445825367633
 30
0.0
 10
208.4808501355062
 20
166.9616003700741
 30
0.0
 10
208.4808501355062
 20
167.0912212102235
 30
0.0
 10
208.4808501355062
 20
167.170003537884
 30
0.0
 10
208.4808501355062
 20
167.1793165947816
 30
0.0
 10
208.4808501355062
 20
167.1840484847166
 30
0.0
  0
LINE
  5
12A
330
1F
100
AcDbEntity
  8
0
  6
Continuous
 62
     7
370
    15
100
AcDbLine
 10
208.7608548753
 20
166.6765059938
 30
0.0
 11
208.7608548753
 21
159.5552552153
 31
0.0
  0
SPLINE
  5
12B
330
1F
100
AcDbEntity
  8
0
  6
Continuous
 62
     7
370
    15
100
AcDbSpline
210
0.0
220
0.0
230
1.0
 70
     8
 71
     3
 72
    11
 73
     7
 74
     0
 42
0.00000001
 43
0.00000001
 40
0.0
 40
0.0
 40
0.0
 40
0.0
 40
0.2371973497741576
 40
0.4978647579467284
 40
0.7485805281628752
 40
0.9999999999999999
 40
0.9999999999999999
 40
0.9999999999999999
 40
0.9999999999999999
 10
208.4808501355062
 20
167.1840484847166
 30
0.0
 10
208.519847366396
 20
167.1554649322894
 30
0.0
 10
208.601700502344
 20
167.0954695595587
 30
0.0
 10
208.6904251987245
 20
166.9707957988317
 30
0.0
 10
208.7498760796274
 20
166.8276510879808
 30
0.0
 10
208.7571918592312
 20
166.7269347404164
 30
0.0
 10
208.7608548752675
 20
166.6765059937575
 30
0.0
  0
SPLINE
  5
12C
330
1F
100
AcDbEntity
  8
0
  6
Continuous
 62
     7
370
    15
100
AcDbSpline
210
0.0
220
0.0
230
1.0
 70
    24
 71
     3
 72
    13
 73
     9
 74
     0
 42
0.00000001
 43
0.00000001
 40
0.0
 40
0.0
 40
0.0
 40
0.0
 40
0.1275377025523152
 40
0.2545912650276452
 40
0.4999402301584671
 40
0.745331028683495
 40
0.8725051773546149
 40
1.0
 40
1.0
 40
1.0
 40
1.0
 10
208.4808501355062
 20
167.1840484847166
 30
0.0
 10
208.4808501355062
 20
167.1825952732313
 30
0.0
 10
208.4808501355062
 20
167.1796943667306
 30
0.0
 10
208.4808501355062
 20
167.1475957765645
 30
0.0
 10
208.4808501355062
 20
167.0744387131912
 30
0.0
 10
208.4808501355062
 20
166.9649255650662
 30
0.0
 10
208.4808501355062
 20
166.8649551196519
 30
0.0
 10
208.4808501355062
 20
166.8117891628891
 30
0.0
 10
208.4808501355062
 20
166.7851727117636
 30
0.0
  0
ARC
  5
12D
330
1F
100
AcDbEntity
  8
0
  6
Continuous
 62
     7
370
    15
100
AcDbCircle
 10
182.6221174584
 20
246.2757719101
 30
0.0
 40
0.7999999999999874
100
AcDbArc
 50
180.0
 51
232.1531743581
  0
ARC
  5
12E
330
1F
100
AcDbEntity
  8
0
  6
Continuous
 62
     7
370
    15
100
AcDbCircle
 10
182.6221174584
 20
246.2757719101
 30
0.0
 40
0.7999999999999989
100
AcDbArc
 50
307.8468238125
 51
54.1297637599
  0
ARC
  5
12F
330
1F
100
AcDbEntity
  8
0
  6
Continuous
 62
     7
370
    15
100
AcDbCircle
 10
182.6221174584
 20
246.2757719101
 30
0.0
 40
0.7999999999999989
100
AcDbArc
 50
125.8702362401
 51
180.0
  0
CIRCLE
  5
130
330
1F
100
AcDbEntity
  8
0
  6
Continuous
 62
     7
370
    15
100
AcDbCircle
 10
182.6221174584
 20
246.2757719101
 30
0.0
 40
0.5900000000000034
  0
CIRCLE
  5
131
330
1F
100
AcDbEntity
  8
0
  6
Continuous
 62
     7
370
    15
100
AcDbCircle
 10
182.6221174584
 20
246.2757719101
 30
0.0
 40
0.549999999999983
  0
CIRCLE
  5
132
330
1F
100
AcDbEntity
  8
0
  6
Continuous
 62
     7
370
    15
100
AcDbCircle
 10
182.6221174584
 20
246.2757719101
 30
0.0
 40
0.4200000000000159
  0
CIRCLE
  5
133
330
1F
100
AcDbEntity
  8
0
  6
Continuous
 62
     7
370
    15
100
AcDbCircle
 10
143.6221174584
 20
246.2757719101
 30
0.0
 40
0.589999999999975
  0
ARC
  5
134
330
1F
100
AcDbEntity
  8
0
  6
Continuous
 62
     7
370
    15
100
AcDbCircle
 10
143.6221174584
 20
246.2757719101
 30
0.0
 40
0.8000000000000114
100
AcDbArc
 50
180.0
 51
232.1531758871
  0
ARC
  5
135
330
1F
100
AcDbEntity
  8
0
  6
Continuous
 62
     7
370
    15
100
AcDbCircle
 10
143.6221174584
 20
246.2757719101
 30
0.0
 40
0.8000000000000096
100
AcDbArc
 50
307.8468238124
 51
54.1297637598
  0
ARC
  5
136
330
1F
100
AcDbEntity
  8
0
  6
Continuous
 62
     7
370
    15
100
AcDbCircle
 10
143.6221174584
 20
246.2757719101
 30
0.0
 40
0.8000000000000114
100
AcDbArc
 50
125.8702362402
 51
180.0
  0
CIRCLE
  5
137
330
1F
100
AcDbEntity
  8
0
  6
Continuous
 62
     7
370
    15
100
AcDbCircle
 10
143.6221174584
 20
246.2757719101
 30
0.0
 40
0.5500000000000114
  0
CIRCLE
  5
138
330
1F
100
AcDbEntity
  8
0
  6
Continuous
 62
     7
370
    15
100
AcDbCircle
 10
143.6221174584
 20
246.2757719101
 30
0.0
 40
0.4199999999999875
  0
CIRCLE
  5
139
330
1F
100
AcDbEntity
  8
0
  6
Continuous
 62
     7
370
    15
100
AcDbCircle
 10
104.6213326179
 20
246.2840488199
 30
0.0
 40
0.5900000000000176
  0
ARC
  5
13A
330
1F
100
AcDbEntity
  8
0
  6
Continuous
 62
     7
370
    15
100
AcDbCircle
 10
104.6213326179
 20
246.2840488199
 30
0.0
 40
0.8000000000000114
100
AcDbArc
 50
180.0
 51
233.1301023545
  0
ARC
  5
13B
330
1F
100
AcDbEntity
  8
0
  6
Continuous
 62
     7
370
    15
100
AcDbCircle
 10
104.6213326179
 20
246.2840488199
 30
0.0
 40
0.8000000000000028
100
AcDbArc
 50
306.8698976455
 51
53.1301023538
  0
ARC
  5
13C
330
1F
100
AcDbEntity
  8
0
  6
Continuous
 62
     7
370
    15
100
AcDbCircle
 10
104.6213326179
 20
246.2840488199
 30
0.0
 40
0.8000000000000114
100
AcDbArc
 50
126.8698976462
 51
180.0
  0
CIRCLE
  5
13D
330
1F
100
AcDbEntity
  8
0
  6
Continuous
 62
     7
370
    15
100
AcDbCircle
 10
104.6213326179
 20
246.2840488199
 30
0.0
 40
0.5499999999999972
  0
CIRCLE
  5
13E
330
1F
100
AcDbEntity
  8
0
  6
Continuous
 62
     7
370
    15
100
AcDbCircle
 10
104.6213326179
 20
246.2840488199
 30
0.0
 40
0.4200000000000017
  0
LINE
  5
13F
330
1F
100
AcDbEntity
  8
0
  6
Continuous
 62
     7
370
    15
100
AcDbLine
 10
196.5513321511
 20
248.0470250954
 30
0.0
 11
196.5608212106
 21
247.9740511288
 31
0.0
  0
LINE
  5
140
330
1F
100
AcDbEntity
  8
0
  6
Continuous
 62
     7
370
    15
100
AcDbLine
 10
129.3059135727
 20
253.9117168297
 30
0.0
 11
129.0897841505
 21
253.8330506195
 31
0.0
  0
LINE
  5
141
330
1F
100
AcDbEntity
  8
0
  6
Continuous
 62
     7
370
    15
100
AcDbLine
 10
110.8813318364
 20
250.9855519642
 30
0.0
 11
110.8813318364
 21
248.3840476383
 31
0.0
  0
LINE
  5
142
330
1F
100
AcDbEntity
  8
0
  6
Continuous
 62
     7
370
    15
100
AcDbLine
 10
111.1113312594
 20
250.9855519642
 30
0.0
 11
110.8813318364
 21
250.9855519642
 31
0.0
  0
LINE
  5
143
330
1F
100
AcDbEntity
  8
0
  6
Continuous
 62
     7
370
    15
100
AcDbLine
 10
131.3178214185
 20
248.3840476383
 30
0.0
 11
129.3059135727
 21
253.9117168297
 31
0.0
  0
LWPOLYLINE
  5
144
330
1F
100
AcDbEntity
  8
0
  6
Continuous
 62
     7
370
    15
100
AcDbPolyline
 90
        9
 70
   128
 43
0.0
 10
129.0131310872
 20
254.3170284142
 10
129.014604067
 20
254.3077300896
 10
129.0189656369
 20
254.2801808228
 10
129.0260496489
 20
254.2354654183
 10
129.0355819218
 20
254.175276648
 10
129.047198122
 20
254.101939093
 10
129.0604504697
 20
254.0182660927
 10
129.0748300902
 20
253.9274762978
 10
129.0897841505
 20
253.8330506195
  0
LWPOLYLINE
  5
145
330
1F
100
AcDbEntity
  8
0
  6
Continuous
 62
     7
370
    15
100
AcDbPolyline
 90
        9
 70
   128
 43
0.0
 10
111.1113312594
 20
250.9855519642
 10
111.0963794343
 20
251.0799657215
 10
111.0819998137
 20
251.1707555164
 10
111.068746721
 20
251.2544285168
 10
111.0571297757
 20
251.3277660717
 10
111.047598993
 20
251.387954842
 10
111.040514981
 20
251.432676207
 10
111.036151921
 20
251.4602195133
 10
111.0346796862
 20
251.4695178379
  0
LINE
  5
146
330
1F
100
AcDbEntity
  8
0
  6
Continuous
 62
     7
370
    15
100
AcDbLine
 10
111.0346796862
 20
251.4695178379
 30
0.0
 11
129.0131310872
 21
254.3170284142
 31
0.0
  0
LINE
  5
147
330
1F
100
AcDbEntity
  8
0
  6
Continuous
 62
     7
370
    15
100
AcDbLine
 10
131.5376485638
 20
248.5402654518
 30
0.0
 11
129.5502330117
 21
254.0006469597
 31
0.0
  0
LINE
  5
148
330
1F
100
AcDbEntity
  8
0
  6
Continuous
 62
     7
370
    15
100
AcDbLine
 10
131.3121224694
 20
248.4581838955
 30
0.0
 11
129.3247069172
 21
253.9185594429
 31
0.0
  0
LINE
  5
149
330
1F
100
AcDbEntity
  8
0
  6
Continuous
 62
     7
370
    15
100
AcDbLine
 10
129.3247069172
 20
253.9185594429
 30
0.0
 11
129.5502330117
 21
254.0006469597
 31
0.0
  0
LINE
  5
14A
330
1F
100
AcDbEntity
  8
0
  6
Continuous
 62
     7
370
    15
100
AcDbLine
 10
131.5376485638
 20
248.5402654518
 30
0.0
 11
131.3121224694
 21
248.4581838955
 31
0.0
  0
LINE
  5
14B
330
1F
100
AcDbEntity
  8
0
  6
Continuous
 62
     7
370
    15
100
AcDbLine
 10
110.8613314978
 20
248.6340473999
 30
0.0
 11
110.8613314978
 21
250.9855519642
 31
0.0
  0
LINE
  5
14C
330
1F
100
AcDbEntity
  8
0
  6
Continuous
 62
     7
370
    15
100
AcDbLine
 10
110.6213333957
 20
248.6340473999
 30
0.0
 11
110.8613314978
 21
248.6340473999
 31
0.0
  0
LINE
  5
14D
330
1F
100
AcDbEntity
  8
0
  6
Continuous
 62
     7
370
    15
100
AcDbLine
 10
110.8613314978
 20
250.9855519642
 30
0.0
 11
110.6213333957
 21
250.9855519642
 31
0.0
  0
LINE
  5
14E
330
1F
100
AcDbEntity
  8
0
  6
Continuous
 62
     7
370
    15
100
AcDbLine
 10
110.6213333957
 20
248.6340473999
 30
0.0
 11
110.6213333957
 21
250.9855519642
 31
0.0
  0
ARC
  5
14F
330
1F
100
AcDbEntity
  8
0
  6
Continuous
 62
     7
370
    15
100
AcDbCircle
 10
129.0897839601
 20
253.8330562378
 30
0.0
 40
0.2500000000000246
100
AcDbArc
 50
20.0
 51
99.0
  0
ARC
  5
150
330
1F
100
AcDbEntity
  8
0
  6
Continuous
 62
     7
370
    15
100
AcDbCircle
 10
129.0897839601
 20
253.8330562378
 30
0.0
 40
0.4899999999999867
100
AcDbArc
 50
20.0
 51
99.0
  0
LWPOLYLINE
  5
151
330
1F
100
AcDbEntity
  8
0
  6
Continuous
 62
     7
370
    15
100
AcDbPolyline
 90
        3
 70
   128
 43
0.0
 10
131.3121224694
 20
248.4581838955
 10
131.3429760687
 20
248.3900855888
 10
131.3463444762
 20
248.3840476383
  0
ARC
  5
152
330
1F
100
AcDbEntity
  8
0
  6
Continuous
 62
     7
370
    15
100
AcDbCircle
 10
131.7725720083
 20
248.6257719101
 30
0.0
 40
0.2500000000000116
100
AcDbArc
 50
200.0
 51
255.2154781715
  0
ARC
  5
153
330
1F
100
AcDbEntity
  8
0
  6
Continuous
 62
     7
370
    15
100
AcDbCircle
 10
110.3713326179
 20
248.6340488199
 30
0.0
 40
0.2500000000000284
100
AcDbArc
 50
270.0
 51
0.0
  0
ARC
  5
154
330
1F
100
AcDbEntity
  8
0
  6
Continuous
 62
     7
370
    15
100
AcDbCircle
 10
110.3713326179
 20
248.6340488199
 30
0.0
 40
0.4900000000000091
100
AcDbArc
 50
329.3225755271
 51
0.0
  0
ARC
  5
155
330
1F
100
AcDbEntity
  8
0
  6
Continuous
 62
     7
370
    15
100
AcDbCircle
 10
111.1113326179
 20
250.9855492841
 30
0.0
 40
0.4899999999999807
100
AcDbArc
 50
99.0
 51
180.0
  0
ARC
  5
156
330
1F
100
AcDbEntity
  8
0
  6
Continuous
 62
     7
370
    15
100
AcDbCircle
 10
111.1113326179
 20
250.9855492841
 30
0.0
 40
0.2499999999999858
100
AcDbArc
 50
99.0
 51
180.0
  0
LINE
  5
157
330
1F
100
AcDbEntity
  8
0
  6
Continuous
 62
     7
370
    15
100
AcDbLine
 10
137.5767005548
 20
243.824047934
 30
0.0
 11
138.2613326363
 21
243.7399875034
 31
0.0
  0
LINE
  5
158
330
1F
100
AcDbEntity
  8
0
  6
Continuous
 62
     7
370
    15
100
AcDbLine
 10
140.2613325916
 20
243.494416367
 30
0.0
 11
141.2613325692
 21
243.3716307987
 31
0.0
  0
LINE
  5
159
330
1F
100
AcDbEntity
  8
0
  6
Continuous
 62
     7
370
    15
100
AcDbLine
 10
143.2613327108
 20
243.1260656227
 30
0.0
 11
144.2613325022
 21
243.0032800545
 31
0.0
  0
LINE
  5
15A
330
1F
100
AcDbEntity
  8
0
  6
Continuous
 62
     7
370
    15
100
AcDbLine
 10
146.2613324575
 20
242.757708918
 30
0.0
 11
147.2613322489
 21
242.6349233498
 31
0.0
  0
LINE
  5
15B
330
1F
100
AcDbEntity
  8
0
  6
Continuous
 62
     7
370
    15
100
AcDbLine
 10
149.2613325767
 20
242.3893581738
 30
0.0
 11
150.2613323681
 21
242.2665726055
 31
0.0
  0
LINE
  5
15C
330
1F
100
AcDbEntity
  8
0
  6
Continuous
 62
     7
370
    15
100
AcDbLine
 10
152.2613319508
 20
242.021001469
 30
0.0
 11
153.2613324873
 21
241.8982159008
 31
0.0
  0
LINE
  5
15D
330
1F
100
AcDbEntity
  8
0
  6
Continuous
 62
     7
370
    15
100
AcDbLine
 10
155.2613320701
 20
241.6526507248
 30
0.0
 11
156.2613326065
 21
241.5298651566
 31
0.0
  0
LINE
  5
15E
330
1F
100
AcDbEntity
  8
0
  6
Continuous
 62
     7
370
    15
100
AcDbLine
 10
158.2613321893
 20
241.2842940201
 30
0.0
 11
159.2613327257
 21
241.1615084519
 31
0.0
  0
LINE
  5
15F
330
1F
100
AcDbEntity
  8
0
  6
Continuous
 62
     7
370
    15
100
AcDbLine
 10
161.2613323085
 20
240.9159432758
 30
0.0
 11
162.2613328449
 21
240.7931577076
 31
0.0
  0
LINE
  5
160
330
1F
100
AcDbEntity
  8
0
  6
Continuous
 62
     7
370
    15
100
AcDbLine
 10
164.2613324277
 20
240.5475865711
 30
0.0
 11
165.261331474
 21
240.4248010029
 31
0.0
  0
LINE
  5
161
330
1F
100
AcDbEntity
  8
0
  6
Continuous
 62
     7
370
    15
100
AcDbLine
 10
167.2613325469
 20
240.1792358269
 30
0.0
 11
168.2613315932
 21
240.0564502586
 31
0.0
  0
LINE
  5
162
330
1F
100
AcDbEntity
  8
0
  6
Continuous
 62
     7
370
    15
100
AcDbLine
 10
170.2613326661
 20
239.8108791222
 30
0.0
 11
171.2613317124
 21
239.6880935539
 31
0.0
  0
LINE
  5
163
330
1F
100
AcDbEntity
  8
0
  6
Continuous
 62
     7
370
    15
100
AcDbLine
 10
173.2613327853
 20
239.4425283779
 30
0.0
 11
174.2613318316
 21
239.3197428097
 31
0.0
  0
LINE
  5
164
330
1F
100
AcDbEntity
  8
0
  6
Continuous
 62
     7
370
    15
100
AcDbLine
 10
176.2613329045
 20
239.0741716732
 30
0.0
 11
177.2613319508
 21
238.951386105
 31
0.0
  0
LINE
  5
165
330
1F
100
AcDbEntity
  8
0
  6
Continuous
 62
     7
370
    15
100
AcDbLine
 10
179.2613330237
 20
238.705820929
 30
0.0
 11
180.2613320701
 21
238.5830353607
 31
0.0
  0
LINE
  5
166
330
1F
100
AcDbEntity
  8
0
  6
Continuous
 62
     7
370
    15
100
AcDbLine
 10
182.2613331429
 20
238.3374642243
 30
0.0
 11
183.2613321893
 21
238.214678656
 31
0.0
  0
LINE
  5
167
330
1F
100
AcDbEntity
  8
0
  6
Continuous
 62
     7
370
    15
100
AcDbLine
 10
185.2613332621
 20
237.96911348
 30
0.0
 11
186.2613323085
 21
237.8463279118
 31
0.0
  0
LINE
  5
168
330
1F
100
AcDbEntity
  8
0
  6
Continuous
 62
     7
370
    15
100
AcDbLine
 10
188.2613333814
 20
237.6007567753
 30
0.0
 11
189.2613324277
 21
237.4779712071
 31
0.0
  0
LINE
  5
169
330
1F
100
AcDbEntity
  8
0
  6
Continuous
 62
     7
370
    15
100
AcDbLine
 10
191.2613305203
 20
237.232406031
 30
0.0
 11
191.8608519189
 21
237.1587942947
 31
0.0
  0
LINE
  5
16A
330
1F
100
AcDbEntity
  8
0
  6
Continuous
 62
     7
370
    15
100
AcDbLine
 10
111.0213312261
 20
243.824047934
 30
0.0
 11
111.0213312261
 21
236.284048449
 31
0.0
  0
LINE
  5
16B
330
1F
100
AcDbEntity
  8
0
  6
Continuous
 62
     7
370
    15
100
AcDbLine
 10
191.8608519189
 20
242.1699057926
 30
0.0
 11
191.8608519189
 21
242.0240472664
 31
0.0
  0
LINE
  5
16C
330
1F
100
AcDbEntity
  8
0
  6
Continuous
 62
     7
370
    15
100
AcDbLine
 10
192.2613355271
 20
242.1699057926
 30
0.0
 11
191.8608519189
 21
242.1699057926
 31
0.0
  0
LINE
  5
16D
330
1F
100
AcDbEntity
  8
0
  6
Continuous
 62
     7
370
    15
100
AcDbLine
 10
191.8608519189
 20
242.4840461125
 30
0.0
 11
191.8608519189
 21
242.1840499748
 31
0.0
  0
LINE
  5
16E
330
1F
100
AcDbEntity
  8
0
  6
Continuous
 62
     7
370
    15
100
AcDbLine
 10
192.2613355271
 20
242.1840499748
 30
0.0
 11
191.8608519189
 21
242.1840499748
 31
0.0
  0
LINE
  5
16F
330
1F
100
AcDbEntity
  8
0
  6
Continuous
 62
     7
370
    15
100
AcDbLine
 10
192.2613355271
 20
242.4840461125
 30
0.0
 11
191.8608519189
 21
242.4840461125
 31
0.0
  0
LINE
  5
170
330
1F
100
AcDbEntity
  8
0
  6
Continuous
 62
     7
370
    15
100
AcDbLine
 10
191.8608519189
 20
236.284048449
 30
0.0
 11
191.8608519189
 21
242.0240472664
 31
0.0
  0
LINE
  5
171
330
1F
100
AcDbEntity
  8
0
  6
Continuous
 62
     7
370
    15
100
AcDbLine
 10
191.8608519189
 20
242.0240472664
 30
0.0
 11
192.2613355271
 21
242.0240472664
 31
0.0
  0
LINE
  5
172
330
1F
100
AcDbEntity
  8
0
  6
Continuous
 62
     7
370
    15
100
AcDbLine
 10
96.4213314406
 20
248.2240508904
 30
0.0
 11
96.4213314406
 21
247.9740511288
 31
0.0
  0
LINE
  5
173
330
1F
100
AcDbEntity
  8
0
  6
Continuous
 62
     7
370
    15
100
AcDbLine
 10
196.5813311688
 20
153.3440488169
 30
0.0
 11
196.5813311688
 21
153.3454630302
 31
0.0
  0
LINE
  5
174
330
1F
100
AcDbEntity
  8
0
  6
Continuous
 62
     7
370
    15
100
AcDbLine
 10
102.7213337771
 20
153.5940488229
 30
0.0
 11
102.8213324897
 21
153.5940488229
 31
0.0
  0
LINE
  5
175
330
1F
100
AcDbEntity
  8
0
  6
Continuous
 62
     7
370
    15
100
AcDbLine
 10
102.7213337771
 20
153.3440488169
 30
0.0
 11
102.7213337771
 21
153.5940488229
 31
0.0
  0
LINE
  5
176
330
1F
100
AcDbEntity
  8
0
  6
Continuous
 62
     7
370
    15
100
AcDbLine
 10
96.6713312022
 20
153.3440488169
 30
0.0
 11
102.7213337771
 21
153.3440488169
 31
0.0
  0
LINE
  5
177
330
1F
100
AcDbEntity
  8
0
  6
Continuous
 62
     7
370
    15
100
AcDbLine
 10
96.6813328616
 20
247.9740511288
 30
0.0
 11
96.6713312022
 21
247.9740511288
 31
0.0
  0
LINE
  5
178
330
1F
100
AcDbEntity
  8
0
  6
Continuous
 62
     7
370
    15
100
AcDbLine
 10
192.2613355271
 20
247.4840473045
 30
0.0
 11
191.2613305203
 21
247.4840473045
 31
0.0
  0
LINE
  5
179
330
1F
100
AcDbEntity
  8
0
  6
Continuous
 62
     7
370
    15
100
AcDbLine
 10
191.2613305203
 20
247.4840473045
 30
0.0
 11
191.2613305203
 21
236.284048449
 31
0.0
  0
LINE
  5
17A
330
1F
100
AcDbEntity
  8
0
  6
Continuous
 62
     7
370
    15
100
AcDbLine
 10
191.2613305203
 20
236.284048449
 30
0.0
 11
192.2613355271
 21
236.284048449
 31
0.0
  0
LINE
  5
17B
330
1F
100
AcDbEntity
  8
0
  6
Continuous
 62
     7
370
    15
100
AcDbLine
 10
192.2613355271
 20
236.284048449
 30
0.0
 11
192.2613355271
 21
247.4840473045
 31
0.0
  0
LINE
  5
17C
330
1F
100
AcDbEntity
  8
0
  6
Continuous
 62
     7
370
    15
100
AcDbLine
 10
186.2613323085
 20
247.4840473045
 30
0.0
 11
185.2613332621
 21
247.4840473045
 31
0.0
  0
LINE
  5
17D
330
1F
100
AcDbEntity
  8
0
  6
Continuous
 62
     7
370
    15
100
AcDbLine
 10
185.2613332621
 20
247.4840473045
 30
0.0
 11
185.2613332621
 21
236.284048449
 31
0.0
  0
LINE
  5
17E
330
1F
100
AcDbEntity
  8
0
  6
Continuous
 62
     7
370
    15
100
AcDbLine
 10
185.2613332621
 20
236.284048449
 30
0.0
 11
186.2613323085
 21
236.284048449
 31
0.0
  0
LINE
  5
17F
330
1F
100
AcDbEntity
  8
0
  6
Continuous
 62
     7
370
    15
100
AcDbLine
 10
186.2613323085
 20
236.284048449
 30
0.0
 11
186.2613323085
 21
247.4840473045
 31
0.0
  0
LINE
  5
180
330
1F
100
AcDbEntity
  8
0
  6
Continuous
 62
     7
370
    15
100
AcDbLine
 10
180.2613320701
 20
247.4840473045
 30
0.0
 11
179.2613330237
 21
247.4840473045
 31
0.0
  0
LINE
  5
181
330
1F
100
AcDbEntity
  8
0
  6
Continuous
 62
     7
370
    15
100
AcDbLine
 10
179.2613330237
 20
247.4840473045
 30
0.0
 11
179.2613330237
 21
236.284048449
 31
0.0
  0
LINE
  5
182
330
1F
100
AcDbEntity
  8
0
  6
Continuous
 62
     7
370
    15
100
AcDbLine
 10
179.2613330237
 20
236.284048449
 30
0.0
 11
180.2613320701
 21
236.284048449
 31
0.0
  0
LINE
  5
183
330
1F
100
AcDbEntity
  8
0
  6
Continuous
 62
     7
370
    15
100
AcDbLine
 10
180.2613320701
 20
236.284048449
 30
0.0
 11
180.2613320701
 21
247.4840473045
 31
0.0
  0
LINE
  5
184
330
1F
100
AcDbEntity
  8
0
  6
Continuous
 62
     7
370
    15
100
AcDbLine
 10
174.2613318316
 20
247.4840473045
 30
0.0
 11
173.2613327853
 21
247.4840473045
 31
0.0
  0
LINE
  5
185
330
1F
100
AcDbEntity
  8
0
  6
Continuous
 62
     7
370
    15
100
AcDbLine
 10
173.2613327853
 20
247.4840473045
 30
0.0
 11
173.2613327853
 21
236.284048449
 31
0.0
  0
LINE
  5
186
330
1F
100
AcDbEntity
  8
0
  6
Continuous
 62
     7
370
    15
100
AcDbLine
 10
173.2613327853
 20
236.284048449
 30
0.0
 11
174.2613318316
 21
236.284048449
 31
0.0
  0
LINE
  5
187
330
1F
100
AcDbEntity
  8
0
  6
Continuous
 62
     7
370
    15
100
AcDbLine
 10
174.2613318316
 20
236.284048449
 30
0.0
 11
174.2613318316
 21
247.4840473045
 31
0.0
  0
LINE
  5
188
330
1F
100
AcDbEntity
  8
0
  6
Continuous
 62
     7
370
    15
100
AcDbLine
 10
168.2613315932
 20
247.4840473045
 30
0.0
 11
167.2613325469
 21
247.4840473045
 31
0.0
  0
LINE
  5
189
330
1F
100
AcDbEntity
  8
0
  6
Continuous
 62
     7
370
    15
100
AcDbLine
 10
167.2613325469
 20
247.4840473045
 30
0.0
 11
167.2613325469
 21
236.284048449
 31
0.0
  0
LINE
  5
18A
330
1F
100
AcDbEntity
  8
0
  6
Continuous
 62
     7
370
    15
100
AcDbLine
 10
167.2613325469
 20
236.284048449
 30
0.0
 11
168.2613315932
 21
236.284048449
 31
0.0
  0
LINE
  5
18B
330
1F
100
AcDbEntity
  8
0
  6
Continuous
 62
     7
370
    15
100
AcDbLine
 10
168.2613315932
 20
236.284048449
 30
0.0
 11
168.2613315932
 21
247.4840473045
 31
0.0
  0
LINE
  5
18C
330
1F
100
AcDbEntity
  8
0
  6
Continuous
 62
     7
370
    15
100
AcDbLine
 10
162.2613328449
 20
247.4840473045
 30
0.0
 11
161.2613323085
 21
247.4840473045
 31
0.0
  0
LINE
  5
18D
330
1F
100
AcDbEntity
  8
0
  6
Continuous
 62
     7
370
    15
100
AcDbLine
 10
161.2613323085
 20
247.4840473045
 30
0.0
 11
161.2613323085
 21
236.284048449
 31
0.0
  0
LINE
  5
18E
330
1F
100
AcDbEntity
  8
0
  6
Continuous
 62
     7
370
    15
100
AcDbLine
 10
161.2613323085
 20
236.284048449
 30
0.0
 11
162.2613328449
 21
236.284048449
 31
0.0
  0
LINE
  5
18F
330
1F
100
AcDbEntity
  8
0
  6
Continuous
 62
     7
370
    15
100
AcDbLine
 10
162.2613328449
 20
236.284048449
 30
0.0
 11
162.2613328449
 21
247.4840473045
 31
0.0
  0
LINE
  5
190
330
1F
100
AcDbEntity
  8
0
  6
Continuous
 62
     7
370
    15
100
AcDbLine
 10
156.2613326065
 20
247.4840473045
 30
0.0
 11
155.2613320701
 21
247.4840473045
 31
0.0
  0
LINE
  5
191
330
1F
100
AcDbEntity
  8
0
  6
Continuous
 62
     7
370
    15
100
AcDbLine
 10
155.2613320701
 20
247.4840473045
 30
0.0
 11
155.2613320701
 21
236.284048449
 31
0.0
  0
LINE
  5
192
330
1F
100
AcDbEntity
  8
0
  6
Continuous
 62
     7
370
    15
100
AcDbLine
 10
155.2613320701
 20
236.284048449
 30
0.0
 11
156.2613326065
 21
236.284048449
 31
0.0
  0
LINE
  5
193
330
1F
100
AcDbEntity
  8
0
  6
Continuous
 62
     7
370
    15
100
AcDbLine
 10
156.2613326065
 20
236.284048449
 30
0.0
 11
156.2613326065
 21
247.4840473045
 31
0.0
  0
LINE
  5
194
330
1F
100
AcDbEntity
  8
0
  6
Continuous
 62
     7
370
    15
100
AcDbLine
 10
150.2613323681
 20
247.4840473045
 30
0.0
 11
149.2613325767
 21
247.4840473045
 31
0.0
  0
LINE
  5
195
330
1F
100
AcDbEntity
  8
0
  6
Continuous
 62
     7
370
    15
100
AcDbLine
 10
149.2613325767
 20
247.4840473045
 30
0.0
 11
149.2613325767
 21
236.284048449
 31
0.0
  0
LINE
  5
196
330
1F
100
AcDbEntity
  8
0
  6
Continuous
 62
     7
370
    15
100
AcDbLine
 10
149.2613325767
 20
236.284048449
 30
0.0
 11
150.2613323681
 21
236.284048449
 31
0.0
  0
LINE
  5
197
330
1F
100
AcDbEntity
  8
0
  6
Continuous
 62
     7
370
    15
100
AcDbLine
 10
150.2613323681
 20
236.284048449
 30
0.0
 11
150.2613323681
 21
247.4840473045
 31
0.0
  0
ARC
  5
198
330
1F
100
AcDbEntity
  8
0
  6
Continuous
 62
     7
370
    15
100
AcDbCircle
 10
143.7613326179
 20
246.2840488199
 30
0.0
 40
1.129616558541749
100
AcDbArc
 50
296.2716831085
 51
243.7283168916
  0
LINE
  5
199
330
1F
100
AcDbEntity
  8
0
  6
Continuous
 62
     7
370
    15
100
AcDbLine
 10
143.2613327108
 20
245.2711175789
 30
0.0
 11
143.2613327108
 21
236.284048449
 31
0.0
  0
LINE
  5
19A
330
1F
100
AcDbEntity
  8
0
  6
Continuous
 62
     7
370
    15
100
AcDbLine
 10
143.2613327108
 20
236.284048449
 30
0.0
 11
144.2613325022
 21
236.284048449
 31
0.0
  0
LINE
  5
19B
330
1F
100
AcDbEntity
  8
0
  6
Continuous
 62
     7
370
    15
100
AcDbLine
 10
144.2613325022
 20
236.284048449
 30
0.0
 11
144.2613325022
 21
245.2711175789
 31
0.0
  0
LINE
  5
19C
330
1F
100
AcDbEntity
  8
0
  6
Continuous
 62
     7
370
    15
100
AcDbLine
 10
138.2613326363
 20
247.4840473045
 30
0.0
 11
137.2613326586
 21
247.4840473045
 31
0.0
  0
LINE
  5
19D
330
1F
100
AcDbEntity
  8
0
  6
Continuous
 62
     7
370
    15
100
AcDbLine
 10
137.2613326586
 20
247.4840473045
 30
0.0
 11
137.2613326586
 21
236.284048449
 31
0.0
  0
LINE
  5
19E
330
1F
100
AcDbEntity
  8
0
  6
Continuous
 62
     7
370
    15
100
AcDbLine
 10
137.2613326586
 20
236.284048449
 30
0.0
 11
138.2613326363
 21
236.284048449
 31
0.0
  0
LINE
  5
19F
330
1F
100
AcDbEntity
  8
0
  6
Continuous
 62
     7
370
    15
100
AcDbLine
 10
138.2613326363
 20
236.284048449
 30
0.0
 11
138.2613326363
 21
247.4840473045
 31
0.0
  0
LINE
  5
1A0
330
1F
100
AcDbEntity
  8
0
  6
Continuous
 62
     7
370
    15
100
AcDbLine
 10
132.2613323979
 20
247.4840473045
 30
0.0
 11
131.2613326065
 21
247.4840473045
 31
0.0
  0
LINE
  5
1A1
330
1F
100
AcDbEntity
  8
0
  6
Continuous
 62
     7
370
    15
100
AcDbLine
 10
131.2613326065
 20
247.4840473045
 30
0.0
 11
131.2613326065
 21
236.284048449
 31
0.0
  0
LINE
  5
1A2
330
1F
100
AcDbEntity
  8
0
  6
Continuous
 62
     7
370
    15
100
AcDbLine
 10
131.2613326065
 20
236.284048449
 30
0.0
 11
132.2613323979
 21
236.284048449
 31
0.0
  0
LINE
  5
1A3
330
1F
100
AcDbEntity
  8
0
  6
Continuous
 62
     7
370
    15
100
AcDbLine
 10
132.2613323979
 20
236.284048449
 30
0.0
 11
132.2613323979
 21
247.4840473045
 31
0.0
  0
LINE
  5
1A4
330
1F
100
AcDbEntity
  8
0
  6
Continuous
 62
     7
370
    15
100
AcDbLine
 10
126.2613329045
 20
247.4840473045
 30
0.0
 11
125.2613323681
 21
247.4840473045
 31
0.0
  0
LINE
  5
1A5
330
1F
100
AcDbEntity
  8
0
  6
Continuous
 62
     7
370
    15
100
AcDbLine
 10
125.2613323681
 20
247.4840473045
 30
0.0
 11
125.2613323681
 21
236.284048449
 31
0.0
  0
LINE
  5
1A6
330
1F
100
AcDbEntity
  8
0
  6
Continuous
 62
     7
370
    15
100
AcDbLine
 10
125.2613323681
 20
236.284048449
 30
0.0
 11
126.2613329045
 21
236.284048449
 31
0.0
  0
LINE
  5
1A7
330
1F
100
AcDbEntity
  8
0
  6
Continuous
 62
     7
370
    15
100
AcDbLine
 10
126.2613329045
 20
236.284048449
 30
0.0
 11
126.2613329045
 21
247.4840473045
 31
0.0
  0
LINE
  5
1A8
330
1F
100
AcDbEntity
  8
0
  6
Continuous
 62
     7
370
    15
100
AcDbLine
 10
120.2613326661
 20
247.4840473045
 30
0.0
 11
119.2613321297
 21
247.4840473045
 31
0.0
  0
LINE
  5
1A9
330
1F
100
AcDbEntity
  8
0
  6
Continuous
 62
     7
370
    15
100
AcDbLine
 10
119.2613321297
 20
247.4840473045
 30
0.0
 11
119.2613321297
 21
236.284048449
 31
0.0
  0
LINE
  5
1AA
330
1F
100
AcDbEntity
  8
0
  6
Continuous
 62
     7
370
    15
100
AcDbLine
 10
119.2613321297
 20
236.284048449
 30
0.0
 11
120.2613326661
 21
236.284048449
 31
0.0
  0
LINE
  5
1AB
330
1F
100
AcDbEntity
  8
0
  6
Continuous
 62
     7
370
    15
100
AcDbLine
 10
120.2613326661
 20
236.284048449
 30
0.0
 11
120.2613326661
 21
247.4840473045
 31
0.0
  0
LINE
  5
1AC
330
1F
100
AcDbEntity
  8
0
  6
Continuous
 62
     7
370
    15
100
AcDbLine
 10
114.2613324277
 20
247.4840473045
 30
0.0
 11
113.2613333814
 21
247.4840473045
 31
0.0
  0
LINE
  5
1AD
330
1F
100
AcDbEntity
  8
0
  6
Continuous
 62
     7
370
    15
100
AcDbLine
 10
113.2613333814
 20
247.4840473045
 30
0.0
 11
113.2613333814
 21
236.284048449
 31
0.0
  0
LINE
  5
1AE
330
1F
100
AcDbEntity
  8
0
  6
Continuous
 62
     7
370
    15
100
AcDbLine
 10
113.2613333814
 20
236.284048449
 30
0.0
 11
114.2613324277
 21
236.284048449
 31
0.0
  0
LINE
  5
1AF
330
1F
100
AcDbEntity
  8
0
  6
Continuous
 62
     7
370
    15
100
AcDbLine
 10
114.2613324277
 20
236.284048449
 30
0.0
 11
114.2613324277
 21
247.4840473045
 31
0.0
  0
LINE
  5
1B0
330
1F
100
AcDbEntity
  8
0
  6
Continuous
 62
     7
370
    15
100
AcDbLine
 10
108.2613321893
 20
247.4840473045
 30
0.0
 11
107.2613331429
 21
247.4840473045
 31
0.0
  0
LINE
  5
1B1
330
1F
100
AcDbEntity
  8
0
  6
Continuous
 62
     7
370
    15
100
AcDbLine
 10
107.2613331429
 20
247.4840473045
 30
0.0
 11
107.2613331429
 21
236.284048449
 31
0.0
  0
LINE
  5
1B2
330
1F
100
AcDbEntity
  8
0
  6
Continuous
 62
     7
370
    15
100
AcDbLine
 10
107.2613331429
 20
236.284048449
 30
0.0
 11
108.2613321893
 21
236.284048449
 31
0.0
  0
LINE
  5
1B3
330
1F
100
AcDbEntity
  8
0
  6
Continuous
 62
     7
370
    15
100
AcDbLine
 10
108.2613321893
 20
236.284048449
 30
0.0
 11
108.2613321893
 21
247.4840473045
 31
0.0
  0
LINE
  5
1B4
330
1F
100
AcDbEntity
  8
0
  6
Continuous
 62
     7
370
    15
100
AcDbLine
 10
101.2613329045
 20
247.4840473045
 30
0.0
 11
101.2613329045
 21
236.284048449
 31
0.0
  0
LINE
  5
1B5
330
1F
100
AcDbEntity
  8
0
  6
Continuous
 62
     7
370
    15
100
AcDbLine
 10
101.2613329045
 20
236.284048449
 30
0.0
 11
102.2613319508
 21
236.284048449
 31
0.0
  0
LINE
  5
1B6
330
1F
100
AcDbEntity
  8
0
  6
Continuous
 62
     7
370
    15
100
AcDbLine
 10
102.2613319508
 20
236.284048449
 30
0.0
 11
102.2613319508
 21
247.4840473045
 31
0.0
  0
LINE
  5
1B7
330
1F
100
AcDbEntity
  8
0
  6
Continuous
 62
     7
370
    15
100
AcDbLine
 10
102.2613319508
 20
247.4840473045
 30
0.0
 11
101.2613329045
 21
247.4840473045
 31
0.0
  0
ARC
  5
1B8
330
1F
100
AcDbEntity
  8
0
  6
Continuous
 62
     7
370
    15
100
AcDbCircle
 10
104.7613326179
 20
246.2840488199
 30
0.0
 40
1.129616558541723
100
AcDbArc
 50
296.2716831085
 51
243.7283168915
  0
LINE
  5
1B9
330
1F
100
AcDbEntity
  8
0
  6
Continuous
 62
     7
370
    15
100
AcDbLine
 10
104.2613330237
 20
245.2711175789
 30
0.0
 11
104.2613330237
 21
236.284048449
 31
0.0
  0
LINE
  5
1BA
330
1F
100
AcDbEntity
  8
0
  6
Continuous
 62
     7
370
    15
100
AcDbLine
 10
104.2613330237
 20
236.284048449
 30
0.0
 11
105.2613320701
 21
236.284048449
 31
0.0
  0
LINE
  5
1BB
330
1F
100
AcDbEntity
  8
0
  6
Continuous
 62
     7
370
    15
100
AcDbLine
 10
105.2613320701
 20
236.284048449
 30
0.0
 11
105.2613320701
 21
245.2711175789
 31
0.0
  0
LINE
  5
1BC
330
1F
100
AcDbEntity
  8
0
  6
Continuous
 62
     7
370
    15
100
AcDbLine
 10
111.2613323085
 20
247.4840473045
 30
0.0
 11
110.2613332621
 21
247.4840473045
 31
0.0
  0
LINE
  5
1BD
330
1F
100
AcDbEntity
  8
0
  6
Continuous
 62
     7
370
    15
100
AcDbLine
 10
110.2613332621
 20
247.4840473045
 30
0.0
 11
110.2613332621
 21
236.284048449
 31
0.0
  0
LINE
  5
1BE
330
1F
100
AcDbEntity
  8
0
  6
Continuous
 62
     7
370
    15
100
AcDbLine
 10
110.2613332621
 20
236.284048449
 30
0.0
 11
111.2613323085
 21
236.284048449
 31
0.0
  0
LINE
  5
1BF
330
1F
100
AcDbEntity
  8
0
  6
Continuous
 62
     7
370
    15
100
AcDbLine
 10
111.2613323085
 20
236.284048449
 30
0.0
 11
111.2613323085
 21
247.4840473045
 31
0.0
  0
LINE
  5
1C0
330
1F
100
AcDbEntity
  8
0
  6
Continuous
 62
     7
370
    15
100
AcDbLine
 10
117.2613325469
 20
247.4840473045
 30
0.0
 11
116.2613320104
 21
247.4840473045
 31
0.0
  0
LINE
  5
1C1
330
1F
100
AcDbEntity
  8
0
  6
Continuous
 62
     7
370
    15
100
AcDbLine
 10
116.2613320104
 20
247.4840473045
 30
0.0
 11
116.2613320104
 21
236.284048449
 31
0.0
  0
LINE
  5
1C2
330
1F
100
AcDbEntity
  8
0
  6
Continuous
 62
     7
370
    15
100
AcDbLine
 10
116.2613320104
 20
236.284048449
 30
0.0
 11
117.2613325469
 21
236.284048449
 31
0.0
  0
LINE
  5
1C3
330
1F
100
AcDbEntity
  8
0
  6
Continuous
 62
     7
370
    15
100
AcDbLine
 10
117.2613325469
 20
236.284048449
 30
0.0
 11
117.2613325469
 21
247.4840473045
 31
0.0
  0
LINE
  5
1C4
330
1F
100
AcDbEntity
  8
0
  6
Continuous
 62
     7
370
    15
100
AcDbLine
 10
123.2613327853
 20
247.4840473045
 30
0.0
 11
122.2613322489
 21
247.4840473045
 31
0.0
  0
LINE
  5
1C5
330
1F
100
AcDbEntity
  8
0
  6
Continuous
 62
     7
370
    15
100
AcDbLine
 10
122.2613322489
 20
247.4840473045
 30
0.0
 11
122.2613322489
 21
236.284048449
 31
0.0
  0
LINE
  5
1C6
330
1F
100
AcDbEntity
  8
0
  6
Continuous
 62
     7
370
    15
100
AcDbLine
 10
122.2613322489
 20
236.284048449
 30
0.0
 11
123.2613327853
 21
236.284048449
 31
0.0
  0
LINE
  5
1C7
330
1F
100
AcDbEntity
  8
0
  6
Continuous
 62
     7
370
    15
100
AcDbLine
 10
123.2613327853
 20
236.284048449
 30
0.0
 11
123.2613327853
 21
247.4840473045
 31
0.0
  0
LINE
  5
1C8
330
1F
100
AcDbEntity
  8
0
  6
Continuous
 62
     7
370
    15
100
AcDbLine
 10
129.2613322787
 20
247.4840473045
 30
0.0
 11
128.2613324873
 21
247.4840473045
 31
0.0
  0
LINE
  5
1C9
330
1F
100
AcDbEntity
  8
0
  6
Continuous
 62
     7
370
    15
100
AcDbLine
 10
128.2613324873
 20
247.4840473045
 30
0.0
 11
128.2613324873
 21
236.284048449
 31
0.0
  0
LINE
  5
1CA
330
1F
100
AcDbEntity
  8
0
  6
Continuous
 62
     7
370
    15
100
AcDbLine
 10
128.2613324873
 20
236.284048449
 30
0.0
 11
129.2613322787
 21
236.284048449
 31
0.0
  0
LINE
  5
1CB
330
1F
100
AcDbEntity
  8
0
  6
Continuous
 62
     7
370
    15
100
AcDbLine
 10
129.2613322787
 20
236.284048449
 30
0.0
 11
129.2613322787
 21
247.4840473045
 31
0.0
  0
LINE
  5
1CC
330
1F
100
AcDbEntity
  8
0
  6
Continuous
 62
     7
370
    15
100
AcDbLine
 10
135.2613325171
 20
247.4840473045
 30
0.0
 11
134.2613327257
 21
247.4840473045
 31
0.0
  0
LINE
  5
1CD
330
1F
100
AcDbEntity
  8
0
  6
Continuous
 62
     7
370
    15
100
AcDbLine
 10
134.2613327257
 20
247.4840473045
 30
0.0
 11
134.2613327257
 21
236.284048449
 31
0.0
  0
LINE
  5
1CE
330
1F
100
AcDbEntity
  8
0
  6
Continuous
 62
     7
370
    15
100
AcDbLine
 10
134.2613327257
 20
236.284048449
 30
0.0
 11
135.2613325171
 21
236.284048449
 31
0.0
  0
LINE
  5
1CF
330
1F
100
AcDbEntity
  8
0
  6
Continuous
 62
     7
370
    15
100
AcDbLine
 10
135.2613325171
 20
236.284048449
 30
0.0
 11
135.2613325171
 21
247.4840473045
 31
0.0
  0
LINE
  5
1D0
330
1F
100
AcDbEntity
  8
0
  6
Continuous
 62
     7
370
    15
100
AcDbLine
 10
141.2613325692
 20
247.4840473045
 30
0.0
 11
140.2613325916
 21
247.4840473045
 31
0.0
  0
LINE
  5
1D1
330
1F
100
AcDbEntity
  8
0
  6
Continuous
 62
     7
370
    15
100
AcDbLine
 10
140.2613325916
 20
247.4840473045
 30
0.0
 11
140.2613325916
 21
236.284048449
 31
0.0
  0
LINE
  5
1D2
330
1F
100
AcDbEntity
  8
0
  6
Continuous
 62
     7
370
    15
100
AcDbLine
 10
140.2613325916
 20
236.284048449
 30
0.0
 11
141.2613325692
 21
236.284048449
 31
0.0
  0
LINE
  5
1D3
330
1F
100
AcDbEntity
  8
0
  6
Continuous
 62
     7
370
    15
100
AcDbLine
 10
141.2613325692
 20
236.284048449
 30
0.0
 11
141.2613325692
 21
247.4840473045
 31
0.0
  0
LINE
  5
1D4
330
1F
100
AcDbEntity
  8
0
  6
Continuous
 62
     7
370
    15
100
AcDbLine
 10
147.2613322489
 20
247.4840473045
 30
0.0
 11
146.2613324575
 21
247.4840473045
 31
0.0
  0
LINE
  5
1D5
330
1F
100
AcDbEntity
  8
0
  6
Continuous
 62
     7
370
    15
100
AcDbLine
 10
146.2613324575
 20
247.4840473045
 30
0.0
 11
146.2613324575
 21
236.284048449
 31
0.0
  0
LINE
  5
1D6
330
1F
100
AcDbEntity
  8
0
  6
Continuous
 62
     7
370
    15
100
AcDbLine
 10
146.2613324575
 20
236.284048449
 30
0.0
 11
147.2613322489
 21
236.284048449
 31
0.0
  0
LINE
  5
1D7
330
1F
100
AcDbEntity
  8
0
  6
Continuous
 62
     7
370
    15
100
AcDbLine
 10
147.2613322489
 20
236.284048449
 30
0.0
 11
147.2613322489
 21
247.4840473045
 31
0.0
  0
LINE
  5
1D8
330
1F
100
AcDbEntity
  8
0
  6
Continuous
 62
     7
370
    15
100
AcDbLine
 10
153.2613324873
 20
247.4840473045
 30
0.0
 11
152.2613319508
 21
247.4840473045
 31
0.0
  0
LINE
  5
1D9
330
1F
100
AcDbEntity
  8
0
  6
Continuous
 62
     7
370
    15
100
AcDbLine
 10
152.2613319508
 20
247.4840473045
 30
0.0
 11
152.2613319508
 21
236.284048449
 31
0.0
  0
LINE
  5
1DA
330
1F
100
AcDbEntity
  8
0
  6
Continuous
 62
     7
370
    15
100
AcDbLine
 10
152.2613319508
 20
236.284048449
 30
0.0
 11
153.2613324873
 21
236.284048449
 31
0.0
  0
LINE
  5
1DB
330
1F
100
AcDbEntity
  8
0
  6
Continuous
 62
     7
370
    15
100
AcDbLine
 10
153.2613324873
 20
236.284048449
 30
0.0
 11
153.2613324873
 21
247.4840473045
 31
0.0
  0
LINE
  5
1DC
330
1F
100
AcDbEntity
  8
0
  6
Continuous
 62
     7
370
    15
100
AcDbLine
 10
159.2613327257
 20
247.4840473045
 30
0.0
 11
158.2613321893
 21
247.4840473045
 31
0.0
  0
LINE
  5
1DD
330
1F
100
AcDbEntity
  8
0
  6
Continuous
 62
     7
370
    15
100
AcDbLine
 10
158.2613321893
 20
247.4840473045
 30
0.0
 11
158.2613321893
 21
236.284048449
 31
0.0
  0
LINE
  5
1DE
330
1F
100
AcDbEntity
  8
0
  6
Continuous
 62
     7
370
    15
100
AcDbLine
 10
158.2613321893
 20
236.284048449
 30
0.0
 11
159.2613327257
 21
236.284048449
 31
0.0
  0
LINE
  5
1DF
330
1F
100
AcDbEntity
  8
0
  6
Continuous
 62
     7
370
    15
100
AcDbLine
 10
159.2613327257
 20
236.284048449
 30
0.0
 11
159.2613327257
 21
247.4840473045
 31
0.0
  0
LINE
  5
1E0
330
1F
100
AcDbEntity
  8
0
  6
Continuous
 62
     7
370
    15
100
AcDbLine
 10
165.261331474
 20
247.4840473045
 30
0.0
 11
164.2613324277
 21
247.4840473045
 31
0.0
  0
LINE
  5
1E1
330
1F
100
AcDbEntity
  8
0
  6
Continuous
 62
     7
370
    15
100
AcDbLine
 10
164.2613324277
 20
247.4840473045
 30
0.0
 11
164.2613324277
 21
236.284048449
 31
0.0
  0
LINE
  5
1E2
330
1F
100
AcDbEntity
  8
0
  6
Continuous
 62
     7
370
    15
100
AcDbLine
 10
164.2613324277
 20
236.284048449
 30
0.0
 11
165.261331474
 21
236.284048449
 31
0.0
  0
LINE
  5
1E3
330
1F
100
AcDbEntity
  8
0
  6
Continuous
 62
     7
370
    15
100
AcDbLine
 10
165.261331474
 20
236.284048449
 30
0.0
 11
165.261331474
 21
247.4840473045
 31
0.0
  0
LINE
  5
1E4
330
1F
100
AcDbEntity
  8
0
  6
Continuous
 62
     7
370
    15
100
AcDbLine
 10
171.2613317124
 20
247.4840473045
 30
0.0
 11
170.2613326661
 21
247.4840473045
 31
0.0
  0
LINE
  5
1E5
330
1F
100
AcDbEntity
  8
0
  6
Continuous
 62
     7
370
    15
100
AcDbLine
 10
170.2613326661
 20
247.4840473045
 30
0.0
 11
170.2613326661
 21
236.284048449
 31
0.0
  0
LINE
  5
1E6
330
1F
100
AcDbEntity
  8
0
  6
Continuous
 62
     7
370
    15
100
AcDbLine
 10
170.2613326661
 20
236.284048449
 30
0.0
 11
171.2613317124
 21
236.284048449
 31
0.0
  0
LINE
  5
1E7
330
1F
100
AcDbEntity
  8
0
  6
Continuous
 62
     7
370
    15
100
AcDbLine
 10
171.2613317124
 20
236.284048449
 30
0.0
 11
171.2613317124
 21
247.4840473045
 31
0.0
  0
LINE
  5
1E8
330
1F
100
AcDbEntity
  8
0
  6
Continuous
 62
     7
370
    15
100
AcDbLine
 10
177.2613319508
 20
247.4840473045
 30
0.0
 11
176.2613329045
 21
247.4840473045
 31
0.0
  0
LINE
  5
1E9
330
1F
100
AcDbEntity
  8
0
  6
Continuous
 62
     7
370
    15
100
AcDbLine
 10
176.2613329045
 20
247.4840473045
 30
0.0
 11
176.2613329045
 21
236.284048449
 31
0.0
  0
LINE
  5
1EA
330
1F
100
AcDbEntity
  8
0
  6
Continuous
 62
     7
370
    15
100
AcDbLine
 10
176.2613329045
 20
236.284048449
 30
0.0
 11
177.2613319508
 21
236.284048449
 31
0.0
  0
LINE
  5
1EB
330
1F
100
AcDbEntity
  8
0
  6
Continuous
 62
     7
370
    15
100
AcDbLine
 10
177.2613319508
 20
236.284048449
 30
0.0
 11
177.2613319508
 21
247.4840473045
 31
0.0
  0
ARC
  5
1EC
330
1F
100
AcDbEntity
  8
0
  6
Continuous
 62
     7
370
    15
100
AcDbCircle
 10
182.7613326179
 20
246.2840488199
 30
0.0
 40
1.129616558541762
100
AcDbArc
 50
296.2716831085
 51
243.7283168915
  0
LINE
  5
1ED
330
1F
100
AcDbEntity
  8
0
  6
Continuous
 62
     7
370
    15
100
AcDbLine
 10
182.2613331429
 20
245.2711175789
 30
0.0
 11
182.2613331429
 21
236.284048449
 31
0.0
  0
LINE
  5
1EE
330
1F
100
AcDbEntity
  8
0
  6
Continuous
 62
     7
370
    15
100
AcDbLine
 10
182.2613331429
 20
236.284048449
 30
0.0
 11
183.2613321893
 21
236.284048449
 31
0.0
  0
LINE
  5
1EF
330
1F
100
AcDbEntity
  8
0
  6
Continuous
 62
     7
370
    15
100
AcDbLine
 10
183.2613321893
 20
236.284048449
 30
0.0
 11
183.2613321893
 21
245.2711175789
 31
0.0
  0
LINE
  5
1F0
330
1F
100
AcDbEntity
  8
0
  6
Continuous
 62
     7
370
    15
100
AcDbLine
 10
189.2613324277
 20
247.4840473045
 30
0.0
 11
188.2613333814
 21
247.4840473045
 31
0.0
  0
LINE
  5
1F1
330
1F
100
AcDbEntity
  8
0
  6
Continuous
 62
     7
370
    15
100
AcDbLine
 10
188.2613333814
 20
247.4840473045
 30
0.0
 11
188.2613333814
 21
236.284048449
 31
0.0
  0
LINE
  5
1F2
330
1F
100
AcDbEntity
  8
0
  6
Continuous
 62
     7
370
    15
100
AcDbLine
 10
188.2613333814
 20
236.284048449
 30
0.0
 11
189.2613324277
 21
236.284048449
 31
0.0
  0
LINE
  5
1F3
330
1F
100
AcDbEntity
  8
0
  6
Continuous
 62
     7
370
    15
100
AcDbLine
 10
189.2613324277
 20
236.284048449
 30
0.0
 11
189.2613324277
 21
247.4840473045
 31
0.0
  0
SPLINE
  5
1F4
330
1F
100
AcDbEntity
  8
0
  6
Continuous
 62
     7
370
    15
100
AcDbSpline
210
0.0
220
0.0
230
1.0
 70
     8
 71
     3
 72
    12
 73
     8
 74
     0
 42
0.00000001
 43
0.00000001
 40
0.0
 40
0.0
 40
0.0
 40
0.0
 40
0.2327515084621917
 40
0.4656055570817043
 40
0.6984570720607637
 40
0.9313180605657211
 40
1.0
 40
1.0
 40
1.0
 40
1.0
 10
196.551332151116
 20
247.9740511287787
 30
0.0
 10
196.6013007858366
 20
247.9531547956675
 30
0.0
 10
196.7012600692777
 20
247.9113529234328
 30
0.0
 10
196.8314927680123
 20
247.8486267336
 30
0.0
 10
196.9241866565136
 20
247.7859536496398
 30
0.0
 10
196.9586978862565
 20
247.7378557259826
 30
0.0
 10
196.9608454695896
 20
247.7109169797129
 30
0.0
 10
196.9613346211324
 20
247.7047811855414
 30
0.0
  0
LINE
  5
1F5
330
1F
100
AcDbEntity
  8
0
  6
Continuous
 62
     7
370
    15
100
AcDbLine
 10
196.9613346211
 20
210.3771876206
 30
0.0
 11
196.9613346211
 21
153.5940488229
 31
0.0
  0
LINE
  5
1F6
330
1F
100
AcDbEntity
  8
0
  6
Continuous
 62
     7
370
    15
100
AcDbLine
 10
196.9613346211
 20
153.5940488229
 30
0.0
 11
196.5513321511
 21
153.5940488229
 31
0.0
  0
LINE
  5
1F7
330
1F
100
AcDbEntity
  8
0
  6
Continuous
 62
     7
370
    15
100
AcDbLine
 10
96.6813328616
 20
248.3840476383
 30
0.0
 11
96.6813328616
 21
247.9740511288
 31
0.0
  0
LINE
  5
1F8
330
1F
100
AcDbEntity
  8
0
  6
Continuous
 62
     7
370
    15
100
AcDbLine
 10
196.5513321511
 20
248.3840476383
 30
0.0
 11
96.6813328616
 21
248.3840476383
 31
0.0
  0
LINE
  5
1F9
330
1F
100
AcDbEntity
  8
0
  6
Continuous
 62
     7
370
    15
100
AcDbLine
 10
196.5513321511
 20
247.9740511288
 30
0.0
 11
196.5513321511
 21
248.3840476383
 31
0.0
  0
LINE
  5
1FA
330
1F
100
AcDbEntity
  8
0
  6
Continuous
 62
     7
370
    15
100
AcDbLine
 10
102.8213324897
 20
153.1840488209
 30
0.0
 11
102.8213324897
 21
153.5940488229
 31
0.0
  0
LINE
  5
1FB
330
1F
100
AcDbEntity
  8
0
  6
Continuous
 62
     7
370
    15
100
AcDbLine
 10
196.5513321511
 20
153.1840488209
 30
0.0
 11
196.5513321511
 21
153.5940488229
 31
0.0
  0
LINE
  5
1FC
330
1F
100
AcDbEntity
  8
0
  6
Continuous
 62
     7
370
    15
100
AcDbLine
 10
102.8213324897
 20
153.1840488209
 30
0.0
 11
196.5513321511
 21
153.1840488209
 31
0.0
  0
SPLINE
  5
1FD
330
1F
100
AcDbEntity
  8
0
  6
Continuous
 62
     7
370
    15
100
AcDbSpline
210
0.0
220
0.0
230
1.0
 70
     8
 71
     3
 72
    12
 73
     8
 74
     0
 42
0.00000001
 43
0.00000001
 40
0.0
 40
0.0
 40
0.0
 40
0.0
 40
0.2303404550570133
 40
0.4607637937785951
 40
0.6911928184523907
 40
0.9216159114309692
 40
0.9999999999999999
 40
0.9999999999999999
 40
0.9999999999999999
 40
0.9999999999999999
 10
96.26133171242574
 20
248.2240508903601
 30
0.0
 10
96.26655503457424
 20
248.2048488291998
 30
0.0
 10
96.27700355838512
 20
248.1664377973799
 30
0.0
 10
96.35806245157382
 20
248.1088070823501
 30
0.0
 10
96.47582034940082
 20
248.0512275233289
 30
0.0
 10
96.5885898475672
 20
248.0061734476253
 30
0.0
 10
96.65458080990729
 20
247.9805540612564
 30
0.0
 10
96.67133120221
 20
247.9740511287787
 30
0.0
  0
LINE
  5
1FE
330
1F
100
AcDbEntity
  8
0
  6
Continuous
 62
     7
370
    15
100
AcDbLine
 10
96.4213314406
 20
248.2240508904
 30
0.0
 11
96.2613317124
 21
248.2240508904
 31
0.0
  0
SPLINE
  5
1FF
330
1F
100
AcDbEntity
  8
0
  6
Continuous
 62
     7
370
    15
100
AcDbSpline
210
0.0
220
0.0
230
1.0
 70
     8
 71
     3
 72
    11
 73
     7
 74
     0
 42
0.00000001
 43
0.00000001
 40
0.0
 40
0.0
 40
0.0
 40
0.0
 40
0.2547223133444411
 40
0.5096077032717055
 40
0.7645019612198565
 40
1.0
 40
1.0
 40
1.0
 40
1.0
 10
96.42133144062858
 20
248.2240508903601
 30
0.0
 10
96.42523636391415
 20
248.202818886672
 30
0.0
 10
96.43304871046865
 20
248.1603412862873
 30
0.0
 10
96.49303446240481
 20
248.0966322872918
 30
0.0
 10
96.57627237808485
 20
248.0344964020632
 30
0.0
 10
96.64049160350595
 20
247.9936611753873
 30
0.0
 10
96.67133120221
 20
247.9740511287787
 30
0.0
  0
LINE
  5
200
330
1F
100
AcDbEntity
  8
0
  6
Continuous
 62
     7
370
    15
100
AcDbLine
 10
96.6713312022
 20
153.3440488169
 30
0.0
 11
96.2613317124
 21
153.3440488169
 31
0.0
  0
LINE
  5
201
330
1F
100
AcDbEntity
  8
0
  6
Continuous
 62
     7
370
    15
100
AcDbLine
 10
96.2613317124
 20
153.3440488169
 30
0.0
 11
96.2613317124
 21
248.2226322998
 31
0.0
  0
LINE
  5
202
330
1F
100
AcDbEntity
  8
0
  6
Continuous
 62
     7
370
    15
100
AcDbLine
 10
96.2613317124
 20
248.2226322998
 30
0.0
 11
96.2613317124
 21
248.2240508904
 31
0.0
  0
LINE
  5
203
330
1F
100
AcDbEntity
  8
0
  6
Continuous
 62
     7
370
    15
100
AcDbLine
 10
196.9613346211
 20
247.9740511288
 30
0.0
 11
196.9613346211
 21
247.9367326607
 31
0.0
  0
LINE
  5
204
330
1F
100
AcDbEntity
  8
0
  6
Continuous
 62
     7
370
    15
100
AcDbLine
 10
196.8013319127
 20
247.9740511288
 30
0.0
 11
196.8013319127
 21
247.8604148735
 31
0.0
  0
ARC
  5
205
330
1F
100
AcDbEntity
  8
0
  6
Continuous
 62
     7
370
    15
100
AcDbCircle
 10
196.5513326179
 20
247.9740488199
 30
0.0
 40
0.25
100
AcDbArc
 50
0.0
 51
90.0
  0
ARC
  5
206
330
1F
100
AcDbEntity
  8
0
  6
Continuous
 62
     7
370
    15
100
AcDbCircle
 10
196.5513326179
 20
247.9740488199
 30
0.0
 40
0.4099999999999966
100
AcDbArc
 50
0.0
 51
90.0
  0
LINE
  5
207
330
1F
100
AcDbEntity
  8
0
  6
Continuous
 62
     7
370
    15
100
AcDbLine
 10
96.4227470509
 20
248.3840476383
 30
0.0
 11
96.4227470509
 21
248.2240508904
 31
0.0
  0
LINE
  5
208
330
1F
100
AcDbEntity
  8
0
  6
Continuous
 62
     7
370
    15
100
AcDbLine
 10
96.6813328616
 20
248.3840476383
 30
0.0
 11
96.4227470509
 21
248.3840476383
 31
0.0
  0
LINE
  5
209
330
1F
100
AcDbEntity
  8
0
  6
Continuous
 62
     7
370
    15
100
AcDbLine
 10
96.6813328616
 20
248.2240508904
 30
0.0
 11
96.4227470509
 21
248.2240508904
 31
0.0
  0
LINE
  5
20A
330
1F
100
AcDbEntity
  8
0
  6
Continuous
 62
     7
370
    15
100
AcDbLine
 10
196.7999192826
 20
153.3440488169
 30
0.0
 11
196.7999192826
 21
153.1840488209
 31
0.0
  0
LINE
  5
20B
330
1F
100
AcDbEntity
  8
0
  6
Continuous
 62
     7
370
    15
100
AcDbLine
 10
196.5513321511
 20
153.1840488209
 30
0.0
 11
196.7999192826
 21
153.1840488209
 31
0.0
  0
LINE
  5
20C
330
1F
100
AcDbEntity
  8
0
  6
Continuous
 62
     7
370
    15
100
AcDbLine
 10
196.7999192826
 20
153.3440488169
 30
0.0
 11
196.5513321511
 21
153.3440488169
 31
0.0
  0
LINE
  5
20D
330
1F
100
AcDbEntity
  8
0
  6
Continuous
 62
     7
370
    15
100
AcDbLine
 10
196.8010160081
 20
153.3440488169
 30
0.0
 11
196.8010160081
 21
153.1840488209
 31
0.0
  0
LINE
  5
20E
330
1F
100
AcDbEntity
  8
0
  6
Continuous
 62
     7
370
    15
100
AcDbLine
 10
196.7999192826
 20
153.1840488209
 30
0.0
 11
196.8010160081
 21
153.1840488209
 31
0.0
  0
LINE
  5
20F
330
1F
100
AcDbEntity
  8
0
  6
Continuous
 62
     7
370
    15
100
AcDbLine
 10
196.7999192826
 20
153.3440488169
 30
0.0
 11
196.8010160081
 21
153.3440488169
 31
0.0
  0
LINE
  5
210
330
1F
100
AcDbEntity
  8
0
  6
Continuous
 62
     7
370
    15
100
AcDbLine
 10
196.9613346211
 20
153.3454630302
 30
0.0
 11
196.8013319127
 21
153.3454630302
 31
0.0
  0
LINE
  5
211
330
1F
100
AcDbEntity
  8
0
  6
Continuous
 62
     7
370
    15
100
AcDbLine
 10
196.8013319127
 20
153.5940488229
 30
0.0
 11
196.8013319127
 21
153.3454630302
 31
0.0
  0
LINE
  5
212
330
1F
100
AcDbEntity
  8
0
  6
Continuous
 62
     7
370
    15
100
AcDbLine
 10
196.9613346211
 20
153.5940488229
 30
0.0
 11
196.9613346211
 21
153.3454630302
 31
0.0
  0
LINE
  5
213
330
1F
100
AcDbEntity
  8
0
  6
Continuous
 62
     7
370
    15
100
AcDbLine
 10
196.5513321511
 20
247.9740511288
 30
0.0
 11
196.7999192826
 21
247.9740511288
 31
0.0
  0
LINE
  5
214
330
1F
100
AcDbEntity
  8
0
  6
Continuous
 62
     7
370
    15
100
AcDbLine
 10
196.7999192826
 20
247.9740511288
 30
0.0
 11
196.7999192826
 21
247.8611122479
 31
0.0
  0
LWPOLYLINE
  5
215
330
1F
100
AcDbEntity
  8
0
  6
Continuous
 62
     7
370
    15
100
AcDbPolyline
 90
        3
 70
   128
 43
0.0
 10
104.1313323132
 20
246.924049746
 10
103.9124402158
 20
246.885449778
 10
103.7586870543
 20
246.8043695797
  0
LWPOLYLINE
  5
216
330
1F
100
AcDbEntity
  8
0
  6
Continuous
 62
     7
370
    15
100
AcDbPolyline
 90
        3
 70
   128
 43
0.0
 10
103.7586870543
 20
245.7637261261
 10
103.9124402158
 20
245.6826459278
 10
104.1313323132
 20
245.6440459599
  0
LINE
  5
217
330
1F
100
AcDbEntity
  8
0
  6
Continuous
 62
     7
370
    15
100
AcDbLine
 10
104.1313323132
 20
245.6440459599
 30
0.0
 11
105.3913327805
 21
245.6440459599
 31
0.0
  0
LWPOLYLINE
  5
218
330
1F
100
AcDbEntity
  8
0
  6
Continuous
 62
     7
370
    15
100
AcDbPolyline
 90
        3
 70
   128
 43
0.0
 10
105.3913327805
 20
245.6440459599
 10
105.610224878
 20
245.6826459278
 10
105.7639780394
 20
245.7637261261
  0
LWPOLYLINE
  5
219
330
1F
100
AcDbEntity
  8
0
  6
Continuous
 62
     7
370
    15
100
AcDbPolyline
 90
        3
 70
   128
 43
0.0
 10
105.7639780394
 20
246.8043695797
 10
105.610224878
 20
246.885449778
 10
105.3913327805
 20
246.924049746
  0
LINE
  5
21A
330
1F
100
AcDbEntity
  8
0
  6
Continuous
 62
     7
370
    15
100
AcDbLine
 10
105.3913327805
 20
246.924049746
 30
0.0
 11
104.1313323132
 21
246.924049746
 31
0.0
  0
LWPOLYLINE
  5
21B
330
1F
100
AcDbEntity
  8
0
  6
Continuous
 62
     7
370
    15
100
AcDbPolyline
 90
        3
 70
   128
 43
0.0
 10
143.1313327454
 20
246.924049746
 10
142.9124399028
 20
246.885449778
 10
142.7586871139
 20
246.8043695797
  0
LWPOLYLINE
  5
21C
330
1F
100
AcDbEntity
  8
0
  6
Continuous
 62
     7
370
    15
100
AcDbPolyline
 90
        3
 70
   128
 43
0.0
 10
142.7586871139
 20
245.7637261261
 10
142.9124399028
 20
245.6826459278
 10
143.1313327454
 20
245.6440459599
  0
LINE
  5
21D
330
1F
100
AcDbEntity
  8
0
  6
Continuous
 62
     7
370
    15
100
AcDbLine
 10
143.1313327454
 20
245.6440459599
 30
0.0
 11
144.3913324676
 21
245.6440459599
 31
0.0
  0
LWPOLYLINE
  5
21E
330
1F
100
AcDbEntity
  8
0
  6
Continuous
 62
     7
370
    15
100
AcDbPolyline
 90
        3
 70
   128
 43
0.0
 10
144.3913324676
 20
245.6440459599
 10
144.6102256827
 20
245.6826459278
 10
144.7639784716
 20
245.7637261261
  0
LWPOLYLINE
  5
21F
330
1F
100
AcDbEntity
  8
0
  6
Continuous
 62
     7
370
    15
100
AcDbPolyline
 90
        3
 70
   128
 43
0.0
 10
144.7639784716
 20
246.8043695797
 10
144.6102256827
 20
246.885449778
 10
144.3913324676
 20
246.924049746
  0
LINE
  5
220
330
1F
100
AcDbEntity
  8
0
  6
Continuous
 62
     7
370
    15
100
AcDbLine
 10
144.3913324676
 20
246.924049746
 30
0.0
 11
143.1313327454
 21
246.924049746
 31
0.0
  0
LWPOLYLINE
  5
221
330
1F
100
AcDbEntity
  8
0
  6
Continuous
 62
     7
370
    15
100
AcDbPolyline
 90
        3
 70
   128
 43
0.0
 10
182.1313324324
 20
246.924049746
 10
181.912440335
 20
246.885449778
 10
181.7586871735
 20
246.8043695797
  0
LWPOLYLINE
  5
222
330
1F
100
AcDbEntity
  8
0
  6
Continuous
 62
     7
370
    15
100
AcDbPolyline
 90
        3
 70
   128
 43
0.0
 10
181.7586871735
 20
245.7637261261
 10
181.912440335
 20
245.6826459278
 10
182.1313324324
 20
245.6440459599
  0
LINE
  5
223
330
1F
100
AcDbEntity
  8
0
  6
Continuous
 62
     7
370
    15
100
AcDbLine
 10
182.1313324324
 20
245.6440459599
 30
0.0
 11
183.3913328998
 21
245.6440459599
 31
0.0
  0
LWPOLYLINE
  5
224
330
1F
100
AcDbEntity
  8
0
  6
Continuous
 62
     7
370
    15
100
AcDbPolyline
 90
        3
 70
   128
 43
0.0
 10
183.3913328998
 20
245.6440459599
 10
183.6102249972
 20
245.6826459278
 10
183.7639781587
 20
245.7637261261
  0
LWPOLYLINE
  5
225
330
1F
100
AcDbEntity
  8
0
  6
Continuous
 62
     7
370
    15
100
AcDbPolyline
 90
        3
 70
   128
 43
0.0
 10
183.7639781587
 20
246.8043695797
 10
183.6102249972
 20
246.885449778
 10
183.3913328998
 20
246.924049746
  0
LINE
  5
226
330
1F
100
AcDbEntity
  8
0
  6
Continuous
 62
     7
370
    15
100
AcDbLine
 10
183.3913328998
 20
246.924049746
 30
0.0
 11
182.1313324324
 21
246.924049746
 31
0.0
  0
LINE
  5
227
330
1F
100
AcDbEntity
  8
0
  6
Continuous
 62
     7
370
    15
100
AcDbLine
 10
101.2613329045
 20
243.824047934
 30
0.0
 11
102.2613319508
 21
243.824047934
 31
0.0
  0
LINE
  5
228
330
1F
100
AcDbEntity
  8
0
  6
Continuous
 62
     7
370
    15
100
AcDbLine
 10
104.2613330237
 20
243.824047934
 30
0.0
 11
105.2613320701
 21
243.824047934
 31
0.0
  0
LINE
  5
229
330
1F
100
AcDbEntity
  8
0
  6
Continuous
 62
     7
370
    15
100
AcDbLine
 10
107.2613331429
 20
243.824047934
 30
0.0
 11
108.2613321893
 21
243.824047934
 31
0.0
  0
LINE
  5
22A
330
1F
100
AcDbEntity
  8
0
  6
Continuous
 62
     7
370
    15
100
AcDbLine
 10
110.2613332621
 20
243.824047934
 30
0.0
 11
111.2613323085
 21
243.824047934
 31
0.0
  0
LINE
  5
22B
330
1F
100
AcDbEntity
  8
0
  6
Continuous
 62
     7
370
    15
100
AcDbLine
 10
113.2613333814
 20
243.824047934
 30
0.0
 11
114.2613324277
 21
243.824047934
 31
0.0
  0
LINE
  5
22C
330
1F
100
AcDbEntity
  8
0
  6
Continuous
 62
     7
370
    15
100
AcDbLine
 10
116.2613320104
 20
243.824047934
 30
0.0
 11
117.2613325469
 21
243.824047934
 31
0.0
  0
LINE
  5
22D
330
1F
100
AcDbEntity
  8
0
  6
Continuous
 62
     7
370
    15
100
AcDbLine
 10
119.2613321297
 20
243.824047934
 30
0.0
 11
120.2613326661
 21
243.824047934
 31
0.0
  0
LINE
  5
22E
330
1F
100
AcDbEntity
  8
0
  6
Continuous
 62
     7
370
    15
100
AcDbLine
 10
122.2613322489
 20
243.824047934
 30
0.0
 11
123.2613327853
 21
243.824047934
 31
0.0
  0
LINE
  5
22F
330
1F
100
AcDbEntity
  8
0
  6
Continuous
 62
     7
370
    15
100
AcDbLine
 10
125.2613323681
 20
243.824047934
 30
0.0
 11
126.2613329045
 21
243.824047934
 31
0.0
  0
LINE
  5
230
330
1F
100
AcDbEntity
  8
0
  6
Continuous
 62
     7
370
    15
100
AcDbLine
 10
128.2613324873
 20
243.824047934
 30
0.0
 11
129.2613322787
 21
243.824047934
 31
0.0
  0
LINE
  5
231
330
1F
100
AcDbEntity
  8
0
  6
Continuous
 62
     7
370
    15
100
AcDbLine
 10
131.2613326065
 20
243.824047934
 30
0.0
 11
132.2613323979
 21
243.824047934
 31
0.0
  0
LINE
  5
232
330
1F
100
AcDbEntity
  8
0
  6
Continuous
 62
     7
370
    15
100
AcDbLine
 10
134.2613327257
 20
243.824047934
 30
0.0
 11
135.2613325171
 21
243.824047934
 31
0.0
  0
LINE
  5
233
330
1F
100
AcDbEntity
  8
0
  6
Continuous
 62
     7
370
    15
100
AcDbLine
 10
137.2613326586
 20
243.824047934
 30
0.0
 11
138.2613326363
 21
243.824047934
 31
0.0
  0
LINE
  5
234
330
1F
100
AcDbEntity
  8
0
  6
Continuous
 62
     7
370
    15
100
AcDbLine
 10
140.2613325916
 20
243.824047934
 30
0.0
 11
141.2613325692
 21
243.824047934
 31
0.0
  0
LINE
  5
235
330
1F
100
AcDbEntity
  8
0
  6
Continuous
 62
     7
370
    15
100
AcDbLine
 10
143.2613327108
 20
243.824047934
 30
0.0
 11
144.2613325022
 21
243.824047934
 31
0.0
  0
LINE
  5
236
330
1F
100
AcDbEntity
  8
0
  6
Continuous
 62
     7
370
    15
100
AcDbLine
 10
146.2613324575
 20
243.824047934
 30
0.0
 11
147.2613322489
 21
243.824047934
 31
0.0
  0
LINE
  5
237
330
1F
100
AcDbEntity
  8
0
  6
Continuous
 62
     7
370
    15
100
AcDbLine
 10
149.2613325767
 20
243.824047934
 30
0.0
 11
150.2613323681
 21
243.824047934
 31
0.0
  0
LINE
  5
238
330
1F
100
AcDbEntity
  8
0
  6
Continuous
 62
     7
370
    15
100
AcDbLine
 10
152.2613319508
 20
243.824047934
 30
0.0
 11
153.2613324873
 21
243.824047934
 31
0.0
  0
LINE
  5
239
330
1F
100
AcDbEntity
  8
0
  6
Continuous
 62
     7
370
    15
100
AcDbLine
 10
155.2613320701
 20
243.824047934
 30
0.0
 11
156.2613326065
 21
243.824047934
 31
0.0
  0
LINE
  5
23A
330
1F
100
AcDbEntity
  8
0
  6
Continuous
 62
     7
370
    15
100
AcDbLine
 10
158.2613321893
 20
243.824047934
 30
0.0
 11
159.2613327257
 21
243.824047934
 31
0.0
  0
LINE
  5
23B
330
1F
100
AcDbEntity
  8
0
  6
Continuous
 62
     7
370
    15
100
AcDbLine
 10
161.2613323085
 20
243.824047934
 30
0.0
 11
162.2613328449
 21
243.824047934
 31
0.0
  0
LINE
  5
23C
330
1F
100
AcDbEntity
  8
0
  6
Continuous
 62
     7
370
    15
100
AcDbLine
 10
164.2613324277
 20
243.824047934
 30
0.0
 11
165.261331474
 21
243.824047934
 31
0.0
  0
LINE
  5
23D
330
1F
100
AcDbEntity
  8
0
  6
Continuous
 62
     7
370
    15
100
AcDbLine
 10
167.2613325469
 20
243.824047934
 30
0.0
 11
168.2613315932
 21
243.824047934
 31
0.0
  0
LINE
  5
23E
330
1F
100
AcDbEntity
  8
0
  6
Continuous
 62
     7
370
    15
100
AcDbLine
 10
170.2613326661
 20
243.824047934
 30
0.0
 11
171.2613317124
 21
243.824047934
 31
0.0
  0
LINE
  5
23F
330
1F
100
AcDbEntity
  8
0
  6
Continuous
 62
     7
370
    15
100
AcDbLine
 10
173.2613327853
 20
243.824047934
 30
0.0
 11
174.2613318316
 21
243.824047934
 31
0.0
  0
LINE
  5
240
330
1F
100
AcDbEntity
  8
0
  6
Continuous
 62
     7
370
    15
100
AcDbLine
 10
176.2613329045
 20
243.824047934
 30
0.0
 11
177.2613319508
 21
243.824047934
 31
0.0
  0
LINE
  5
241
330
1F
100
AcDbEntity
  8
0
  6
Continuous
 62
     7
370
    15
100
AcDbLine
 10
179.2613330237
 20
243.824047934
 30
0.0
 11
180.2613320701
 21
243.824047934
 31
0.0
  0
LINE
  5
242
330
1F
100
AcDbEntity
  8
0
  6
Continuous
 62
     7
370
    15
100
AcDbLine
 10
182.2613331429
 20
243.824047934
 30
0.0
 11
183.2613321893
 21
243.824047934
 31
0.0
  0
LINE
  5
243
330
1F
100
AcDbEntity
  8
0
  6
Continuous
 62
     7
370
    15
100
AcDbLine
 10
185.2613332621
 20
243.824047934
 30
0.0
 11
186.2613323085
 21
243.824047934
 31
0.0
  0
LINE
  5
244
330
1F
100
AcDbEntity
  8
0
  6
Continuous
 62
     7
370
    15
100
AcDbLine
 10
188.2613333814
 20
243.824047934
 30
0.0
 11
189.2613324277
 21
243.824047934
 31
0.0
  0
LINE
  5
245
330
1F
100
AcDbEntity
  8
0
  6
Continuous
 62
     7
370
    15
100
AcDbLine
 10
191.2613305203
 20
243.824047934
 30
0.0
 11
192.2613355271
 21
243.824047934
 31
0.0
  0
LINE
  5
246
330
1F
100
AcDbEntity
  8
0
  6
Continuous
 62
     7
370
    15
100
AcDbLine
 10
196.7949244134
 20
153.3454630302
 30
0.0
 11
196.8013319127
 21
153.3454630302
 31
0.0
  0
LINE
  5
247
330
1F
100
AcDbEntity
  8
0
  6
Continuous
 62
     7
370
    15
100
AcDbLine
 10
196.5513321511
 20
153.3454630302
 30
0.0
 11
196.7949244134
 21
153.3454630302
 31
0.0
  0
LINE
  5
248
330
1F
100
AcDbEntity
  8
0
  6
Continuous
 62
     7
370
    15
100
AcDbLine
 10
96.8313339106
 20
153.1840488209
 30
0.0
 11
101.4213326327
 21
153.1840488209
 31
0.0
  0
LINE
  5
249
330
1F
100
AcDbEntity
  8
0
  6
Continuous
 62
     7
370
    15
100
AcDbLine
 10
102.421331679
 20
153.1840488209
 30
0.0
 11
102.421331679
 21
153.3440488169
 31
0.0
  0
LINE
  5
24A
330
1F
100
AcDbEntity
  8
0
  6
Continuous
 62
     7
370
    15
100
AcDbLine
 10
101.4213326327
 20
153.1840488209
 30
0.0
 11
102.421331679
 21
153.1840488209
 31
0.0
  0
ARC
  5
24B
330
1F
100
AcDbEntity
  8
0
  6
Continuous
 62
     7
370
    15
100
AcDbCircle
 10
96.8313326179
 20
153.5940488199
 30
0.0
 40
0.409999999999997
100
AcDbArc
 50
217.5718693201
 51
270.0
  0
LWPOLYLINE
  5
24C
330
1F
100
AcDbEntity
  8
0
  6
Continuous
 62
     7
370
    15
100
AcDbPolyline
 90
        3
 70
   128
 43
0.0
 10
96.5063723676
 20
248.2240508904
 10
96.4904311053
 20
248.2018302788
 10
96.4567753426
 20
248.1408070435
  0
ARC
  5
24D
330
1F
100
AcDbEntity
  8
0
  6
Continuous
 62
     7
370
    15
100
AcDbCircle
 10
96.8313326179
 20
247.9740488199
 30
0.0
 40
0.2500000000000049
100
AcDbArc
 50
126.869897646
 51
167.7442452229
  0
LINE
  5
24E
330
1F
100
AcDbEntity
  8
0
  6
Continuous
 62
     7
370
    15
100
AcDbLine
 10
102.7213337771
 20
153.4440488199
 30
0.0
 11
102.8213324897
 21
153.4440488199
 31
0.0
  0
LINE
  5
24F
330
1F
100
AcDbEntity
  8
0
  6
Continuous
 62
     7
370
    15
100
AcDbLine
 10
117.6613333575
 20
151.7440488224
 30
0.0
 11
113.2613333814
 21
151.7440488224
 31
0.0
  0
LINE
  5
250
330
1F
100
AcDbEntity
  8
0
  6
Continuous
 62
     7
370
    15
100
AcDbLine
 10
179.6613338344
 20
151.7440488224
 30
0.0
 11
175.2613338582
 21
151.7440488224
 31
0.0
  0
SPLINE
  5
251
330
1F
100
AcDbEntity
  8
0
  6
Continuous
 62
     7
370
    15
100
AcDbSpline
210
0.0
220
0.0
230
1.0
 70
     8
 71
     3
 72
    11
 73
     7
 74
     0
 42
0.00000001
 43
0.00000001
 40
0.0
 40
0.0
 40
0.0
 40
0.0
 40
0.249996738136917
 40
0.4999975953031509
 40
0.7499979546354735
 40
1.0
 40
1.0
 40
1.0
 40
1.0
 10
102.8713318459402
 20
151.8440488387682
 30
0.0
 10
102.8516771401621
 20
151.8502119292203
 30
0.0
 10
102.8123674047685
 20
151.8625382116695
 30
0.0
 10
102.7534040138644
 20
151.9573496493157
 30
0.0
 10
102.6944406948746
 20
152.0928738512507
 30
0.0
 10
102.6551291333662
 20
152.2003236924507
 30
0.0
 10
102.6354732863317
 20
152.2540487942138
 30
0.0
  0
SPLINE
  5
252
330
1F
100
AcDbEntity
  8
0
  6
Continuous
 62
     7
370
    15
100
AcDbSpline
210
0.0
220
0.0
230
1.0
 70
     8
 71
     3
 72
    12
 73
     8
 74
     0
 42
0.00000001
 43
0.00000001
 40
0.0
 40
0.0
 40
0.0
 40
0.0
 40
0.2286694809278709
 40
0.4574154876407868
 40
0.6861567696391108
 40
0.9149038065071695
 40
1.0
 40
1.0
 40
1.0
 40
1.0
 10
190.6871887795339
 20
152.2540487942138
 30
0.0
 10
190.6692070073324
 20
152.2049541002079
 30
0.0
 10
190.6332374452079
 20
152.1067482823257
 30
0.0
 10
190.5792633738527
 20
151.9781181935055
 30
0.0
 10
190.52531684633
 20
151.8852814854921
 30
0.0
 10
190.4825647958671
 20
151.8475274206236
 30
0.0
 10
190.4579950885364
 20
151.8447908413304
 30
0.0
 10
190.4513332001577
 20
151.8440488387682
 30
0.0
  0
LINE
  5
253
330
1F
100
AcDbEntity
  8
0
  6
Continuous
 62
     7
370
    15
100
AcDbLine
 10
190.4513332002
 20
151.8440488388
 30
0.0
 11
102.8713318459
 21
151.8440488388
 31
0.0
  0
LINE
  5
254
330
1F
100
AcDbEntity
  8
0
  6
Continuous
 62
     7
370
    15
100
AcDbLine
 10
102.6354732863
 20
152.2540487942
 30
0.0
 11
102.6354732863
 21
153.3440488169
 31
0.0
  0
LINE
  5
255
330
1F
100
AcDbEntity
  8
0
  6
Continuous
 62
     7
370
    15
100
AcDbLine
 10
190.6871887795
 20
152.2540487942
 30
0.0
 11
190.6871887795
 21
153.1840488209
 31
0.0
  0
SPLINE
  5
256
330
1F
100
AcDbEntity
  8
0
  6
Continuous
 62
     7
370
    15
100
AcDbSpline
210
0.0
220
0.0
230
1.0
 70
     8
 71
     3
 72
    10
 73
     6
 74
     0
 42
0.00000001
 43
0.00000001
 40
0.0
 40
0.0
 40
0.0
 40
0.0
 40
0.4656045047427283
 40
0.9314840816836488
 40
0.9999999999999999
 40
0.9999999999999999
 40
0.9999999999999999
 40
0.9999999999999999
 10
102.6213320843587
 20
152.2540487942138
 30
0.0
 10
102.6255055487563
 20
152.2218096886754
 30
0.0
 10
102.633854943172
 20
152.1573124312159
 30
0.0
 10
102.6712316576666
 20
152.0915153848076
 30
0.0
 10
102.7029025133446
 20
152.0714668362058
 30
0.0
 10
102.7069630972753
 20
152.068896371577
 30
0.0
  0
SPLINE
  5
257
330
1F
100
AcDbEntity
  8
0
  6
Continuous
 62
     7
370
    15
100
AcDbSpline
210
0.0
220
0.0
230
1.0
 70
     8
 71
     3
 72
    12
 73
     8
 74
     0
 42
0.00000001
 43
0.00000001
 40
0.0
 40
0.0
 40
0.0
 40
0.0
 40
0.2286689065661209
 40
0.4574143387250727
 40
0.6861614547636332
 40
0.9149040202479731
 40
1.0
 40
1.0
 40
1.0
 40
1.0
 10
102.4613323561559
 20
152.2540487942138
 30
0.0
 10
102.4664798599216
 20
152.204954174416
 30
0.0
 10
102.4767765900998
 20
152.1067485049748
 30
0.0
 10
102.5566987638797
 20
151.9781161011735
 30
0.0
 10
102.6729719001279
 20
151.8852837869261
 30
0.0
 10
102.7860743776328
 20
151.8475271840405
 30
0.0
 10
102.8531457343295
 20
151.8447907981132
 30
0.0
 10
102.8713318459402
 20
151.8440488387682
 30
0.0
  0
LINE
  5
258
330
1F
100
AcDbEntity
  8
0
  6
Continuous
 62
     7
370
    15
100
AcDbLine
 10
102.4613323562
 20
152.2540487942
 30
0.0
 11
102.6213320844
 21
152.2540487942
 31
0.0
  0
LINE
  5
259
330
1F
100
AcDbEntity
  8
0
  6
Continuous
 62
     7
370
    15
100
AcDbLine
 10
190.8613297097
 20
152.2540487942
 30
0.0
 11
190.7013329617
 21
152.2540487942
 31
0.0
  0
LINE
  5
25A
330
1F
100
AcDbEntity
  8
0
  6
Continuous
 62
     7
370
    15
100
AcDbLine
 10
190.7013329617
 20
152.2540487942
 30
0.0
 11
190.7013329617
 21
153.1840488209
 31
0.0
  0
LINE
  5
25B
330
1F
100
AcDbEntity
  8
0
  6
Continuous
 62
     7
370
    15
100
AcDbLine
 10
190.8613297097
 20
152.2540487942
 30
0.0
 11
190.8613297097
 21
153.1840488209
 31
0.0
  0
SPLINE
  5
25C
330
1F
100
AcDbEntity
  8
0
  6
Continuous
 62
     7
370
    15
100
AcDbSpline
210
0.0
220
0.0
230
1.0
 70
     8
 71
     3
 72
    10
 73
     6
 74
     0
 42
0.00000001
 43
0.00000001
 40
0.0
 40
0.0
 40
0.0
 40
0.0
 40
0.0711280706369853
 40
0.5355690954059911
 40
1.0
 40
1.0
 40
1.0
 40
1.0
 10
190.6156870476613
 20
152.0689727400281
 30
0.0
 10
190.6198964989505
 20
152.0716507222705
 30
0.0
 10
190.651592171262
 20
152.0918149768919
 30
0.0
 10
190.688887266403
 20
152.1575648361561
 30
0.0
 10
190.6971844267599
 20
152.2218877084631
 30
0.0
 10
190.7013329617391
 20
152.2540487942138
 30
0.0
  0
SPLINE
  5
25D
330
1F
100
AcDbEntity
  8
0
  6
Continuous
 62
     7
370
    15
100
AcDbSpline
210
0.0
220
0.0
230
1.0
 70
     8
 71
     3
 72
    11
 73
     7
 74
     0
 42
0.00000001
 43
0.00000001
 40
0.0
 40
0.0
 40
0.0
 40
0.0
 40
0.2499956046331072
 40
0.4999983509635517
 40
0.7500005994623423
 40
1.0
 40
1.0
 40
1.0
 40
1.0
 10
190.4513332001577
 20
151.8440488387682
 30
0.0
 10
190.5050574816637
 20
151.8502120201168
 30
0.0
 10
190.6125075794328
 20
151.8625385588794
 30
0.0
 10
190.7480293200646
 20
151.957349858665
 30
0.0
 10
190.8428409269293
 20
152.0928722294836
 30
0.0
 10
190.8551668055186
 20
152.2003234766477
 30
0.0
 10
190.8613297097097
 20
152.2540487942138
 30
0.0
  0
LINE
  5
25E
330
1F
100
AcDbEntity
  8
0
  6
Continuous
 62
     7
370
    15
100
AcDbLine
 10
102.6213320844
 20
152.2540487942
 30
0.0
 11
102.6213320844
 21
153.3440488169
 31
0.0
  0
LINE
  5
25F
330
1F
100
AcDbEntity
  8
0
  6
Continuous
 62
     7
370
    15
100
AcDbLine
 10
102.4613323562
 20
152.2540487942
 30
0.0
 11
102.4613323562
 21
153.3440488169
 31
0.0
  0
LINE
  5
260
330
1F
100
AcDbEntity
  8
0
  6
Continuous
 62
     7
370
    15
100
AcDbLine
 10
197.2664865605
 20
153.4440488199
 30
0.0
 11
197.1208545319
 21
153.4440488199
 31
0.0
  0
SPLINE
  5
261
330
1F
100
AcDbEntity
  8
0
  6
Continuous
 62
     8
370
    15
100
AcDbSpline
210
0.0
220
0.0
230
1.0
 70
     8
 71
     3
 72
     9
 73
     5
 74
     0
 42
0.00000001
 43
0.00000001
 40
0.0
 40
0.0
 40
0.0
 40
0.0
 40
0.5209725205107094
 40
1.0
 40
1.0
 40
1.0
 40
1.0
 10
211.255613242806
 20
191.9030617584326
 30
0.0
 10
211.2612307413501
 20
191.9518144267163
 30
0.0
 10
211.2720134569886
 20
192.0453945415289
 30
0.0
 10
211.3459254728867
 20
192.098544138306
 30
0.0
 10
211.3813313595663
 20
192.124004255686
 30
0.0
  0
LINE
  5
262
330
1F
100
AcDbEntity
  8
0
  6
Continuous
 62
     8
370
    15
100
AcDbLine
 10
211.2556132428
 20
183.2145046105
 30
0.0
 11
211.2556132428
 21
191.9030617584
 31
0.0
  0
ARC
  5
263
330
1F
100
AcDbEntity
  8
0
  6
Continuous
 62
     8
370
    15
100
AcDbCircle
 10
211.2189707604
 20
191.7443768403
 30
0.0
 40
0.1628605992078288
100
AcDbArc
 50
4.4908214966
 51
76.9975379218
  0
SPLINE
  5
264
330
1F
100
AcDbEntity
  8
0
  6
Continuous
 62
     8
370
    15
100
AcDbSpline
210
0.0
220
0.0
230
1.0
 70
     8
 71
     3
 72
     9
 73
     5
 74
     0
 42
0.00000001
 43
0.00000001
 40
0.0
 40
0.0
 40
0.0
 40
0.0
 40
0.4684432381371256
 40
0.9999999999999999
 40
0.9999999999999999
 40
0.9999999999999999
 40
0.9999999999999999
 10
211.4726754776846
 20
191.9272761453726
 30
0.0
 10
211.4473378260819
 20
191.909472831696
 30
0.0
 10
211.3932487720839
 20
191.8714675575728
 30
0.0
 10
211.3854675309217
 20
191.7968122564941
 30
0.0
 10
211.3813313595663
 20
191.7571287263968
 30
0.0
  0
SPLINE
  5
265
330
1F
100
AcDbEntity
  8
0
  6
Continuous
 62
     8
370
    15
100
AcDbSpline
210
0.0
220
0.0
230
1.0
 70
     8
 71
     3
 72
    11
 73
     7
 74
     0
 42
0.00000001
 43
0.00000001
 40
0.0
 40
0.0
 40
0.0
 40
0.0
 40
0.3658292876417559
 40
0.7252600236136161
 40
0.9820686201191825
 40
0.9999999999999999
 40
0.9999999999999999
 40
0.9999999999999999
 40
0.9999999999999999
 10
211.9708630196462
 20
191.8157498945334
 30
0.0
 10
211.9026483497152
 20
191.8494242473436
 30
0.0
 10
211.7674121212439
 20
191.9161839703603
 30
0.0
 10
211.5954105161458
 20
191.9526759936556
 30
0.0
 10
211.5061018147835
 20
191.9415656041795
 30
0.0
 10
211.4747234415037
 20
191.9281516315064
 30
0.0
 10
211.4726754776846
 20
191.9272761453726
 30
0.0
  0
LINE
  5
266
330
1F
100
AcDbEntity
  8
0
  6
Continuous
 62
     8
370
    15
100
AcDbLine
 10
211.9708630196
 20
191.8157498945
 30
0.0
 11
211.9708630196
 21
183.2097809424
 31
0.0
  0
LINE
  5
267
330
1F
100
AcDbEntity
  8
0
  6
Continuous
 62
     8
370
    15
100
AcDbLine
 10
215.2634057156
 20
184.119917046
 30
0.0
 11
212.7896520249
 21
183.0443750729
 31
0.0
  0
LINE
  5
268
330
1F
100
AcDbEntity
  8
0
  6
Continuous
 62
     8
370
    15
100
AcDbLine
 10
215.2634057156
 20
183.4309827198
 30
0.0
 11
215.2634057156
 21
184.119917046
 31
0.0
  0
SPLINE
  5
269
330
1F
100
AcDbEntity
  8
0
  6
Continuous
 62
     8
370
    15
100
AcDbSpline
210
0.0
220
0.0
230
1.0
 70
     8
 71
     3
 72
    10
 73
     6
 74
     0
 42
0.00000001
 43
0.00000001
 40
0.0
 40
0.0
 40
0.0
 40
0.0
 40
0.285766287553594
 40
0.6445539460467332
 40
1.0
 40
1.0
 40
1.0
 40
1.0
 10
211.3839420430074
 20
192.1184520830252
 30
0.0
 10
211.4310195279294
 20
192.1344629632234
 30
0.0
 10
211.5372041270161
 20
192.1705759564663
 30
0.0
 10
211.7752950846027
 20
192.1450016758706
 30
0.0
 10
211.958347692929
 20
192.0785987494899
 30
0.0
 10
212.0494457833181
 20
192.0455526222327
 30
0.0
  0
ARC
  5
26A
330
1F
100
AcDbEntity
  8
0
  6
Continuous
 62
     8
370
    15
100
AcDbCircle
 10
211.2247983613
 20
192.1992096376
 30
0.0
 40
0.8388407768840874
100
AcDbArc
 50
332.7978986246
 51
349.4450868152
  0
LINE
  5
26B
330
1F
100
AcDbEntity
  8
0
  6
Continuous
 62
     8
370
    15
100
AcDbLine
 10
215.2634057156
 20
190.6481813301
 30
0.0
 11
215.2634057156
 21
191.325716268
 31
0.0
  0
LINE
  5
26C
330
1F
100
AcDbEntity
  8
0
  6
Continuous
 62
     8
370
    15
100
AcDbLine
 10
212.0494457833
 20
192.0455526222
 30
0.0
 11
215.2634057156
 21
190.6481813301
 31
0.0
  0
LINE
  5
26D
330
1F
100
AcDbEntity
  8
0
  6
Continuous
 62
     8
370
    15
100
AcDbLine
 10
212.1962758653
 20
183.048291098
 30
0.0
 11
215.184822952
 21
184.320298921
 31
0.0
  0
ARC
  5
26E
330
1F
100
AcDbEntity
  8
0
  6
Continuous
 62
     8
370
    15
100
AcDbCircle
 10
214.1766567585
 20
183.809331754
 30
0.0
 40
1.130259492115651
100
AcDbArc
 50
15.9495677397
 51
26.877182181
  0
LINE
  5
26F
330
1F
100
AcDbEntity
  8
0
  6
Continuous
 62
     8
370
    15
100
AcDbLine
 10
215.184822952
 20
190.4477994551
 30
0.0
 11
211.9708630196
 21
191.8157498945
 31
0.0
  0
ARC
  5
270
330
1F
100
AcDbEntity
  8
0
  6
Continuous
 62
     8
370
    15
100
AcDbCircle
 10
214.1766567585
 20
190.9587666221
 30
0.0
 40
1.130259492114152
100
AcDbArc
 50
333.122817819
 51
344.0504322603
  0
LINE
  5
271
330
1F
100
AcDbEntity
  8
0
  6
Continuous
 62
     8
370
    15
100
AcDbLine
 10
215.184822952
 20
184.320298921
 30
0.0
 11
215.184822952
 21
190.4477994551
 31
0.0
  0
ARC
  5
272
330
1F
100
AcDbEntity
  8
0
  6
Continuous
 62
     8
370
    15
100
AcDbCircle
 10
215.2301616773
 20
184.0865232297
 30
0.0
 40
0.2381316314192542
100
AcDbArc
 50
50.5930201929
 51
100.9757518918
  0
ARC
  5
273
330
1F
100
AcDbEntity
  8
0
  6
Continuous
 62
     8
370
    15
100
AcDbCircle
 10
215.2144405079
 20
184.2797312546
 30
0.0
 40
0.167147159212857
100
AcDbArc
 50
287.0344529292
 51
356.8399183189
  0
ARC
  5
274
330
1F
100
AcDbEntity
  8
0
  6
Continuous
 62
     8
370
    15
100
AcDbCircle
 10
215.2301616773
 20
190.6815751464
 30
0.0
 40
0.2381316314191044
100
AcDbArc
 50
259.0242481082
 51
309.4069798071
  0
ARC
  5
275
330
1F
100
AcDbEntity
  8
0
  6
Continuous
 62
     8
370
    15
100
AcDbCircle
 10
215.2144356149
 20
190.48836329
 30
0.0
 40
0.1671522560463123
100
AcDbArc
 50
3.1613005704
 51
72.9643281815
  0
LINE
  5
276
330
1F
100
AcDbEntity
  8
0
  6
Continuous
 62
     8
370
    15
100
AcDbLine
 10
209.3813332669
 20
187.5567298044
 30
0.0
 11
208.9813324563
 21
187.5552516092
 31
0.0
  0
LINE
  5
277
330
1F
100
AcDbEntity
  8
0
  6
Continuous
 62
     8
370
    15
100
AcDbLine
 10
209.3813332669
 20
187.234048139
 30
0.0
 11
208.9813324563
 21
187.234048139
 31
0.0
  0
LINE
  5
278
330
1F
100
AcDbEntity
  8
0
  6
Continuous
 62
     8
370
    15
100
AcDbLine
 10
209.3813332669
 20
186.1848543991
 30
0.0
 11
208.9813324563
 21
186.1896674742
 31
0.0
  0
LINE
  5
279
330
1F
100
AcDbEntity
  8
0
  6
Continuous
 62
     8
370
    15
100
AcDbLine
 10
209.3813332669
 20
186.3120954146
 30
0.0
 11
208.9813324563
 21
186.3086055626
 31
0.0
  0
LINE
  5
27A
330
1F
100
AcDbEntity
  8
0
  6
Continuous
 62
     8
370
    15
100
AcDbLine
 10
209.3813332669
 20
185.9730492939
 30
0.0
 11
208.9813324563
 21
185.9788339247
 31
0.0
  0
LINE
  5
27B
330
1F
100
AcDbEntity
  8
0
  6
Continuous
 62
     8
370
    15
100
AcDbLine
 10
212.0255145184
 20
175.2192478289
 30
0.0
 11
201.9239100568
 21
175.2859260549
 31
0.0
  0
LINE
  5
27C
330
1F
100
AcDbEntity
  8
0
  6
Continuous
 62
     8
370
    15
100
AcDbLine
 10
197.9439767949
 20
181.1682324518
 30
0.0
 11
197.9450317971
 21
181.3282291998
 31
0.0
  0
LINE
  5
27D
330
1F
100
AcDbEntity
  8
0
  6
Continuous
 62
     8
370
    15
100
AcDbLine
 10
198.159656202
 20
181.0418050398
 30
0.0
 11
198.2987436406
 21
181.1208914627
 31
0.0
  0
LINE
  5
27E
330
1F
100
AcDbEntity
  8
0
  6
Continuous
 62
     8
370
    15
100
AcDbLine
 10
215.9458788983
 20
181.0621808876
 30
0.0
 11
215.807846462
 21
181.1430941929
 31
0.0
  0
LINE
  5
27F
330
1F
100
AcDbEntity
  8
0
  6
Continuous
 62
     8
370
    15
100
AcDbLine
 10
215.963134443
 20
181.0520689596
 30
0.0
 11
216.1011668794
 21
180.9711556543
 31
0.0
  0
LINE
  5
280
330
1F
100
AcDbEntity
  8
0
  6
Continuous
 62
     8
370
    15
100
AcDbLine
 10
201.9012066476
 20
174.876066636
 30
0.0
 11
201.9022616498
 21
175.036063384
 31
0.0
  0
LINE
  5
281
330
1F
100
AcDbEntity
  8
0
  6
Continuous
 62
     8
370
    15
100
AcDbLine
 10
212.0438608281
 20
174.9691214074
 30
0.0
 11
212.0428058259
 21
174.8091246595
 31
0.0
  0
LINE
  5
282
330
1F
100
AcDbEntity
  8
0
  6
Continuous
 62
     8
370
    15
100
AcDbLine
 10
207.8523131959
 20
153.4530207293
 30
0.0
 11
208.1119867913
 21
153.4566467552
 31
0.0
  0
LINE
  5
283
330
1F
100
AcDbEntity
  8
0
  6
Continuous
 62
     8
370
    15
100
AcDbLine
 10
198.6089500539
 20
153.2839468109
 30
0.0
 11
208.1000122182
 21
153.4164756344
 31
0.0
  0
LINE
  5
284
330
1F
100
AcDbEntity
  8
0
  6
Continuous
 62
     8
370
    15
100
AcDbLine
 10
198.6006888501
 20
153.3090737077
 30
0.0
 11
198.8557430856
 21
153.3126351551
 31
0.0
  0
LWPOLYLINE
  5
285
330
1F
100
AcDbEntity
  8
0
  6
Continuous
 62
     8
370
    15
100
AcDbPolyline
 90
        8
 70
   128
 43
0.0
 10
196.9613346211
 20
184.5347921957
 10
197.0686289422
 20
184.5340829004
 10
197.2415122144
 20
184.5329414715
 10
197.3930451028
 20
184.5319430937
 10
197.5174042336
 20
184.5311205496
 10
197.6098093144
 20
184.5305125822
 10
197.6667138688
 20
184.530137073
 10
197.6859304063
 20
184.530008923
  0
LWPOLYLINE
  5
286
330
1F
100
AcDbEntity
  8
0
  6
Continuous
 62
     8
370
    15
100
AcDbPolyline
 90
        8
 70
   128
 43
0.0
 10
197.7228912465
 20
190.1298861612
 10
197.7036806695
 20
190.1300143112
 10
197.6467761151
 20
190.1303898205
 10
197.5543650739
 20
190.1310007681
 10
197.430005943
 20
190.131820332
 10
197.2784730546
 20
190.13282169
 10
197.1055897824
 20
190.1339631189
 10
196.9613346211
 20
190.134913813
  0
LWPOLYLINE
  5
287
330
1F
100
AcDbEntity
  8
0
  6
Continuous
 62
     8
370
    15
100
AcDbPolyline
 90
        9
 70
   128
 43
0.0
 10
197.8081676118
 20
190.1293258776
 10
197.8042754285
 20
190.2073871006
 10
197.7917167298
 20
190.2825098147
 10
197.770968353
 20
190.3518031944
 10
197.7428409211
 20
190.4126058926
 10
197.7084013574
 20
190.4625784268
 10
197.6689788453
 20
190.4998045076
 10
197.6260933034
 20
190.5228476633
 10
197.5813838593
 20
190.5308287253
  0
LWPOLYLINE
  5
288
330
1F
100
AcDbEntity
  8
0
  6
Continuous
 62
     8
370
    15
100
AcDbPolyline
 90
        9
 70
   128
 43
0.0
 10
197.8081676118
 20
190.1293258776
 10
197.7893861882
 20
190.1294480671
 10
197.7725180737
 20
190.1295583357
 10
197.7578136079
 20
190.1296566834
 10
197.7454814069
 20
190.1297371496
 10
197.7357062451
 20
190.1298027147
 10
197.7286192529
 20
190.1298503985
 10
197.724321758
 20
190.1298772205
 10
197.722885286
 20
190.1298861612
  0
LWPOLYLINE
  5
289
330
1F
100
AcDbEntity
  8
0
  6
Continuous
 62
     8
370
    15
100
AcDbPolyline
 90
        9
 70
   128
 43
0.0
 10
197.6859244458
 20
184.530008923
 10
197.6873609177
 20
184.5299999823
 10
197.6916524522
 20
184.5299701799
 10
197.6987394444
 20
184.5299254765
 10
197.7085205666
 20
184.5298599114
 10
197.7208527676
 20
184.5297794451
 10
197.735551273
 20
184.5296810974
 10
197.7524193875
 20
184.5295708288
 10
197.7712067716
 20
184.5294456591
  0
LWPOLYLINE
  5
28A
330
1F
100
AcDbEntity
  8
0
  6
Continuous
 62
     8
370
    15
100
AcDbPolyline
 90
        9
 70
   128
 43
0.0
 10
197.7712067716
 20
184.5294456591
 10
197.7662834279
 20
184.4514410605
 10
197.7527293317
 20
184.3764911999
 10
197.7310749642
 20
184.3074779619
 10
197.7021428697
 20
184.2470537533
 10
197.6670476548
 20
184.1975401749
 10
197.6271363847
 20
184.1608386149
 10
197.5839468591
 20
184.1383587231
 10
197.5391360871
 20
184.1309707274
  0
LINE
  5
28B
330
1F
100
AcDbEntity
  8
0
  6
Continuous
 62
     8
370
    15
100
AcDbLine
 10
197.7712067716
 20
184.5294456591
 30
0.0
 11
197.8081676118
 21
190.1293258776
 31
0.0
  0
LINE
  5
28C
330
1F
100
AcDbEntity
  8
0
  6
Continuous
 62
     8
370
    15
100
AcDbLine
 10
197.7712067716
 20
184.5294456591
 30
0.0
 11
200.1696082703
 21
184.5136146654
 31
0.0
  0
LWPOLYLINE
  5
28D
330
1F
100
AcDbEntity
  8
0
  6
Continuous
 62
     8
370
    15
100
AcDbPolyline
 90
        9
 70
   128
 43
0.0
 10
199.9375435464
 20
184.1151367535
 10
199.9823543183
 20
184.1225277294
 10
200.0255438439
 20
184.1450076212
 10
200.0654491536
 20
184.181706201
 10
200.1005443684
 20
184.2312227596
 10
200.129476463
 20
184.2916469683
 10
200.1511367909
 20
184.3606602062
 10
200.1646849267
 20
184.4356100668
 10
200.1696082703
 20
184.5136146654
  0
LWPOLYLINE
  5
28E
330
1F
100
AcDbEntity
  8
0
  6
Continuous
 62
     8
370
    15
100
AcDbPolyline
 90
        9
 70
   128
 43
0.0
 10
200.206575071
 20
190.1134919037
 10
200.2026828877
 20
190.191556107
 10
200.1901182286
 20
190.266678821
 10
200.1693758122
 20
190.3359722008
 10
200.1412424199
 20
190.3967719187
 10
200.1068028561
 20
190.4467474331
 10
200.0673863046
 20
190.4839705338
 10
200.0244948022
 20
190.5070166697
 10
199.9797853581
 20
190.5149977316
  0
LINE
  5
28F
330
1F
100
AcDbEntity
  8
0
  6
Continuous
 62
     8
370
    15
100
AcDbLine
 10
200.206575071
 20
190.1134919037
 30
0.0
 11
197.8081676118
 21
190.1293258776
 31
0.0
  0
LINE
  5
290
330
1F
100
AcDbEntity
  8
0
  6
Continuous
 62
     8
370
    15
100
AcDbLine
 10
202.6299151532
 20
187.6579444517
 30
0.0
 11
200.206575071
 21
190.1134919037
 31
0.0
  0
LINE
  5
291
330
1F
100
AcDbEntity
  8
0
  6
Continuous
 62
     8
370
    15
100
AcDbLine
 10
202.6251527421
 20
186.9369577278
 30
0.0
 11
202.6299151532
 21
187.6579444517
 31
0.0
  0
LINE
  5
292
330
1F
100
AcDbEntity
  8
0
  6
Continuous
 62
     8
370
    15
100
AcDbLine
 10
200.1696082703
 20
184.5136146654
 30
0.0
 11
202.6251527421
 21
186.9369577278
 31
0.0
  0
LWPOLYLINE
  5
293
330
1F
100
AcDbEntity
  8
0
  6
Continuous
 62
     8
370
    15
100
AcDbPolyline
 90
        9
 70
   128
 43
0.0
 10
200.206575071
 20
190.1134919037
 10
200.2343150727
 20
190.1577602734
 10
200.2567204587
 20
190.2011435141
 10
200.2733263127
 20
190.2427356352
 10
200.2837869279
 20
190.2816813101
 10
200.2878936879
 20
190.3171699156
 10
200.2855452649
 20
190.3484653343
 10
200.276807224
 20
190.3749148954
 10
200.2618524186
 20
190.3959761967
  0
LWPOLYLINE
  5
294
330
1F
100
AcDbEntity
  8
0
  6
Continuous
 62
     8
370
    15
100
AcDbPolyline
 90
        9
 70
   128
 43
0.0
 10
200.1696082703
 20
184.5136146654
 10
200.1967641465
 20
184.4689856876
 10
200.2185913674
 20
184.4253103842
 10
200.2346488587
 20
184.3835007061
 10
200.2445968739
 20
184.3444209208
 10
200.2482327573
 20
184.3088816513
 10
200.2454730622
 20
184.2776219954
 10
200.2363833539
 20
184.2512886633
 10
200.2211543671
 20
184.2304270376
  0
ELLIPSE
  5
295
330
1F
100
AcDbEntity
  8
0
  6
Continuous
 62
     8
370
    15
100
AcDbEllipse
 10
202.3072952009
 20
187.7538900955
 30
0.0
 11
0.2847040488240396
 21
0.2809690455962937
 31
0.0
210
0.0
220
0.0
230
1.0
 40
0.7496718152
 41
5.497789751927487
 42
6.283187915324874
  0
ELLIPSE
  5
296
330
1F
100
AcDbEntity
  8
0
  6
Continuous
 62
     8
370
    15
100
AcDbEllipse
 10
202.5258379289
 20
187.5324427451
 30
0.0
 11
0.1248628900158337
 21
0.4408244188709318
 31
0.0
210
0.0
220
0.0
230
1.0
 40
0.15219216
 41
5.043888124434096
 42
5.411673246799584
  0
ELLIPSE
  5
297
330
1F
100
AcDbEntity
  8
0
  6
Continuous
 62
     8
370
    15
100
AcDbEllipse
 10
202.5227446672
 20
187.0638238039
 30
0.0
 11
-0.1190326722840496
 21
0.4424343256404484
 31
0.0
210
0.0
220
0.0
230
0.9999999999999999
 40
0.15219216
 41
4.013104713969941
 42
4.380889836335291
  0
ELLIPSE
  5
298
330
1F
100
AcDbEntity
  8
0
  6
Continuous
 62
     8
370
    15
100
AcDbEllipse
 10
202.3012976487
 20
186.8452807395
 30
0.0
 11
-0.2809701589304154
 21
0.284702950091372
 31
0.0
210
0.0
220
0.0
230
1.0
 40
0.7496718152
 41
3.141590045444312
 42
3.926988208841822
  0
ARC
  5
299
330
1F
100
AcDbEntity
  8
0
  6
Continuous
 62
     8
370
    15
100
AcDbCircle
 10
202.6420735564
 20
187.7366297907
 30
0.0
 40
0.0668330299859009
100
AcDbArc
 50
12.6356660388
 51
76.6071771099
  0
LWPOLYLINE
  5
29A
330
1F
100
AcDbEntity
  8
0
  6
Continuous
 62
     8
370
    15
100
AcDbPolyline
 90
        9
 70
   128
 43
0.0
 10
202.6299151532
 20
187.6579444517
 10
202.6468190305
 20
187.6578341831
 10
202.6620003335
 20
187.6577328552
 10
202.6752325646
 20
187.6576464285
 10
202.6863309495
 20
187.6575719227
 10
202.6951285951
 20
187.6575152983
 10
202.7015122525
 20
187.657473575
 10
202.7053746335
 20
187.6574467529
 10
202.7066680543
 20
187.6574378122
  0
LWPOLYLINE
  5
29B
330
1F
100
AcDbEntity
  8
0
  6
Continuous
 62
     8
370
    15
100
AcDbPolyline
 90
        9
 70
   128
 43
0.0
 10
202.6251527421
 20
186.9369577278
 10
202.6420625798
 20
186.9368474592
 10
202.6572379224
 20
186.9367461313
 10
202.670476114
 20
186.9366597046
 10
202.6815685384
 20
186.9365851988
 10
202.6903721444
 20
186.9365285744
 10
202.6967498414
 20
186.9364868511
 10
202.7006122224
 20
186.936460029
 10
202.7019056432
 20
186.9364510883
  0
ARC
  5
29C
330
1F
100
AcDbEntity
  8
0
  6
Continuous
 62
     8
370
    15
100
AcDbCircle
 10
202.6362748559
 20
186.8581209869
 30
0.0
 40
0.0668346725920894
100
AcDbArc
 50
282.6365454685
 51
346.6062976802
  0
LWPOLYLINE
  5
29D
330
1F
100
AcDbEntity
  8
0
  6
Continuous
 62
     8
370
    15
100
AcDbPolyline
 90
       33
 70
   128
 43
0.0
 10
224.9116095654
 20
169.2803587426
 10
224.9175640695
 20
169.2867900838
 10
224.9651106946
 20
169.3381499161
 10
225.0597271077
 20
169.4403405894
 10
225.2004298322
 20
169.5923160423
 10
225.385782396
 20
169.7925146331
 10
225.6138834111
 20
170.0388844718
 10
225.8823904149
 20
170.3288953413
 10
226.1885437123
 20
170.6595714797
 10
226.5292080991
 20
171.0275198926
 10
226.9008847825
 20
171.4289661159
 10
227.2997590653
 20
171.8597899784
 10
227.7217420689
 20
172.3155703057
 10
228.1625005357
 20
172.7916296233
 10
228.6175164334
 20
173.2830848207
 10
229.0821107976
 20
173.7848918547
 10
229.551521217
 20
174.2919008841
 10
230.0209316365
 20
174.7989099135
 10
230.4855319611
 20
175.3007169475
 10
230.9405418984
 20
175.7921721448
 10
231.3813003652
 20
176.2682314624
 10
231.8032833688
 20
176.7240117897
 10
232.2021576516
 20
177.1548356523
 10
232.573834335
 20
177.5562818755
 10
232.9144987218
 20
177.9242302884
 10
233.2206520192
 20
178.2549064268
 10
233.489159023
 20
178.5449158062
 10
233.7172600381
 20
178.7912856449
 10
233.9026126019
 20
178.9914857258
 10
234.0433153264
 20
179.1434596886
 10
234.1379317395
 20
179.245651852
 10
234.1854843251
 20
179.2970101942
 10
234.1914388291
 20
179.3034415354
  0
LWPOLYLINE
  5
29E
330
1F
100
AcDbEntity
  8
0
  6
Continuous
 62
     8
370
    15
100
AcDbPolyline
 90
       33
 70
   128
 43
0.0
 10
224.650755798
 20
169.2897420038
 10
224.6568593137
 20
169.2963357677
 10
224.7055920712
 20
169.3489756097
 10
224.8025688283
 20
169.4537158717
 10
224.9467822663
 20
169.6094806899
 10
225.1367601506
 20
169.8146726598
 10
225.3705474488
 20
170.0671862473
 10
225.6457480542
 20
170.3644286503
 10
225.9595367066
 20
170.7033525814
 10
226.3087007157
 20
171.0804786195
 10
226.6896459214
 20
171.491936933
 10
227.0984682195
 20
171.9335045327
 10
227.5309774033
 20
172.4006514658
 10
227.9827269666
 20
172.8885855188
 10
228.4490856282
 20
173.3922969212
 10
228.9252671353
 20
173.9066179504
 10
229.4063898675
 20
174.4262721051
 10
229.8875066392
 20
174.9459262599
 10
230.3636881463
 20
175.4602487792
 10
230.8300468079
 20
175.9639601816
 10
231.2818023316
 20
176.4518927445
 10
231.714305555
 20
176.9190411677
 10
232.1231278531
 20
177.3606087674
 10
232.5040790192
 20
177.7720670809
 10
232.8532370679
 20
178.149193119
 10
233.1670257203
 20
178.48811556
 10
233.4422322862
 20
178.785357963
 10
233.6760195844
 20
179.0378730406
 10
233.8659915082
 20
179.2430650105
 10
234.0102109067
 20
179.3988298287
 10
234.1071817033
 20
179.5035700907
 10
234.1559204213
 20
179.5562099327
 10
234.1620239369
 20
179.5628022064
  0
LWPOLYLINE
  5
29F
330
1F
100
AcDbEntity
  8
0
  6
Continuous
 62
     8
370
    15
100
AcDbPolyline
 90
       24
 70
   128
 43
0.0
 10
227.6659819238
 20
171.4850034227
 10
227.6674958817
 20
171.48663808
 10
227.7037355058
 20
171.5257789601
 10
227.7875396363
 20
171.6162975539
 10
227.9171260945
 20
171.756264161
 10
228.0897351853
 20
171.9426940788
 10
228.3016833417
 20
172.1716161479
 10
228.5484525315
 20
172.438150238
 10
228.8247856252
 20
172.7366160263
 10
229.1247936837
 20
173.0606522073
 10
229.4420811288
 20
173.4033520927
 10
229.7698828332
 20
173.7574111332
 10
230.101219093
 20
174.115284871
 10
230.4290267579
 20
174.4693454017
 10
230.7463082425
 20
174.812045287
 10
231.046316301
 20
175.136081468
 10
231.3226493947
 20
175.4345472564
 10
231.5694185845
 20
175.7010813464
 10
231.7813667409
 20
175.9300034155
 10
231.9539758317
 20
176.1164333333
 10
232.0835622899
 20
176.2563999404
 10
232.1673664204
 20
176.3469170441
 10
232.2036060445
 20
176.3860594143
 10
232.2051200024
 20
176.3876940717
  0
LWPOLYLINE
  5
2A0
330
1F
100
AcDbEntity
  8
0
  6
Continuous
 62
     8
370
    15
100
AcDbPolyline
 90
       22
 70
   128
 43
0.0
 10
228.1876894586
 20
171.46623392
 10
228.2011362664
 20
171.4807595719
 10
228.2605442159
 20
171.5449254622
 10
228.3660205953
 20
171.6588463296
 10
228.5150858514
 20
171.8198503961
 10
228.704247152
 20
172.0241646875
 10
228.9290758721
 20
172.2669999708
 10
229.1842970006
 20
172.5426640023
 10
229.4639321916
 20
172.8446941485
 10
229.7614249341
 20
173.1660153379
 10
230.0698014848
 20
173.4990905632
 10
230.3818377606
 20
173.8361175765
 10
230.6902143113
 20
174.169194292
 10
230.9877070538
 20
174.4905139913
 10
231.2673422448
 20
174.7925456275
 10
231.5225633733
 20
175.068209659
 10
231.7473920934
 20
175.3110449423
 10
231.936553394
 20
175.5153577437
 10
232.0856186501
 20
175.6763633002
 10
232.1910950295
 20
175.7902826776
 10
232.250502979
 20
175.8544500579
 10
232.2639497868
 20
175.8689742197
  0
LINE
  5
2A1
330
1F
100
AcDbEntity
  8
0
  6
Continuous
 62
     8
370
    15
100
AcDbLine
 10
235.3002997987
 20
172.5766103376
 30
0.0
 11
235.3067907445
 21
172.5836168636
 31
0.0
  0
LWPOLYLINE
  5
2A2
330
1F
100
AcDbEntity
  8
0
  6
Continuous
 62
     8
370
    15
100
AcDbPolyline
 90
       20
 70
   128
 43
0.0
 10
231.6973003499
 20
168.6850335111
 10
231.703153526
 20
168.6913516034
 10
231.7515822999
 20
168.7436606397
 10
231.8477603547
 20
168.8475425948
 10
231.9890650861
 20
169.000163268
 10
232.171634113
 20
169.1973607649
 10
232.3905023686
 20
169.4337527861
 10
232.6396855466
 20
169.7028945793
 10
232.9123887174
 20
169.9974428524
 10
233.2011791818
 20
170.3093643893
 10
233.4981772057
 20
170.6301491369
 10
233.7952825181
 20
170.9510486235
 10
234.0843888871
 20
171.2633084168
 10
234.3576046578
 20
171.558411013
 10
234.6074852101
 20
171.828306805
 10
234.8272177331
 20
172.0656346192
 10
235.010800039
 20
172.2639199008
 10
235.1532253377
 20
172.4177535285
 10
235.2506133668
 20
172.5229393353
 10
235.3002997987
 20
172.5766103376
  0
LINE
  5
2A3
330
1F
100
AcDbEntity
  8
0
  6
Continuous
 62
     8
370
    15
100
AcDbLine
 10
247.9530903451
 20
161.2335037102
 30
0.0
 11
247.9602429025
 21
161.2412329425
 31
0.0
  0
LWPOLYLINE
  5
2A4
330
1F
100
AcDbEntity
  8
0
  6
Continuous
 62
     8
370
    15
100
AcDbPolyline
 90
       21
 70
   128
 43
0.0
 10
243.9790937058
 20
156.9412231107
 10
243.9842912309
 20
156.9468345155
 10
244.0312239282
 20
156.9975193252
 10
244.1258761041
 20
157.0997580548
 10
244.2659350984
 20
157.2510335256
 10
244.4479438416
 20
157.44762082
 10
244.6674200646
 20
157.684678923
 10
244.9189635865
 20
157.95637105
 10
245.1963874452
 20
158.2560069521
 10
245.4928371064
 20
158.5762086917
 10
245.8010408036
 20
158.9090924372
 10
246.1133929841
 20
159.2464603145
 10
246.4222046487
 20
159.5800064166
 10
246.7198702447
 20
159.9015172233
 10
246.9990703217
 20
160.2030757476
 10
247.2529145829
 20
160.4772563686
 10
247.4751683823
 20
160.71730886
 10
247.6603480927
 20
160.9173219313
 10
247.8038999192
 20
161.0723707487
 10
247.9022833459
 20
161.1786368896
 10
247.9530903451
 20
161.2335037102
  0
LINE
  5
2A5
330
1F
100
AcDbEntity
  8
0
  6
Continuous
 62
     8
370
    15
100
AcDbLine
 10
235.9897228829
 20
172.3097365011
 30
0.0
 11
235.9968754403
 21
172.3174642433
 31
0.0
  0
LWPOLYLINE
  5
2A6
330
1F
100
AcDbEntity
  8
0
  6
Continuous
 62
     8
370
    15
100
AcDbPolyline
 90
       21
 70
   128
 43
0.0
 10
232.0157322041
 20
168.0174555291
 10
232.0209237687
 20
168.0230658163
 10
232.0678505055
 20
168.073750626
 10
232.1625086419
 20
168.1759904732
 10
232.3025676362
 20
168.3272655715
 10
232.4845763795
 20
168.5238521208
 10
232.7040585629
 20
168.7609102239
 10
232.9556020848
 20
169.0326030959
 10
233.233019983
 20
169.3322386254
 10
233.5294756047
 20
169.6524407376
 10
233.8376733415
 20
169.985323738
 10
234.1500255219
 20
170.3226919879
 10
234.4588371865
 20
170.65623809
 10
234.756508743
 20
170.9777485241
 10
235.0357028596
 20
171.2793077935
 10
235.2895530812
 20
171.5534876694
 10
235.5118068807
 20
171.7935409059
 10
235.696986591
 20
171.9935532321
 10
235.8405384175
 20
172.1486027946
 10
235.9389218442
 20
172.2548689355
 10
235.9897228829
 20
172.3097365011
  0
LWPOLYLINE
  5
2A7
330
1F
100
AcDbEntity
  8
0
  6
Continuous
 62
     8
370
    15
100
AcDbPolyline
 90
       12
 70
   128
 43
0.0
 10
220.6380578629
 20
182.9925667156
 10
220.6379267327
 20
182.9725097527
 10
220.6373485677
 20
182.8853916039
 10
220.636365091
 20
182.7367107977
 10
220.6350657098
 20
182.5396846642
 10
220.6335636727
 20
182.3118161072
 10
220.6319901101
 20
182.0733558048
 10
220.6304821126
 20
181.8454872479
 10
220.6291827313
 20
181.6484581341
 10
220.6282052152
 20
181.4997803082
 10
220.6276270501
 20
181.4126591791
 10
220.6274959199
 20
181.3926022162
  0
LWPOLYLINE
  5
2A8
330
1F
100
AcDbEntity
  8
0
  6
Continuous
 62
     8
370
    15
100
AcDbPolyline
 90
       12
 70
   128
 43
0.0
 10
221.8490513913
 20
182.5134288181
 10
221.8354257695
 20
182.4987124313
 10
221.7762383572
 20
182.4347834696
 10
221.6752263657
 20
182.3256801476
 10
221.5413662545
 20
182.181100141
 10
221.3865551106
 20
182.013891231
 10
221.2245496861
 20
181.8389039148
 10
221.0697325818
 20
181.6716950049
 10
220.935878431
 20
181.5271149983
 10
220.8348664395
 20
181.4180116762
 10
220.7756790273
 20
181.3540827145
 10
220.762047445
 20
181.3393663277
  0
LINE
  5
2A9
330
1F
100
AcDbEntity
  8
0
  6
Continuous
 62
     8
370
    15
100
AcDbLine
 10
197.3708542935
 20
248.1857727875
 30
0.0
 11
197.3708542935
 21
210.6257747521
 31
0.0
  0
LINE
  5
2AA
330
1F
100
AcDbEntity
  8
0
  6
Continuous
 62
     8
370
    15
100
AcDbLine
 10
207.7508541695
 20
210.6257747521
 30
0.0
 11
197.3708542935
 21
210.6257747521
 31
0.0
  0
LINE
  5
2AB
330
1F
100
AcDbEntity
  8
0
  6
Continuous
 62
     8
370
    15
100
AcDbLine
 10
207.7508541695
 20
243.0557738651
 30
0.0
 11
207.7508541695
 21
210.6257747521
 31
0.0
  0
LINE
  5
2AC
330
1F
100
AcDbEntity
  8
0
  6
Continuous
 62
     8
370
    15
100
AcDbLine
 10
208.0008539311
 20
243.2157706131
 30
0.0
 11
208.1608506791
 21
243.2157706131
 31
0.0
  0
LINE
  5
2AD
330
1F
100
AcDbEntity
  8
0
  6
Continuous
 62
     8
370
    15
100
AcDbLine
 10
203.000852739
 20
248.2157718052
 30
0.0
 11
203.000852739
 21
248.3757745136
 31
0.0
  0
LINE
  5
2AE
330
1F
100
AcDbEntity
  8
0
  6
Continuous
 62
     8
370
    15
100
AcDbLine
 10
197.3708542935
 20
153.5940488229
 30
0.0
 11
198.323682224
 21
153.5940488229
 31
0.0
  0
LINE
  5
2AF
330
1F
100
AcDbEntity
  8
0
  6
Continuous
 62
     8
370
    15
100
AcDbLine
 10
198.4921070687
 20
153.5940488229
 30
0.0
 11
198.5021742932
 21
153.5940488229
 31
0.0
  0
LINE
  5
2B0
330
1F
100
AcDbEntity
  8
0
  6
Continuous
 62
     8
370
    15
100
AcDbLine
 10
197.3708542935
 20
209.734047543
 30
0.0
 11
197.3708542935
 21
190.5322204937
 31
0.0
  0
LINE
  5
2B1
330
1F
100
AcDbEntity
  8
0
  6
Continuous
 62
     8
370
    15
100
AcDbLine
 10
197.3708542935
 20
184.1320793738
 30
0.0
 11
197.3708542935
 21
184.0461711992
 31
0.0
  0
LINE
  5
2B2
330
1F
100
AcDbEntity
  8
0
  6
Continuous
 62
     8
370
    15
100
AcDbLine
 10
197.3708542935
 20
181.546116959
 30
0.0
 11
197.3708542935
 21
181.3320200552
 31
0.0
  0
LINE
  5
2B3
330
1F
100
AcDbEntity
  8
0
  6
Continuous
 62
     8
370
    15
100
AcDbLine
 10
197.3708542935
 20
181.1720173468
 30
0.0
 11
197.3708542935
 21
161.5442875434
 31
0.0
  0
LINE
  5
2B4
330
1F
100
AcDbEntity
  8
0
  6
Continuous
 62
     8
370
    15
100
AcDbLine
 10
197.3708542935
 20
157.1773726155
 30
0.0
 11
197.3708542935
 21
157.0043727417
 31
0.0
  0
LINE
  5
2B5
330
1F
100
AcDbEntity
  8
0
  6
Continuous
 62
     8
370
    15
100
AcDbLine
 10
197.3708542935
 20
156.4921021123
 30
0.0
 11
197.3708542935
 21
153.5940488229
 31
0.0
  0
LINE
  5
2B6
330
1F
100
AcDbEntity
  8
0
  6
Continuous
 62
     8
370
    15
100
AcDbLine
 10
207.7508541695
 20
159.7314249386
 30
0.0
 11
207.7508541695
 21
174.8374547471
 31
0.0
  0
LINE
  5
2B7
330
1F
100
AcDbEntity
  8
0
  6
Continuous
 62
     8
370
    15
100
AcDbLine
 10
207.7508541695
 20
185.4776870121
 30
0.0
 11
207.7508541695
 21
209.734047543
 31
0.0
  0
LINE
  5
2B8
330
1F
100
AcDbEntity
  8
0
  6
Continuous
 62
     8
370
    15
100
AcDbLine
 10
207.7508541695
 20
209.734047543
 30
0.0
 11
197.3708542935
 21
209.734047543
 31
0.0
  0
LINE
  5
2B9
330
1F
100
AcDbEntity
  8
0
  6
Continuous
 62
     8
370
    15
100
AcDbLine
 10
208.1608506791
 20
166.7851727118
 30
0.0
 11
208.4808501355
 21
166.7851727118
 31
0.0
  0
SPLINE
  5
2BA
330
1F
100
AcDbEntity
  8
0
  6
Continuous
 62
     8
370
    15
100
AcDbSpline
210
0.0
220
0.0
230
1.0
 70
     8
 71
     3
 72
    11
 73
     7
 74
     0
 42
0.00000001
 43
0.00000001
 40
0.0
 40
0.0
 40
0.0
 40
0.0
 40
0.237152281045336
 40
0.4978026889876785
 40
0.7485427119675231
 40
1.0
 40
1.0
 40
1.0
 40
1.0
 10
208.4808501355062
 20
166.7851727117636
 30
0.0
 10
208.5198480396531
 20
166.7790305341661
 30
0.0
 10
208.6017079377052
 20
166.7661375840717
 30
0.0
 10
208.690431510636
 20
166.7395319268082
 30
0.0
 10
208.7498764256996
 20
166.7088532184173
 30
0.0
 10
208.75719190929
 20
166.6872986637665
 30
0.0
 10
208.7608548752675
 20
166.6765059937575
 30
0.0
  0
LINE
  5
2BB
330
1F
100
AcDbEntity
  8
0
  6
Continuous
 62
     8
370
    15
100
AcDbLine
 10
111.1113312594
 20
250.9855519642
 30
0.0
 11
129.0897841505
 21
253.8330506195
 31
0.0
  0
LINE
  5
2BC
330
1F
100
AcDbEntity
  8
0
  6
Continuous
 62
     8
370
    15
100
AcDbLine
 10
191.8608519189
 20
236.7457162251
 30
0.0
 11
191.2613305203
 21
236.8193279614
 31
0.0
  0
LINE
  5
2BD
330
1F
100
AcDbEntity
  8
0
  6
Continuous
 62
     8
370
    15
100
AcDbLine
 10
189.2613324277
 20
237.0648931374
 30
0.0
 11
188.2613333814
 21
237.1876787056
 31
0.0
  0
LINE
  5
2BE
330
1F
100
AcDbEntity
  8
0
  6
Continuous
 62
     8
370
    15
100
AcDbLine
 10
186.2613323085
 20
237.4332498421
 30
0.0
 11
185.2613332621
 21
237.5560354103
 31
0.0
  0
LINE
  5
2BF
330
1F
100
AcDbEntity
  8
0
  6
Continuous
 62
     8
370
    15
100
AcDbLine
 10
183.2613321893
 20
237.8016005863
 30
0.0
 11
182.2613331429
 21
237.9243861546
 31
0.0
  0
LINE
  5
2C0
330
1F
100
AcDbEntity
  8
0
  6
Continuous
 62
     8
370
    15
100
AcDbLine
 10
180.2613320701
 20
238.169957291
 30
0.0
 11
179.2613330237
 21
238.2927428593
 31
0.0
  0
LINE
  5
2C1
330
1F
100
AcDbEntity
  8
0
  6
Continuous
 62
     8
370
    15
100
AcDbLine
 10
177.2613319508
 20
238.5383080353
 30
0.0
 11
176.2613329045
 21
238.6610936035
 31
0.0
  0
LINE
  5
2C2
330
1F
100
AcDbEntity
  8
0
  6
Continuous
 62
     8
370
    15
100
AcDbLine
 10
174.2613318316
 20
238.90666474
 30
0.0
 11
173.2613327853
 21
239.0294503082
 31
0.0
  0
LINE
  5
2C3
330
1F
100
AcDbEntity
  8
0
  6
Continuous
 62
     8
370
    15
100
AcDbLine
 10
171.2613317124
 20
239.2750154842
 30
0.0
 11
170.2613326661
 21
239.3978010525
 31
0.0
  0
LINE
  5
2C4
330
1F
100
AcDbEntity
  8
0
  6
Continuous
 62
     8
370
    15
100
AcDbLine
 10
168.2613315932
 20
239.643372189
 30
0.0
 11
167.2613325469
 21
239.7661577572
 31
0.0
  0
LINE
  5
2C5
330
1F
100
AcDbEntity
  8
0
  6
Continuous
 62
     8
370
    15
100
AcDbLine
 10
165.261331474
 20
240.0117229332
 30
0.0
 11
164.2613324277
 21
240.1345085014
 31
0.0
  0
LINE
  5
2C6
330
1F
100
AcDbEntity
  8
0
  6
Continuous
 62
     8
370
    15
100
AcDbLine
 10
162.2613328449
 20
240.3800796379
 30
0.0
 11
161.2613323085
 21
240.5028652062
 31
0.0
  0
LINE
  5
2C7
330
1F
100
AcDbEntity
  8
0
  6
Continuous
 62
     8
370
    15
100
AcDbLine
 10
159.2613327257
 20
240.7484303822
 30
0.0
 11
158.2613321893
 21
240.8712159504
 31
0.0
  0
LINE
  5
2C8
330
1F
100
AcDbEntity
  8
0
  6
Continuous
 62
     8
370
    15
100
AcDbLine
 10
156.2613326065
 20
241.1167870869
 30
0.0
 11
155.2613320701
 21
241.2395726551
 31
0.0
  0
LINE
  5
2C9
330
1F
100
AcDbEntity
  8
0
  6
Continuous
 62
     8
370
    15
100
AcDbLine
 10
153.2613324873
 20
241.4851378311
 30
0.0
 11
152.2613319508
 21
241.6079233994
 31
0.0
  0
LINE
  5
2CA
330
1F
100
AcDbEntity
  8
0
  6
Continuous
 62
     8
370
    15
100
AcDbLine
 10
150.2613323681
 20
241.8534945358
 30
0.0
 11
149.2613325767
 21
241.9762801041
 31
0.0
  0
LINE
  5
2CB
330
1F
100
AcDbEntity
  8
0
  6
Continuous
 62
     8
370
    15
100
AcDbLine
 10
147.2613322489
 20
242.2218452801
 30
0.0
 11
146.2613324575
 21
242.3446308483
 31
0.0
  0
LINE
  5
2CC
330
1F
100
AcDbEntity
  8
0
  6
Continuous
 62
     8
370
    15
100
AcDbLine
 10
144.2613325022
 20
242.5902019848
 30
0.0
 11
143.2613327108
 21
242.712987553
 31
0.0
  0
LINE
  5
2CD
330
1F
100
AcDbEntity
  8
0
  6
Continuous
 62
     8
370
    15
100
AcDbLine
 10
141.2613325692
 20
242.958552729
 30
0.0
 11
140.2613325916
 21
243.0813382973
 31
0.0
  0
LINE
  5
2CE
330
1F
100
AcDbEntity
  8
0
  6
Continuous
 62
     8
370
    15
100
AcDbLine
 10
138.2613326363
 20
243.3269094338
 30
0.0
 11
137.2613326586
 21
243.449695002
 31
0.0
  0
LINE
  5
2CF
330
1F
100
AcDbEntity
  8
0
  6
Continuous
 62
     8
370
    15
100
AcDbLine
 10
135.2613325171
 20
243.695260178
 30
0.0
 11
134.2613327257
 21
243.8180457462
 31
0.0
  0
LINE
  5
2D0
330
1F
100
AcDbEntity
  8
0
  6
Continuous
 62
     8
370
    15
100
AcDbLine
 10
96.6713312022
 20
247.9740511288
 30
0.0
 11
96.6713312022
 21
248.166144978
 31
0.0
  0
LINE
  5
2D1
330
1F
100
AcDbEntity
  8
0
  6
Continuous
 62
     8
370
    15
100
AcDbLine
 10
96.6713312022
 20
247.9740511288
 30
0.0
 11
96.6713312022
 21
153.3440488169
 31
0.0
  0
LINE
  5
2D2
330
1F
100
AcDbEntity
  8
0
  6
Continuous
 62
     8
370
    15
100
AcDbLine
 10
196.5513321511
 20
247.9740511288
 30
0.0
 11
96.6813328616
 21
247.9740511288
 31
0.0
  0
LINE
  5
2D3
330
1F
100
AcDbEntity
  8
0
  6
Continuous
 62
     8
370
    15
100
AcDbLine
 10
196.5513321511
 20
153.5940488229
 30
0.0
 11
196.5513321511
 21
247.9740511288
 31
0.0
  0
LINE
  5
2D4
330
1F
100
AcDbEntity
  8
0
  6
Continuous
 62
     8
370
    15
100
AcDbLine
 10
102.8213324897
 20
153.5940488229
 30
0.0
 11
196.5513321511
 21
153.5940488229
 31
0.0
  0
LINE
  5
2D5
330
1F
100
AcDbEntity
  8
0
  6
Continuous
 62
     8
370
    15
100
AcDbLine
 10
196.8013319127
 20
247.9740511288
 30
0.0
 11
196.9608518235
 21
247.9740511288
 31
0.0
  0
LINE
  5
2D6
330
1F
100
AcDbEntity
  8
0
  6
Continuous
 62
     8
370
    15
100
AcDbLine
 10
101.2613329045
 20
244.234050404
 30
0.0
 11
102.2613319508
 21
244.234050404
 31
0.0
  0
LINE
  5
2D7
330
1F
100
AcDbEntity
  8
0
  6
Continuous
 62
     8
370
    15
100
AcDbLine
 10
104.2613330237
 20
244.234050404
 30
0.0
 11
105.2613320701
 21
244.234050404
 31
0.0
  0
LINE
  5
2D8
330
1F
100
AcDbEntity
  8
0
  6
Continuous
 62
     8
370
    15
100
AcDbLine
 10
107.2613331429
 20
244.234050404
 30
0.0
 11
108.2613321893
 21
244.234050404
 31
0.0
  0
LINE
  5
2D9
330
1F
100
AcDbEntity
  8
0
  6
Continuous
 62
     8
370
    15
100
AcDbLine
 10
110.2613332621
 20
244.234050404
 30
0.0
 11
111.2613323085
 21
244.234050404
 31
0.0
  0
LINE
  5
2DA
330
1F
100
AcDbEntity
  8
0
  6
Continuous
 62
     8
370
    15
100
AcDbLine
 10
113.2613333814
 20
244.234050404
 30
0.0
 11
114.2613324277
 21
244.234050404
 31
0.0
  0
LINE
  5
2DB
330
1F
100
AcDbEntity
  8
0
  6
Continuous
 62
     8
370
    15
100
AcDbLine
 10
116.2613320104
 20
244.234050404
 30
0.0
 11
117.2613325469
 21
244.234050404
 31
0.0
  0
LINE
  5
2DC
330
1F
100
AcDbEntity
  8
0
  6
Continuous
 62
     8
370
    15
100
AcDbLine
 10
119.2613321297
 20
244.234050404
 30
0.0
 11
120.2613326661
 21
244.234050404
 31
0.0
  0
LINE
  5
2DD
330
1F
100
AcDbEntity
  8
0
  6
Continuous
 62
     8
370
    15
100
AcDbLine
 10
122.2613322489
 20
244.234050404
 30
0.0
 11
123.2613327853
 21
244.234050404
 31
0.0
  0
LINE
  5
2DE
330
1F
100
AcDbEntity
  8
0
  6
Continuous
 62
     8
370
    15
100
AcDbLine
 10
125.2613323681
 20
244.234050404
 30
0.0
 11
126.2613329045
 21
244.234050404
 31
0.0
  0
LINE
  5
2DF
330
1F
100
AcDbEntity
  8
0
  6
Continuous
 62
     8
370
    15
100
AcDbLine
 10
128.2613324873
 20
244.234050404
 30
0.0
 11
129.2613322787
 21
244.234050404
 31
0.0
  0
LINE
  5
2E0
330
1F
100
AcDbEntity
  8
0
  6
Continuous
 62
     8
370
    15
100
AcDbLine
 10
131.2613326065
 20
244.234050404
 30
0.0
 11
132.2613323979
 21
244.234050404
 31
0.0
  0
LINE
  5
2E1
330
1F
100
AcDbEntity
  8
0
  6
Continuous
 62
     8
370
    15
100
AcDbLine
 10
134.2613327257
 20
244.234050404
 30
0.0
 11
135.2613325171
 21
244.234050404
 31
0.0
  0
LINE
  5
2E2
330
1F
100
AcDbEntity
  8
0
  6
Continuous
 62
     8
370
    15
100
AcDbLine
 10
137.2613326586
 20
244.234050404
 30
0.0
 11
138.2613326363
 21
244.234050404
 31
0.0
  0
LINE
  5
2E3
330
1F
100
AcDbEntity
  8
0
  6
Continuous
 62
     8
370
    15
100
AcDbLine
 10
140.2613325916
 20
244.234050404
 30
0.0
 11
141.2613325692
 21
244.234050404
 31
0.0
  0
LINE
  5
2E4
330
1F
100
AcDbEntity
  8
0
  6
Continuous
 62
     8
370
    15
100
AcDbLine
 10
143.2613327108
 20
244.234050404
 30
0.0
 11
144.2613325022
 21
244.234050404
 31
0.0
  0
LINE
  5
2E5
330
1F
100
AcDbEntity
  8
0
  6
Continuous
 62
     8
370
    15
100
AcDbLine
 10
146.2613324575
 20
244.234050404
 30
0.0
 11
147.2613322489
 21
244.234050404
 31
0.0
  0
LINE
  5
2E6
330
1F
100
AcDbEntity
  8
0
  6
Continuous
 62
     8
370
    15
100
AcDbLine
 10
149.2613325767
 20
244.234050404
 30
0.0
 11
150.2613323681
 21
244.234050404
 31
0.0
  0
LINE
  5
2E7
330
1F
100
AcDbEntity
  8
0
  6
Continuous
 62
     8
370
    15
100
AcDbLine
 10
152.2613319508
 20
244.234050404
 30
0.0
 11
153.2613324873
 21
244.234050404
 31
0.0
  0
LINE
  5
2E8
330
1F
100
AcDbEntity
  8
0
  6
Continuous
 62
     8
370
    15
100
AcDbLine
 10
155.2613320701
 20
244.234050404
 30
0.0
 11
156.2613326065
 21
244.234050404
 31
0.0
  0
LINE
  5
2E9
330
1F
100
AcDbEntity
  8
0
  6
Continuous
 62
     8
370
    15
100
AcDbLine
 10
158.2613321893
 20
244.234050404
 30
0.0
 11
159.2613327257
 21
244.234050404
 31
0.0
  0
LINE
  5
2EA
330
1F
100
AcDbEntity
  8
0
  6
Continuous
 62
     8
370
    15
100
AcDbLine
 10
161.2613323085
 20
244.234050404
 30
0.0
 11
162.2613328449
 21
244.234050404
 31
0.0
  0
LINE
  5
2EB
330
1F
100
AcDbEntity
  8
0
  6
Continuous
 62
     8
370
    15
100
AcDbLine
 10
164.2613324277
 20
244.234050404
 30
0.0
 11
165.261331474
 21
244.234050404
 31
0.0
  0
LINE
  5
2EC
330
1F
100
AcDbEntity
  8
0
  6
Continuous
 62
     8
370
    15
100
AcDbLine
 10
167.2613325469
 20
244.234050404
 30
0.0
 11
168.2613315932
 21
244.234050404
 31
0.0
  0
LINE
  5
2ED
330
1F
100
AcDbEntity
  8
0
  6
Continuous
 62
     8
370
    15
100
AcDbLine
 10
170.2613326661
 20
244.234050404
 30
0.0
 11
171.2613317124
 21
244.234050404
 31
0.0
  0
LINE
  5
2EE
330
1F
100
AcDbEntity
  8
0
  6
Continuous
 62
     8
370
    15
100
AcDbLine
 10
173.2613327853
 20
244.234050404
 30
0.0
 11
174.2613318316
 21
244.234050404
 31
0.0
  0
LINE
  5
2EF
330
1F
100
AcDbEntity
  8
0
  6
Continuous
 62
     8
370
    15
100
AcDbLine
 10
176.2613329045
 20
244.234050404
 30
0.0
 11
177.2613319508
 21
244.234050404
 31
0.0
  0
LINE
  5
2F0
330
1F
100
AcDbEntity
  8
0
  6
Continuous
 62
     8
370
    15
100
AcDbLine
 10
179.2613330237
 20
244.234050404
 30
0.0
 11
180.2613320701
 21
244.234050404
 31
0.0
  0
LINE
  5
2F1
330
1F
100
AcDbEntity
  8
0
  6
Continuous
 62
     8
370
    15
100
AcDbLine
 10
182.2613331429
 20
244.234050404
 30
0.0
 11
183.2613321893
 21
244.234050404
 31
0.0
  0
LINE
  5
2F2
330
1F
100
AcDbEntity
  8
0
  6
Continuous
 62
     8
370
    15
100
AcDbLine
 10
185.2613332621
 20
244.234050404
 30
0.0
 11
186.2613323085
 21
244.234050404
 31
0.0
  0
LINE
  5
2F3
330
1F
100
AcDbEntity
  8
0
  6
Continuous
 62
     8
370
    15
100
AcDbLine
 10
188.2613333814
 20
244.234050404
 30
0.0
 11
189.2613324277
 21
244.234050404
 31
0.0
  0
LINE
  5
2F4
330
1F
100
AcDbEntity
  8
0
  6
Continuous
 62
     8
370
    15
100
AcDbLine
 10
191.2613305203
 20
244.234050404
 30
0.0
 11
192.2613355271
 21
244.234050404
 31
0.0
  0
LINE
  5
2F5
330
1F
100
AcDbEntity
  8
0
  6
Continuous
 62
     8
370
    15
100
AcDbLine
 10
196.7949244134
 20
153.5940488229
 30
0.0
 11
196.7949244134
 21
153.3454630302
 31
0.0
  0
LINE
  5
2F6
330
1F
100
AcDbEntity
  8
0
  6
Continuous
 62
     8
370
    15
100
AcDbLine
 10
101.4213326327
 20
153.1840488209
 30
0.0
 11
101.4213326327
 21
153.3440488169
 31
0.0
  0
LINE
  5
2F7
330
1F
100
AcDbEntity
  8
0
  6
Continuous
 62
     8
370
    15
100
AcDbLine
 10
96.8313339106
 20
153.3440488169
 30
0.0
 11
96.8313339106
 21
153.1840488209
 31
0.0
  0
LINE
  5
2F8
330
1F
100
AcDbEntity
  8
0
  6
Continuous
 62
     8
370
    15
100
AcDbLine
 10
190.6871887795
 20
152.2540487942
 30
0.0
 11
102.6354732863
 21
152.2540487942
 31
0.0
  0
LINE
  5
2F9
330
1F
100
AcDbEntity
  8
0
  6
CENTERX2
 62
     7
370
     0
100
AcDbLine
 10
237.0174316949
 20
167.3796195633
 30
0.0
 11
237.164189694
 21
167.2437442907
 31
0.0
  0
LINE
  5
2FA
330
1F
100
AcDbEntity
  8
0
  6
CENTERX2
 62
     7
370
     0
100
AcDbLine
 10
237.0174316949
 20
167.3796195633
 30
0.0
 11
237.164189694
 21
167.2437442907
 31
0.0
  0
ENDSEC
  0
SECTION
  2
OBJECTS
  0
DICTIONARY
  5
C
330
0
100
AcDbDictionary
281
     1
  3
ACAD_GROUP
350
D
  3
ACAD_LAYOUT
350
1A
  3
ACAD_MLINESTYLE
350
17
  3
ACAD_PLOTSETTINGS
350
19
  3
ACAD_PLOTSTYLENAME
350
E
  0
DICTIONARY
  5
D
102
{ACAD_REACTORS
330
C
102
}
330
C
100
AcDbDictionary
281
     1
  0
DICTIONARY
  5
1A
102
{ACAD_REACTORS
330
C
102
}
330
C
100
AcDbDictionary
281
     1
  3
Layout1
350
1E
  3
Layout2
350
26
  3
Model
350
22
  0
DICTIONARY
  5
17
102
{ACAD_REACTORS
330
C
102
}
330
C
100
AcDbDictionary
281
     1
  3
Standard
350
18
  0
DICTIONARY
  5
19
102
{ACAD_REACTORS
330
C
102
}
330
C
100
AcDbDictionary
281
     1
  0
ACDBDICTIONARYWDFLT
  5
E
102
{ACAD_REACTORS
330
C
102
}
330
C
100
AcDbDictionary
281
     1
  3
Normal
350
F
100
AcDbDictionaryWithDefault
340
F
  0
LAYOUT
  5
1E
102
{ACAD_REACTORS
330
1A
102
}
330
1A
100
AcDbPlotSettings
  1

  2
none_device
  4

  6

 40
0.0
 41
0.0
 42
0.0
 43
0.0
 44
0.0
 45
0.0
 46
0.0
 47
0.0
 48
0.0
 49
0.0
140
0.0
141
0.0
142
1.0
143
1.0
 70
   688
 72
     0
 73
     0
 74
     5
  7

 75
    16
147
1.0
148
0.0
149
0.0
100
AcDbLayout
  1
Layout1
 70
     1
 71
     1
 10
0.0
 20
0.0
 11
420.0
 21
297.0
 12
0.0
 22
0.0
 32
0.0
 14
1.0000000000E+20
 24
1.0000000000E+20
 34
1.0000000000E+20
 15
-1.0000000000E+20
 25
-1.0000000000E+20
 35
-1.0000000000E+20
146
0.0
 13
0.0
 23
0.0
 33
0.0
 16
1.0
 26
0.0
 36
0.0
 17
0.0
 27
1.0
 37
0.0
 76
     0
330
1B
  0
LAYOUT
  5
26
102
{ACAD_REACTORS
330
1A
102
}
330
1A
100
AcDbPlotSettings
  1

  2
none_device
  4

  6

 40
0.0
 41
0.0
 42
0.0
 43
0.0
 44
0.0
 45
0.0
 46
0.0
 47
0.0
 48
0.0
 49
0.0
140
0.0
141
0.0
142
1.0
143
1.0
 70
   688
 72
     0
 73
     0
 74
     5
  7

 75
    16
147
1.0
148
0.0
149
0.0
100
AcDbLayout
  1
Layout2
 70
     1
 71
     2
 10
0.0
 20
0.0
 11
0.0
 21
0.0
 12
0.0
 22
0.0
 32
0.0
 14
0.0
 24
0.0
 34
0.0
 15
0.0
 25
0.0
 35
0.0
146
0.0
 13
0.0
 23
0.0
 33
0.0
 16
1.0
 26
0.0
 36
0.0
 17
0.0
 27
1.0
 37
0.0
 76
     0
330
23
  0
LAYOUT
  5
22
102
{ACAD_REACTORS
330
1A
102
}
330
1A
100
AcDbPlotSettings
  1

  2
none_device
  4

  6

 40
0.0
 41
0.0
 42
0.0
 43
0.0
 44
0.0
 45
0.0
 46
0.0
 47
0.0
 48
0.0
 49
0.0
140
0.0
141
0.0
142
1.0
143
1.0
 70
  1712
 72
     0
 73
     0
 74
     0
  7

 75
     0
147
1.0
148
0.0
149
0.0
100
AcDbLayout
  1
Model
 70
     1
 71
     0
 10
0.0
 20
0.0
 11
420.0
 21
297.0
 12
0.0
 22
0.0
 32
0.0
 14
0.0
 24
0.0
 34
0.0
 15
420.0
 25
297.0
 35
0.0
146
0.0
 13
0.0
 23
0.0
 33
0.0
 16
1.0
 26
0.0
 36
0.0
 17
0.0
 27
1.0
 37
0.0
 76
     0
330
1F
331
29
  0
MLINESTYLE
  5
18
102
{ACAD_REACTORS
330
17
102
}
330
17
100
AcDbMlineStyle
  2
Standard
 70
     0
  3

 62
   256
 51
90.0
 52
90.0
 71
     2
 49
0.5
 62
   256
  6
BYLAYER
 49
-0.5
 62
   256
  6
BYLAYER
  0
ACDBPLACEHOLDER
  5
F
102
{ACAD_REACTORS
330
E
102
}
330
E
  0
ENDSEC
  0
EOF
