  0
SECTION
  2
HEADER
  9
$ACADVER
  1
AC1021
  9
$ACADMAINTVER
 70
    25
  9
$DWGCODEPAGE
  3
ANSI_1252
  9
$INSBASE
 10
0.0
 20
0.0
 30
0.0
  9
$EXTMIN
 10
0.0
 20
0.0
 30
0.0
  9
$EXTMAX
 10
420.0
 20
297.0
 30
0.0
  9
$LIMMIN
 10
0.0
 20
0.0
  9
$LIMMAX
 10
420.0
 20
297.0
  9
$ORTHOMODE
 70
     0
  9
$REGENMODE
 70
     1
  9
$FILLMODE
 70
     1
  9
$QTEXTMODE
 70
     0
  9
$MIRRTEXT
 70
     1
  9
$LTSCALE
 40
1.0
  9
$ATTMODE
 70
     1
  9
$TEXTSIZE
 40
3.5
  9
$TRACEWID
 40
1.0
  9
$TEXTSTYLE
  7
Standard
  9
$CLAYER
  8
0
  9
$CELTYPE
  6
ByLayer
  9
$CECOLOR
 62
   256
  9
$CELTSCALE
 40
1.0
  9
$DISPSILH
 70
     0
  9
$DIMSCALE
 40
1.0
  9
$DIMASZ
 40
3.302
  9
$DIMEXO
 40
1.0
  9
$DIMDLI
 40
3.75
  9
$DIMRND
 40
0.0
  9
$DIMDLE
 40
0.0
  9
$DIMEXE
 40
1.0
  9
$DIMTP
 40
0.0
  9
$DIMTM
 40
0.0
  9
$DIMTXT
 40
3.5
  9
$DIMCEN
 40
2.5
  9
$DIMTSZ
 40
0.0
  9
$DIMTOL
 70
     0
  9
$DIMLIM
 70
     0
  9
$DIMTIH
 70
     1
  9
$DIMTOH
 70
     1
  9
$DIMSE1
 70
     0
  9
$DIMSE2
 70
     0
  9
$DIMTAD
 70
     1
  9
$DIMZIN
 70
     0
  9
$DIMBLK
  1

  9
$DIMASO
 70
     1
  9
$DIMSHO
 70
     1
  9
$DIMPOST
  1

  9
$DIMAPOST
  1

  9
$DIMALT
 70
     0
  9
$DIMALTD
 70
     3
  9
$DIMALTF
 40
0.0393700787
  9
$DIMLFAC
 40
1.0
  9
$DIMTOFL
 70
     1
  9
$DIMTVP
 40
0.0
  9
$DIMTIX
 70
     0
  9
$DIMSOXD
 70
     0
  9
$DIMSAH
 70
     0
  9
$DIMBLK1
  1

  9
$DIMBLK2
  1

  9
$DIMSTYLE
  2
ISO-25
  9
$DIMCLRD
 70
     0
  9
$DIMCLRE
 70
     0
  9
$DIMCLRT
 70
     0
  9
$DIMTFAC
 40
1.0
  9
$DIMGAP
 40
1.524
  9
$DIMJUST
 70
     0
  9
$DIMSD1
 70
     0
  9
$DIMSD2
 70
     0
  9
$DIMTOLJ
 70
     0
  9
$DIMTZIN
 70
     0
  9
$DIMALTZ
 70
     0
  9
$DIMALTTZ
 70
     0
  9
$DIMUPT
 70
     0
  9
$DIMDEC
 70
     1
  9
$DIMTDEC
 70
     1
  9
$DIMALTU
 70
     2
  9
$DIMALTTD
 70
     3
  9
$DIMTXSTY
  7
Standard
  9
$DIMAUNIT
 70
     0
  9
$DIMADEC
 70
     1
  9
$DIMALTRND
 40
0.0
  9
$DIMAZIN
 70
     0
  9
$DIMDSEP
 70
    44
  9
$DIMATFIT
 70
     3
  9
$DIMFRAC
 70
     0
  9
$DIMLDRBLK
  1

  9
$DIMLUNIT
 70
     2
  9
$DIMLWD
 70
    -2
  9
$DIMLWE
 70
    -2
  9
$DIMTMOVE
 70
     0
  9
$DIMFXL
 40
1.0
  9
$DIMFXLON
 70
     0
  9
$DIMJOGANG
 40
0.7853981634
  9
$DIMTFILL
 70
     0
  9
$DIMTFILLCLR
 70
     0
  9
$DIMARCSYM
 70
     0
  9
$DIMLTYPE
  6

  9
$DIMLTEX1
  6

  9
$DIMLTEX2
  6

  9
$LUNITS
 70
     2
  9
$LUPREC
 70
     1
  9
$SKETCHINC
 40
1.0
  9
$FILLETRAD
 40
10.0
  9
$AUNITS
 70
     0
  9
$AUPREC
 70
     1
  9
$MENU
  1
.
  9
$ELEVATION
 40
0.0
  9
$PELEVATION
 40
0.0
  9
$THICKNESS
 40
0.0
  9
$LIMCHECK
 70
     0
  9
$CHAMFERA
 40
10.0
  9
$CHAMFERB
 40
10.0
  9
$CHAMFERC
 40
20.0
  9
$CHAMFERD
 40
0.0
  9
$SKPOLY
 70
     0
  9
$TDCREATE
 40
2455747.448806019
  9
$TDUCREATE
 40
2455747.407139352
  9
$TDUPDATE
 40
2455747.44880603
  9
$TDUUPDATE
 40
2455747.407139363
  9
$TDINDWG
 40
0.0000000116
  9
$TDUSRTIMER
 40
0.0000000116
  9
$USRTIMER
 70
     1
  9
$ANGBASE
 50
0.0
  9
$ANGDIR
 70
     0
  9
$PDMODE
 70
     0
  9
$PDSIZE
 40
-1.0
  9
$PLINEWID
 40
0.0
  9
$SPLFRAME
 70
     0
  9
$SPLINETYPE
 70
     6
  9
$SPLINESEGS
 70
     8
  9
$HANDSEED
  5
27F
  9
$SURFTAB1
 70
     6
  9
$SURFTAB2
 70
     6
  9
$SURFTYPE
 70
     6
  9
$SURFU
 70
     6
  9
$SURFV
 70
     6
  9
$UCSBASE
  2

  9
$UCSNAME
  2

  9
$UCSORG
 10
0.0
 20
0.0
 30
0.0
  9
$UCSXDIR
 10
1.0
 20
0.0
 30
0.0
  9
$UCSYDIR
 10
0.0
 20
1.0
 30
0.0
  9
$UCSORTHOREF
  2

  9
$UCSORTHOVIEW
 70
     0
  9
$UCSORGTOP
 10
0.0
 20
0.0
 30
0.0
  9
$UCSORGBOTTOM
 10
0.0
 20
0.0
 30
0.0
  9
$UCSORGLEFT
 10
0.0
 20
0.0
 30
0.0
  9
$UCSORGRIGHT
 10
0.0
 20
0.0
 30
0.0
  9
$UCSORGFRONT
 10
0.0
 20
0.0
 30
0.0
  9
$UCSORGBACK
 10
0.0
 20
0.0
 30
0.0
  9
$PUCSBASE
  2

  9
$PUCSNAME
  2

  9
$PUCSORG
 10
0.0
 20
0.0
 30
0.0
  9
$PUCSXDIR
 10
1.0
 20
0.0
 30
0.0
  9
$PUCSYDIR
 10
0.0
 20
1.0
 30
0.0
  9
$PUCSORTHOREF
  2

  9
$PUCSORTHOVIEW
 70
     0
  9
$PUCSORGTOP
 10
0.0
 20
0.0
 30
0.0
  9
$PUCSORGBOTTOM
 10
0.0
 20
0.0
 30
0.0
  9
$PUCSORGLEFT
 10
0.0
 20
0.0
 30
0.0
  9
$PUCSORGRIGHT
 10
0.0
 20
0.0
 30
0.0
  9
$PUCSORGFRONT
 10
0.0
 20
0.0
 30
0.0
  9
$PUCSORGBACK
 10
0.0
 20
0.0
 30
0.0
  9
$USERI1
 70
     0
  9
$USERI2
 70
     0
  9
$USERI3
 70
     0
  9
$USERI4
 70
     0
  9
$USERI5
 70
     0
  9
$USERR1
 40
0.0
  9
$USERR2
 40
0.0
  9
$USERR3
 40
0.0
  9
$USERR4
 40
0.0
  9
$USERR5
 40
0.0
  9
$WORLDVIEW
 70
     1
  9
$SHADEDGE
 70
     3
  9
$SHADEDIF
 70
    70
  9
$TILEMODE
 70
     1
  9
$MAXACTVP
 70
    64
  9
$PINSBASE
 10
0.0
 20
0.0
 30
0.0
  9
$PLIMCHECK
 70
     0
  9
$PEXTMIN
 10
1.0000000000E+20
 20
1.0000000000E+20
 30
1.0000000000E+20
  9
$PEXTMAX
 10
-1.0000000000E+20
 20
-1.0000000000E+20
 30
-1.0000000000E+20
  9
$PLIMMIN
 10
0.0
 20
0.0
  9
$PLIMMAX
 10
420.0
 20
297.0
  9
$UNITMODE
 70
     0
  9
$VISRETAIN
 70
     1
  9
$PLINEGEN
 70
     0
  9
$PSLTSCALE
 70
     1
  9
$TREEDEPTH
 70
  3020
  9
$CMLSTYLE
  2
Standard
  9
$CMLJUST
 70
     0
  9
$CMLSCALE
 40
20.0
  9
$PROXYGRAPHICS
 70
     1
  9
$MEASUREMENT
 70
     1
  9
$CELWEIGHT
370
    -1
  9
$ENDCAPS
280
     0
  9
$JOINSTYLE
280
     0
  9
$LWDISPLAY
290
     1
  9
$INSUNITS
 70
     4
  9
$HYPERLINKBASE
  1

  9
$STYLESHEET
  1

  9
$XEDIT
290
     1
  9
$CEPSNTYPE
380
     0
  9
$PSTYLEMODE
290
     1
  9
$FINGERPRINTGUID
  2
{3FD346B7-A169-444B-A549-8E76F1C48BCB}
  9
$VERSIONGUID
  2
{FAEB1C32-E019-11D5-929B-00C0DF256EC4}
  9
$EXTNAMES
290
     1
  9
$PSVPSCALE
 40
0.0
  9
$OLESTARTUP
290
     0
  9
$SORTENTS
280
   127
  9
$INDEXCTL
280
     0
  9
$HIDETEXT
280
     1
  9
$XCLIPFRAME
290
     0
  9
$HALOGAP
280
     0
  9
$OBSCOLOR
 70
   257
  9
$OBSLTYPE
280
     0
  9
$INTERSECTIONDISPLAY
280
     0
  9
$INTERSECTIONCOLOR
 70
   257
  9
$DIMASSOC
280
     2
  9
$PROJECTNAME
  1

  9
$CAMERADISPLAY
290
     0
  9
$LENSLENGTH
 40
50.0
  9
$CAMERAHEIGHT
 40
0.0
  9
$STEPSPERSEC
 40
2.0
  9
$STEPSIZE
 40
6.0
  9
$3DDWFPREC
 40
2.0
  9
$PSOLWIDTH
 40
5.0
  9
$PSOLHEIGHT
 40
80.0
  9
$LOFTANG1
 40
1.5707963268
  9
$LOFTANG2
 40
1.5707963268
  9
$LOFTMAG1
 40
0.0
  9
$LOFTMAG2
 40
0.0
  9
$LOFTPARAM
 70
     7
  9
$LOFTNORMALS
280
     1
  9
$LATITUDE
 40
37.795
  9
$LONGITUDE
 40
-122.394
  9
$NORTHDIRECTION
 40
0.0
  9
$TIMEZONE
 70
 -8000
  9
$LIGHTGLYPHDISPLAY
280
     1
  9
$TILEMODELIGHTSYNCH
280
     1
  9
$SOLIDHIST
280
     1
  9
$SHOWHIST
280
     1
  9
$DWFFRAME
280
     2
  9
$DGNFRAME
280
     2
  9
$REALWORLDSCALE
290
     1
  9
$INTERFERECOLOR
 62
   256
  9
$CSHADOW
280
     0
  9
$SHADOWPLANELOCATION
 40
0.0
  0
ENDSEC
  0
SECTION
  2
CLASSES
  0
CLASS
  1
ACDBDICTIONARYWDFLT
  2
AcDbDictionaryWithDefault
  3
ObjectDBX Classes
 90
        0
 91
        4
280
     0
281
     0
  0
CLASS
  1
VISUALSTYLE
  2
AcDbVisualStyle
  3
ObjectDBX Classes
 90
     4095
 91
        4
280
     0
281
     0
  0
CLASS
  1
MATERIAL
  2
AcDbMaterial
  3
ObjectDBX Classes
 90
     1153
 91
        4
280
     0
281
     0
  0
ENDSEC
  0
SECTION
  2
TABLES
  0
TABLE
  2
VPORT
  5
8
330
0
100
AcDbSymbolTable
 70
     1
  0
VPORT
  5
29
330
8
100
AcDbSymbolTableRecord
100
AcDbViewportTableRecord
  2
*Active
 70
     0
 10
0.0
 20
0.0
 11
1.0
 21
1.0
 12
210.0
 22
148.5
 13
0.0
 23
0.0
 14
10.0
 24
10.0
 15
10.0
 25
10.0
 16
0.0
 26
0.0
 36
1.0
 17
0.0
 27
0.0
 37
0.0
 40
297.0
 41
1.4141414141
 42
50.0
 43
0.0
 44
0.0
 50
0.0
 51
0.0
 71
     0
 72
  2000
 73
     1
 74
     3
 75
     0
 76
     0
 77
     0
 78
     0
281
     0
 65
     1
110
0.0
120
0.0
130
0.0
111
1.0
121
0.0
131
0.0
112
0.0
122
1.0
132
0.0
 79
     0
146
0.0
 60
     3
 61
     5
292
     1
282
     1
141
0.0
142
0.0
 63
   250
  0
ENDTAB
  0
TABLE
  2
LTYPE
  5
5
330
0
100
AcDbSymbolTable
 70
     6
  0
LTYPE
  5
14
330
5
100
AcDbSymbolTableRecord
100
AcDbLinetypeTableRecord
  2
ByBlock
 70
     0
  3

 72
    65
 73
     0
 40
0.0
  0
LTYPE
  5
15
330
5
100
AcDbSymbolTableRecord
100
AcDbLinetypeTableRecord
  2
ByLayer
 70
     0
  3

 72
    65
 73
     0
 40
0.0
  0
LTYPE
  5
16
330
5
100
AcDbSymbolTableRecord
100
AcDbLinetypeTableRecord
  2
Continuous
 70
     0
  3
Solid line
 72
    65
 73
     0
 40
0.0
  0
LTYPE
  5
3F
330
5
100
AcDbSymbolTableRecord
100
AcDbLinetypeTableRecord
  2
HIDDEN
 70
     0
  3
Hidden __ __ __ __ __ __ __ __ __ __ __ __ __ __
 72
    65
 73
     2
 40
1.905
 49
1.27
 74
     0
 49
-0.635
 74
     0
  0
LTYPE
  5
40
330
5
100
AcDbSymbolTableRecord
100
AcDbLinetypeTableRecord
  2
PHANTOM
 70
     0
  3
Phantom ______  __  __  ______  __  __  ______
 72
    65
 73
     6
 40
12.7
 49
6.35
 74
     0
 49
-1.27
 74
     0
 49
1.27
 74
     0
 49
-1.27
 74
     0
 49
1.27
 74
     0
 49
-1.27
 74
     0
  0
LTYPE
  5
41
330
5
100
AcDbSymbolTableRecord
100
AcDbLinetypeTableRecord
  2
CENTER
 70
     0
  3
Center ____ _ ____ _ ____ _ ____ _ ____ _ ____
 72
    65
 73
     4
 40
10.16
 49
6.35
 74
     0
 49
-1.27
 74
     0
 49
1.27
 74
     0
 49
-1.27
 74
     0
  0
LTYPE
  5
42
330
5
100
AcDbSymbolTableRecord
100
AcDbLinetypeTableRecord
  2
CENTERX2
 70
     0
  3
Center (2x) ________  __  ________  __  _____
 72
    65
 73
     4
 40
20.32
 49
12.7
 74
     0
 49
-2.54
 74
     0
 49
2.54
 74
     0
 49
-2.54
 74
     0
  0
LTYPE
  5
43
330
5
100
AcDbSymbolTableRecord
100
AcDbLinetypeTableRecord
  2
DOT2
 70
     0
  3
Dot (.5x) ........................................
 72
    65
 73
     2
 40
0.635
 49
0.0
 74
     0
 49
-0.635
 74
     0
  0
ENDTAB
  0
TABLE
  2
LAYER
  5
2
330
0
100
AcDbSymbolTable
 70
     4
  0
LAYER
  5
10
330
2
100
AcDbSymbolTableRecord
100
AcDbLayerTableRecord
  2
0
 70
     0
 62
     7
  6
Continuous
370
    -3
390
F
347
3E
  0
LAYER
  5
44
330
2
100
AcDbSymbolTableRecord
100
AcDbLayerTableRecord
  2
FORMAT
 70
     0
 62
     7
  6
Continuous
370
    -3
390
F
347
3E
  0
LAYER
  5
45
330
2
100
AcDbSymbolTableRecord
100
AcDbLayerTableRecord
  2
SLD-0
 70
     0
 62
     1
  6
Continuous
370
    -3
390
F
347
3E
  0
LAYER
  5
46
330
2
100
AcDbSymbolTableRecord
100
AcDbLayerTableRecord
  2
WATERMARK
 70
     0
 62
    20
  6
Continuous
370
    -3
390
F
347
3E
  0
ENDTAB
  0
TABLE
  2
STYLE
  5
3
330
0
100
AcDbSymbolTable
 70
     1
  0
STYLE
  5
11
330
3
100
AcDbSymbolTableRecord
100
AcDbTextStyleTableRecord
  2
Standard
 70
     0
 40
0.0
 41
1.0
 50
0.0
 71
     0
 42
2.5
  3
txt
  4

  0
ENDTAB
  0
TABLE
  2
VIEW
  5
6
330
0
100
AcDbSymbolTable
 70
     0
  0
ENDTAB
  0
TABLE
  2
UCS
  5
7
330
0
100
AcDbSymbolTable
 70
     0
  0
ENDTAB
  0
TABLE
  2
APPID
  5
9
330
0
100
AcDbSymbolTable
 70
     1
  0
APPID
  5
12
330
9
100
AcDbSymbolTableRecord
100
AcDbRegAppTableRecord
  2
ACAD
 70
     0
  0
ENDTAB
  0
TABLE
  2
DIMSTYLE
  5
A
330
0
100
AcDbSymbolTable
 70
     1
100
AcDbDimStyleTable
  0
DIMSTYLE
105
27
330
A
100
AcDbSymbolTableRecord
100
AcDbDimStyleTableRecord
  2
ISO-25
 70
     0
 41
2.5
 42
0.625
 43
3.75
 44
1.25
 73
     0
 74
     0
 77
     1
 78
     8
140
2.5
141
2.5
143
0.0393700787
147
0.625
171
     3
172
     1
271
     2
272
     2
274
     3
278
    44
283
     0
284
     8
340
11
  0
ENDTAB
  0
TABLE
  2
BLOCK_RECORD
  5
1
330
0
100
AcDbSymbolTable
 70
     1
  0
BLOCK_RECORD
  5
1F
330
1
100
AcDbSymbolTableRecord
100
AcDbBlockTableRecord
  2
*Model_Space
340
22
 70
     0
280
     1
281
     0
  0
BLOCK_RECORD
  5
1B
330
1
100
AcDbSymbolTableRecord
100
AcDbBlockTableRecord
  2
*Paper_Space
340
1E
 70
     0
280
     1
281
     0
  0
BLOCK_RECORD
  5
23
330
1
100
AcDbSymbolTableRecord
100
AcDbBlockTableRecord
  2
*Paper_Space0
340
26
 70
     0
280
     1
281
     0
  0
ENDTAB
  0
ENDSEC
  0
SECTION
  2
BLOCKS
  0
BLOCK
  5
20
330
1F
100
AcDbEntity
  8
0
100
AcDbBlockBegin
  2
*Model_Space
 70
     0
 10
0.0
 20
0.0
 30
0.0
  3
*Model_Space
  1

  0
ENDBLK
  5
21
330
1F
100
AcDbEntity
  8
0
100
AcDbBlockEnd
  0
BLOCK
  5
1C
330
1B
100
AcDbEntity
 67
     1
  8
0
100
AcDbBlockBegin
  2
*Paper_Space
 70
     0
 10
0.0
 20
0.0
 30
0.0
  3
*Paper_Space
  1

  0
ENDBLK
  5
1D
330
1B
100
AcDbEntity
 67
     1
  8
0
100
AcDbBlockEnd
  0
BLOCK
  5
24
330
23
100
AcDbEntity
  8
0
100
AcDbBlockBegin
  2
*Paper_Space0
 70
     0
 10
0.0
 20
0.0
 30
0.0
  3
*Paper_Space0
  1

  0
ENDBLK
  5
25
330
23
100
AcDbEntity
  8
0
100
AcDbBlockEnd
  0
ENDSEC
  0
SECTION
  2
ENTITIES
  0
LINE
  5
47
330
1F
100
AcDbEntity
  8
0
  6
Continuous
 62
     7
370
    15
100
AcDbLine
 10
-160.8571203776
 20
46.5342452482
 30
0.0
 11
-162.8571203776
 21
44.5342452482
 31
0.0
  0
LINE
  5
48
330
1F
100
AcDbEntity
  8
0
  6
Continuous
 62
     7
370
    15
100
AcDbLine
 10
-162.8571203776
 20
26.5342452482
 30
0.0
 11
-160.8571203776
 21
24.5342452482
 31
0.0
  0
LINE
  5
49
330
1F
100
AcDbEntity
  8
0
  6
Continuous
 62
     7
370
    15
100
AcDbLine
 10
-160.8571203776
 20
24.5342452482
 30
0.0
 11
-158.8571203776
 21
26.5342452482
 31
0.0
  0
LINE
  5
4A
330
1F
100
AcDbEntity
  8
0
  6
Continuous
 62
     7
370
    15
100
AcDbLine
 10
-158.8571203776
 20
44.5342452482
 30
0.0
 11
-160.8571203776
 21
46.5342452482
 31
0.0
  0
LINE
  5
4B
330
1F
100
AcDbEntity
  8
0
  6
Continuous
 62
     7
370
    15
100
AcDbLine
 10
-127.9574162369
 20
475.542732124
 30
0.0
 11
-128.0574162369
 21
475.542732124
 31
0.0
  0
LINE
  5
4C
330
1F
100
AcDbEntity
  8
0
  6
Continuous
 62
     7
370
    15
100
AcDbLine
 10
-128.0574162369
 20
471.142732124
 30
0.0
 11
-127.9574162369
 21
471.142732124
 31
0.0
  0
ARC
  5
4D
330
1F
100
AcDbEntity
  8
0
  6
Continuous
 62
     7
370
    15
100
AcDbCircle
 10
550.0428796224
 20
-119.9657547518
 30
0.0
 40
2.0
100
AcDbArc
 50
270.0
 51
0.0
  0
ARC
  5
4E
330
1F
100
AcDbEntity
  8
0
  6
Continuous
 62
     7
370
    15
100
AcDbCircle
 10
497.0428796224
 20
-119.9657547518
 30
0.0
 40
2.0
100
AcDbArc
 50
180.0
 51
270.0
  0
LINE
  5
4F
330
1F
100
AcDbEntity
  8
0
  6
Continuous
 62
     7
370
    15
100
AcDbLine
 10
552.0428796224
 20
-119.9657547518
 30
0.0
 11
552.0428796224
 21
-115.9657547518
 31
0.0
  0
LINE
  5
50
330
1F
100
AcDbEntity
  8
0
  6
Continuous
 62
     7
370
    15
100
AcDbLine
 10
495.0428796224
 20
-115.9657547518
 30
0.0
 11
495.0428796224
 21
-119.9657547518
 31
0.0
  0
LINE
  5
51
330
1F
100
AcDbEntity
  8
0
  6
Continuous
 62
     7
370
    15
100
AcDbLine
 10
-146.8571203776
 20
24.5342452482
 30
0.0
 11
-128.2571203776
 21
24.5342452482
 31
0.0
  0
LINE
  5
52
330
1F
100
AcDbEntity
  8
0
  6
Continuous
 62
     7
370
    15
100
AcDbLine
 10
-128.2571203776
 20
46.5342452482
 30
0.0
 11
-146.8571203776
 21
46.5342452482
 31
0.0
  0
LINE
  5
53
330
1F
100
AcDbEntity
  8
0
  6
Continuous
 62
     7
370
    15
100
AcDbLine
 10
533.4425837631
 20
281.7342452482
 30
0.0
 11
533.4425837631
 21
280.7342452482
 31
0.0
  0
LINE
  5
54
330
1F
100
AcDbEntity
  8
0
  6
Continuous
 62
     7
370
    15
100
AcDbLine
 10
538.4425837631
 20
280.7342452482
 30
0.0
 11
538.4425837631
 21
281.7342452482
 31
0.0
  0
LINE
  5
55
330
1F
100
AcDbEntity
  8
0
  6
Continuous
 62
     7
370
    15
100
AcDbLine
 10
641.9428796224
 20
30.1823281607
 30
0.0
 11
642.2428796224
 21
30.8674270458
 31
0.0
  0
LINE
  5
56
330
1F
100
AcDbEntity
  8
0
  6
Continuous
 62
     7
370
    15
100
AcDbLine
 10
642.2428796224
 20
53.7257143963
 30
0.0
 11
641.9428796224
 21
54.4108132814
 31
0.0
  0
ARC
  5
57
330
1F
100
AcDbEntity
  8
0
  6
Continuous
 62
     7
370
    15
100
AcDbCircle
 10
656.2428796224
 20
37.3965707211
 30
0.0
 40
0.4999999999998863
100
AcDbArc
 50
270.0
 51
0.0
  0
ARC
  5
58
330
1F
100
AcDbEntity
  8
0
  6
Continuous
 62
     7
370
    15
100
AcDbCircle
 10
656.2428796224
 20
47.1965707211
 30
0.0
 40
0.4999999999998863
100
AcDbArc
 50
0.0
 51
90.0
  0
LINE
  5
59
330
1F
100
AcDbEntity
  8
0
  6
Continuous
 62
     7
370
    15
100
AcDbLine
 10
642.2428796224
 20
36.8965707211
 30
0.0
 11
656.2428796224
 21
36.8965707211
 31
0.0
  0
LINE
  5
5A
330
1F
100
AcDbEntity
  8
0
  6
Continuous
 62
     7
370
    15
100
AcDbLine
 10
656.2428796224
 20
47.6965707211
 30
0.0
 11
642.2428796224
 21
47.6965707211
 31
0.0
  0
SPLINE
  5
5B
330
1F
100
AcDbEntity
  8
0
  6
Continuous
 62
     7
370
    15
100
AcDbSpline
210
0.0
220
0.0
230
1.0
 70
     8
 71
     3
 72
    21
 73
    17
 74
     0
 42
0.00000001
 43
0.00000001
 40
0.0
 40
0.0
 40
0.0
 40
0.0
 40
0.3386798760839376
 40
0.4477401986435442
 40
0.4765572301243438
 40
0.4832081609264279
 40
0.4839986170350967
 40
0.4844283228058314
 40
0.4844787144889122
 40
0.4844932071852879
 40
0.4845965789952343
 40
0.4847895670473525
 40
0.4864437803980534
 40
0.4994977354116745
 40
0.6516701586483122
 40
1.0
 40
1.0
 40
1.0
 40
1.0
 10
641.1267996689767
 20
69.9149693549053
 30
0.0
 10
641.1853269477057
 20
69.84985033394658
 30
0.0
 10
641.2627009437848
 20
69.76376194949144
 30
0.0
 10
641.33737150715
 20
69.66592521540038
 30
0.0
 10
641.3595015129315
 20
69.63602360045007
 30
0.0
 10
641.3650509300381
 20
69.62844807280052
 30
0.0
 10
641.3662379617713
 20
69.62682452213551
 30
0.0
 10
641.3664372075748
 20
69.62655191248537
 30
0.0
 10
641.3665082049291
 20
69.62645476138799
 30
0.0
 10
641.3665376418116
 20
69.62641447987517
 30
0.0
 10
641.366436975933
 20
69.62655223001887
 30
0.0
 10
641.3662395114417
 20
69.62682239772516
 30
0.0
 10
641.3636217498488
 20
69.63040273364601
 30
0.0
 10
641.3398989790575
 20
69.66269573137606
 30
0.0
 10
641.2566371967488
 20
69.77217467800808
 30
0.0
 10
641.17031111728
 20
69.86666561093094
 30
0.0
 10
641.1102315698066
 20
69.93242757446826
 30
0.0
  0
LINE
  5
5C
330
1F
100
AcDbEntity
  8
0
  6
Continuous
 62
     7
370
    15
100
AcDbLine
 10
652.5128004296
 20
72.0193727278
 30
0.0
 11
647.8653471234
 21
73.8783540503
 31
0.0
  0
LINE
  5
5D
330
1F
100
AcDbEntity
  8
0
  6
Continuous
 62
     7
370
    15
100
AcDbLine
 10
-22.1571203776
 20
-115.9657547518
 30
0.0
 11
-22.1571203776
 21
-86.9657547518
 31
0.0
  0
LINE
  5
5E
330
1F
100
AcDbEntity
  8
0
  6
Continuous
 62
     7
370
    15
100
AcDbLine
 10
-78.7571203776
 20
-86.9657547518
 30
0.0
 11
-78.7571203776
 21
-115.9657547518
 31
0.0
  0
LINE
  5
5F
330
1F
100
AcDbEntity
  8
0
  6
Continuous
 62
     7
370
    15
100
AcDbLine
 10
652.9892410215
 20
12.7751152807
 30
0.0
 11
655.5428796224
 21
13.796570721
 31
0.0
  0
LINE
  5
60
330
1F
100
AcDbEntity
  8
0
  6
Continuous
 62
     7
370
    15
100
AcDbLine
 10
645.5428796224
 20
9.796570721
 30
0.0
 11
648.3420336013
 21
10.9162323126
 31
0.0
  0
LINE
  5
61
330
1F
100
AcDbEntity
  8
0
  6
Continuous
 62
     7
370
    15
100
AcDbLine
 10
647.864213683
 20
73.8680370968
 30
0.0
 11
645.5428796224
 21
74.796570721
 31
0.0
  0
LINE
  5
62
330
1F
100
AcDbEntity
  8
0
  6
Continuous
 62
     7
370
    15
100
AcDbLine
 10
655.5428796224
 20
70.796570721
 30
0.0
 11
652.506454804
 21
72.0111406484
 31
0.0
  0
LINE
  5
63
330
1F
100
AcDbEntity
  8
0
  6
Continuous
 62
     7
370
    15
100
AcDbLine
 10
655.5428796224
 20
13.796570721
 30
0.0
 11
674.9532442997
 21
22.5312348258
 31
0.0
  0
LINE
  5
64
330
1F
100
AcDbEntity
  8
0
  6
Continuous
 62
     7
370
    15
100
AcDbLine
 10
655.998840375
 20
70.5913883824
 30
0.0
 11
655.5428796224
 21
70.796570721
 31
0.0
  0
ARC
  5
65
330
1F
100
AcDbEntity
  8
0
  6
Continuous
 62
     7
370
    15
100
AcDbCircle
 10
674.5428796224
 20
23.443156331
 30
0.0
 40
1.0
100
AcDbArc
 50
294.227745318
 51
0.0
  0
ARC
  5
66
330
1F
100
AcDbEntity
  8
0
  6
Continuous
 62
     7
370
    15
100
AcDbCircle
 10
-17.0571203776
 20
-25.4657547518
 30
0.0
 40
1.500000000000004
100
AcDbArc
 50
90.0
 51
180.0
  0
ARC
  5
67
330
1F
100
AcDbEntity
  8
0
  6
Continuous
 62
     7
370
    15
100
AcDbCircle
 10
-83.8571203776
 20
-25.4657547518
 30
0.0
 40
1.500000000000004
100
AcDbArc
 50
0.0
 51
90.0
  0
ARC
  5
68
330
1F
100
AcDbEntity
  8
0
  6
Continuous
 62
     7
370
    15
100
AcDbCircle
 10
-23.2571203776
 20
-80.9331888061
 30
0.0
 40
4.699999999999986
100
AcDbArc
 50
350.5402980318
 51
0.0
  0
ARC
  5
69
330
1F
100
AcDbEntity
  8
0
  6
Continuous
 62
     7
370
    15
100
AcDbCircle
 10
-77.6571203776
 20
-80.9331888061
 30
0.0
 40
4.699999999999989
100
AcDbArc
 50
180.0
 51
189.4597019682
  0
LINE
  5
6A
330
1F
100
AcDbEntity
  8
0
  6
Continuous
 62
     7
370
    15
100
AcDbLine
 10
-18.5571203776
 20
-80.9331888061
 30
0.0
 11
-18.5571203776
 21
-25.4657547518
 31
0.0
  0
LINE
  5
6B
330
1F
100
AcDbEntity
  8
0
  6
Continuous
 62
     7
370
    15
100
AcDbLine
 10
-82.3571203776
 20
-25.4657547518
 30
0.0
 11
-82.3571203776
 21
-80.9331888061
 31
0.0
  0
LINE
  5
6C
330
1F
100
AcDbEntity
  8
0
  6
Continuous
 62
     7
370
    15
100
AcDbLine
 10
-82.2932071506
 20
-81.7056520306
 30
0.0
 11
-81.4167705979
 21
-86.9657547518
 31
0.0
  0
LINE
  5
6D
330
1F
100
AcDbEntity
  8
0
  6
Continuous
 62
     7
370
    15
100
AcDbLine
 10
-19.4974701573
 20
-86.9657547518
 30
0.0
 11
-18.6210336046
 21
-81.7056520306
 31
0.0
  0
ARC
  5
6E
330
1F
100
AcDbEntity
  8
0
  6
Continuous
 62
     7
370
    15
100
AcDbCircle
 10
-23.9571203776
 20
-119.9657547518
 30
0.0
 40
2.0
100
AcDbArc
 50
270.0
 51
0.0
  0
ARC
  5
6F
330
1F
100
AcDbEntity
  8
0
  6
Continuous
 62
     7
370
    15
100
AcDbCircle
 10
-76.9571203776
 20
-119.9657547518
 30
0.0
 40
2.000000000000014
100
AcDbArc
 50
180.0
 51
270.0
  0
LINE
  5
70
330
1F
100
AcDbEntity
  8
0
  6
Continuous
 62
     7
370
    15
100
AcDbLine
 10
-21.9571203776
 20
-119.9657547518
 30
0.0
 11
-21.9571203776
 21
-115.9657547518
 31
0.0
  0
LINE
  5
71
330
1F
100
AcDbEntity
  8
0
  6
Continuous
 62
     7
370
    15
100
AcDbLine
 10
-78.9571203776
 20
-115.9657547518
 30
0.0
 11
-78.9571203776
 21
-119.9657547518
 31
0.0
  0
LINE
  5
72
330
1F
100
AcDbEntity
  8
0
  6
Continuous
 62
     7
370
    15
100
AcDbLine
 10
-128.8574162369
 20
470.142732124
 30
0.0
 11
-128.0574162369
 21
470.142732124
 31
0.0
  0
LINE
  5
73
330
1F
100
AcDbEntity
  8
0
  6
Continuous
 62
     7
370
    15
100
AcDbLine
 10
-128.0574162369
 20
476.542732124
 30
0.0
 11
-128.8574162369
 21
476.542732124
 31
0.0
  0
LINE
  5
74
330
1F
100
AcDbEntity
  8
0
  6
Continuous
 62
     7
370
    15
100
AcDbLine
 10
-148.8571203776
 20
24.5342452482
 30
0.0
 11
-146.8571203776
 21
26.5342452482
 31
0.0
  0
LINE
  5
75
330
1F
100
AcDbEntity
  8
0
  6
Continuous
 62
     7
370
    15
100
AcDbLine
 10
-146.8571203776
 20
44.5342452482
 30
0.0
 11
-148.8571203776
 21
46.5342452482
 31
0.0
  0
LINE
  5
76
330
1F
100
AcDbEntity
  8
0
  6
Continuous
 62
     7
370
    15
100
AcDbLine
 10
-148.8571203776
 20
46.5342452482
 30
0.0
 11
-150.8571203776
 21
44.5342452482
 31
0.0
  0
LINE
  5
77
330
1F
100
AcDbEntity
  8
0
  6
Continuous
 62
     7
370
    15
100
AcDbLine
 10
-150.8571203776
 20
26.5342452482
 30
0.0
 11
-148.8571203776
 21
24.5342452482
 31
0.0
  0
LINE
  5
78
330
1F
100
AcDbEntity
  8
0
  6
Continuous
 62
     7
370
    15
100
AcDbLine
 10
551.8428796224
 20
-115.9657547518
 30
0.0
 11
551.8428796224
 21
-86.9657547518
 31
0.0
  0
LINE
  5
79
330
1F
100
AcDbEntity
  8
0
  6
Continuous
 62
     7
370
    15
100
AcDbLine
 10
495.2428796224
 20
-86.9657547518
 30
0.0
 11
495.2428796224
 21
-115.9657547518
 31
0.0
  0
LINE
  5
7A
330
1F
100
AcDbEntity
  8
0
  6
Continuous
 62
     7
370
    15
100
AcDbLine
 10
-152.8571203776
 20
24.5342452482
 30
0.0
 11
-150.8571203776
 21
26.5342452482
 31
0.0
  0
LINE
  5
7B
330
1F
100
AcDbEntity
  8
0
  6
Continuous
 62
     7
370
    15
100
AcDbLine
 10
-150.8571203776
 20
44.5342452482
 30
0.0
 11
-152.8571203776
 21
46.5342452482
 31
0.0
  0
LINE
  5
7C
330
1F
100
AcDbEntity
  8
0
  6
Continuous
 62
     7
370
    15
100
AcDbLine
 10
-152.8571203776
 20
46.5342452482
 30
0.0
 11
-154.8571203776
 21
44.5342452482
 31
0.0
  0
LINE
  5
7D
330
1F
100
AcDbEntity
  8
0
  6
Continuous
 62
     7
370
    15
100
AcDbLine
 10
-154.8571203776
 20
26.5342452482
 30
0.0
 11
-152.8571203776
 21
24.5342452482
 31
0.0
  0
LINE
  5
7E
330
1F
100
AcDbEntity
  8
0
  6
Continuous
 62
     7
370
    15
100
AcDbLine
 10
648.340191252
 20
10.9047250433
 30
0.0
 11
652.989640378
 21
12.7645046937
 31
0.0
  0
LINE
  5
7F
330
1F
100
AcDbEntity
  8
0
  6
Continuous
 62
     7
370
    15
100
AcDbLine
 10
-156.8571203776
 20
24.5342452482
 30
0.0
 11
-154.8571203776
 21
26.5342452482
 31
0.0
  0
LINE
  5
80
330
1F
100
AcDbEntity
  8
0
  6
Continuous
 62
     7
370
    15
100
AcDbLine
 10
-154.8571203776
 20
44.5342452482
 30
0.0
 11
-156.8571203776
 21
46.5342452482
 31
0.0
  0
LINE
  5
81
330
1F
100
AcDbEntity
  8
0
  6
Continuous
 62
     7
370
    15
100
AcDbLine
 10
-156.8571203776
 20
46.5342452482
 30
0.0
 11
-158.8571203776
 21
44.5342452482
 31
0.0
  0
LINE
  5
82
330
1F
100
AcDbEntity
  8
0
  6
Continuous
 62
     7
370
    15
100
AcDbLine
 10
-158.8571203776
 20
26.5342452482
 30
0.0
 11
-156.8571203776
 21
24.5342452482
 31
0.0
  0
ARC
  5
83
330
1F
100
AcDbEntity
  8
0
  6
Continuous
 62
     7
370
    15
100
AcDbCircle
 10
556.9428796224
 20
-25.4657547518
 30
0.0
 40
1.500000000000004
100
AcDbArc
 50
90.0
 51
180.0
  0
ARC
  5
84
330
1F
100
AcDbEntity
  8
0
  6
Continuous
 62
     7
370
    15
100
AcDbCircle
 10
490.1428796224
 20
-25.4657547518
 30
0.0
 40
1.500000000000004
100
AcDbArc
 50
0.0
 51
90.0
  0
ARC
  5
85
330
1F
100
AcDbEntity
  8
0
  6
Continuous
 62
     7
370
    15
100
AcDbCircle
 10
550.7428796224
 20
-80.9331888061
 30
0.0
 40
4.699999999999932
100
AcDbArc
 50
350.5402980318
 51
0.0
  0
ARC
  5
86
330
1F
100
AcDbEntity
  8
0
  6
Continuous
 62
     7
370
    15
100
AcDbCircle
 10
496.3428796224
 20
-80.9331888061
 30
0.0
 40
4.700000000000003
100
AcDbArc
 50
180.0
 51
189.4597019682
  0
LINE
  5
87
330
1F
100
AcDbEntity
  8
0
  6
Continuous
 62
     7
370
    15
100
AcDbLine
 10
555.4428796224
 20
-80.9331888061
 30
0.0
 11
555.4428796224
 21
-25.4657547518
 31
0.0
  0
LINE
  5
88
330
1F
100
AcDbEntity
  8
0
  6
Continuous
 62
     7
370
    15
100
AcDbLine
 10
491.6428796224
 20
-25.4657547518
 30
0.0
 11
491.6428796224
 21
-80.9331888061
 31
0.0
  0
LINE
  5
89
330
1F
100
AcDbEntity
  8
0
  6
Continuous
 62
     7
370
    15
100
AcDbLine
 10
491.7067928494
 20
-81.7056520306
 30
0.0
 11
492.5832294021
 21
-86.9657547518
 31
0.0
  0
LINE
  5
8A
330
1F
100
AcDbEntity
  8
0
  6
Continuous
 62
     7
370
    15
100
AcDbLine
 10
554.5025298427
 20
-86.9657547518
 30
0.0
 11
555.3789663954
 21
-81.7056520306
 31
0.0
  0
LINE
  5
8B
330
1F
100
AcDbEntity
  8
0
  6
Continuous
 62
     7
370
    15
100
AcDbLine
 10
578.5358085546
 20
-21.4657547518
 30
0.0
 11
580.27380853
 21
-21.4657547518
 31
0.0
  0
LINE
  5
8C
330
1F
100
AcDbEntity
  8
0
  6
Continuous
 62
     7
370
    15
100
AcDbLine
 10
-160.8571203776
 20
24.5342452482
 30
0.0
 11
-160.8571203776
 21
46.5342452482
 31
0.0
  0
LINE
  5
8D
330
1F
100
AcDbEntity
  8
0
  6
Continuous
 62
     7
370
    15
100
AcDbLine
 10
-162.8571203776
 20
26.5342452482
 30
0.0
 11
-162.8571203776
 21
44.5342452482
 31
0.0
  0
LINE
  5
8E
330
1F
100
AcDbEntity
  8
0
  6
Continuous
 62
     7
370
    15
100
AcDbLine
 10
-158.8571203776
 20
26.5342452482
 30
0.0
 11
-158.8571203776
 21
44.5342452482
 31
0.0
  0
LINE
  5
8F
330
1F
100
AcDbEntity
  8
0
  6
Continuous
 62
   142
420
    32960
370
     0
100
AcDbLine
 10
-128.0574162369
 20
478.542732124
 30
0.0
 11
-128.0574162369
 21
473.542732124
 31
0.0
  0
LINE
  5
90
330
1F
100
AcDbEntity
  8
0
  6
Continuous
 62
   142
420
    32960
370
     0
100
AcDbLine
 10
-128.0574162369
 20
473.542732124
 30
0.0
 11
-128.0574162369
 21
468.242732124
 31
0.0
  0
LINE
  5
91
330
1F
100
AcDbEntity
  8
0
  6
Continuous
 62
     7
370
    15
100
AcDbLine
 10
-128.0574162369
 20
259.3342452482
 30
0.0
 11
-128.0574162369
 21
258.0635345701
 31
0.0
  0
LINE
  5
92
330
1F
100
AcDbEntity
  8
0
  6
Continuous
 62
   142
420
    32960
370
     0
100
AcDbLine
 10
-128.0574162369
 20
244.542732124
 30
0.0
 11
-128.0574162369
 21
242.542732124
 31
0.0
  0
LINE
  5
93
330
1F
100
AcDbEntity
  8
0
  6
Continuous
 62
     7
370
    15
100
AcDbLine
 10
-127.2574162369
 20
245.2480898034
 30
0.0
 11
-127.2574162369
 21
244.542732124
 31
0.0
  0
LINE
  5
94
330
1F
100
AcDbEntity
  8
0
  6
Continuous
 62
     7
370
    15
100
AcDbLine
 10
-127.2574162369
 20
258.1342452482
 30
0.0
 11
-127.2574162369
 21
256.8842452482
 31
0.0
  0
LINE
  5
95
330
1F
100
AcDbEntity
  8
0
  6
Continuous
 62
   142
420
    32960
370
     0
100
AcDbLine
 10
-127.2574162369
 20
468.642732124
 30
0.0
 11
-127.2574162369
 21
468.242732124
 31
0.0
  0
LINE
  5
96
330
1F
100
AcDbEntity
  8
0
  6
Continuous
 62
   142
420
    32960
370
     0
100
AcDbLine
 10
-128.0574162369
 20
242.542732124
 30
0.0
 11
-127.4500493098
 21
242.542732124
 31
0.0
  0
LINE
  5
97
330
1F
100
AcDbEntity
  8
0
  6
Continuous
 62
   142
420
    32960
370
     0
100
AcDbLine
 10
-127.4574162369
 20
244.542732124
 30
0.0
 11
-127.2574162369
 21
244.542732124
 31
0.0
  0
LINE
  5
98
330
1F
100
AcDbEntity
  8
0
  6
Continuous
 62
     7
370
    15
100
AcDbLine
 10
550.0428796224
 20
-121.9657547518
 30
0.0
 11
497.0428796224
 21
-121.9657547518
 31
0.0
  0
LINE
  5
99
330
1F
100
AcDbEntity
  8
0
  6
Continuous
 62
     7
370
    15
100
AcDbLine
 10
552.0428796224
 20
-115.9657547518
 30
0.0
 11
495.0428796224
 21
-115.9657547518
 31
0.0
  0
LINE
  5
9A
330
1F
100
AcDbEntity
  8
0
  6
Continuous
 62
     7
370
    15
100
AcDbLine
 10
-146.8571203776
 20
46.5342452482
 30
0.0
 11
-146.8571203776
 21
24.5342452482
 31
0.0
  0
LINE
  5
9B
330
1F
100
AcDbEntity
  8
0
  6
Continuous
 62
     7
370
    15
100
AcDbLine
 10
490.3613553514
 20
259.7079830731
 30
0.0
 11
472.3613553514
 21
259.7079830731
 31
0.0
  0
LINE
  5
9C
330
1F
100
AcDbEntity
  8
0
  6
Continuous
 62
     7
370
    15
100
AcDbLine
 10
500.2378985612
 20
259.7079830731
 30
0.0
 11
490.3613553514
 21
259.7079830731
 31
0.0
  0
LINE
  5
9D
330
1F
100
AcDbEntity
  8
0
  6
Continuous
 62
     7
370
    15
100
AcDbLine
 10
461.1613553514
 20
259.3342452482
 30
0.0
 11
461.1613553514
 21
259.7112097191
 31
0.0
  0
LINE
  5
9E
330
1F
100
AcDbEntity
  8
0
  6
Continuous
 62
   142
420
    32960
370
     0
100
AcDbLine
 10
472.3613553514
 20
259.7079830731
 30
0.0
 11
472.3613553514
 21
259.3342452482
 31
0.0
  0
LINE
  5
9F
330
1F
100
AcDbEntity
  8
0
  6
Continuous
 62
   142
420
    32960
370
     0
100
AcDbLine
 10
472.3613553514
 20
259.7079830731
 30
0.0
 11
461.2996269563
 21
259.7079830731
 31
0.0
  0
SPLINE
  5
A0
330
1F
100
AcDbEntity
  8
0
  6
Continuous
 62
   142
420
    32960
370
     0
100
AcDbSpline
210
0.0
220
0.0
230
1.0
 70
     8
 71
     3
 72
     8
 73
     4
 74
     0
 42
0.00000001
 43
0.00000001
 40
0.0
 40
0.0
 40
0.0
 40
0.0
 40
1.0
 40
1.0
 40
1.0
 40
1.0
 10
461.2996269562972
 20
259.7079830730748
 30
0.0
 10
461.2075768933647
 20
259.7079830730748
 30
0.0
 10
461.161355351359
 20
259.711209719143
 30
0.0
 10
461.161355351359
 20
259.711209719143
 30
0.0
  0
LINE
  5
A1
330
1F
100
AcDbEntity
  8
0
  6
Continuous
 62
     7
370
    15
100
AcDbLine
 10
462.3613553514
 20
259.7079830731
 30
0.0
 11
462.3613553514
 21
259.7112097191
 31
0.0
  0
SPLINE
  5
A2
330
1F
100
AcDbEntity
  8
0
  6
Continuous
 62
     7
370
    15
100
AcDbSpline
210
0.0
220
0.0
230
1.0
 70
     8
 71
     3
 72
     8
 73
     4
 74
     0
 42
0.00000001
 43
0.00000001
 40
0.0
 40
0.0
 40
0.0
 40
0.0
 40
1.0
 40
1.0
 40
1.0
 40
1.0
 10
500.361355351359
 20
259.711209719143
 30
0.0
 10
500.361355351359
 20
259.711209719143
 30
0.0
 10
500.3202034350259
 20
259.7079830730748
 30
0.0
 10
500.2378985612355
 20
259.7079830730748
 30
0.0
  0
LINE
  5
A3
330
1F
100
AcDbEntity
  8
0
  6
Continuous
 62
     7
370
    15
100
AcDbLine
 10
500.3613553514
 20
259.7112097191
 30
0.0
 11
500.3613553514
 21
259.3342452482
 31
0.0
  0
LWPOLYLINE
  5
A4
330
1F
100
AcDbEntity
  8
0
  6
Continuous
 62
     7
370
    15
100
AcDbPolyline
 90
        3
 70
   128
 43
0.0
 10
462.1451464299
 20
261.3342452482
 10
462.2470527291
 20
260.8962360591
 10
462.3613553514
 20
259.7112097191
  0
LWPOLYLINE
  5
A5
330
1F
100
AcDbEntity
  8
0
  6
Continuous
 62
     7
370
    15
100
AcDbPolyline
 90
        3
 70
   128
 43
0.0
 10
500.5775642728
 20
261.3342452482
 10
500.4756579736
 20
260.8962360593
 10
500.3613553514
 20
259.7112097191
  0
LWPOLYLINE
  5
A6
330
1F
100
AcDbEntity
  8
0
  6
Continuous
 62
   142
420
    32960
370
     0
100
AcDbPolyline
 90
        3
 70
   128
 43
0.0
 10
460.8906000766
 20
261.3342452482
 10
461.0696129984
 20
260.6646282372
 10
461.1613553514
 20
259.7112097191
  0
SPLINE
  5
A7
330
1F
100
AcDbEntity
  8
0
  6
Continuous
 62
   142
420
    32960
370
     0
100
AcDbSpline
210
0.0
220
0.0
230
1.0
 70
     8
 71
     3
 72
     8
 73
     4
 74
     0
 42
0.00000001
 43
0.00000001
 40
0.0
 40
0.0
 40
0.0
 40
0.0
 40
1.0
 40
1.0
 40
1.0
 40
1.0
 10
501.4230837464206
 20
259.7079830730748
 30
0.0
 10
501.5151338093531
 20
259.7079830730748
 30
0.0
 10
501.5613553513589
 20
259.711209719143
 30
0.0
 10
501.5613553513589
 20
259.711209719143
 30
0.0
  0
LINE
  5
A8
330
1F
100
AcDbEntity
  8
0
  6
Continuous
 62
   142
420
    32960
370
     0
100
AcDbLine
 10
501.5613553514
 20
259.3342452482
 30
0.0
 11
501.5613553514
 21
259.7112097191
 31
0.0
  0
LWPOLYLINE
  5
A9
330
1F
100
AcDbEntity
  8
0
  6
Continuous
 62
   142
420
    32960
370
     0
100
AcDbPolyline
 90
        3
 70
   128
 43
0.0
 10
501.4230837464
 20
259.7079830731
 10
501.5179712506
 20
260.6834346832
 10
501.6915912646
 20
261.3342452482
  0
LINE
  5
AA
330
1F
100
AcDbEntity
  8
0
  6
Continuous
 62
   142
420
    32960
370
     0
100
AcDbLine
 10
580.1499506902
 20
102.3465707211
 30
0.0
 11
580.8689449369
 21
102.3465707211
 31
0.0
  0
ARC
  5
AB
330
1F
100
AcDbEntity
  8
0
  6
Continuous
 62
   142
420
    32960
370
     0
100
AcDbCircle
 10
597.763380211
 20
224.1342452482
 30
0.0
 40
0.7500000000000112
100
AcDbArc
 50
18.0
 51
90.0
  0
LINE
  5
AC
330
1F
100
AcDbEntity
  8
0
  6
Continuous
 62
   142
420
    32960
370
     0
100
AcDbLine
 10
629.5867699701
 20
142.3623622665
 30
0.0
 11
649.0371627305
 21
135.2829982569
 31
0.0
  0
ARC
  5
AD
330
1F
100
AcDbEntity
  8
0
  6
Continuous
 62
   142
420
    32960
370
     0
100
AcDbCircle
 10
645.7024663331
 20
126.1209952042
 30
0.0
 40
9.750000000000002
100
AcDbArc
 50
320.0
 51
70.0
  0
ARC
  5
AE
330
1F
100
AcDbEntity
  8
0
  6
Continuous
 62
   142
420
    32960
370
     0
100
AcDbCircle
 10
639.9866530639
 20
105.6965707211
 30
0.0
 40
1.00000000000008
100
AcDbArc
 50
270.0
 51
320.0
  0
ARC
  5
AF
330
1F
100
AcDbEntity
  8
0
  6
Continuous
 62
   142
420
    32960
370
     0
100
AcDbCircle
 10
580.3425837631
 20
105.4465707211
 30
0.0
 40
0.75
100
AcDbArc
 50
180.0
 51
270.0
  0
LINE
  5
B0
330
1F
100
AcDbEntity
  8
0
  6
Continuous
 62
   142
420
    32960
370
     0
100
AcDbLine
 10
579.5925837631
 20
105.4465707211
 30
0.0
 11
579.5925837631
 21
119.5271741804
 31
0.0
  0
LINE
  5
B1
330
1F
100
AcDbEntity
  8
0
  6
Continuous
 62
   142
420
    32960
370
     0
100
AcDbLine
 10
579.5925837631
 20
199.5271741804
 30
0.0
 11
579.5925837631
 21
224.1342452482
 31
0.0
  0
LINE
  5
B2
330
1F
100
AcDbEntity
  8
0
  6
Continuous
 62
   142
420
    32960
370
     0
100
AcDbLine
 10
533.4425837631
 20
281.7342452482
 30
0.0
 11
538.4425837631
 21
281.7342452482
 31
0.0
  0
LINE
  5
B3
330
1F
100
AcDbEntity
  8
0
  6
Continuous
 62
     7
370
    15
100
AcDbLine
 10
640.5611863963
 20
105.2144800138
 30
0.0
 11
652.9798885427
 21
120.0145129122
 31
0.0
  0
LINE
  5
B4
330
1F
100
AcDbEntity
  8
0
  6
Continuous
 62
     7
370
    15
100
AcDbLine
 10
580.3425837631
 20
104.9465707211
 30
0.0
 11
639.9866530639
 21
104.9465707211
 31
0.0
  0
ARC
  5
B5
330
1F
100
AcDbEntity
  8
0
  6
Continuous
 62
     7
370
    15
100
AcDbCircle
 10
580.3425837631
 20
224.1342452482
 30
0.0
 40
0.5
100
AcDbArc
 50
90.0
 51
180.0
  0
LINE
  5
B6
330
1F
100
AcDbEntity
  8
0
  6
Continuous
 62
     7
370
    15
100
AcDbLine
 10
597.763380211
 20
224.6342452482
 30
0.0
 11
580.3425837631
 21
224.6342452482
 31
0.0
  0
LINE
  5
B7
330
1F
100
AcDbEntity
  8
0
  6
Continuous
 62
     7
370
    15
100
AcDbLine
 10
622.6191539198
 20
149.2540736897
 30
0.0
 11
598.2389084691
 21
224.2887537454
 31
0.0
  0
ARC
  5
B8
330
1F
100
AcDbEntity
  8
0
  6
Continuous
 62
     7
370
    15
100
AcDbCircle
 10
633.3660925539
 20
152.7459657262
 30
0.0
 40
11.30000000000009
100
AcDbArc
 50
198.0
 51
250.0
  0
ARC
  5
B9
330
1F
100
AcDbEntity
  8
0
  6
Continuous
 62
   142
420
    32960
370
     0
100
AcDbCircle
 10
645.7024663331
 20
126.1209952042
 30
0.0
 40
9.50000000000009
100
AcDbArc
 50
320.0
 51
70.0
  0
LINE
  5
BA
330
1F
100
AcDbEntity
  8
0
  6
Continuous
 62
   142
420
    32960
370
     0
100
AcDbLine
 10
648.9516576947
 20
135.0480751017
 30
0.0
 11
629.5012649343
 21
142.1274391113
 31
0.0
  0
ARC
  5
BB
330
1F
100
AcDbEntity
  8
0
  6
Continuous
 62
   142
420
    32960
370
     0
100
AcDbCircle
 10
597.763380211
 20
224.1342452482
 30
0.0
 40
0.5000000000001545
100
AcDbArc
 50
18.0
 51
90.0
  0
LINE
  5
BC
330
1F
100
AcDbEntity
  8
0
  6
Continuous
 62
   142
420
    32960
370
     0
100
AcDbLine
 10
579.8425837631
 20
224.1342452482
 30
0.0
 11
579.8425837631
 21
105.4465707211
 31
0.0
  0
ARC
  5
BD
330
1F
100
AcDbEntity
  8
0
  6
Continuous
 62
   142
420
    32960
370
     0
100
AcDbCircle
 10
580.3425837631
 20
105.4465707211
 30
0.0
 40
0.5
100
AcDbArc
 50
180.0
 51
270.0
  0
ARC
  5
BE
330
1F
100
AcDbEntity
  8
0
  6
Continuous
 62
   142
420
    32960
370
     0
100
AcDbCircle
 10
639.9866530639
 20
105.6965707211
 30
0.0
 40
0.7500000000000818
100
AcDbArc
 50
270.0
 51
320.0
  0
LINE
  5
BF
330
1F
100
AcDbEntity
  8
0
  6
Continuous
 62
   142
420
    32960
370
     0
100
AcDbLine
 10
580.3425837631
 20
104.9465707211
 30
0.0
 11
580.3425837631
 21
104.4465707211
 31
0.0
  0
LINE
  5
C0
330
1F
100
AcDbEntity
  8
0
  6
Continuous
 62
   142
420
    32960
370
     0
100
AcDbLine
 10
639.9866530639
 20
104.9465707211
 30
0.0
 11
639.9866530639
 21
104.4465707211
 31
0.0
  0
LINE
  5
C1
330
1F
100
AcDbEntity
  8
0
  6
Continuous
 62
     7
370
    15
100
AcDbLine
 10
580.3425837631
 20
225.1342452482
 30
0.0
 11
580.3425837631
 21
224.6342452482
 31
0.0
  0
LINE
  5
C2
330
1F
100
AcDbEntity
  8
0
  6
Continuous
 62
   142
420
    32960
370
     0
100
AcDbLine
 10
579.3425837631
 20
224.1342452482
 30
0.0
 11
579.8425837631
 21
224.1342452482
 31
0.0
  0
ARC
  5
C3
330
1F
100
AcDbEntity
  8
0
  6
Continuous
 62
   142
420
    32960
370
     0
100
AcDbCircle
 10
580.3425837631
 20
224.1342452482
 30
0.0
 40
1.0
100
AcDbArc
 50
90.0
 51
180.0
  0
LINE
  5
C4
330
1F
100
AcDbEntity
  8
0
  6
Continuous
 62
   142
420
    32960
370
     0
100
AcDbLine
 10
597.763380211
 20
225.1342452482
 30
0.0
 11
597.763380211
 21
224.6342452482
 31
0.0
  0
LINE
  5
C5
330
1F
100
AcDbEntity
  8
0
  6
Continuous
 62
   142
420
    32960
370
     0
100
AcDbLine
 10
597.581744579
 20
225.1342452482
 30
0.0
 11
597.763380211
 21
225.1342452482
 31
0.0
  0
LINE
  5
C6
330
1F
100
AcDbEntity
  8
0
  6
Continuous
 62
     7
370
    15
100
AcDbLine
 10
623.0946821779
 20
149.4085821869
 30
0.0
 11
622.6191539198
 21
149.2540736897
 31
0.0
  0
LINE
  5
C7
330
1F
100
AcDbEntity
  8
0
  6
Continuous
 62
   142
420
    32960
370
     0
100
AcDbLine
 10
598.7144367273
 20
224.4432622426
 30
0.0
 11
598.2389084691
 21
224.2887537454
 31
0.0
  0
LINE
  5
C8
330
1F
100
AcDbEntity
  8
0
  6
Continuous
 62
   142
420
    32960
370
     0
100
AcDbLine
 10
598.7144367273
 20
224.4432622426
 30
0.0
 11
598.7705652244
 21
224.2705164912
 31
0.0
  0
LINE
  5
C9
330
1F
100
AcDbEntity
  8
0
  6
Continuous
 62
   142
420
    32960
370
     0
100
AcDbLine
 10
629.672275006
 20
142.5972854217
 30
0.0
 11
629.5012649343
 21
142.1274391113
 31
0.0
  0
LINE
  5
CA
330
1F
100
AcDbEntity
  8
0
  6
Continuous
 62
   142
420
    32960
370
     0
100
AcDbLine
 10
640.5611863963
 20
105.2144800138
 30
0.0
 11
640.9442086178
 21
104.8930862089
 31
0.0
  0
LINE
  5
CB
330
1F
100
AcDbEntity
  8
0
  6
Continuous
 62
   142
420
    32960
370
     0
100
AcDbLine
 10
652.9798885427
 20
120.0145129122
 30
0.0
 11
653.3629107643
 21
119.6931191074
 31
0.0
  0
LINE
  5
CC
330
1F
100
AcDbEntity
  8
0
  6
Continuous
 62
   142
420
    32960
370
     0
100
AcDbLine
 10
648.3379304517
 20
14.4706201019
 30
0.0
 11
652.9847930876
 21
16.1189465257
 31
0.0
  0
SPLINE
  5
CD
330
1F
100
AcDbEntity
  8
0
  6
Continuous
 62
   142
420
    32960
370
     0
100
AcDbSpline
210
0.0
220
0.0
230
1.0
 70
     8
 71
     3
 72
     8
 73
     4
 74
     0
 42
0.00000001
 43
0.00000001
 40
0.0
 40
0.0
 40
0.0
 40
0.0
 40
1.0
 40
1.0
 40
1.0
 40
1.0
 10
648.337273781854
 20
15.45245856013427
 30
0.0
 10
648.3374926717973
 20
15.10677775150687
 30
0.0
 10
648.3377115617404
 20
14.77927681871369
 30
0.0
 10
648.3379304516837
 20
14.47062010192088
 30
0.0
  0
LINE
  5
CE
330
1F
100
AcDbEntity
  8
0
  6
Continuous
 62
   142
420
    32960
370
     0
100
AcDbLine
 10
652.984136342
 20
17.0428424767
 30
0.0
 11
648.3372737819
 21
15.4524585601
 31
0.0
  0
SPLINE
  5
CF
330
1F
100
AcDbEntity
  8
0
  6
Continuous
 62
   142
420
    32960
370
     0
100
AcDbSpline
210
0.0
220
0.0
230
1.0
 70
     8
 71
     3
 72
     8
 73
     4
 74
     0
 42
0.00000001
 43
0.00000001
 40
0.0
 40
0.0
 40
0.0
 40
0.0
 40
1.0
 40
1.0
 40
1.0
 40
1.0
 10
652.9847930876103
 20
16.1189465256549
 30
0.0
 10
652.9845741724097
 20
16.40938807592856
 30
0.0
 10
652.9843552572089
 20
16.71756181313205
 30
0.0
 10
652.9841363420081
 20
17.04284247669666
 30
0.0
  0
SPLINE
  5
D0
330
1F
100
AcDbEntity
  8
0
  6
Continuous
 62
   142
420
    32960
370
     0
100
AcDbSpline
210
0.0
220
0.0
230
1.0
 70
     8
 71
     3
 72
    12
 73
     8
 74
     0
 42
0.00000001
 43
0.00000001
 40
0.0
 40
0.0
 40
0.0
 40
0.0
 40
0.250000000000016
 40
0.250000000000016
 40
0.500000000000032
 40
0.500000000000032
 40
1.0
 40
1.0
 40
1.0
 40
1.0
 10
655.55593781128
 20
65.9685915218593
 30
0.0
 10
655.6255849734465
 20
65.91265044477662
 30
0.0
 10
655.6884181942169
 20
65.84833924312593
 30
0.0
 10
655.8007962924243
 20
65.70339383049401
 30
0.0
 10
655.8493783868851
 20
65.62346358138402
 30
0.0
 10
655.965823706979
 20
65.37279281156924
 30
0.0
 10
656.0052082507442
 20
65.18618084680095
 30
0.0
 10
655.9995898942121
 20
65.01270630288272
 30
0.0
  0
LINE
  5
D1
330
1F
100
AcDbEntity
  8
0
  6
Continuous
 62
   142
420
    32960
370
     0
100
AcDbLine
 10
648.3311135911
 20
24.2090877927
 30
0.0
 11
652.9780133163
 21
25.2343001437
 31
0.0
  0
SPLINE
  5
D2
330
1F
100
AcDbEntity
  8
0
  6
Continuous
 62
   142
420
    32960
370
     0
100
AcDbSpline
210
0.0
220
0.0
230
1.0
 70
     8
 71
     3
 72
     8
 73
     4
 74
     0
 42
0.00000001
 43
0.00000001
 40
0.0
 40
0.0
 40
0.0
 40
0.0
 40
1.0
 40
1.0
 40
1.0
 40
1.0
 10
648.3298691592745
 20
25.87967433634236
 30
0.0
 10
648.3302839698825
 20
25.31131189503341
 30
0.0
 10
648.3306987804908
 20
24.75407294106444
 30
0.0
 10
648.331113591099
 20
24.20908779271244
 30
0.0
  0
LINE
  5
D3
330
1F
100
AcDbEntity
  8
0
  6
Continuous
 62
   142
420
    32960
370
     0
100
AcDbLine
 10
652.9766905485
 20
26.9049938195
 30
0.0
 11
648.3298691593
 21
25.8796743363
 31
0.0
  0
SPLINE
  5
D4
330
1F
100
AcDbEntity
  8
0
  6
Continuous
 62
   142
420
    32960
370
     0
100
AcDbSpline
210
0.0
220
0.0
230
1.0
 70
     8
 71
     3
 72
     8
 73
     4
 74
     0
 42
0.00000001
 43
0.00000001
 40
0.0
 40
0.0
 40
0.0
 40
0.0
 40
1.0
 40
1.0
 40
1.0
 40
1.0
 10
652.9780133162806
 20
25.23430014373512
 30
0.0
 10
652.9775723936857
 20
25.77856225386224
 30
0.0
 10
652.977131471091
 20
26.33588587145824
 30
0.0
 10
652.9766905484962
 20
26.90499381947914
 30
0.0
  0
LINE
  5
D5
330
1F
100
AcDbEntity
  8
0
  6
Continuous
 62
     7
370
    15
100
AcDbLine
 10
642.2428796224
 20
42.2965707211
 30
0.0
 11
642.2428796224
 21
53.7257143963
 31
0.0
  0
LINE
  5
D6
330
1F
100
AcDbEntity
  8
0
  6
Continuous
 62
     7
370
    15
100
AcDbLine
 10
642.2428796224
 20
30.8674270458
 30
0.0
 11
642.2428796224
 21
42.2965707211
 31
0.0
  0
SPLINE
  5
D7
330
1F
100
AcDbEntity
  8
0
  6
Continuous
 62
     7
370
    15
100
AcDbSpline
210
0.0
220
0.0
230
1.0
 70
    24
 71
     3
 72
     8
 73
     4
 74
     0
 42
0.00000001
 43
0.00000001
 40
0.0
 40
0.0
 40
0.0
 40
0.0
 40
1.0
 40
1.0
 40
1.0
 40
1.0
 10
656.7428796224021
 20
42.29657072105098
 30
0.0
 10
656.7428796224021
 20
45.00095426967443
 30
0.0
 10
656.7428796224021
 20
47.19657072105151
 30
0.0
 10
656.7428796224021
 20
47.19657072105147
 30
0.0
  0
LINE
  5
D8
330
1F
100
AcDbEntity
  8
0
  6
Continuous
 62
     7
370
    15
100
AcDbLine
 10
656.7428796224
 20
37.3965707211
 30
0.0
 11
656.7428796224
 21
42.2965707211
 31
0.0
  0
LINE
  5
D9
330
1F
100
AcDbEntity
  8
0
  6
Continuous
 62
   142
420
    32960
370
     0
100
AcDbLine
 10
640.5428796224
 20
68.4021928413
 30
0.0
 11
640.5428796224
 21
12.390554051
 31
0.0
  0
SPLINE
  5
DA
330
1F
100
AcDbEntity
  8
0
  6
Continuous
 62
     7
370
    15
100
AcDbSpline
210
0.0
220
0.0
230
1.0
 70
     8
 71
     3
 72
    16
 73
    12
 74
     0
 42
0.00000001
 43
0.00000001
 40
0.0
 40
0.0
 40
0.0
 40
0.0
 40
0.125
 40
0.125
 40
0.25
 40
0.25
 40
0.5
 40
0.5
 40
0.75
 40
0.75
 40
1.0
 40
1.0
 40
1.0
 40
1.0
 10
640.5428796224019
 20
68.40219284132412
 30
0.0
 10
640.6495388685969
 20
68.38779483340596
 30
0.0
 10
640.7518226893285
 20
68.37193576217956
 30
0.0
 10
640.9462924353404
 20
68.33760290422106
 30
0.0
 10
641.0384783606206
 20
68.31912911748894
 30
0.0
 10
641.2978687264979
 20
68.26024680069995
 30
0.0
 10
641.4479057571309
 20
68.21637731405056
 30
0.0
 10
641.6914237022984
 20
68.12186841205687
 30
0.0
 10
641.7847274254701
 20
68.07129883061907
 30
0.0
 10
641.9104553855219
 20
67.96678956215649
 30
0.0
 10
641.9428796224018
 20
67.91284987513168
 30
0.0
 10
641.9428796224018
 20
67.85885521296073
 30
0.0
  0
LINE
  5
DB
330
1F
100
AcDbEntity
  8
0
  6
Continuous
 62
     7
370
    15
100
AcDbLine
 10
641.9428796224
 20
67.858855213
 30
0.0
 11
641.9428796224
 21
12.9342862291
 31
0.0
  0
SPLINE
  5
DC
330
1F
100
AcDbEntity
  8
0
  6
Continuous
 62
     7
370
    15
100
AcDbSpline
210
0.0
220
0.0
230
1.0
 70
     8
 71
     3
 72
    19
 73
    15
 74
     0
 42
0.00000001
 43
0.00000001
 40
0.0
 40
0.0
 40
0.0
 40
0.0
 40
0.057095908092662
 40
0.115651805237113
 40
0.1756735616979767
 40
0.2371666253302755
 40
0.3001360595090862
 40
0.3645865770444711
 40
0.4305225705602838
 40
0.4979481397533506
 40
0.616204390729849
 40
0.7486213188526917
 40
0.8538534972356744
 40
1.0
 40
1.0
 40
1.0
 40
1.0
 10
640.5428796224019
 20
12.3905540509576
 30
0.0
 10
640.5915051893834
 20
12.39738000712009
 30
0.0
 10
640.6899997188505
 20
12.41120646472513
 30
0.0
 10
640.831780838111
 20
12.43456965500228
 30
0.0
 10
640.9704266672138
 20
12.46015951528112
 30
0.0
 10
641.1043837363459
 20
12.48815913871529
 30
0.0
 10
641.232730205574
 20
12.51851768368142
 30
0.0
 10
641.3543015637291
 20
12.55124938230681
 30
0.0
 10
641.4679583007193
 20
12.58635016332801
 30
0.0
 10
641.5979434804095
 20
12.63296146515205
 30
0.0
 10
641.736031749825
 20
12.69511034547596
 30
0.0
 10
641.8474877026597
 20
12.7679212511766
 30
0.0
 10
641.9263491384959
 20
12.84902960385958
 30
0.0
 10
641.9368023409877
 20
12.90294240961268
 30
0.0
 10
641.9428796224018
 20
12.93428622914056
 30
0.0
  0
SPLINE
  5
DD
330
1F
100
AcDbEntity
  8
0
  6
Continuous
 62
     7
370
    15
100
AcDbSpline
210
0.0
220
0.0
230
1.0
 70
     8
 71
     3
 72
    19
 73
    15
 74
     0
 42
0.00000001
 43
0.00000001
 40
0.0
 40
0.0
 40
0.0
 40
0.0
 40
0.0571143122037922
 40
0.1156859695386129
 40
0.175720669903829
 40
0.2372237019665122
 40
0.3001999818643146
 40
0.3646540860234617
 40
0.4305902805559923
 40
0.4980125476392015
 40
0.6162771910106094
 40
0.748663187056423
 40
0.8538896613728932
 40
1.0
 40
1.0
 40
1.0
 40
1.0
 10
640.542879622402
 20
10.39657072105063
 30
0.0
 10
640.591507136964
 20
10.42838522827719
 30
0.0
 10
640.6900029596627
 20
10.49282603079896
 30
0.0
 10
640.8317887717097
 20
10.60144920343112
 30
0.0
 10
640.9704366218996
 20
10.72055169374206
 30
0.0
 10
641.1043938458903
 20
10.85108688260872
 30
0.0
 10
641.2327387324026
 20
10.99288900158821
 30
0.0
 10
641.3543071699013
 20
11.14598510654544
 30
0.0
 10
641.4679600457669
 20
11.3102285148298
 30
0.0
 10
641.5979489717892
 20
11.52808002577821
 30
0.0
 10
641.7360338186153
 20
11.81758714697473
 30
0.0
 10
641.8474924448178
 20
12.15795095228059
 30
0.0
 10
641.9263502603367
 20
12.53566660602598
 30
0.0
 10
641.9368030643511
 20
12.78774486411496
 30
0.0
 10
641.9428796224018
 20
12.93428622914056
 30
0.0
  0
SPLINE
  5
DE
330
1F
100
AcDbEntity
  8
0
  6
Continuous
 62
   142
420
    32960
370
     0
100
AcDbSpline
210
0.0
220
0.0
230
1.0
 70
     8
 71
     3
 72
    10
 73
     6
 74
     0
 42
0.00000001
 43
0.00000001
 40
0.0
 40
0.0
 40
0.0
 40
0.0
 40
0.5
 40
0.5
 40
1.0
 40
1.0
 40
1.0
 40
1.0
 10
640.5428796224019
 20
12.3905540509576
 30
0.0
 10
640.543421520625
 20
11.84096843908916
 30
0.0
 10
640.5428796224019
 20
11.34187224661526
 30
0.0
 10
640.5428796224019
 20
10.61907302759885
 30
0.0
 10
640.5423379182685
 20
10.39622918291894
 30
0.0
 10
640.5428796224019
 20
10.39657072105066
 30
0.0
  0
SPLINE
  5
DF
330
1F
100
AcDbEntity
  8
0
  6
Continuous
 62
     7
370
    15
100
AcDbSpline
210
0.0
220
0.0
230
1.0
 70
     8
 71
     3
 72
    19
 73
    15
 74
     0
 42
0.00000001
 43
0.00000001
 40
0.0
 40
0.0
 40
0.0
 40
0.0
 40
0.0571115640935944
 40
0.1156812592866335
 40
0.1757147833893927
 40
0.2372174247608606
 40
0.3001940990521335
 40
0.3646493820584509
 40
0.430587539144704
 40
0.4980125516486656
 40
0.6162616165384446
 40
0.748663192415951
 40
0.8538790033185847
 40
1.0
 40
1.0
 40
1.0
 40
1.0
 10
640.5428796224019
 20
70.39657072105065
 30
0.0
 10
640.5915048184627
 20
70.36475778565529
 30
0.0
 10
640.6899966738804
 20
70.30031969003417
 30
0.0
 10
640.8317781391523
 20
70.19170073371545
 30
0.0
 10
640.9704238952903
 20
70.07260133600579
 30
0.0
 10
641.1043810670953
 20
69.94206781886894
 30
0.0
 10
641.2327276372333
 20
69.80026560723503
 30
0.0
 10
641.3542991432473
 20
69.64716733492365
 30
0.0
 10
641.4679560563771
 20
69.48291943205496
 30
0.0
 10
641.597939764131
 20
69.26507734471762
 30
0.0
 10
641.7360279396687
 20
68.97556906747474
 30
0.0
 10
641.8474859326415
 20
68.6352159931324
 30
0.0
 10
641.926348782134
 20
68.2574855715175
 30
0.0
 10
641.9368022405264
 20
68.00540728634985
 30
0.0
 10
641.9428796224018
 20
67.85885521296076
 30
0.0
  0
SPLINE
  5
E0
330
1F
100
AcDbEntity
  8
0
  6
Continuous
 62
   142
420
    32960
370
     0
100
AcDbSpline
210
0.0
220
0.0
230
1.0
 70
     8
 71
     3
 72
    10
 73
     6
 74
     0
 42
0.00000001
 43
0.00000001
 40
0.0
 40
0.0
 40
0.0
 40
0.0
 40
0.5
 40
0.5
 40
1.0
 40
1.0
 40
1.0
 40
1.0
 10
640.5428796224019
 20
70.39657072105065
 30
0.0
 10
640.5423380251998
 20
70.39691219176345
 30
0.0
 10
640.5428796224019
 20
70.17396954028702
 30
0.0
 10
640.5428796224019
 20
69.45097316512968
 30
0.0
 10
640.5434214136554
 20
68.95177845371073
 30
0.0
 10
640.5428796224019
 20
68.40219284132412
 30
0.0
  0
LINE
  5
E1
330
1F
100
AcDbEntity
  8
0
  6
Continuous
 62
     7
370
    15
100
AcDbLine
 10
-128.2574162369
 20
237.5271741804
 30
0.0
 11
-128.2574162369
 21
50.0975553115
 31
0.0
  0
LINE
  5
E2
330
1F
100
AcDbEntity
  8
0
  6
Continuous
 62
     7
370
    15
100
AcDbLine
 10
-128.2574162369
 20
237.5271741804
 30
0.0
 11
-128.2574162369
 21
242.5271741804
 31
0.0
  0
LINE
  5
E3
330
1F
100
AcDbEntity
  8
0
  6
Continuous
 62
     7
370
    15
100
AcDbLine
 10
-128.2574162369
 20
48.1161525818
 30
0.0
 11
-128.2574162369
 21
46.5342452482
 31
0.0
  0
LINE
  5
E4
330
1F
100
AcDbEntity
  8
0
  6
Continuous
 62
     7
370
    15
100
AcDbLine
 10
-128.2574162369
 20
24.5342452482
 30
0.0
 11
-128.2574162369
 21
22.9523379146
 31
0.0
  0
LINE
  5
E5
330
1F
100
AcDbEntity
  8
0
  6
Continuous
 62
     7
370
    15
100
AcDbLine
 10
-128.2574162369
 20
22.9523379146
 30
0.0
 11
-128.2574162369
 21
20.9709351849
 31
0.0
  0
LINE
  5
E6
330
1F
100
AcDbEntity
  8
0
  6
Continuous
 62
     7
370
    15
100
AcDbLine
 10
-128.2574162369
 20
20.9709351849
 30
0.0
 11
-128.2574162369
 21
-16.458683684
 31
0.0
  0
LINE
  5
E7
330
1F
100
AcDbEntity
  8
0
  6
Continuous
 62
     7
370
    15
100
AcDbLine
 10
-128.2574162369
 20
-21.458683684
 30
0.0
 11
-128.2574162369
 21
-16.458683684
 31
0.0
  0
LINE
  5
E8
330
1F
100
AcDbEntity
  8
0
  6
Continuous
 62
   142
420
    32960
370
     0
100
AcDbLine
 10
-128.2574162369
 20
50.0975553115
 30
0.0
 11
-128.2574162369
 21
48.1161525818
 31
0.0
  0
LINE
  5
E9
330
1F
100
AcDbEntity
  8
0
  6
Continuous
 62
   142
420
    32960
370
     0
100
AcDbLine
 10
-127.4503451691
 20
-22.2657547518
 30
0.0
 11
-127.1502934451
 21
-22.1150714499
 31
0.0
  0
LINE
  5
EA
330
1F
100
AcDbEntity
  8
0
  6
Continuous
 62
   142
420
    32960
370
     0
100
AcDbLine
 10
-126.4034877195
 20
-20.7107735008
 30
0.0
 11
-126.3282095882
 21
-20.520719925
 31
0.0
  0
SPLINE
  5
EB
330
1F
100
AcDbEntity
  8
0
  6
Continuous
 62
   142
420
    32960
370
     0
100
AcDbSpline
210
0.0
220
0.0
230
1.0
 70
     8
 71
     3
 72
     9
 73
     5
 74
     0
 42
0.00000001
 43
0.00000001
 40
0.0
 40
0.0
 40
0.0
 40
0.0
 40
0.0771837869203243
 40
1.0
 40
1.0
 40
1.0
 40
1.0
 10
-127.4419533054838
 20
-21.42948762139849
 30
0.0
 10
-127.4433373033403
 20
-21.4308481635955
 30
0.0
 10
-127.4612685025177
 20
-21.44847546916487
 30
0.0
 10
-127.4592650527805
 20
-21.45378446061344
 30
0.0
 10
-127.4574162368809
 20
-21.45868368399725
 30
0.0
  0
LINE
  5
EC
330
1F
100
AcDbEntity
  8
0
  6
Continuous
 62
   142
420
    32960
370
     0
100
AcDbLine
 10
579.2307162959
 20
242.3044154144
 30
0.0
 11
579.3425837631
 21
242.5271741804
 31
0.0
  0
LINE
  5
ED
330
1F
100
AcDbEntity
  8
0
  6
Continuous
 62
   142
420
    32960
370
     0
100
AcDbLine
 10
581.3425837631
 20
225.1342452482
 30
0.0
 11
579.3425837631
 21
225.1342452482
 31
0.0
  0
LINE
  5
EE
330
1F
100
AcDbEntity
  8
0
  6
Continuous
 62
     7
370
    15
100
AcDbLine
 10
581.3425837631
 20
225.1342452482
 30
0.0
 11
597.581744579
 21
225.1342452482
 31
0.0
  0
LINE
  5
EF
330
1F
100
AcDbEntity
  8
0
  6
Continuous
 62
   142
420
    32960
370
     0
100
AcDbLine
 10
581.3425837631
 20
225.9342452482
 30
0.0
 11
597.581744579
 21
225.9342452482
 31
0.0
  0
LINE
  5
F0
330
1F
100
AcDbEntity
  8
0
  6
Continuous
 62
   142
420
    32960
370
     0
100
AcDbLine
 10
581.3425837631
 20
225.9342452482
 30
0.0
 11
581.3425837631
 21
225.1342452482
 31
0.0
  0
LINE
  5
F1
330
1F
100
AcDbEntity
  8
0
  6
Continuous
 62
   142
420
    32960
370
     0
100
AcDbLine
 10
597.581744579
 20
225.1342452482
 30
0.0
 11
597.581744579
 21
225.9342452482
 31
0.0
  0
LINE
  5
F2
330
1F
100
AcDbEntity
  8
0
  6
Continuous
 62
     7
370
    15
100
AcDbLine
 10
-5.4571203776
 20
-22.6657547518
 30
0.0
 11
34.5428796224
 21
-22.6657547518
 31
0.0
  0
LINE
  5
F3
330
1F
100
AcDbEntity
  8
0
  6
Continuous
 62
     7
370
    15
100
AcDbLine
 10
34.5428796224
 20
-22.6657547518
 30
0.0
 11
39.5428796224
 21
-22.6657547518
 31
0.0
  0
LINE
  5
F4
330
1F
100
AcDbEntity
  8
0
  6
Continuous
 62
     7
370
    15
100
AcDbLine
 10
39.5428796224
 20
-22.6657547518
 30
0.0
 11
459.5428796224
 21
-22.6657547518
 31
0.0
  0
LINE
  5
F5
330
1F
100
AcDbEntity
  8
0
  6
Continuous
 62
   142
420
    32960
370
     0
100
AcDbLine
 10
459.5428796224
 20
-22.6657547518
 30
0.0
 11
464.5428796224
 21
-22.6657547518
 31
0.0
  0
LINE
  5
F6
330
1F
100
AcDbEntity
  8
0
  6
Continuous
 62
     7
370
    15
100
AcDbLine
 10
464.5428796224
 20
-22.6657547518
 30
0.0
 11
478.5428796224
 21
-22.6657547518
 31
0.0
  0
LINE
  5
F7
330
1F
100
AcDbEntity
  8
0
  6
Continuous
 62
     7
370
    15
100
AcDbLine
 10
568.5428796224
 20
-22.6657547518
 30
0.0
 11
589.5428796224
 21
-22.6657547518
 31
0.0
  0
LINE
  5
F8
330
1F
100
AcDbEntity
  8
0
  6
Continuous
 62
     7
370
    15
100
AcDbLine
 10
589.5428796224
 20
-22.6657547518
 30
0.0
 11
594.5428796224
 21
-22.6657547518
 31
0.0
  0
LINE
  5
F9
330
1F
100
AcDbEntity
  8
0
  6
Continuous
 62
   142
420
    32960
370
     0
100
AcDbLine
 10
459.5428796224
 20
-22.6657547518
 30
0.0
 11
459.5428796224
 21
-22.2657547518
 31
0.0
  0
LINE
  5
FA
330
1F
100
AcDbEntity
  8
0
  6
Continuous
 62
     7
370
    15
100
AcDbLine
 10
34.5428796224
 20
-22.6657547518
 30
0.0
 11
34.5428796224
 21
-22.2657547518
 31
0.0
  0
LINE
  5
FB
330
1F
100
AcDbEntity
  8
0
  6
Continuous
 62
   142
420
    32960
370
     0
100
AcDbLine
 10
464.5428796224
 20
-22.6657547518
 30
0.0
 11
464.5428796224
 21
-22.2657547518
 31
0.0
  0
LINE
  5
FC
330
1F
100
AcDbEntity
  8
0
  6
Continuous
 62
     7
370
    15
100
AcDbLine
 10
594.5428796224
 20
-22.6657547518
 30
0.0
 11
594.5428796224
 21
-22.1534292789
 31
0.0
  0
SPLINE
  5
FD
330
1F
100
AcDbEntity
  8
0
  6
Continuous
 62
   142
420
    32960
370
     0
100
AcDbSpline
210
0.0
220
0.0
230
1.0
 70
     8
 71
     3
 72
    16
 73
    12
 74
     0
 42
0.00000001
 43
0.00000001
 40
0.0
 40
0.0
 40
0.0
 40
0.0
 40
0.0001752464039582
 40
0.1252144210065697
 40
0.2502435855708463
 40
0.3752580360337701
 40
0.5002621062641204
 40
0.625264610509628
 40
0.750265411253347
 40
0.8753601771999033
 40
1.0
 40
1.0
 40
1.0
 40
1.0
 10
647.8680920038911
 20
73.87723575075836
 30
0.0
 10
647.8680118902809
 20
73.87727457812126
 30
0.0
 10
647.8107703202182
 20
73.90501692061072
 30
0.0
 10
648.0120512461843
 20
73.80669648544192
 30
0.0
 10
648.4817657887513
 20
73.58254289373187
 30
0.0
 10
649.2502133529891
 20
73.23447279412233
 30
0.0
 10
650.153008478856
 20
72.85586150798215
 30
0.0
 10
651.0717597996801
 20
72.50384036094104
 30
0.0
 10
651.8523787700095
 20
72.23097260682393
 30
0.0
 10
652.4020376425336
 20
72.0538539147092
 30
0.0
 10
652.4741688219982
 20
72.03155470756705
 30
0.0
 10
652.5101687108076
 20
72.02042541530227
 30
0.0
  0
LINE
  5
FE
330
1F
100
AcDbEntity
  8
0
  6
Continuous
 62
     7
370
    15
100
AcDbLine
 10
577.2928796224
 20
241.2842452482
 30
0.0
 11
-126.2071203776
 21
241.2842452482
 31
0.0
  0
LINE
  5
FF
330
1F
100
AcDbEntity
  8
0
  6
Continuous
 62
     7
370
    15
100
AcDbLine
 10
577.2928796224
 20
-20.2157547518
 30
0.0
 11
577.2928796224
 21
241.2842452482
 31
0.0
  0
LINE
  5
100
330
1F
100
AcDbEntity
  8
0
  6
Continuous
 62
     7
370
    15
100
AcDbLine
 10
-126.2071203776
 20
-20.2157547518
 30
0.0
 11
577.2928796224
 21
-20.2157547518
 31
0.0
  0
LINE
  5
101
330
1F
100
AcDbEntity
  8
0
  6
Continuous
 62
     7
370
    15
100
AcDbLine
 10
-126.2071203776
 20
241.2842452482
 30
0.0
 11
-126.2071203776
 21
-20.2157547518
 31
0.0
  0
LINE
  5
102
330
1F
100
AcDbEntity
  8
0
  6
Continuous
 62
     7
370
    15
100
AcDbLine
 10
578.5358085546
 20
-22.2657547518
 30
0.0
 11
-127.4500493098
 21
-22.2657547518
 31
0.0
  0
SPLINE
  5
103
330
1F
100
AcDbEntity
  8
0
  6
Continuous
 62
   142
420
    32960
370
     0
100
AcDbSpline
210
0.0
220
0.0
230
1.0
 70
     8
 71
     3
 72
    22
 73
    18
 74
     0
 42
0.00000001
 43
0.00000001
 40
0.0
 40
0.0
 40
0.0
 40
0.0
 40
0.125
 40
0.125
 40
0.25
 40
0.25
 40
0.375
 40
0.375
 40
0.5
 40
0.5
 40
0.625
 40
0.625
 40
0.75
 40
0.75
 40
0.875
 40
0.875
 40
1.0
 40
1.0
 40
1.0
 40
1.0
 10
-127.4500493097885
 20
-22.26575475180567
 30
0.0
 10
-127.3977985128993
 20
-22.26575475180573
 30
0.0
 10
-127.3463551195726
 20
-22.25245620312274
 30
0.0
 10
-127.2433293811064
 20
-22.20043378021488
 30
0.0
 10
-127.1913611368596
 20
-22.16130211156683
 30
0.0
 10
-127.0873279164991
 20
-22.05816790307594
 30
0.0
 10
-127.035973961044
 20
-21.99508435367417
 30
0.0
 10
-126.9328654756088
 20
-21.84679944267484
 30
0.0
 10
-126.8805702025647
 20
-21.7605391404864
 30
0.0
 10
-126.7769122668432
 20
-21.5706811087196
 30
0.0
 10
-126.7256064230953
 20
-21.4674587359556
 30
0.0
 10
-126.6223301116915
 20
-21.24511708844109
 30
0.0
 10
-126.5699008446395
 20
-21.12481221021159
 30
0.0
 10
-126.4665301513243
 20
-20.87743637933023
 30
0.0
 10
-126.4152323838035
 20
-20.74968957858844
 30
0.0
 10
-126.3117029267832
 20
-20.48667550001174
 30
0.0
 10
-126.2593711759027
 20
-20.35112411029058
 30
0.0
 10
-126.2071203776004
 20
-20.21575475180562
 30
0.0
  0
SPLINE
  5
104
330
1F
100
AcDbEntity
  8
0
  6
Continuous
 62
   142
420
    32960
370
     0
100
AcDbSpline
210
0.0
220
0.0
230
1.0
 70
     8
 71
     3
 72
    16
 73
    12
 74
     0
 42
0.00000001
 43
0.00000001
 40
0.0
 40
0.0
 40
0.0
 40
0.0
 40
0.2499999999999848
 40
0.2499999999999848
 40
0.4999999999999696
 40
0.4999999999999696
 40
0.7499999999999544
 40
0.7499999999999544
 40
0.8749999999999771
 40
0.8749999999999771
 40
1.0
 40
1.0
 40
1.0
 40
1.0
 10
577.2928796223988
 20
-20.21575475181578
 30
0.0
 10
577.4455084116771
 20
-20.46623441882564
 30
0.0
 10
577.594015984978
 20
-20.71342636886034
 30
0.0
 10
577.8843870110821
 20
-21.18729069283146
 30
0.0
 10
578.0190554830576
 20
-21.40566514462452
 30
0.0
 10
578.2466861508525
 20
-21.8042228248713
 30
0.0
 10
578.335624100383
 20
-21.96868571380886
 30
0.0
 10
578.4375587486519
 20
-22.14438040948355
 30
0.0
 10
578.4650470398666
 20
-22.18896776349391
 30
0.0
 10
578.5089007405601
 20
-22.24971717192884
 30
0.0
 10
578.5252820197329
 20
-22.26575475181589
 30
0.0
 10
578.5358085545871
 20
-22.26575475181589
 30
0.0
  0
SPLINE
  5
105
330
1F
100
AcDbEntity
  8
0
  6
Continuous
 62
   142
420
    32960
370
     0
100
AcDbSpline
210
0.0
220
0.0
230
1.0
 70
     8
 71
     3
 72
    29
 73
    25
 74
     0
 42
0.00000001
 43
0.00000001
 40
0.0
 40
0.0
 40
0.0
 40
0.0
 40
0.0472276439763434
 40
0.0923445303536402
 40
0.1353511668900343
 40
0.1762481539282232
 40
0.2150362038395547
 40
0.2517161660396481
 40
0.2862890596021389
 40
0.3187561164104208
 40
0.3491188392020648
 40
0.3773790811053122
 40
0.4035391569351528
 40
0.4276020027011886
 40
0.4495714105912664
 40
0.4694523863972245
 40
0.5232332007879464
 40
0.5803767025116041
 40
0.6410164490829485
 40
0.7052640149737556
 40
0.773213018751038
 40
0.8449423993188054
 40
0.9205190606521985
 40
1.0
 40
1.0
 40
1.0
 40
1.0
 10
-126.2071203776001
 20
-20.21575475180562
 30
0.0
 10
-126.2542403473608
 20
-20.24396937939535
 30
0.0
 10
-126.3463743415955
 20
-20.29913763075217
 30
0.0
 10
-126.4811259296904
 20
-20.37942705321891
 30
0.0
 10
-126.6087173959392
 20
-20.45550506479513
 30
0.0
 10
-126.7288515460088
 20
-20.52733610146865
 30
0.0
 10
-126.8413349269453
 20
-20.59492931647464
 30
0.0
 10
-126.9460940403127
 20
-20.65828280801049
 30
0.0
 10
-127.0431504189575
 20
-20.71739750533955
 30
0.0
 10
-127.1326066766338
 20
-20.77227377274141
 30
0.0
 10
-127.2146309091261
 20
-20.82291225081604
 30
0.0
 10
-127.2894425936257
 20
-20.86931385137239
 30
0.0
 10
-127.3572998939372
 20
-20.91147939618468
 30
0.0
 10
-127.4184866202648
 20
-20.94941137178155
 30
0.0
 10
-127.4733054082049
 20
-20.9831087334684
 30
0.0
 10
-127.551462346121
 20
-21.03036510800246
 30
0.0
 10
-127.6553074209008
 20
-21.0894256955331
 30
0.0
 10
-127.7825923945428
 20
-21.15731767677129
 30
0.0
 10
-127.9049940807578
 20
-21.2202475172403
 30
0.0
 10
-128.0178459682453
 20
-21.27819730366312
 30
0.0
 10
-128.1161406238963
 20
-21.33120749840758
 30
0.0
 10
-128.1934199553173
 20
-21.37914924993459
 30
0.0
 10
-128.2466467314777
 20
-21.42254762906018
 30
0.0
 10
-128.2535710452298
 20
-21.44643781774888
 30
0.0
 10
-128.2571203776002
 20
-21.4586836839937
 30
0.0
  0
LINE
  5
106
330
1F
100
AcDbEntity
  8
0
  6
Continuous
 62
     7
370
    15
100
AcDbLine
 10
-128.2571203776
 20
242.5271741804
 30
0.0
 11
-128.2571203776
 21
-21.458683684
 31
0.0
  0
SPLINE
  5
107
330
1F
100
AcDbEntity
  8
0
  6
Continuous
 62
   142
420
    32960
370
     0
100
AcDbSpline
210
0.0
220
0.0
230
1.0
 70
     8
 71
     3
 72
    18
 73
    14
 74
     0
 42
0.00000001
 43
0.00000001
 40
0.0
 40
0.0
 40
0.0
 40
0.0
 40
0.1250000000000098
 40
0.1250000000000098
 40
0.2500000000000195
 40
0.2500000000000195
 40
0.4999999999999966
 40
0.4999999999999966
 40
0.6250000000000011
 40
0.6250000000000011
 40
0.7500000000000057
 40
0.7500000000000057
 40
1.0
 40
1.0
 40
1.0
 40
1.0
 10
-128.2571203775963
 20
242.5271741803827
 30
0.0
 10
-128.2571203775964
 20
242.5166829091301
 30
0.0
 10
-128.2415890729168
 20
242.5007162334244
 30
0.0
 10
-128.181430592956
 20
242.4571225258139
 30
0.0
 10
-128.135988773643
 20
242.4290860387196
 30
0.0
 10
-127.9629736033674
 20
242.3286441107743
 30
0.0
 10
-127.7948354934492
 20
242.2375867613463
 30
0.0
 10
-127.5000200789745
 20
242.0692592417523
 30
0.0
 10
-127.3931263571255
 20
242.0068748843744
 30
0.0
 10
-127.1732156620174
 20
241.8735034766458
 30
0.0
 10
-127.0595693780844
 20
241.8027799431083
 30
0.0
 10
-126.705133009905
 20
241.5855955561034
 30
0.0
 10
-126.4572314113564
 20
241.4366516887049
 30
0.0
 10
-126.2071203775963
 20
241.2842452481945
 30
0.0
  0
SPLINE
  5
108
330
1F
100
AcDbEntity
  8
0
  6
Continuous
 62
     7
370
    15
100
AcDbSpline
210
0.0
220
0.0
230
1.0
 70
     8
 71
     3
 72
    32
 73
    28
 74
     0
 42
0.00000001
 43
0.00000001
 40
0.0
 40
0.0
 40
0.0
 40
0.0
 40
0.25
 40
0.25
 40
0.375
 40
0.375
 40
0.4375
 40
0.4375
 40
0.46875
 40
0.46875
 40
0.484375
 40
0.484375
 40
0.4921875
 40
0.4921875
 40
0.49609375
 40
0.49609375
 40
0.498046875
 40
0.498046875
 40
0.5
 40
0.5
 40
0.625
 40
0.625
 40
0.75
 40
0.75
 40
0.875
 40
0.875
 40
1.0
 40
1.0
 40
1.0
 40
1.0
 10
578.535808554591
 20
243.3342452481843
 30
0.0
 10
578.495134051225
 20
243.3342452481843
 30
0.0
 10
578.4381717975718
 20
243.2418634831652
 30
0.0
 10
578.3276543106618
 20
243.036998075453
 30
0.0
 10
578.2866718240087
 20
242.957694986847
 30
0.0
 10
578.218983107505
 20
242.8302851321923
 30
0.0
 10
578.1953843709166
 20
242.7863927687724
 30
0.0
 10
578.1584325194026
 20
242.7192940959963
 30
0.0
 10
578.1458562777926
 20
242.6967168324175
 30
0.0
 10
578.12660347872
 20
242.6626341918936
 30
0.0
 10
578.1201211395863
 20
242.651237121361
 30
0.0
 10
578.1103005217212
 20
242.6340991084842
 30
0.0
 10
578.1070107975722
 20
242.6283793655101
 30
0.0
 10
578.1020519340574
 20
242.6197905902797
 30
0.0
 10
578.100394933337
 20
242.616926138147
 30
0.0
 10
578.0979033629341
 20
242.6126273479221
 30
0.0
 10
578.0970718279129
 20
242.6111940658266
 30
0.0
 10
578.0954067347625
 20
242.608326827158
 30
0.0
 10
578.0941837241462
 20
242.6062235633096
 30
0.0
 10
578.0652511064148
 20
242.5565003950363
 30
0.0
 10
578.0272009188349
 20
242.4949948300215
 30
0.0
 10
577.9319751695872
 20
242.341995546051
 30
0.0
 10
577.874799607919
 20
242.2504267094127
 30
0.0
 10
577.7413231104945
 20
242.0330767735009
 30
0.0
 10
577.665022174738
 20
241.907188712821
 30
0.0
 10
577.4932949291365
 20
241.6204671916271
 30
0.0
 10
577.3979314947015
 20
241.4596101054862
 30
0.0
 10
577.2928796224028
 20
241.2842452481841
 30
0.0
  0
LINE
  5
109
330
1F
100
AcDbEntity
  8
0
  6
Continuous
 62
   142
420
    32960
370
     0
100
AcDbLine
 10
578.5358085546
 20
243.3342452482
 30
0.0
 11
-127.4500493098
 21
243.3342452482
 31
0.0
  0
SPLINE
  5
10A
330
1F
100
AcDbEntity
  8
0
  6
Continuous
 62
   142
420
    32960
370
     0
100
AcDbSpline
210
0.0
220
0.0
230
1.0
 70
     8
 71
     3
 72
    14
 73
    10
 74
     0
 42
0.00000001
 43
0.00000001
 40
0.0
 40
0.0
 40
0.0
 40
0.0
 40
0.25
 40
0.25
 40
0.5
 40
0.5
 40
0.75
 40
0.75
 40
1.0
 40
1.0
 40
1.0
 40
1.0
 10
-126.2071203775966
 20
241.2842452481944
 30
0.0
 10
-126.3106977886123
 20
241.5525896206885
 30
0.0
 10
-126.4142751996281
 20
241.8208284111309
 30
0.0
 10
-126.6214300216593
 20
242.3166641579548
 30
0.0
 10
-126.725007432675
 20
242.5440660241431
 30
0.0
 10
-126.9321622547063
 20
242.9235622751108
 30
0.0
 10
-127.035739665722
 20
243.0755073443208
 30
0.0
 10
-127.2428944877533
 20
243.2808892353646
 30
0.0
 10
-127.346471898769
 20
243.3342452481946
 30
0.0
 10
-127.4500493097847
 20
243.3342452481946
 30
0.0
  0
LINE
  5
10B
330
1F
100
AcDbEntity
  8
0
  6
Continuous
 62
   142
420
    32960
370
     0
100
AcDbLine
 10
579.3428796224
 20
-21.458683684
 30
0.0
 11
579.3428796224
 21
103.6465707211
 31
0.0
  0
LINE
  5
10C
330
1F
100
AcDbEntity
  8
0
  6
Continuous
 62
   142
420
    32960
370
     0
100
AcDbLine
 10
579.3428796224
 20
104.4465707211
 30
0.0
 11
579.3428796224
 21
224.1342452482
 31
0.0
  0
LINE
  5
10D
330
1F
100
AcDbEntity
  8
0
  6
Continuous
 62
   142
420
    32960
370
     0
100
AcDbLine
 10
579.3428796224
 20
224.1585687145
 30
0.0
 11
579.3428796224
 21
242.5271741804
 31
0.0
  0
SPLINE
  5
10E
330
1F
100
AcDbEntity
  8
0
  6
Continuous
 62
   142
420
    32960
370
     0
100
AcDbSpline
210
0.0
220
0.0
230
1.0
 70
     8
 71
     3
 72
    22
 73
    18
 74
     0
 42
0.00000001
 43
0.00000001
 40
0.0
 40
0.0
 40
0.0
 40
0.0
 40
0.1250000000000002
 40
0.1250000000000002
 40
0.2500000000000004
 40
0.2500000000000004
 40
0.3750000000000003
 40
0.3750000000000003
 40
0.5000000000000002
 40
0.5000000000000002
 40
0.6250000000000002
 40
0.6250000000000002
 40
0.7500000000000001
 40
0.7500000000000001
 40
0.8750000000000001
 40
0.8750000000000001
 40
1.0
 40
1.0
 40
1.0
 40
1.0
 10
577.2928796224033
 20
241.2842452481843
 30
0.0
 10
577.4282489752601
 20
241.3364960443141
 30
0.0
 10
577.5615054825411
 20
241.3879394389264
 30
0.0
 10
577.8233151289918
 20
241.4909651838553
 30
0.0
 10
577.9528087846891
 20
241.542933440876
 30
0.0
 10
578.2018211873084
 20
241.6469666472445
 30
0.0
 10
578.3196841252812
 20
241.6983205999387
 30
0.0
 10
578.541893052569
 20
241.8014290876044
 30
0.0
 10
578.6471954694679
 20
241.8537243667
 30
0.0
 10
578.8371285429306
 20
241.9573822911387
 30
0.0
 10
578.9218782597995
 20
242.0086881333225
 30
0.0
 10
579.0707470604035
 20
242.111964449415
 30
0.0
 10
579.1351730049497
 20
242.1643937168217
 30
0.0
 10
579.2377723603472
 20
242.2677644014709
 30
0.0
 10
579.2766640989007
 20
242.3190621686077
 30
0.0
 10
579.3293199514637
 20
242.4225916327925
 30
0.0
 10
579.3428796224039
 20
242.4749233828297
 30
0.0
 10
579.3428796224038
 20
242.5271741803725
 30
0.0
  0
SPLINE
  5
10F
330
1F
100
AcDbEntity
  8
0
  6
Continuous
 62
   142
420
    32960
370
     0
100
AcDbSpline
210
0.0
220
0.0
230
1.0
 70
     8
 71
     3
 72
    14
 73
    10
 74
     0
 42
0.00000001
 43
0.00000001
 40
0.0
 40
0.0
 40
0.0
 40
0.0
 40
0.25
 40
0.25
 40
0.5
 40
0.5
 40
0.75
 40
0.75
 40
1.0
 40
1.0
 40
1.0
 40
1.0
 10
579.3428796223997
 20
-21.45868368400392
 30
0.0
 10
579.3428796223997
 20
-21.35510627298823
 30
0.0
 10
579.2895236095696
 20
-21.2515288619726
 30
0.0
 10
579.0841417185258
 20
-21.04437403994111
 30
0.0
 10
578.932196649316
 20
-20.94079662892553
 30
0.0
 10
578.5527003983482
 20
-20.73364180689422
 30
0.0
 10
578.3252985321601
 20
-20.63006439587847
 30
0.0
 10
577.8294627853362
 20
-20.42290957384721
 30
0.0
 10
577.5612239948937
 20
-20.31933216283146
 30
0.0
 10
577.2928796223997
 20
-20.21575475181578
 30
0.0
  0
SPLINE
  5
110
330
1F
100
AcDbEntity
  8
0
  6
Continuous
 62
     7
370
    15
100
AcDbSpline
210
0.0
220
0.0
230
1.0
 70
     8
 71
     3
 72
    24
 73
    20
 74
     0
 42
0.00000001
 43
0.00000001
 40
0.0
 40
0.0
 40
0.0
 40
0.0
 40
0.0459084819137963
 40
0.090867628569813
 40
0.1349219452764562
 40
0.1781187407982332
 40
0.2205082016902057
 40
0.2621434405670516
 40
0.3030805121973698
 40
0.3433783912463578
 40
0.383098905791017
 40
0.4223066214818258
 40
0.4610686724855737
 40
0.4994545371301014
 40
0.5585300488469676
 40
0.6380531470530042
 40
0.7381162600158495
 40
0.8587594596871042
 40
0.9999999999999999
 40
0.9999999999999999
 40
0.9999999999999999
 40
0.9999999999999999
 10
578.5358085545909
 20
242.5342452481844
 30
0.0
 10
578.5288239592519
 20
242.5333644577081
 30
0.0
 10
578.5149992020717
 20
242.531621090502
 30
0.0
 10
578.4904396129264
 20
242.5179377943556
 30
0.0
 10
578.4633314503864
 20
242.4971060510708
 30
0.0
 10
578.4334010572483
 20
242.4691509221217
 30
0.0
 10
578.4007188028098
 20
242.4351079933327
 30
0.0
 10
578.3652657171108
 20
242.3957401114871
 30
0.0
 10
578.3270455952234
 20
242.3518580529935
 30
0.0
 10
578.2860581429366
 20
242.30422438554
 30
0.0
 10
578.2422975909404
 20
242.2535747430762
 30
0.0
 10
578.1957838641852
 20
242.2005860900917
 30
0.0
 10
578.1464417629624
 20
242.145950012097
 30
0.0
 10
578.0850912925185
 20
242.0799153396645
 30
0.0
 10
577.997532953459
 20
241.9931668479711
 30
0.0
 10
577.8733896611499
 20
241.8721508265729
 30
0.0
 10
577.7128159520864
 20
241.7126640234129
 30
0.0
 10
577.5157424401722
 20
241.5122125140726
 30
0.0
 10
577.3709628992876
 20
241.3641169437913
 30
0.0
 10
577.2928796224028
 20
241.2842452481842
 30
0.0
  0
LWPOLYLINE
  5
111
330
1F
100
AcDbEntity
  8
0
  6
Continuous
 62
   142
420
    32960
370
     0
100
AcDbPolyline
 90
        2
 70
   128
 43
0.0
 10
577.2928796224
 20
241.2842452482
 10
577.2928796224
 20
241.2842452482
  0
LINE
  5
112
330
1F
100
AcDbEntity
  8
0
  6
Continuous
 62
   142
420
    32960
370
     0
100
AcDbLine
 10
578.5358085546
 20
243.3342452482
 30
0.0
 11
578.5358085546
 21
242.5342452482
 31
0.0
  0
LINE
  5
113
330
1F
100
AcDbEntity
  8
0
  6
Continuous
 62
     7
370
    15
100
AcDbLine
 10
-127.4571203776
 20
-21.458683684
 30
0.0
 11
-127.4571203776
 21
-20.9724206814
 31
0.0
  0
LINE
  5
114
330
1F
100
AcDbEntity
  8
0
  6
Continuous
 62
     7
370
    15
100
AcDbLine
 10
-127.4571203776
 20
242.0432041787
 30
0.0
 11
-127.4571203776
 21
242.5271741804
 31
0.0
  0
SPLINE
  5
115
330
1F
100
AcDbEntity
  8
0
  6
Continuous
 62
   142
420
    32960
370
     0
100
AcDbSpline
210
0.0
220
0.0
230
1.0
 70
     8
 71
     3
 72
    24
 73
    20
 74
     0
 42
0.00000001
 43
0.00000001
 40
0.0
 40
0.0
 40
0.0
 40
0.0
 40
0.0644512564079549
 40
0.1250748349618266
 40
0.1818723400885724
 40
0.2348457697409593
 40
0.2839976347068917
 40
0.3293311279772339
 40
0.3708503715759455
 40
0.4085607874215013
 40
0.4424696748697045
 40
0.4725871493091988
 40
0.4989277482530546
 40
0.5714944947878877
 40
0.6477865234574098
 40
0.7283531857572819
 40
0.8136604203297552
 40
0.9041000269768552
 40
1.0
 40
1.0
 40
1.0
 40
1.0
 10
-126.2071203776001
 20
-20.21575475180562
 30
0.0
 10
-126.2434525782104
 20
-20.25141461845573
 30
0.0
 10
-126.3139592564101
 20
-20.32061655779086
 30
0.0
 10
-126.4163439891514
 20
-20.42060313621311
 30
0.0
 10
-126.5114539976336
 20
-20.5137531195089
 30
0.0
 10
-126.5990393979695
 20
-20.60002897652505
 30
0.0
 10
-126.6789900042527
 20
-20.67944088179355
 30
0.0
 10
-126.7513592979472
 20
-20.75198777596268
 30
0.0
 10
-126.8163179506367
 20
-20.81767211520955
 30
0.0
 10
-126.8741283752362
 20
-20.87649560531466
 30
0.0
 10
-126.9251135921382
 20
-20.92846408034451
 30
0.0
 10
-126.9696437705375
 20
-20.97357667755698
 30
0.0
 10
-127.0323885559887
 20
-21.0360725829444
 30
0.0
 10
-127.116644614914
 20
-21.11350836353512
 30
0.0
 10
-127.2191654306779
 20
-21.20091345114702
 30
0.0
 10
-127.3131668282774
 20
-21.27944418586994
 30
0.0
 10
-127.3904476751753
 20
-21.34888305268265
 30
0.0
 10
-127.4458809951119
 20
-21.41015439164726
 30
0.0
 10
-127.4533014356158
 20
-21.44219429481195
 30
0.0
 10
-127.4571203776002
 20
-21.45868368399381
 30
0.0
  0
SPLINE
  5
116
330
1F
100
AcDbEntity
  8
0
  6
Continuous
 62
   142
420
    32960
370
     0
100
AcDbSpline
210
0.0
220
0.0
230
1.0
 70
     8
 71
     3
 72
    18
 73
    14
 74
     0
 42
0.00000001
 43
0.00000001
 40
0.0
 40
0.0
 40
0.0
 40
0.0
 40
0.125
 40
0.125
 40
0.25
 40
0.25
 40
0.375
 40
0.375
 40
0.5
 40
0.5
 40
0.75
 40
0.75
 40
1.0
 40
1.0
 40
1.0
 40
1.0
 10
-127.4571203775963
 20
242.5271741803827
 30
0.0
 10
-127.4571203775963
 20
242.5154999300342
 30
0.0
 10
-127.4454276982977
 20
242.49717495073
 30
0.0
 10
-127.4014151702796
 20
242.4469640398979
 30
0.0
 10
-127.3685686780418
 20
242.4146853673565
 30
0.0
 10
-127.2878296173272
 20
242.3389382488918
 30
0.0
 10
-127.2390512677696
 20
242.2945837654207
 30
0.0
 10
-127.1318649505338
 20
242.1964899250855
 30
0.0
 10
-127.0735544673812
 20
242.1428244257253
 30
0.0
 10
-126.8883451512956
 20
241.9673222612263
 30
0.0
 10
-126.7596210367631
 20
241.8354029390433
 30
0.0
 10
-126.4882619990068
 20
241.5632792387766
 30
0.0
 10
-126.3476982145045
 20
241.4247306420686
 30
0.0
 10
-126.2071203775963
 20
241.2842452481945
 30
0.0
  0
LINE
  5
117
330
1F
100
AcDbEntity
  8
0
  6
Continuous
 62
     7
370
    15
100
AcDbLine
 10
-127.4500493098
 20
242.5342452482
 30
0.0
 11
-126.7353424941
 21
242.5342452482
 31
0.0
  0
SPLINE
  5
118
330
1F
100
AcDbEntity
  8
0
  6
Continuous
 62
   142
420
    32960
370
     0
100
AcDbSpline
210
0.0
220
0.0
230
1.0
 70
     8
 71
     3
 72
    14
 73
    10
 74
     0
 42
0.00000001
 43
0.00000001
 40
0.0
 40
0.0
 40
0.0
 40
0.0
 40
0.25
 40
0.25
 40
0.5
 40
0.5
 40
0.75
 40
0.75
 40
1.0
 40
1.0
 40
1.0
 40
1.0
 10
-126.2071203775966
 20
241.2842452481945
 30
0.0
 10
-126.3106977886123
 20
241.4478698655689
 30
0.0
 10
-126.4142751996281
 20
241.6114301036436
 30
0.0
 10
-126.6214300216594
 20
241.9137689736581
 30
0.0
 10
-126.725007432675
 20
242.0524286481632
 30
0.0
 10
-126.9321622547064
 20
242.2838288011923
 30
0.0
 10
-127.035739665722
 20
242.3764782336374
 30
0.0
 10
-127.2428944877534
 20
242.50171109403
 30
0.0
 10
-127.3464718987691
 20
242.5342452481946
 30
0.0
 10
-127.4500493097848
 20
242.5342452481946
 30
0.0
  0
LINE
  5
119
330
1F
100
AcDbEntity
  8
0
  6
Continuous
 62
     7
370
    15
100
AcDbLine
 10
578.5428796224
 20
242.5271741804
 30
0.0
 11
578.5428796224
 21
241.8081799337
 31
0.0
  0
LINE
  5
11A
330
1F
100
AcDbEntity
  8
0
  6
Continuous
 62
     7
370
    15
100
AcDbLine
 10
578.5428796224
 20
-20.7439768683
 30
0.0
 11
578.5428796224
 21
-21.458683684
 31
0.0
  0
SPLINE
  5
11B
330
1F
100
AcDbEntity
  8
0
  6
Continuous
 62
   142
420
    32960
370
     0
100
AcDbSpline
210
0.0
220
0.0
230
1.0
 70
     8
 71
     3
 72
    14
 73
    10
 74
     0
 42
0.00000001
 43
0.00000001
 40
0.0
 40
0.0
 40
0.0
 40
0.0
 40
0.25
 40
0.25
 40
0.5
 40
0.5
 40
0.75
 40
0.75
 40
1.0
 40
1.0
 40
1.0
 40
1.0
 10
578.5428796223997
 20
-21.45868368400386
 30
0.0
 10
578.5428796223997
 20
-21.35510627298817
 30
0.0
 10
578.5103454682351
 20
-21.25152886197265
 30
0.0
 10
578.3851126078423
 20
-21.04437403994111
 30
0.0
 10
578.2924631753974
 20
-20.94079662892553
 30
0.0
 10
578.0610630223683
 20
-20.73364180689422
 30
0.0
 10
577.9224033478633
 20
-20.63006439587847
 30
0.0
 10
577.6200644778488
 20
-20.42290957384721
 30
0.0
 10
577.4565042397742
 20
-20.31933216283146
 30
0.0
 10
577.2928796223997
 20
-20.21575475181578
 30
0.0
  0
SPLINE
  5
11C
330
1F
100
AcDbEntity
  8
0
  6
Continuous
 62
   142
420
    32960
370
     0
100
AcDbSpline
210
0.0
220
0.0
230
1.0
 70
     8
 71
     3
 72
    14
 73
    10
 74
     0
 42
0.00000001
 43
0.00000001
 40
0.0
 40
0.0
 40
0.0
 40
0.0
 40
0.25
 40
0.25
 40
0.5
 40
0.5
 40
0.75
 40
0.75
 40
1.0
 40
1.0
 40
1.0
 40
1.0
 10
577.2928796224033
 20
241.2842452481843
 30
0.0
 10
577.4580219831945
 20
241.3887834188718
 30
0.0
 10
577.618593810261
 20
241.4904001446692
 30
0.0
 10
577.9234590796394
 20
241.6992705249621
 30
0.0
 10
578.0598600328028
 20
241.8010928777815
 30
0.0
 10
578.2930298268856
 20
242.0097569883348
 30
0.0
 10
578.3843799350564
 20
242.1117868936406
 30
0.0
 10
578.5105677250007
 20
242.3202532352784
 30
0.0
 10
578.5428796224037
 20
242.4226360119583
 30
0.0
 10
578.5428796224037
 20
242.5271741803725
 30
0.0
  0
LINE
  5
11D
330
1F
100
AcDbEntity
  8
0
  6
Continuous
 62
   142
420
    32960
370
     0
100
AcDbLine
 10
-128.2571203776
 20
-21.458683684
 30
0.0
 11
-127.4571203776
 21
-21.458683684
 31
0.0
  0
LINE
  5
11E
330
1F
100
AcDbEntity
  8
0
  6
Continuous
 62
   142
420
    32960
370
     0
100
AcDbLine
 10
-127.4500493098
 20
242.5342452482
 30
0.0
 11
-127.4500493098
 21
243.3342452482
 31
0.0
  0
LINE
  5
11F
330
1F
100
AcDbEntity
  8
0
  6
Continuous
 62
   142
420
    32960
370
     0
100
AcDbLine
 10
-128.2571203776
 20
242.5271741804
 30
0.0
 11
-127.4571203776
 21
242.5271741804
 31
0.0
  0
LINE
  5
120
330
1F
100
AcDbEntity
  8
0
  6
Continuous
 62
   142
420
    32960
370
     0
100
AcDbLine
 10
579.8425837631
 20
199.5271741804
 30
0.0
 11
579.3428796224
 21
199.5271741804
 31
0.0
  0
LINE
  5
121
330
1F
100
AcDbEntity
  8
0
  6
Continuous
 62
   142
420
    32960
370
     0
100
AcDbLine
 10
579.3428796224
 20
119.5271741804
 30
0.0
 11
579.8425837631
 21
119.5271741804
 31
0.0
  0
LINE
  5
122
330
1F
100
AcDbEntity
  8
0
  6
Continuous
 62
   142
420
    32960
370
     0
100
AcDbLine
 10
578.5358085546
 20
-21.4657547518
 30
0.0
 11
578.0742240384
 21
-21.4657547518
 31
0.0
  0
LINE
  5
123
330
1F
100
AcDbEntity
  8
0
  6
Continuous
 62
   142
420
    32960
370
     0
100
AcDbLine
 10
578.5358085546
 20
-22.2657547518
 30
0.0
 11
578.5358085546
 21
-21.4657547518
 31
0.0
  0
LINE
  5
124
330
1F
100
AcDbEntity
  8
0
  6
Continuous
 62
   142
420
    32960
370
     0
100
AcDbLine
 10
521.1925837631
 20
251.3342452482
 30
0.0
 11
521.2425837631
 21
251.3342452482
 31
0.0
  0
LINE
  5
125
330
1F
100
AcDbEntity
  8
0
  6
Continuous
 62
     7
370
    15
100
AcDbLine
 10
505.9136166637
 20
297.460196791
 30
0.0
 11
-64.0574162369
 21
439.1613285815
 31
0.0
  0
ARC
  5
126
330
1F
100
AcDbEntity
  8
0
  6
Continuous
 62
     7
370
    15
100
AcDbCircle
 10
503.500948223
 20
287.7556086495
 30
0.0
 40
10.00000000000012
100
AcDbArc
 50
26.0033458445
 51
76.0386774171
  0
LINE
  5
127
330
1F
100
AcDbEntity
  8
0
  6
Continuous
 62
     7
370
    15
100
AcDbLine
 10
520.4425837631
 20
275.8342452482
 30
0.0
 11
512.4886326794
 21
292.1398449697
 31
0.0
  0
LINE
  5
128
330
1F
100
AcDbEntity
  8
0
  6
Continuous
 62
     7
370
    15
100
AcDbLine
 10
-64.0574162369
 20
261.3342452482
 30
0.0
 11
520.4425837631
 21
261.3342452482
 31
0.0
  0
LINE
  5
129
330
1F
100
AcDbEntity
  8
0
  6
Continuous
 62
     7
370
    15
100
AcDbLine
 10
-64.0574162369
 20
261.3342452482
 30
0.0
 11
-64.0574162369
 21
439.1613285815
 31
0.0
  0
CIRCLE
  5
12A
330
1F
100
AcDbEntity
  8
0
  6
Continuous
 62
     7
370
    15
100
AcDbCircle
 10
401.9425837631
 20
302.3342452482
 30
0.0
 40
7.0
  0
CIRCLE
  5
12B
330
1F
100
AcDbEntity
  8
0
  6
Continuous
 62
     7
370
    15
100
AcDbCircle
 10
-18.0574162369
 20
406.3342452482
 30
0.0
 40
7.000000000000005
  0
LINE
  5
12C
330
1F
100
AcDbEntity
  8
0
  6
Continuous
 62
   142
420
    32960
370
     0
100
AcDbLine
 10
520.4425837631
 20
261.3342452482
 30
0.0
 11
520.4425837631
 21
275.8342452482
 31
0.0
  0
LINE
  5
12D
330
1F
100
AcDbEntity
  8
0
  6
Continuous
 62
     7
370
    15
100
AcDbLine
 10
-64.0574162369
 20
261.3342452482
 30
0.0
 11
-67.5574162369
 21
261.3342452482
 31
0.0
  0
SPLINE
  5
12E
330
1F
100
AcDbEntity
  8
0
  6
Continuous
 62
     7
370
    15
100
AcDbSpline
210
0.0
220
0.0
230
1.0
 70
     8
 71
     3
 72
    14
 73
    10
 74
     0
 42
0.00000001
 43
0.00000001
 40
0.0
 40
0.0
 40
0.0
 40
0.0
 40
0.25
 40
0.25
 40
0.5
 40
0.5
 40
0.75
 40
0.75
 40
1.0
 40
1.0
 40
1.0
 40
1.0
 10
-67.55741623688172
 20
439.5342452481893
 30
0.0
 10
-67.55741623688166
 20
439.5031688593004
 30
0.0
 10
-67.4663206052209
 20
439.4720924704116
 30
0.0
 10
-67.11566859612167
 20
439.4099396926338
 30
0.0
 10
-66.85625018527547
 20
439.3788633037449
 30
0.0
 10
-66.20832975679392
 20
439.3167105259671
 30
0.0
 10
-65.82008266817985
 20
439.2856341370783
 30
0.0
 10
-64.97353383213911
 20
439.2234813593004
 30
0.0
 10
-64.5155651655303
 20
439.1924049704116
 30
0.0
 10
-64.05741623688172
 20
439.1613285815226
 30
0.0
  0
LINE
  5
12F
330
1F
100
AcDbEntity
  8
0
  6
Continuous
 62
   142
420
    32960
370
     0
100
AcDbLine
 10
-67.5574162369
 20
261.3342452482
 30
0.0
 11
-67.5574162369
 21
439.5342452482
 31
0.0
  0
SPLINE
  5
130
330
1F
100
AcDbEntity
  8
0
  6
Continuous
 62
     7
370
    15
100
AcDbSpline
210
0.0
220
0.0
230
1.0
 70
     8
 71
     3
 72
    14
 73
    10
 74
     0
 42
0.00000001
 43
0.00000001
 40
0.0
 40
0.0
 40
0.0
 40
0.0
 40
0.25
 40
0.25
 40
0.5
 40
0.5
 40
0.75
 40
0.75
 40
1.0
 40
1.0
 40
1.0
 40
1.0
 10
-65.55741623688172
 20
439.5342452481893
 30
0.0
 10
-65.55741623688172
 20
439.5031688593004
 30
0.0
 10
-65.51837525188414
 20
439.4720924704116
 30
0.0
 10
-65.368095819413
 20
439.4099396926338
 30
0.0
 10
-65.25691650047894
 20
439.3788633037449
 30
0.0
 10
-64.97923631684411
 20
439.3167105259671
 30
0.0
 10
-64.81284470743809
 20
439.2856341370783
 30
0.0
 10
-64.4500380634207
 20
439.2234813593004
 30
0.0
 10
-64.25376577773112
 20
439.1924049704116
 30
0.0
 10
-64.05741623688172
 20
439.1613285815226
 30
0.0
  0
LINE
  5
131
330
1F
100
AcDbEntity
  8
0
  6
Continuous
 62
   142
420
    32960
370
     0
100
AcDbLine
 10
-65.5574162369
 20
439.5342452482
 30
0.0
 11
-67.5574162369
 21
439.5342452482
 31
0.0
  0
LINE
  5
132
330
1F
100
AcDbEntity
  8
0
  6
Continuous
 62
     7
370
    15
100
AcDbLine
 10
-72.0840745889
 20
454.3066405712
 30
0.0
 11
-73.896690163
 21
453.4614040477
 31
0.0
  0
LINE
  5
133
330
1F
100
AcDbEntity
  8
0
  6
Continuous
 62
     7
370
    15
100
AcDbLine
 10
-69.9709832802
 20
449.775101636
 30
0.0
 11
-72.0840745889
 21
454.3066405712
 31
0.0
  0
LINE
  5
134
330
1F
100
AcDbEntity
  8
0
  6
Continuous
 62
     7
370
    15
100
AcDbLine
 10
-69.9709832802
 20
449.775101636
 30
0.0
 11
-71.7835988543
 21
448.9298651125
 31
0.0
  0
LINE
  5
135
330
1F
100
AcDbEntity
  8
0
  6
Continuous
 62
   142
420
    32960
370
     0
100
AcDbLine
 10
-71.7835988543
 20
448.9298651125
 30
0.0
 11
-73.896690163
 21
453.4614040477
 31
0.0
  0
LINE
  5
136
330
1F
100
AcDbEntity
  8
0
  6
Continuous
 62
     7
370
    15
100
AcDbLine
 10
-65.8853389823
 20
441.0134091643
 30
0.0
 11
-69.9709832802
 21
449.775101636
 31
0.0
  0
LINE
  5
137
330
1F
100
AcDbEntity
  8
0
  6
Continuous
 62
   142
420
    32960
370
     0
100
AcDbLine
 10
-67.6979545563
 20
440.1681726408
 30
0.0
 11
-71.7835988543
 21
448.9298651125
 31
0.0
  0
LINE
  5
138
330
1F
100
AcDbEntity
  8
0
  6
Continuous
 62
   142
420
    32960
370
     0
100
AcDbLine
 10
-67.6979545563
 20
440.1681726408
 30
0.0
 11
-65.8853389823
 21
441.0134091643
 31
0.0
  0
ARC
  5
139
330
1F
100
AcDbEntity
  8
0
  6
Continuous
 62
   142
420
    32960
370
     0
100
AcDbCircle
 10
-69.0574162369
 20
439.5342452482
 30
0.0
 40
3.499999999999958
100
AcDbArc
 50
0.0
 51
25.0
  0
LINE
  5
13A
330
1F
100
AcDbEntity
  8
0
  6
Continuous
 62
     7
370
    15
100
AcDbLine
 10
655.5428796224
 20
65.9963490356
 30
0.0
 11
655.5428796224
 21
70.796570721
 31
0.0
  0
LINE
  5
13B
330
1F
100
AcDbEntity
  8
0
  6
Continuous
 62
     7
370
    15
100
AcDbLine
 10
655.5428796224
 20
13.796570721
 30
0.0
 11
655.5428796224
 21
18.5967924065
 31
0.0
  0
LINE
  5
13C
330
1F
100
AcDbEntity
  8
0
  6
Continuous
 62
   142
420
    32960
370
     0
100
AcDbLine
 10
652.9834014461
 20
12.789714219
 30
0.0
 11
652.9834014713
 21
12.7897141562
 31
0.0
  0
LINE
  5
13D
330
1F
100
AcDbEntity
  8
0
  6
Continuous
 62
   142
420
    32960
370
     0
100
AcDbLine
 10
648.3365398453
 20
10.9299667026
 30
0.0
 11
652.983401421
 21
12.7897142819
 31
0.0
  0
LINE
  5
13E
330
1F
100
AcDbEntity
  8
0
  6
Continuous
 62
   142
420
    32960
370
     0
100
AcDbLine
 10
648.3365398926
 20
10.9299665844
 30
0.0
 11
648.3365398689
 21
10.9299666435
 31
0.0
  0
LINE
  5
13F
330
1F
100
AcDbEntity
  8
0
  6
Continuous
 62
   142
420
    32960
370
     0
100
AcDbLine
 10
652.9834014713
 20
12.7897141562
 30
0.0
 11
648.3365398926
 21
10.9299665844
 31
0.0
  0
LINE
  5
140
330
1F
100
AcDbEntity
  8
0
  6
Continuous
 62
   142
420
    32960
370
     0
100
AcDbLine
 10
652.9804207629
 20
17.0507809866
 30
0.0
 11
652.9807972636
 21
16.5236761089
 31
0.0
  0
SPLINE
  5
141
330
1F
100
AcDbEntity
  8
0
  6
Continuous
 62
   142
420
    32960
370
     0
100
AcDbSpline
210
0.0
220
0.0
230
1.0
 70
     8
 71
     3
 72
     8
 73
     4
 74
     0
 42
0.00000001
 43
0.00000001
 40
0.0
 40
0.0
 40
0.0
 40
0.0
 40
1.0
 40
1.0
 40
1.0
 40
1.0
 10
648.3335598750905
 20
15.46039794865178
 30
0.0
 10
648.3337787650337
 20
15.11481940038747
 30
0.0
 10
648.3339976549769
 20
14.78741535195116
 30
0.0
 10
648.3342165449202
 20
14.47884994688614
 30
0.0
  0
LINE
  5
142
330
1F
100
AcDbEntity
  8
0
  6
Continuous
 62
   142
420
    32960
370
     0
100
AcDbLine
 10
652.9804224352
 20
17.050781559
 30
0.0
 11
648.3335598751
 21
15.4603979487
 31
0.0
  0
SPLINE
  5
143
330
1F
100
AcDbEntity
  8
0
  6
Continuous
 62
   142
420
    32960
370
     0
100
AcDbSpline
210
0.0
220
0.0
230
1.0
 70
     8
 71
     3
 72
     8
 73
     4
 74
     0
 42
0.00000001
 43
0.00000001
 40
0.0
 40
0.0
 40
0.0
 40
0.0
 40
1.0
 40
1.0
 40
1.0
 40
1.0
 10
652.9810791808468
 20
16.12717612876313
 30
0.0
 10
652.9808602656461
 20
16.41752634693558
 30
0.0
 10
652.9806413504454
 20
16.72560317828609
 30
0.0
 10
652.9804224352447
 20
17.05078155895773
 30
0.0
  0
LINE
  5
144
330
1F
100
AcDbEntity
  8
0
  6
Continuous
 62
   142
420
    32960
370
     0
100
AcDbLine
 10
648.3342165449
 20
14.4788499469
 30
0.0
 11
652.9810791808
 21
16.1271761288
 31
0.0
  0
SPLINE
  5
145
330
1F
100
AcDbEntity
  8
0
  6
Continuous
 62
   142
420
    32960
370
     0
100
AcDbSpline
210
0.0
220
0.0
230
1.0
 70
     8
 71
     3
 72
     8
 73
     4
 74
     0
 42
0.00000001
 43
0.00000001
 40
0.0
 40
0.0
 40
0.0
 40
0.0
 40
1.0
 40
1.0
 40
1.0
 40
1.0
 10
648.3261552525111
 20
25.8845293236028
 30
0.0
 10
648.3265700631191
 20
25.31633499041691
 30
0.0
 10
648.3269848737272
 20
24.75926085767663
 30
0.0
 10
648.3273996843354
 20
24.2144369092217
 30
0.0
  0
LINE
  5
146
330
1F
100
AcDbEntity
  8
0
  6
Continuous
 62
   142
420
    32960
370
     0
100
AcDbLine
 10
652.9729766417
 20
26.9098320229
 30
0.0
 11
648.3261552525
 21
25.8845293236
 31
0.0
  0
SPLINE
  5
147
330
1F
100
AcDbEntity
  8
0
  6
Continuous
 62
   142
420
    32960
370
     0
100
AcDbSpline
210
0.0
220
0.0
230
1.0
 70
     8
 71
     3
 72
     8
 73
     4
 74
     0
 42
0.00000001
 43
0.00000001
 40
0.0
 40
0.0
 40
0.0
 40
0.0
 40
1.0
 40
1.0
 40
1.0
 40
1.0
 10
652.9742994095171
 20
25.2396636107054
 30
0.0
 10
652.9738584869223
 20
25.78375460185525
 30
0.0
 10
652.9734175643274
 20
26.34090299770106
 30
0.0
 10
652.9729766417325
 20
26.9098320228813
 30
0.0
  0
LINE
  5
148
330
1F
100
AcDbEntity
  8
0
  6
Continuous
 62
   142
420
    32960
370
     0
100
AcDbLine
 10
648.3273996843
 20
24.2144369092
 30
0.0
 11
652.9742994095
 21
25.2396636107
 31
0.0
  0
SPLINE
  5
149
330
1F
100
AcDbEntity
  8
0
  6
Continuous
 62
   142
420
    32960
370
     0
100
AcDbSpline
210
0.0
220
0.0
230
1.0
 70
     8
 71
     3
 72
    15
 73
    11
 74
     0
 42
0.00000001
 43
0.00000001
 40
0.0
 40
0.0
 40
0.0
 40
0.0
 40
0.0627389182944012
 40
0.125459542155388
 40
0.2507112017507999
 40
0.4999387286488771
 40
0.7492307858371536
 40
0.8745322792780954
 40
0.9372585706825024
 40
1.0
 40
1.0
 40
1.0
 40
1.0
 10
648.8788059222379
 20
12.11144904372827
 30
0.0
 10
648.8797720097499
 20
12.10226652585683
 30
0.0
 10
648.8817039030664
 20
12.08390416770166
 30
0.0
 10
648.9006229709877
 20
12.05403121268292
 30
0.0
 10
648.9682124590782
 20
12.01821980616866
 30
0.0
 10
649.1766069602263
 20
12.0255242065038
 30
0.0
 10
649.481323271581
 20
12.09736113667184
 30
0.0
 10
649.7227058960318
 20
12.17594366466246
 30
0.0
 10
649.8642377984316
 20
12.22621296850626
 30
0.0
 10
649.9357171324039
 20
12.25312705757051
 30
0.0
 10
649.971461111447
 20
12.26658572571998
 30
0.0
  0
SPLINE
  5
14A
330
1F
100
AcDbEntity
  8
0
  6
Continuous
 62
   142
420
    32960
370
     0
100
AcDbSpline
210
0.0
220
0.0
230
1.0
 70
     8
 71
     3
 72
    16
 73
    12
 74
     0
 42
0.00000001
 43
0.00000001
 40
0.0
 40
0.0
 40
0.0
 40
0.0
 40
0.06265409303737
 40
0.1252834762196555
 40
0.2504003908103881
 40
0.499419254407188
 40
0.6244795471335974
 40
0.7495568271934699
 40
0.8747021681126795
 40
0.937342069187761
 40
1.0
 40
1.0
 40
1.0
 40
1.0
 10
649.8421581141987
 20
12.77159952699536
 30
0.0
 10
649.809708188535
 20
12.75874074916761
 30
0.0
 10
649.7448211349825
 20
12.73302826482542
 30
0.0
 10
649.6162640765575
 20
12.67777060769243
 30
0.0
 10
649.3995664845361
 20
12.57332009993431
 30
0.0
 10
649.1822042554448
 20
12.44366952083315
 30
0.0
 10
649.0204282029881
 20
12.32206512228876
 30
0.0
 10
648.9349325329301
 20
12.23874504906813
 30
0.0
 10
648.8951139072516
 20
12.17928477451333
 30
0.0
 10
648.8813337992863
 20
12.13862713298899
 30
0.0
 10
648.8796486287499
 20
12.12050927583847
 30
0.0
 10
648.8788059222379
 20
12.11144904372827
 30
0.0
  0
SPLINE
  5
14B
330
1F
100
AcDbEntity
  8
0
  6
Continuous
 62
   142
420
    32960
370
     0
100
AcDbSpline
210
0.0
220
0.0
230
1.0
 70
     8
 71
     3
 72
    14
 73
    10
 74
     0
 42
0.00000001
 43
0.00000001
 40
0.0
 40
0.0
 40
0.0
 40
0.0
 40
0.2500974778385984
 40
0.5001162364899097
 40
0.6251211881946263
 40
0.7500431373235874
 40
0.8749630375512868
 40
0.9374725204057183
 40
1.0
 40
1.0
 40
1.0
 40
1.0
 10
651.0211030239127
 20
13.03946509826331
 30
0.0
 10
650.9355949337202
 20
13.02809289350729
 30
0.0
 10
650.76460566735
 20
13.00535206344266
 30
0.0
 10
650.5378909145037
 20
12.96982461060964
 30
0.0
 10
650.3420119318815
 20
12.93032711428449
 30
0.0
 10
650.1822339530536
 20
12.88854598969749
 30
0.0
 10
650.0422205313674
 20
12.84477417862484
 30
0.0
 10
649.9280520065491
 20
12.80403790807313
 30
0.0
 10
649.8707921588114
 20
12.78241335817154
 30
0.0
 10
649.8421581141987
 20
12.77159952699536
 30
0.0
  0
SPLINE
  5
14C
330
1F
100
AcDbEntity
  8
0
  6
Continuous
 62
   142
420
    32960
370
     0
100
AcDbSpline
210
0.0
220
0.0
230
1.0
 70
     8
 71
     3
 72
     9
 73
     5
 74
     0
 42
0.00000001
 43
0.00000001
 40
0.0
 40
0.0
 40
0.0
 40
0.0
 40
0.4988438725414024
 40
1.0
 40
1.0
 40
1.0
 40
1.0
 10
651.8925394766643
 20
13.16224459529072
 30
0.0
 10
651.7481756414812
 20
13.14052035004237
 30
0.0
 10
651.4587788118733
 20
13.09697116272313
 30
0.0
 10
651.167219672917
 20
13.05866331225514
 30
0.0
 10
651.0211030239127
 20
13.03946509826331
 30
0.0
  0
SPLINE
  5
14D
330
1F
100
AcDbEntity
  8
0
  6
Continuous
 62
   142
420
    32960
370
     0
100
AcDbSpline
210
0.0
220
0.0
230
1.0
 70
     8
 71
     3
 72
    10
 73
     6
 74
     0
 42
0.00000001
 43
0.00000001
 40
0.0
 40
0.0
 40
0.0
 40
0.0
 40
0.333341786270596
 40
0.6666652411998949
 40
1.0
 40
1.0
 40
1.0
 40
1.0
 10
651.8854395301925
 20
13.57789102586271
 30
0.0
 10
651.8875604555245
 20
13.52849447126603
 30
0.0
 10
651.8918021895535
 20
13.42970407851904
 30
0.0
 10
651.894169011412
 20
13.29112900905965
 30
0.0
 10
651.8930826610537
 20
13.20520655218135
 30
0.0
 10
651.8925394766643
 20
13.16224459529072
 30
0.0
  0
LINE
  5
14E
330
1F
100
AcDbEntity
  8
0
  6
Continuous
 62
   142
420
    32960
370
     0
100
AcDbLine
 10
651.8854395302
 20
13.5778910259
 30
0.0
 11
652.1985301746
 21
13.699447041
 31
0.0
  0
SPLINE
  5
14F
330
1F
100
AcDbEntity
  8
0
  6
Continuous
 62
   142
420
    32960
370
     0
100
AcDbSpline
210
0.0
220
0.0
230
1.0
 70
     8
 71
     3
 72
    11
 73
     7
 74
     0
 42
0.00000001
 43
0.00000001
 40
0.0
 40
0.0
 40
0.0
 40
0.0
 40
0.2500135197141956
 40
0.4999998306409322
 40
0.7499862262783673
 40
1.0
 40
1.0
 40
1.0
 40
1.0
 10
652.1988329834403
 20
13.11321858680017
 30
0.0
 10
652.2011345208343
 20
13.15642469968792
 30
0.0
 10
652.205737345148
 20
13.2428322233738
 30
0.0
 10
652.2074071597857
 20
13.38519551682593
 30
0.0
 10
652.2055859292582
 20
13.53601618314856
 30
0.0
 10
652.2008821786646
 20
13.64496809977259
 30
0.0
 10
652.1985301745883
 20
13.69944704097833
 30
0.0
  0
SPLINE
  5
150
330
1F
100
AcDbEntity
  8
0
  6
Continuous
 62
   142
420
    32960
370
     0
100
AcDbSpline
210
0.0
220
0.0
230
1.0
 70
     8
 71
     3
 72
     9
 73
     5
 74
     0
 42
0.00000001
 43
0.00000001
 40
0.0
 40
0.0
 40
0.0
 40
0.0
 40
0.5017616033065805
 40
1.0
 40
1.0
 40
1.0
 40
1.0
 10
650.8670562066604
 20
12.90426813046622
 30
0.0
 10
651.0910980989611
 20
12.93605882724722
 30
0.0
 10
651.5376087343387
 20
12.99941699688686
 30
0.0
 10
651.9789432045811
 20
13.07537392748245
 30
0.0
 10
652.1988329834403
 20
13.11321858680017
 30
0.0
  0
SPLINE
  5
151
330
1F
100
AcDbEntity
  8
0
  6
Continuous
 62
   142
420
    32960
370
     0
100
AcDbSpline
210
0.0
220
0.0
230
1.0
 70
     8
 71
     3
 72
    15
 73
    11
 74
     0
 42
0.00000001
 43
0.00000001
 40
0.0
 40
0.0
 40
0.0
 40
0.0
 40
0.0625225562660669
 40
0.1250175500020992
 40
0.2498984740543638
 40
0.3747964627399372
 40
0.4998086389832618
 40
0.6248497684246639
 40
0.7498979887158308
 40
1.0
 40
1.0
 40
1.0
 40
1.0
 10
649.8536208938904
 20
12.6817250711313
 30
0.0
 10
649.8787639683501
 20
12.6912072650521
 30
0.0
 10
649.9290390331615
 20
12.71016747275042
 30
0.0
 10
650.0289432657995
 20
12.74501675624279
 30
0.0
 10
650.1505627804776
 20
12.78169555554454
 30
0.0
 10
650.2859135515351
 20
12.81412488721817
 30
0.0
 10
650.4095747688788
 20
12.83687913720516
 30
0.0
 10
650.5277727414008
 20
12.85589315160063
 30
0.0
 10
650.6822102246076
 20
12.87933970564023
 30
0.0
 10
650.7931174844613
 20
12.89429671611575
 30
0.0
 10
650.8670562066604
 20
12.90426813046622
 30
0.0
  0
SPLINE
  5
152
330
1F
100
AcDbEntity
  8
0
  6
Continuous
 62
   142
420
    32960
370
     0
100
AcDbSpline
210
0.0
220
0.0
230
1.0
 70
     8
 71
     3
 72
    16
 73
    12
 74
     0
 42
0.00000001
 43
0.00000001
 40
0.0
 40
0.0
 40
0.0
 40
0.0
 40
0.0626599260637289
 40
0.1253019578002373
 40
0.2504449960665376
 40
0.3738457391778566
 40
0.5006937122058643
 40
0.7496664579127057
 40
0.8747118482845834
 40
0.9373482840481374
 40
1.0
 40
1.0
 40
1.0
 40
1.0
 10
649.1883876396776
 20
12.22672216868531
 30
0.0
 10
649.188895640705
 20
12.2329531572096
 30
0.0
 10
649.1899114976853
 20
12.24541335482188
 30
0.0
 10
649.2010644876517
 20
12.2739597746962
 30
0.0
 10
649.2291166622331
 20
12.31473824090223
 30
0.0
 10
649.2904463188943
 20
12.37228670829083
 30
0.0
 10
649.3996798777246
 20
12.45490193462417
 30
0.0
 10
649.5470725895567
 20
12.54443743501957
 30
0.0
 10
649.6973058200992
 20
12.61646446181569
 30
0.0
 10
649.7860962534605
 20
12.65512504716659
 30
0.0
 10
649.8311108504149
 20
12.67285767558385
 30
0.0
 10
649.8536208938904
 20
12.6817250711313
 30
0.0
  0
SPLINE
  5
153
330
1F
100
AcDbEntity
  8
0
  6
Continuous
 62
   142
420
    32960
370
     0
100
AcDbSpline
210
0.0
220
0.0
230
1.0
 70
     8
 71
     3
 72
    16
 73
    12
 74
     0
 42
0.00000001
 43
0.00000001
 40
0.0
 40
0.0
 40
0.0
 40
0.0
 40
0.1251004365720763
 40
0.2501607816925412
 40
0.3782180428461451
 40
0.5000937578665404
 40
0.6271570971013906
 40
0.7499350319615317
 40
0.8748712563419296
 40
0.9374268061341308
 40
1.0
 40
1.0
 40
1.0
 40
1.0
 10
649.9748238756424
 20
12.34073804246275
 30
0.0
 10
649.9244976274612
 20
12.32249075722472
 30
0.0
 10
649.8238612593585
 20
12.28600203453126
 30
0.0
 10
649.6759555449081
 20
12.23834903731164
 30
0.0
 10
649.5372266771553
 20
12.1996695197468
 30
0.0
 10
649.413773350133
 20
12.17401387907902
 30
0.0
 10
649.3127310525788
 20
12.1628591898342
 30
0.0
 10
649.2390087956619
 20
12.16822556974106
 30
0.0
 10
649.2043069229949
 20
12.18625618612601
 30
0.0
 10
649.1899967199513
 20
12.20709634176242
 30
0.0
 10
649.188924050187
 20
12.22017961143188
 30
0.0
 10
649.1883876396776
 20
12.22672216868531
 30
0.0
  0
SPLINE
  5
154
330
1F
100
AcDbEntity
  8
0
  6
Continuous
 62
   142
420
    32960
370
     0
100
AcDbSpline
210
0.0
220
0.0
230
1.0
 70
     8
 71
     3
 72
     8
 73
     4
 74
     0
 42
0.00000001
 43
0.00000001
 40
0.0
 40
0.0
 40
0.0
 40
0.0
 40
1.0
 40
1.0
 40
1.0
 40
1.0
 10
649.971461111447
 20
12.26658572571998
 30
0.0
 10
649.9725820328455
 20
12.29070933689849
 30
0.0
 10
649.973702954244
 20
12.3154272832082
 30
0.0
 10
649.9748238756424
 20
12.34073804246275
 30
0.0
  0
LINE
  5
155
330
1F
100
AcDbEntity
  8
0
  6
Continuous
 62
   142
420
    32960
370
     0
100
AcDbLine
 10
648.963707952
 20
19.7433466492
 30
0.0
 11
652.2014403499
 21
20.6892672577
 31
0.0
  0
SPLINE
  5
156
330
1F
100
AcDbEntity
  8
0
  6
Continuous
 62
   142
420
    32960
370
     0
100
AcDbSpline
210
0.0
220
0.0
230
1.0
 70
     8
 71
     3
 72
     8
 73
     4
 74
     0
 42
0.00000001
 43
0.00000001
 40
0.0
 40
0.0
 40
0.0
 40
0.0
 40
1.0
 40
1.0
 40
1.0
 40
1.0
 10
652.2017742558122
 20
20.45239708483884
 30
0.0
 10
652.2016629538372
 20
20.53086635272036
 30
0.0
 10
652.2015516518622
 20
20.60982484259716
 30
0.0
 10
652.2014403498872
 20
20.68926725773709
 30
0.0
  0
LINE
  5
157
330
1F
100
AcDbEntity
  8
0
  6
Continuous
 62
   142
420
    32960
370
     0
100
AcDbLine
 10
652.2017742558
 20
20.4523970848
 30
0.0
 11
649.2811034124
 21
19.5987722294
 31
0.0
  0
SPLINE
  5
158
330
1F
100
AcDbEntity
  8
0
  6
Continuous
 62
   142
420
    32960
370
     0
100
AcDbSpline
210
0.0
220
0.0
230
1.0
 70
     8
 71
     3
 72
     9
 73
     5
 74
     0
 42
0.00000001
 43
0.00000001
 40
0.0
 40
0.0
 40
0.0
 40
0.0
 40
0.5000010319187085
 40
1.0
 40
1.0
 40
1.0
 40
1.0
 10
649.2791835882829
 20
19.2286655337266
 30
0.0
 10
649.2797120265993
 20
19.28996537076341
 30
0.0
 10
649.2807689010509
 20
19.41256479181172
 30
0.0
 10
649.280991908757
 20
19.53670316894177
 30
0.0
 10
649.2811034123798
 20
19.59877222940612
 30
0.0
  0
SPLINE
  5
159
330
1F
100
AcDbEntity
  8
0
  6
Continuous
 62
   142
420
    32960
370
     0
100
AcDbSpline
210
0.0
220
0.0
230
1.0
 70
     8
 71
     3
 72
     8
 73
     4
 74
     0
 42
0.00000001
 43
0.00000001
 40
0.0
 40
0.0
 40
0.0
 40
0.0
 40
1.0
 40
1.0
 40
1.0
 40
1.0
 10
648.9633131979207
 20
19.27664610722832
 30
0.0
 10
649.0686033280414
 20
19.26028274183061
 30
0.0
 10
649.1738934581621
 20
19.24428957553831
 30
0.0
 10
649.2791835882829
 20
19.2286655337266
 30
0.0
  0
SPLINE
  5
15A
330
1F
100
AcDbEntity
  8
0
  6
Continuous
 62
   142
420
    32960
370
     0
100
AcDbSpline
210
0.0
220
0.0
230
1.0
 70
     8
 71
     3
 72
     9
 73
     5
 74
     0
 42
0.00000001
 43
0.00000001
 40
0.0
 40
0.0
 40
0.0
 40
0.0
 40
0.4999997884237918
 40
0.9999999999999999
 40
0.9999999999999999
 40
0.9999999999999999
 40
0.9999999999999999
 10
648.9637079519586
 20
19.74334664920755
 30
0.0
 10
648.9639667099068
 20
19.66496907934956
 30
0.0
 10
648.9644842260223
 20
19.50821387330229
 30
0.0
 10
648.9637035407314
 20
19.35383538436153
 30
0.0
 10
648.9633131979207
 20
19.27664610722832
 30
0.0
  0
SPLINE
  5
15B
330
1F
100
AcDbEntity
  8
0
  6
Continuous
 62
   142
420
    32960
370
     0
100
AcDbSpline
210
0.0
220
0.0
230
1.0
 70
     8
 71
     3
 72
    16
 73
    12
 74
     0
 42
0.00000001
 43
0.00000001
 40
0.0
 40
0.0
 40
0.0
 40
0.0
 40
0.000053362682037
 40
0.1251138821712306
 40
0.250082792220467
 40
0.3750495712342508
 40
0.5000146284486359
 40
0.6249778304954863
 40
0.7499408549700262
 40
0.8749031490732571
 40
1.0
 40
1.0
 40
1.0
 40
1.0
 10
647.8642115438118
 20
73.8680317488688
 30
0.0
 10
647.8641871060804
 20
73.86804359178709
 30
0.0
 10
647.8068905208719
 20
73.89581043987123
 30
0.0
 10
648.0081026540539
 20
73.79753006623763
 30
0.0
 10
648.4774114164993
 20
73.57357478263793
 30
0.0
 10
649.2452562277215
 20
73.22576329689964
 30
0.0
 10
650.1474379838351
 20
72.84736053489583
 30
0.0
 10
651.0658707851218
 20
72.49538249862685
 30
0.0
 10
651.8465010594972
 20
72.22243031504996
 30
0.0
 10
652.3976635911778
 20
72.04477326204817
 30
0.0
 10
652.4701780597438
 20
72.02235554060354
 30
0.0
 10
652.5064548040442
 20
72.0111406483934
 30
0.0
  0
SPLINE
  5
15C
330
1F
100
AcDbEntity
  8
0
  6
Continuous
 62
   142
420
    32960
370
     0
100
AcDbSpline
210
0.0
220
0.0
230
1.0
 70
     8
 71
     3
 72
    10
 73
     6
 74
     0
 42
0.00000001
 43
0.00000001
 40
0.0
 40
0.0
 40
0.0
 40
0.0
 40
0.5
 40
0.5
 40
1.0
 40
1.0
 40
1.0
 40
1.0
 10
655.5428796224047
 20
18.5967924064511
 30
0.0
 10
655.3336324836079
 20
18.70943342808953
 30
0.0
 10
655.176249695575
 20
18.86040792056937
 30
0.0
 10
654.9645116675748
 20
19.23762353883654
 30
0.0
 10
654.9142702987588
 20
19.4555769931383
 30
0.0
 10
654.9142702987588
 20
19.70150401436041
 30
0.0
  0
SPLINE
  5
15D
330
1F
100
AcDbEntity
  8
0
  6
Continuous
 62
   142
420
    32960
370
     0
100
AcDbSpline
210
0.0
220
0.0
230
1.0
 70
     8
 71
     3
 72
    10
 73
     6
 74
     0
 42
0.00000001
 43
0.00000001
 40
0.0
 40
0.0
 40
0.0
 40
0.0
 40
0.5
 40
0.5
 40
1.0
 40
1.0
 40
1.0
 40
1.0
 10
654.9142702987588
 20
64.89163742773808
 30
0.0
 10
654.9142702987587
 20
65.1375644489602
 30
0.0
 10
654.9645116675748
 20
65.35551790326191
 30
0.0
 10
655.176249695575
 20
65.73273352152903
 30
0.0
 10
655.3336324836079
 20
65.88370801400889
 30
0.0
 10
655.5428796224047
 20
65.99634903564733
 30
0.0
  0
LINE
  5
15E
330
1F
100
AcDbEntity
  8
0
  6
Continuous
 62
   142
420
    32960
370
     0
100
AcDbLine
 10
645.5428796224
 20
9.796570721
 30
0.0
 11
645.5428796224
 21
36.8965707211
 31
0.0
  0
LINE
  5
15F
330
1F
100
AcDbEntity
  8
0
  6
Continuous
 62
   142
420
    32960
370
     0
100
AcDbLine
 10
645.5428796224
 20
47.6965707211
 30
0.0
 11
645.5428796224
 21
74.796570721
 31
0.0
  0
LINE
  5
160
330
1F
100
AcDbEntity
  8
0
  6
Continuous
 62
     7
370
    15
100
AcDbLine
 10
655.5428796224
 20
64.161969973
 30
0.0
 11
655.5428796224
 21
47.6965707211
 31
0.0
  0
LINE
  5
161
330
1F
100
AcDbEntity
  8
0
  6
Continuous
 62
     7
370
    15
100
AcDbLine
 10
655.5428796224
 20
36.8965707211
 30
0.0
 11
655.5428796224
 21
20.4311714691
 31
0.0
  0
ARC
  5
162
330
1F
100
AcDbEntity
  8
0
  6
Continuous
 62
   142
420
    32960
370
     0
100
AcDbCircle
 10
654.7310622555
 20
64.0981959517
 30
0.0
 40
0.8143184653803679
100
AcDbArc
 50
4.491765777
 51
76.998104743
  0
ARC
  5
163
330
1F
100
AcDbEntity
  8
0
  6
Continuous
 62
   142
420
    32960
370
     0
100
AcDbCircle
 10
654.7310622555
 20
20.4949454904
 30
0.0
 40
0.814318465380372
100
AcDbArc
 50
283.001895257
 51
355.508234223
  0
LINE
  5
164
330
1F
100
AcDbEntity
  8
0
  6
Continuous
 62
     7
370
    15
100
AcDbLine
 10
658.4905224031
 20
64.4550814409
 30
0.0
 11
658.4905224031
 21
20.1380600012
 31
0.0
  0
SPLINE
  5
165
330
1F
100
AcDbEntity
  8
0
  6
Continuous
 62
     7
370
    15
100
AcDbSpline
210
0.0
220
0.0
230
1.0
 70
     8
 71
     3
 72
    14
 73
    10
 74
     0
 42
0.00000001
 43
0.00000001
 40
0.0
 40
0.0
 40
0.0
 40
0.0
 40
0.25
 40
0.25
 40
0.5
 40
0.5
 40
0.75
 40
0.75
 40
1.0
 40
1.0
 40
1.0
 40
1.0
 10
655.9995898942121
 20
19.58043513921123
 30
0.0
 10
656.1422025852064
 20
19.51730394590728
 30
0.0
 10
656.3111866605439
 20
19.48893716705935
 30
0.0
 10
656.6954530168961
 20
19.49190152415542
 30
0.0
 10
656.9023065305067
 20
19.52314654592749
 30
0.0
 10
657.335533552055
 20
19.63083698308038
 30
0.0
 10
657.565766854985
 20
19.70895685531784
 30
0.0
 10
658.0256557063037
 20
19.89860381184988
 30
0.0
 10
658.2572699113246
 20
20.01031789341379
 30
0.0
 10
658.4905224030928
 20
20.13806000119423
 30
0.0
  0
SPLINE
  5
166
330
1F
100
AcDbEntity
  8
0
  6
Continuous
 62
   142
420
    32960
370
     0
100
AcDbSpline
210
0.0
220
0.0
230
1.0
 70
     8
 71
     3
 72
    10
 73
     6
 74
     0
 42
0.00000001
 43
0.00000001
 40
0.0
 40
0.0
 40
0.0
 40
0.0
 40
0.5
 40
0.5
 40
1.0
 40
1.0
 40
1.0
 40
1.0
 10
655.5428796224047
 20
20.43117146909984
 30
0.0
 10
655.5428796224045
 20
20.23425205978102
 30
0.0
 10
655.5782107037464
 20
20.06156936886142
 30
0.0
 10
655.7317375493741
 20
19.76956654986778
 30
0.0
 10
655.8469443052923
 20
19.65753060699998
 30
0.0
 10
655.9995898942122
 20
19.58043513921146
 30
0.0
  0
SPLINE
  5
167
330
1F
100
AcDbEntity
  8
0
  6
Continuous
 62
   142
420
    32960
370
     0
100
AcDbSpline
210
0.0
220
0.0
230
1.0
 70
     8
 71
     3
 72
    14
 73
    10
 74
     0
 42
0.00000001
 43
0.00000001
 40
0.0
 40
0.0
 40
0.0
 40
0.0
 40
0.25
 40
0.25
 40
0.5
 40
0.5
 40
0.75
 40
0.75
 40
1.0
 40
1.0
 40
1.0
 40
1.0
 10
658.4905224030928
 20
64.45508144090422
 30
0.0
 10
658.257433404139
 20
64.5827340108771
 30
0.0
 10
658.0259803809273
 20
64.69438059024715
 30
0.0
 10
657.5664092298746
 20
64.8839427904585
 30
0.0
 10
657.3363236175207
 20
64.96205041744652
 30
0.0
 10
656.9033385562486
 20
65.06979576497085
 30
0.0
 10
656.6959956584597
 20
65.10109851834389
 30
0.0
 10
656.3132731382393
 20
65.10432445309614
 30
0.0
 10
656.1433792682839
 20
65.07635838536491
 30
0.0
 10
655.9995898942122
 20
65.012706302887
 30
0.0
  0
SPLINE
  5
168
330
1F
100
AcDbEntity
  8
0
  6
Continuous
 62
   142
420
    32960
370
     0
100
AcDbSpline
210
0.0
220
0.0
230
1.0
 70
     8
 71
     3
 72
    10
 73
     6
 74
     0
 42
0.00000001
 43
0.00000001
 40
0.0
 40
0.0
 40
0.0
 40
0.0
 40
0.5
 40
0.5
 40
1.0
 40
1.0
 40
1.0
 40
1.0
 10
655.9995898942122
 20
65.012706302887
 30
0.0
 10
655.8469443052921
 20
64.9356108350985
 30
0.0
 10
655.7317375493741
 20
64.82357489223064
 30
0.0
 10
655.5782107037464
 20
64.53157207323704
 30
0.0
 10
655.5428796224047
 20
64.35888938231746
 30
0.0
 10
655.5428796224047
 20
64.1619699729986
 30
0.0
  0
SPLINE
  5
169
330
1F
100
AcDbEntity
  8
0
  6
Continuous
 62
     7
370
    15
100
AcDbSpline
210
0.0
220
0.0
230
1.0
 70
     8
 71
     3
 72
    10
 73
     6
 74
     0
 42
0.00000001
 43
0.00000001
 40
0.0
 40
0.0
 40
0.0
 40
0.0
 40
0.5
 40
0.5
 40
1.0
 40
1.0
 40
1.0
 40
1.0
 10
674.9532442997335
 20
25.97591274343453
 30
0.0
 10
672.2876866029583
 20
24.75763183352386
 30
0.0
 10
669.6131016466722
 20
23.57277396144802
 30
0.0
 10
664.2546366480735
 20
21.24841918036757
 30
0.0
 10
661.5705846666593
 20
20.10933424418745
 30
0.0
 10
658.8834346739843
 20
18.98904876928889
 30
0.0
  0
SPLINE
  5
16A
330
1F
100
AcDbEntity
  8
0
  6
Continuous
 62
     7
370
    15
100
AcDbSpline
210
0.0
220
0.0
230
1.0
 70
     8
 71
     3
 72
    16
 73
    12
 74
     0
 42
0.00000001
 43
0.00000001
 40
0.0
 40
0.0
 40
0.0
 40
0.0
 40
0.249999999999999
 40
0.249999999999999
 40
0.499999999999998
 40
0.499999999999998
 40
0.6249999999999984
 40
0.6249999999999984
 40
0.749999999999999
 40
0.749999999999999
 40
1.0
 40
1.0
 40
1.0
 40
1.0
 10
658.8834346739843
 20
18.98904876928889
 30
0.0
 10
658.5605018134107
 20
18.85441654032727
 30
0.0
 10
658.2420246300981
 20
18.74223301530106
 30
0.0
 10
657.6138672121889
 20
18.5638318318542
 30
0.0
 10
657.3022176848754
 20
18.49801107797638
 30
0.0
 10
656.8686812068498
 20
18.44423381074303
 30
0.0
 10
656.7287054678112
 20
18.43347100504283
 30
0.0
 10
656.458071136504
 20
18.42732193436661
 30
0.0
 10
656.3263969386577
 20
18.432066833309
 30
0.0
 10
655.9548102016365
 20
18.47140886568574
 30
0.0
 10
655.7388758006215
 20
18.52985374078767
 30
0.0
 10
655.55593781128
 20
18.62454992023879
 30
0.0
  0
SPLINE
  5
16B
330
1F
100
AcDbEntity
  8
0
  6
Continuous
 62
   142
420
    32960
370
     0
100
AcDbSpline
210
0.0
220
0.0
230
1.0
 70
     8
 71
     3
 72
    14
 73
    10
 74
     0
 42
0.00000001
 43
0.00000001
 40
0.0
 40
0.0
 40
0.0
 40
0.0
 40
0.0000095361705259
 40
0.0000095361705259
 40
0.0000095361705259
 40
0.0000219642949668
 40
0.0000219642949668
 40
0.0000219642949668
 40
0.0000450544384129
 40
0.0000450544384129
 40
0.0000450544384129
 40
0.0000450544384129
 10
655.55593781128
 20
18.62454992023879
 30
0.0
 10
655.553566895933
 20
18.62264558481353
 30
0.0
 10
655.5515174441814
 20
18.62054463338098
 30
0.0
 10
655.5499057377842
 20
18.61847189704693
 30
0.0
 10
655.5478038507696
 20
18.61576876352749
 30
0.0
 10
655.546340798911
 20
18.61303153279695
 30
0.0
 10
655.5453182626503
 20
18.61042977766347
 30
0.0
 10
655.5434228584778
 20
18.60560708557474
 30
0.0
 10
655.5428796224041
 20
18.60106035742876
 30
0.0
 10
655.5428796224041
 20
18.59679240645098
 30
0.0
  0
ARC
  5
16C
330
1F
100
AcDbEntity
  8
0
  6
Continuous
 62
     7
370
    15
100
AcDbCircle
 10
654.7620255015
 20
18.2213897761
 30
0.0
 40
4.192292200789052
100
AcDbArc
 50
10.5510775205
 51
27.205872348
  0
SPLINE
  5
16D
330
1F
100
AcDbEntity
  8
0
  6
Continuous
 62
   142
420
    32960
370
     0
100
AcDbSpline
210
0.0
220
0.0
230
1.0
 70
     8
 71
     3
 72
    12
 73
     8
 74
     0
 42
0.00000001
 43
0.00000001
 40
0.0
 40
0.0
 40
0.0
 40
0.0
 40
0.250000000000016
 40
0.250000000000016
 40
0.500000000000032
 40
0.500000000000032
 40
1.0
 40
1.0
 40
1.0
 40
1.0
 10
655.55593781128
 20
18.62454992023879
 30
0.0
 10
655.6255849734465
 20
18.68049099732144
 30
0.0
 10
655.6884181942169
 20
18.74480219897204
 30
0.0
 10
655.8007962924243
 20
18.88974761160395
 30
0.0
 10
655.8493783868846
 20
18.96967786071421
 30
0.0
 10
655.9658237069781
 20
19.22034863052902
 30
0.0
 10
656.0052082507545
 20
19.40696059529162
 30
0.0
 10
655.9995898942121
 20
19.58043513921518
 30
0.0
  0
LINE
  5
16E
330
1F
100
AcDbEntity
  8
0
  6
Continuous
 62
     7
370
    15
100
AcDbLine
 10
674.9532442997
 20
58.6172286987
 30
0.0
 11
674.9532442997
 21
62.0049065983
 31
0.0
  0
SPLINE
  5
16F
330
1F
100
AcDbEntity
  8
0
  6
Continuous
 62
     7
370
    15
100
AcDbSpline
210
0.0
220
0.0
230
1.0
 70
     8
 71
     3
 72
    10
 73
     6
 74
     0
 42
0.00000001
 43
0.00000001
 40
0.0
 40
0.0
 40
0.0
 40
0.0
 40
0.5
 40
0.5
 40
1.0
 40
1.0
 40
1.0
 40
1.0
 10
658.8834346739843
 20
65.60409267280956
 30
0.0
 10
661.5705846666594
 20
64.48380719791099
 30
0.0
 10
664.2546366480735
 20
63.34472226173091
 30
0.0
 10
669.613101646672
 20
61.02036748065037
 30
0.0
 10
672.2876866029584
 20
59.83550960857462
 30
0.0
 10
674.9532442997335
 20
58.61722869866392
 30
0.0
  0
SPLINE
  5
170
330
1F
100
AcDbEntity
  8
0
  6
Continuous
 62
   142
420
    32960
370
     0
100
AcDbSpline
210
0.0
220
0.0
230
1.0
 70
     8
 71
     3
 72
    17
 73
    13
 74
     0
 42
0.00000001
 43
0.00000001
 40
0.0
 40
0.0
 40
0.0
 40
0.0
 40
0.0000166887075715
 40
0.0000166887075715
 40
0.0000166887075715
 40
0.0000336582619935
 40
0.0000336582619935
 40
0.0000336582619935
 40
0.0000426621382241
 40
0.0000426621382241
 40
0.0000426621382241
 40
0.0000451385286556
 40
0.0000451385286556
 40
0.0000451385286556
 40
0.0000451385286556
 10
655.5428796224047
 20
65.99634903564736
 30
0.0
 10
655.5428796224047
 20
65.99325929827016
 30
0.0
 10
655.5431816866127
 20
65.99003734868938
 30
0.0
 10
655.5440433643225
 20
65.98666752847777
 30
0.0
 10
655.5449129175571
 20
65.983266908928
 30
0.0
 10
655.5463793647372
 20
65.97961899818694
 30
0.0
 10
655.5489535971366
 20
65.97595672623652
 30
0.0
 10
655.5503308507838
 20
65.97399735481316
 30
0.0
 10
655.5520707400713
 20
65.97199832874328
 30
0.0
 10
655.5541355499506
 20
65.97012810156299
 30
0.0
 10
655.554711140958
 20
65.9696067528627
 30
0.0
 10
655.5553133346785
 20
65.96909310573776
 30
0.0
 10
655.55593781128
 20
65.96859152185966
 30
0.0
  0
SPLINE
  5
171
330
1F
100
AcDbEntity
  8
0
  6
Continuous
 62
   142
420
    32960
370
     0
100
AcDbSpline
210
0.0
220
0.0
230
1.0
 70
     8
 71
     3
 72
    16
 73
    12
 74
     0
 42
0.00000001
 43
0.00000001
 40
0.0
 40
0.0
 40
0.0
 40
0.0
 40
0.2500000000000149
 40
0.2500000000000149
 40
0.3750000000000241
 40
0.3750000000000241
 40
0.5000000000000333
 40
0.5000000000000333
 40
0.7500000000000167
 40
0.7500000000000167
 40
1.0
 40
1.0
 40
1.0
 40
1.0
 10
655.55593781128
 20
65.96859152185966
 30
0.0
 10
655.7388758006215
 20
66.06328770131084
 30
0.0
 10
655.9548102016364
 20
66.12173257641277
 30
0.0
 10
656.3263969386577
 20
66.16107460878948
 30
0.0
 10
656.4580711365043
 20
66.16581950773187
 30
0.0
 10
656.7287054678114
 20
66.15967043705567
 30
0.0
 10
656.8686812068498
 20
66.14890763135547
 30
0.0
 10
657.3022176848756
 20
66.09513036412207
 30
0.0
 10
657.6138672121888
 20
66.02930961024425
 30
0.0
 10
658.242024630098
 20
65.85090842679736
 30
0.0
 10
658.5605018134107
 20
65.73872490177118
 30
0.0
 10
658.8834346739843
 20
65.60409267280956
 30
0.0
  0
LINE
  5
172
330
1F
100
AcDbEntity
  8
0
  6
Continuous
 62
   142
420
    32960
370
     0
100
AcDbLine
 10
673.6053774332
 20
62.6131484632
 30
0.0
 11
674.9532442997
 21
62.0049065983
 31
0.0
  0
SPLINE
  5
173
330
1F
100
AcDbEntity
  8
0
  6
Continuous
 62
   142
420
    32960
370
     0
100
AcDbSpline
210
0.0
220
0.0
230
1.0
 70
     8
 71
     3
 72
     8
 73
     4
 74
     0
 42
0.00000001
 43
0.00000001
 40
0.0
 40
0.0
 40
0.0
 40
0.0
 40
1.0
 40
1.0
 40
1.0
 40
1.0
 10
656.2116422402624
 20
70.49438118889387
 30
0.0
 10
662.0148953754166
 20
67.87893157492506
 30
0.0
 10
667.814875533651
 20
65.25635685911435
 30
0.0
 10
673.6053774331723
 20
62.61314846324093
 30
0.0
  0
SPLINE
  5
174
330
1F
100
AcDbEntity
  8
0
  6
Continuous
 62
   142
420
    32960
370
     0
100
AcDbSpline
210
0.0
220
0.0
230
1.0
 70
     8
 71
     3
 72
    10
 73
     6
 74
     0
 42
0.00000001
 43
0.00000001
 40
0.0
 40
0.0
 40
0.0
 40
0.0
 40
0.5
 40
0.5
 40
1.0
 40
1.0
 40
1.0
 40
1.0
 10
656.2116422402624
 20
70.49438118889387
 30
0.0
 10
656.1540415127442
 20
70.52034107674346
 30
0.0
 10
656.0992909883738
 20
70.54526696322772
 30
0.0
 10
656.0213228016319
 20
70.58095715195795
 30
0.0
 10
655.9988256564156
 20
70.59135567443678
 30
0.0
 10
655.9988387564688
 20
70.59138478566621
 30
0.0
  0
SPLINE
  5
175
330
1F
100
AcDbEntity
  8
0
  6
Continuous
 62
     7
370
    15
100
AcDbSpline
210
0.0
220
0.0
230
1.0
 70
     8
 71
     3
 72
    10
 73
     6
 74
     0
 42
0.00000001
 43
0.00000001
 40
0.0
 40
0.0
 40
0.0
 40
0.0
 40
0.5
 40
0.5
 40
1.0
 40
1.0
 40
1.0
 40
1.0
 10
658.4905224030928
 20
20.13806000119423
 30
0.0
 10
661.1766877095012
 20
21.23714023567166
 30
0.0
 10
663.8600891366973
 20
22.3539087099196
 30
0.0
 10
669.2183298328165
 20
24.62996456549607
 30
0.0
 10
671.8933173746102
 20
25.78890149504087
 30
0.0
 10
674.560332028842
 20
26.9778237737622
 30
0.0
  0
ARC
  5
176
330
1F
100
AcDbEntity
  8
0
  6
Continuous
 62
   142
420
    32960
370
     0
100
AcDbCircle
 10
669.5193252766
 20
24.4229299601
 30
0.0
 40
5.651480467569523
100
AcDbArc
 50
15.9496313682
 51
26.8769008127
  0
SPLINE
  5
177
330
1F
100
AcDbEntity
  8
0
  6
Continuous
 62
     7
370
    15
100
AcDbSpline
210
0.0
220
0.0
230
1.0
 70
     8
 71
     3
 72
    10
 73
     6
 74
     0
 42
0.00000001
 43
0.00000001
 40
0.0
 40
0.0
 40
0.0
 40
0.0
 40
0.5
 40
0.5
 40
1.0
 40
1.0
 40
1.0
 40
1.0
 10
674.560332028842
 20
57.61531766833625
 30
0.0
 10
671.8933173746102
 20
58.80423994705755
 30
0.0
 10
669.2183298328165
 20
59.96317687660238
 30
0.0
 10
663.8600891366971
 20
62.23923273217882
 30
0.0
 10
661.1766877095012
 20
63.35600120642679
 30
0.0
 10
658.4905224030928
 20
64.45508144090422
 30
0.0
  0
ARC
  5
178
330
1F
100
AcDbEntity
  8
0
  6
Continuous
 62
   142
420
    32960
370
     0
100
AcDbCircle
 10
669.5193252766
 20
60.170211482
 30
0.0
 40
5.651480467569526
100
AcDbArc
 50
333.1230991873
 51
344.0503686318
  0
ARC
  5
179
330
1F
100
AcDbEntity
  8
0
  6
Continuous
 62
   142
420
    32960
370
     0
100
AcDbCircle
 10
654.7620255015
 20
66.371751666
 30
0.0
 40
4.192292200787971
100
AcDbArc
 50
332.794127652
 51
349.4489224795
  0
LINE
  5
17A
330
1F
100
AcDbEntity
  8
0
  6
Continuous
 62
     7
370
    15
100
AcDbLine
 10
674.5603320288
 20
26.9778237738
 30
0.0
 11
674.5603320288
 21
57.6153176683
 31
0.0
  0
LINE
  5
17B
330
1F
100
AcDbEntity
  8
0
  6
Continuous
 62
     7
370
    15
100
AcDbLine
 10
675.5428796224
 20
57.8642357282
 30
0.0
 11
675.5428796224
 21
26.7289057139
 31
0.0
  0
ARC
  5
17C
330
1F
100
AcDbEntity
  8
0
  6
Continuous
 62
   142
420
    32960
370
     0
100
AcDbCircle
 10
674.787025939
 20
58.7841458014
 30
0.0
 40
1.190608807907435
100
AcDbArc
 50
259.0237736414
 51
309.4085911735
  0
ARC
  5
17D
330
1F
100
AcDbEntity
  8
0
  6
Continuous
 62
   142
420
    32960
370
     0
100
AcDbCircle
 10
674.787025939
 20
25.8089956407
 30
0.0
 40
1.190608807907809
100
AcDbArc
 50
50.5914088265
 51
100.9762263586
  0
LINE
  5
17E
330
1F
100
AcDbEntity
  8
0
  6
Continuous
 62
     7
370
    15
100
AcDbLine
 10
675.5428796224
 20
61.090219493
 30
0.0
 11
675.5428796224
 21
57.8642357282
 31
0.0
  0
SPLINE
  5
17F
330
1F
100
AcDbEntity
  8
0
  6
Continuous
 62
   142
420
    32960
370
     0
100
AcDbSpline
210
0.0
220
0.0
230
1.0
 70
     8
 71
     3
 72
    10
 73
     6
 74
     0
 42
0.00000001
 43
0.00000001
 40
0.0
 40
0.0
 40
0.0
 40
0.0
 40
0.5
 40
0.5
 40
1.0
 40
1.0
 40
1.0
 40
1.0
 10
674.9532442997335
 20
62.00490659829067
 30
0.0
 10
675.1294964373302
 20
61.92536374771232
 30
0.0
 10
675.2788385192523
 20
61.79574121301123
 30
0.0
 10
675.4860116624069
 20
61.47463483253082
 30
0.0
 10
675.5428796224048
 20
61.28357520325314
 30
0.0
 10
675.5428796224047
 20
61.09021949296351
 30
0.0
  0
ARC
  5
180
330
1F
100
AcDbEntity
  8
0
  6
Continuous
 62
   142
420
    32960
370
     0
100
AcDbCircle
 10
674.7083976821
 20
57.8181451061
 30
0.0
 40
0.8357538238406717
100
AcDbArc
 50
3.1613837537
 51
72.9644501975
  0
LINE
  5
181
330
1F
100
AcDbEntity
  8
0
  6
Continuous
 62
     7
370
    15
100
AcDbLine
 10
675.5428796224
 20
26.7289057139
 30
0.0
 11
675.5428796224
 21
23.443156331
 31
0.0
  0
ARC
  5
182
330
1F
100
AcDbEntity
  8
0
  6
Continuous
 62
   142
420
    32960
370
     0
100
AcDbCircle
 10
674.7083976821
 20
26.774996336
 30
0.0
 40
0.8357538238411434
100
AcDbArc
 50
287.0355498025
 51
356.8386162463
  0
LINE
  5
183
330
1F
100
AcDbEntity
  8
0
  6
Continuous
 62
     7
370
    15
100
AcDbLine
 10
638.9428796224
 20
12.390554051
 30
0.0
 11
640.5428796224
 21
12.390554051
 31
0.0
  0
SPLINE
  5
184
330
1F
100
AcDbEntity
  8
0
  6
Continuous
 62
   142
420
    32960
370
     0
100
AcDbSpline
210
0.0
220
0.0
230
1.0
 70
    24
 71
     3
 72
     8
 73
     4
 74
     0
 42
0.00000001
 43
0.00000001
 40
5.0
 40
5.0
 40
5.0
 40
5.0
 40
6.0
 40
6.0
 40
6.0
 40
6.0
 10
640.5428796224019
 20
10.39657072105066
 30
0.0
 10
640.5428796224019
 20
10.39416928106199
 30
0.0
 10
640.5428796224019
 20
11.29138282722072
 30
0.0
 10
640.5428796224019
 20
12.3905540509576
 30
0.0
  0
LINE
  5
185
330
1F
100
AcDbEntity
  8
0
  6
Continuous
 62
     7
370
    15
100
AcDbLine
 10
638.9428796224
 20
10.3965707211
 30
0.0
 11
640.5428796224
 21
10.3965707211
 31
0.0
  0
LINE
  5
186
330
1F
100
AcDbEntity
  8
0
  6
Continuous
 62
     7
370
    15
100
AcDbLine
 10
638.9428796224
 20
68.4021928413
 30
0.0
 11
640.5428796224
 21
68.4021928413
 31
0.0
  0
LINE
  5
187
330
1F
100
AcDbEntity
  8
0
  6
Continuous
 62
     7
370
    15
100
AcDbLine
 10
638.9428796224
 20
70.3965707211
 30
0.0
 11
640.5428796224
 21
70.3965707211
 31
0.0
  0
SPLINE
  5
188
330
1F
100
AcDbEntity
  8
0
  6
Continuous
 62
   142
420
    32960
370
     0
100
AcDbSpline
210
0.0
220
0.0
230
1.0
 70
    24
 71
     3
 72
     8
 73
     4
 74
     0
 42
0.00000001
 43
0.00000001
 40
7.0
 40
7.0
 40
7.0
 40
7.0
 40
8.0
 40
8.0
 40
8.0
 40
8.0
 10
640.5428796224019
 20
68.40219284132412
 30
0.0
 10
640.5428796224019
 20
69.50136406609731
 30
0.0
 10
640.5428796224019
 20
70.39897168700007
 30
0.0
 10
640.5428796224019
 20
70.39657072105065
 30
0.0
  0
LINE
  5
189
330
1F
100
AcDbEntity
  8
0
  6
Continuous
 62
     7
370
    15
100
AcDbLine
 10
581.3425837631
 20
104.4465707211
 30
0.0
 11
639.9866530639
 21
104.4465707211
 31
0.0
  0
LINE
  5
18A
330
1F
100
AcDbEntity
  8
0
  6
Continuous
 62
     7
370
    15
100
AcDbLine
 10
579.3425837631
 20
104.4465707211
 30
0.0
 11
581.3425837631
 21
104.4465707211
 31
0.0
  0
LINE
  5
18B
330
1F
100
AcDbEntity
  8
0
  6
Continuous
 62
     7
370
    15
100
AcDbLine
 10
581.3425837631
 20
104.4465707211
 30
0.0
 11
581.3425837631
 21
103.6465707211
 31
0.0
  0
LINE
  5
18C
330
1F
100
AcDbEntity
  8
0
  6
Continuous
 62
     7
370
    15
100
AcDbLine
 10
581.3425837631
 20
103.6465707211
 30
0.0
 11
579.3425837631
 21
103.6465707211
 31
0.0
  0
LINE
  5
18D
330
1F
100
AcDbEntity
  8
0
  6
Continuous
 62
   142
420
    32960
370
     0
100
AcDbLine
 10
579.3425837631
 20
103.6465707211
 30
0.0
 11
579.3425837631
 21
104.4465707211
 31
0.0
  0
LINE
  5
18E
330
1F
100
AcDbEntity
  8
0
  6
Continuous
 62
     7
370
    15
100
AcDbLine
 10
581.3425837631
 20
103.6465707211
 30
0.0
 11
639.9866530639
 21
103.6465707211
 31
0.0
  0
LINE
  5
18F
330
1F
100
AcDbEntity
  8
0
  6
Continuous
 62
     7
370
    15
100
AcDbLine
 10
639.9866530639
 20
103.6465707211
 30
0.0
 11
639.9866530639
 21
104.4465707211
 31
0.0
  0
LINE
  5
190
330
1F
100
AcDbEntity
  8
0
  6
Continuous
 62
     7
370
    15
100
AcDbLine
 10
623.0946821779
 20
149.4085821869
 30
0.0
 11
598.7705652244
 21
224.2705164912
 31
0.0
  0
LINE
  5
191
330
1F
100
AcDbEntity
  8
0
  6
Continuous
 62
   142
420
    32960
370
     0
100
AcDbLine
 10
598.3772613411
 20
225.4809813777
 30
0.0
 11
598.7144367273
 21
224.4432622426
 31
0.0
  0
LINE
  5
192
330
1F
100
AcDbEntity
  8
0
  6
Continuous
 62
     7
370
    15
100
AcDbLine
 10
623.8555273909
 20
149.6557957824
 30
0.0
 11
599.5314104374
 21
224.5177300867
 31
0.0
  0
LINE
  5
193
330
1F
100
AcDbEntity
  8
0
  6
Continuous
 62
   142
420
    32960
370
     0
100
AcDbLine
 10
598.7705652244
 20
224.2705164912
 30
0.0
 11
599.5314104374
 21
224.5177300867
 31
0.0
  0
LINE
  5
194
330
1F
100
AcDbEntity
  8
0
  6
Continuous
 62
   142
420
    32960
370
     0
100
AcDbLine
 10
623.0946821779
 20
149.4085821869
 30
0.0
 11
623.8555273909
 21
149.6557957824
 31
0.0
  0
LINE
  5
195
330
1F
100
AcDbEntity
  8
0
  6
Continuous
 62
   142
420
    32960
370
     0
100
AcDbLine
 10
599.1381065542
 20
225.7281949732
 30
0.0
 11
599.5314104374
 21
224.5177300867
 31
0.0
  0
ARC
  5
196
330
1F
100
AcDbEntity
  8
0
  6
Continuous
 62
   142
420
    32960
370
     0
100
AcDbCircle
 10
597.581744579
 20
223.8842452482
 30
0.0
 40
2.049999999999898
100
AcDbArc
 50
18.0
 51
90.0
  0
ARC
  5
197
330
1F
100
AcDbEntity
  8
0
  6
Continuous
 62
   142
420
    32960
370
     0
100
AcDbCircle
 10
633.3660925539
 20
152.7459657262
 30
0.0
 40
10.80000000000004
100
AcDbArc
 50
198.0
 51
250.0
  0
LINE
  5
198
330
1F
100
AcDbEntity
  8
0
  6
Continuous
 62
     7
370
    15
100
AcDbLine
 10
649.1226677664
 20
135.5179214121
 30
0.0
 11
649.396283881
 21
136.2696755087
 31
0.0
  0
LINE
  5
199
330
1F
100
AcDbEntity
  8
0
  6
Continuous
 62
     7
370
    15
100
AcDbLine
 10
649.1226677664
 20
135.5179214121
 30
0.0
 11
629.672275006
 21
142.5972854217
 31
0.0
  0
LINE
  5
19A
330
1F
100
AcDbEntity
  8
0
  6
Continuous
 62
     7
370
    15
100
AcDbLine
 10
649.396283881
 20
136.2696755087
 30
0.0
 11
629.9458911206
 21
143.3490395183
 31
0.0
  0
LINE
  5
19B
330
1F
100
AcDbEntity
  8
0
  6
Continuous
 62
   142
420
    32960
370
     0
100
AcDbLine
 10
629.9458911206
 20
143.3490395183
 30
0.0
 11
629.672275006
 21
142.5972854217
 31
0.0
  0
ARC
  5
19C
330
1F
100
AcDbEntity
  8
0
  6
Continuous
 62
   142
420
    32960
370
     0
100
AcDbCircle
 10
633.3660925539
 20
152.7459657262
 30
0.0
 40
10.00000000000009
100
AcDbArc
 50
198.0
 51
250.0
  0
ARC
  5
19D
330
1F
100
AcDbEntity
  8
0
  6
Continuous
 62
     7
370
    15
100
AcDbCircle
 10
639.9866530639
 20
105.6965707211
 30
0.0
 40
1.250000000000069
100
AcDbArc
 50
270.0
 51
320.0
  0
LINE
  5
19E
330
1F
100
AcDbEntity
  8
0
  6
Continuous
 62
     7
370
    15
100
AcDbLine
 10
640.9442086178
 20
104.8930862089
 30
0.0
 11
641.5570441723
 21
104.3788561212
 31
0.0
  0
ARC
  5
19F
330
1F
100
AcDbEntity
  8
0
  6
Continuous
 62
     7
370
    15
100
AcDbCircle
 10
639.9866530639
 20
105.6965707211
 30
0.0
 40
2.050000000000071
100
AcDbArc
 50
270.0
 51
320.0
  0
LINE
  5
1A0
330
1F
100
AcDbEntity
  8
0
  6
Continuous
 62
     7
370
    15
100
AcDbLine
 10
640.9442086178
 20
104.8930862089
 30
0.0
 11
653.3629107643
 21
119.6931191074
 31
0.0
  0
LINE
  5
1A1
330
1F
100
AcDbEntity
  8
0
  6
Continuous
 62
     7
370
    15
100
AcDbLine
 10
653.9757463188
 20
119.1788890196
 30
0.0
 11
653.3629107643
 21
119.6931191074
 31
0.0
  0
LINE
  5
1A2
330
1F
100
AcDbEntity
  8
0
  6
Continuous
 62
     7
370
    15
100
AcDbLine
 10
641.5570441723
 20
104.3788561212
 30
0.0
 11
653.9757463188
 21
119.1788890196
 31
0.0
  0
ARC
  5
1A3
330
1F
100
AcDbEntity
  8
0
  6
Continuous
 62
     7
370
    15
100
AcDbCircle
 10
645.7024663331
 20
126.1209952042
 30
0.0
 40
10.8
100
AcDbArc
 50
320.0
 51
70.0
  0
ARC
  5
1A4
330
1F
100
AcDbEntity
  8
0
  6
Continuous
 62
     7
370
    15
100
AcDbCircle
 10
645.7024663331
 20
126.1209952042
 30
0.0
 40
10.0
100
AcDbArc
 50
320.0
 51
70.0
  0
LWPOLYLINE
  5
1A5
330
1F
100
AcDbEntity
  8
0
  6
Continuous
 62
   142
420
    32960
370
     0
100
AcDbPolyline
 90
        3
 70
   128
 43
0.0
 10
599.0778210236
 20
226.1617288987
 10
599.0874438827
 20
225.9526604459
 10
599.1381065542
 20
225.7281949732
  0
ARC
  5
1A6
330
1F
100
AcDbEntity
  8
0
  6
Continuous
 62
   142
420
    32960
370
     0
100
AcDbCircle
 10
597.581744579
 20
223.8842452482
 30
0.0
 40
1.2499999999999
100
AcDbArc
 50
26.3551444684
 51
81.6448555316
  0
LINE
  5
1A7
330
1F
100
AcDbEntity
  8
0
  6
Continuous
 62
   142
420
    32960
370
     0
100
AcDbLine
 10
675.0428796224
 20
58.5793313122
 30
0.0
 11
675.0428796224
 21
57.6486335276
 31
0.0
  0
LINE
  5
1A8
330
1F
100
AcDbEntity
  8
0
  6
Continuous
 62
   142
420
    32960
370
     0
100
AcDbLine
 10
675.0428796224
 20
26.9445079145
 30
0.0
 11
675.0428796224
 21
26.0138101299
 31
0.0
  0
LINE
  5
1A9
330
1F
100
AcDbEntity
  8
0
  6
Continuous
 62
     7
370
    15
100
AcDbLine
 10
-5.4571203776
 20
-23.9657547518
 30
0.0
 11
-5.4571203776
 21
-22.2657547518
 31
0.0
  0
LINE
  5
1AA
330
1F
100
AcDbEntity
  8
0
  6
Continuous
 62
     7
370
    15
100
AcDbLine
 10
-95.4571203776
 20
-23.9657547518
 30
0.0
 11
-5.4571203776
 21
-23.9657547518
 31
0.0
  0
LINE
  5
1AB
330
1F
100
AcDbEntity
  8
0
  6
Continuous
 62
     7
370
    15
100
AcDbLine
 10
-95.4571203776
 20
-23.9657547518
 30
0.0
 11
-95.4571203776
 21
-22.2657547518
 31
0.0
  0
LINE
  5
1AC
330
1F
100
AcDbEntity
  8
0
  6
Continuous
 62
     7
370
    15
100
AcDbLine
 10
-50.4571203776
 20
-86.9657547518
 30
0.0
 11
-81.4167705979
 21
-86.9657547518
 31
0.0
  0
LINE
  5
1AD
330
1F
100
AcDbEntity
  8
0
  6
Continuous
 62
     7
370
    15
100
AcDbLine
 10
-19.4974701573
 20
-86.9657547518
 30
0.0
 11
-50.4571203776
 21
-86.9657547518
 31
0.0
  0
ARC
  5
1AE
330
1F
100
AcDbEntity
  8
0
  6
Continuous
 62
     7
370
    15
100
AcDbCircle
 10
615.0651034435
 20
200.9804486815
 30
0.0
 40
24.50000000000012
100
AcDbArc
 50
18.0
 51
108.0
  0
LINE
  5
1AF
330
1F
100
AcDbEntity
  8
0
  6
Continuous
 62
     7
370
    15
100
AcDbLine
 10
638.3659880927
 20
208.5513650437
 30
0.0
 11
636.9394033183
 21
208.0878395521
 31
0.0
  0
ARC
  5
1B0
330
1F
100
AcDbEntity
  8
0
  6
Continuous
 62
     7
370
    15
100
AcDbCircle
 10
615.0651034435
 20
200.9804486815
 30
0.0
 40
23.0000000000001
100
AcDbArc
 50
18.0
 51
108.0
  0
LINE
  5
1B1
330
1F
100
AcDbEntity
  8
0
  6
Continuous
 62
   142
420
    32960
370
     0
100
AcDbLine
 10
607.9577125729
 20
222.8547485563
 30
0.0
 11
607.4941870813
 21
224.2813333308
 31
0.0
  0
LINE
  5
1B2
330
1F
100
AcDbEntity
  8
0
  6
Continuous
 62
   142
420
    32960
370
     0
100
AcDbLine
 10
603.4401941205
 20
221.386917833
 30
0.0
 11
607.9577125729
 21
222.8547485563
 31
0.0
  0
ARC
  5
1B3
330
1F
100
AcDbEntity
  8
0
  6
Continuous
 62
   142
420
    32960
370
     0
100
AcDbCircle
 10
603.8264653634
 20
220.1980971877
 30
0.0
 40
1.250000000000049
100
AcDbArc
 50
108.0
 51
198.0
  0
LINE
  5
1B4
330
1F
100
AcDbEntity
  8
0
  6
Continuous
 62
     7
370
    15
100
AcDbLine
 10
622.3374781095
 20
159.1819730309
 30
0.0
 11
602.6376447181
 21
219.8118259447
 31
0.0
  0
LINE
  5
1B5
330
1F
100
AcDbEntity
  8
0
  6
Continuous
 62
   142
420
    32960
370
     0
100
AcDbLine
 10
620.910893335
 20
158.7184475393
 30
0.0
 11
622.3374781095
 21
159.1819730309
 31
0.0
  0
LINE
  5
1B6
330
1F
100
AcDbEntity
  8
0
  6
Continuous
 62
   142
420
    32960
370
     0
100
AcDbLine
 10
602.6376447181
 20
219.8118259447
 30
0.0
 11
601.2110599436
 21
219.3483004531
 31
0.0
  0
LINE
  5
1B7
330
1F
100
AcDbEntity
  8
0
  6
Continuous
 62
   142
420
    32960
370
     0
100
AcDbLine
 10
622.3374781095
 20
159.1819730309
 30
0.0
 11
623.8825630813
 21
154.4266904494
 31
0.0
  0
LINE
  5
1B8
330
1F
100
AcDbEntity
  8
0
  6
Continuous
 62
     7
370
    15
100
AcDbLine
 10
640.5291070533
 20
201.8939694296
 30
0.0
 11
643.6192769971
 21
192.3834042667
 31
0.0
  0
LINE
  5
1B9
330
1F
100
AcDbEntity
  8
0
  6
Continuous
 62
     7
370
    15
100
AcDbLine
 10
638.3659880927
 20
208.5513650437
 30
0.0
 11
640.5291070533
 21
201.8939694296
 31
0.0
  0
LINE
  5
1BA
330
1F
100
AcDbEntity
  8
0
  6
Continuous
 62
     7
370
    15
100
AcDbLine
 10
639.1025222789
 20
201.4304439381
 30
0.0
 11
640.5291070533
 21
201.8939694296
 31
0.0
  0
LINE
  5
1BB
330
1F
100
AcDbEntity
  8
0
  6
Continuous
 62
     7
370
    15
100
AcDbLine
 10
643.6192769971
 20
192.3834042667
 30
0.0
 11
642.1926922226
 21
191.9198787751
 31
0.0
  0
LINE
  5
1BC
330
1F
100
AcDbEntity
  8
0
  6
Continuous
 62
   142
420
    32960
370
     0
100
AcDbLine
 10
642.1926922226
 20
191.9198787751
 30
0.0
 11
639.1025222789
 21
201.4304439381
 31
0.0
  0
LINE
  5
1BD
330
1F
100
AcDbEntity
  8
0
  6
Continuous
 62
   142
420
    32960
370
     0
100
AcDbLine
 10
636.9394033183
 20
208.0878395521
 30
0.0
 11
639.1025222789
 21
201.4304439381
 31
0.0
  0
LINE
  5
1BE
330
1F
100
AcDbEntity
  8
0
  6
Continuous
 62
   142
420
    32960
370
     0
100
AcDbLine
 10
622.4559783069
 20
153.9631649578
 30
0.0
 11
623.8825630813
 21
154.4266904494
 31
0.0
  0
LINE
  5
1BF
330
1F
100
AcDbEntity
  8
0
  6
Continuous
 62
     7
370
    15
100
AcDbLine
 10
-50.4571203776
 20
-121.9657547518
 30
0.0
 11
-76.9571203776
 21
-121.9657547518
 31
0.0
  0
LINE
  5
1C0
330
1F
100
AcDbEntity
  8
0
  6
Continuous
 62
     7
370
    15
100
AcDbLine
 10
-23.9571203776
 20
-121.9657547518
 30
0.0
 11
-50.4571203776
 21
-121.9657547518
 31
0.0
  0
LINE
  5
1C1
330
1F
100
AcDbEntity
  8
0
  6
Continuous
 62
     7
370
    15
100
AcDbLine
 10
-50.4571203776
 20
-115.9657547518
 30
0.0
 11
-78.9571203776
 21
-115.9657547518
 31
0.0
  0
LINE
  5
1C2
330
1F
100
AcDbEntity
  8
0
  6
Continuous
 62
     7
370
    15
100
AcDbLine
 10
-21.9571203776
 20
-115.9657547518
 30
0.0
 11
-50.4571203776
 21
-115.9657547518
 31
0.0
  0
LINE
  5
1C3
330
1F
100
AcDbEntity
  8
0
  6
Continuous
 62
     7
370
    15
100
AcDbLine
 10
-126.509774335
 20
479.8245151082
 30
0.0
 11
-93.2128220138
 21
470.9026236233
 31
0.0
  0
LINE
  5
1C4
330
1F
100
AcDbEntity
  8
0
  6
Continuous
 62
     7
370
    15
100
AcDbLine
 10
-126.4074162369
 20
468.642732124
 30
0.0
 11
-127.9574162369
 21
468.642732124
 31
0.0
  0
LINE
  5
1C5
330
1F
100
AcDbEntity
  8
0
  6
Continuous
 62
     7
370
    15
100
AcDbLine
 10
-75.9074162369
 20
259.3342452482
 30
0.0
 11
-126.8074162369
 21
259.3342452482
 31
0.0
  0
ARC
  5
1C6
330
1F
100
AcDbEntity
  8
0
  6
Continuous
 62
     7
370
    15
100
AcDbCircle
 10
-99.6574162369
 20
446.8510705487
 30
0.0
 40
24.90000000000007
100
AcDbArc
 50
0.0
 51
75.0
  0
LINE
  5
1C7
330
1F
100
AcDbEntity
  8
0
  6
Continuous
 62
     7
370
    15
100
AcDbLine
 10
-75.9074162369
 20
446.3510705487
 30
0.0
 11
-75.9074162369
 21
259.3342452482
 31
0.0
  0
LINE
  5
1C8
330
1F
100
AcDbEntity
  8
0
  6
Continuous
 62
     7
370
    15
100
AcDbLine
 10
-126.8074162369
 20
468.242732124
 30
0.0
 11
-126.8074162369
 21
259.3342452482
 31
0.0
  0
ARC
  5
1C9
330
1F
100
AcDbEntity
  8
0
  6
Continuous
 62
     7
370
    15
100
AcDbCircle
 10
-102.9574162369
 20
457.9845370698
 30
0.0
 40
2.600000000000033
100
AcDbArc
 50
190.4998591652
 51
349.5001408348
  0
ARC
  5
1CA
330
1F
100
AcDbEntity
  8
0
  6
Continuous
 62
     7
370
    15
100
AcDbCircle
 10
-105.7628571732
 20
457.4845370698
 30
0.0
 40
0.2503511010932321
100
AcDbArc
 50
6.0057764949
 51
190.1054407084
  0
ARC
  5
1CB
330
1F
100
AcDbEntity
  8
0
  6
Continuous
 62
     7
370
    15
100
AcDbCircle
 10
-102.9574162369
 20
457.9845370698
 30
0.0
 40
2.600000000000022
100
AcDbArc
 50
11.299052931
 51
168.6851502045
  0
ARC
  5
1CC
330
1F
100
AcDbEntity
  8
0
  6
Continuous
 62
   142
420
    32960
370
     0
100
AcDbCircle
 10
-105.7556992646
 20
458.5228497468
 30
0.0
 40
0.2504090746769468
100
AcDbArc
 50
169.1108926947
 51
353.5357377927
  0
ARC
  5
1CD
330
1F
100
AcDbEntity
  8
0
  6
Continuous
 62
   142
420
    32960
370
     0
100
AcDbCircle
 10
-102.9574162369
 20
457.9845370698
 30
0.0
 40
3.100000000000012
100
AcDbArc
 50
10.8889929003
 51
169.1108926947
  0
ARC
  5
1CE
330
1F
100
AcDbEntity
  8
0
  6
Continuous
 62
   142
420
    32960
370
     0
100
AcDbCircle
 10
-100.1591030889
 20
458.5228497468
 30
0.0
 40
0.250379496815782
100
AcDbArc
 50
186.6269392398
 51
10.8889929003
  0
ARC
  5
1CF
330
1F
100
AcDbEntity
  8
0
  6
Continuous
 62
   142
420
    32960
370
     0
100
AcDbCircle
 10
-100.1519753006
 20
457.4845370698
 30
0.0
 40
0.2503511010932521
100
AcDbArc
 50
349.8945592916
 51
173.994223505
  0
ARC
  5
1D0
330
1F
100
AcDbEntity
  8
0
  6
Continuous
 62
   142
420
    32960
370
     0
100
AcDbCircle
 10
-102.9574162369
 20
457.9845370698
 30
0.0
 40
3.100000000000012
100
AcDbArc
 50
190.1054407084
 51
349.8945592916
  0
LINE
  5
1D1
330
1F
100
AcDbEntity
  8
0
  6
Continuous
 62
   142
420
    32960
370
     0
100
AcDbLine
 10
-126.4074162369
 20
468.242732124
 30
0.0
 11
-126.4074162369
 21
468.642732124
 31
0.0
  0
LINE
  5
1D2
330
1F
100
AcDbEntity
  8
0
  6
Continuous
 62
   142
420
    32960
370
     0
100
AcDbLine
 10
-126.8074162369
 20
468.242732124
 30
0.0
 11
-126.4074162369
 21
468.242732124
 31
0.0
  0
LINE
  5
1D3
330
1F
100
AcDbEntity
  8
0
  6
Continuous
 62
   142
420
    32960
370
     0
100
AcDbLine
 10
-75.9574162369
 20
446.3510705487
 30
0.0
 11
-75.9074162369
 21
446.3510705487
 31
0.0
  0
LINE
  5
1D4
330
1F
100
AcDbEntity
  8
0
  6
Continuous
 62
   142
420
    32960
370
     0
100
AcDbLine
 10
-75.9574162369
 20
446.8510705487
 30
0.0
 11
-75.9574162369
 21
446.3510705487
 31
0.0
  0
LINE
  5
1D5
330
1F
100
AcDbEntity
  8
0
  6
Continuous
 62
   142
420
    32960
370
     0
100
AcDbLine
 10
-74.7574162369
 20
446.8510705487
 30
0.0
 11
-75.9574162369
 21
446.8510705487
 31
0.0
  0
ARC
  5
1D6
330
1F
100
AcDbEntity
  8
0
  6
Continuous
 62
   142
420
    32960
370
     0
100
AcDbCircle
 10
-126.8074162369
 20
478.713700408
 30
0.0
 40
1.150000000000056
100
AcDbArc
 50
75.0
 51
180.0
  0
LINE
  5
1D7
330
1F
100
AcDbEntity
  8
0
  6
Continuous
 62
   142
420
    32960
370
     0
100
AcDbLine
 10
-127.9574162369
 20
468.642732124
 30
0.0
 11
-127.9574162369
 21
478.713700408
 31
0.0
  0
LINE
  5
1D8
330
1F
100
AcDbEntity
  8
0
  6
Continuous
 62
     7
370
    15
100
AcDbLine
 10
-126.8074162369
 20
259.3342452482
 30
0.0
 11
-128.8574162369
 21
259.3342452482
 31
0.0
  0
LINE
  5
1D9
330
1F
100
AcDbEntity
  8
0
  6
Continuous
 62
     7
370
    15
100
AcDbLine
 10
-128.8574162369
 20
259.3342452482
 30
0.0
 11
-128.8574162369
 21
468.242732124
 31
0.0
  0
LINE
  5
1DA
330
1F
100
AcDbEntity
  8
0
  6
Continuous
 62
   142
420
    32960
370
     0
100
AcDbLine
 10
-128.8574162369
 20
468.242732124
 30
0.0
 11
-126.8074162369
 21
468.242732124
 31
0.0
  0
LINE
  5
1DB
330
1F
100
AcDbEntity
  8
0
  6
Continuous
 62
     7
370
    15
100
AcDbLine
 10
-73.8574162369
 20
259.3342452482
 30
0.0
 11
-75.9074162369
 21
259.3342452482
 31
0.0
  0
LINE
  5
1DC
330
1F
100
AcDbEntity
  8
0
  6
Continuous
 62
     7
370
    15
100
AcDbLine
 10
-73.8574162369
 20
446.3510705487
 30
0.0
 11
-73.8574162369
 21
259.3342452482
 31
0.0
  0
LINE
  5
1DD
330
1F
100
AcDbEntity
  8
0
  6
Continuous
 62
   142
420
    32960
370
     0
100
AcDbLine
 10
-75.9074162369
 20
446.3510705487
 30
0.0
 11
-73.8574162369
 21
446.3510705487
 31
0.0
  0
LINE
  5
1DE
330
1F
100
AcDbEntity
  8
0
  6
Continuous
 62
     7
370
    15
100
AcDbLine
 10
-126.2768371944
 20
480.6938483519
 30
0.0
 11
-92.9798848732
 21
471.771956867
 31
0.0
  0
LINE
  5
1DF
330
1F
100
AcDbEntity
  8
0
  6
Continuous
 62
     7
370
    15
100
AcDbLine
 10
-126.2768371944
 20
480.6938483519
 30
0.0
 11
-126.4838924305
 21
479.9211076908
 31
0.0
  0
LINE
  5
1E0
330
1F
100
AcDbEntity
  8
0
  6
Continuous
 62
     7
370
    15
100
AcDbLine
 10
-93.1869401093
 20
470.9992162059
 30
0.0
 11
-92.9798848732
 21
471.771956867
 31
0.0
  0
LINE
  5
1E1
330
1F
100
AcDbEntity
  8
0
  6
Continuous
 62
     7
370
    15
100
AcDbLine
 10
-126.4838924305
 20
479.9211076908
 30
0.0
 11
-93.1869401093
 21
470.9992162059
 31
0.0
  0
LINE
  5
1E2
330
1F
100
AcDbEntity
  8
0
  6
Continuous
 62
   142
420
    32960
370
     0
100
AcDbLine
 10
-128.8574162369
 20
468.342732124
 30
0.0
 11
-128.8574162369
 21
478.713700408
 31
0.0
  0
ARC
  5
1E3
330
1F
100
AcDbEntity
  8
0
  6
Continuous
 62
     7
370
    15
100
AcDbCircle
 10
-126.8074162369
 20
478.713700408
 30
0.0
 40
2.050000000000042
100
AcDbArc
 50
75.0
 51
180.0
  0
LINE
  5
1E4
330
1F
100
AcDbEntity
  8
0
  6
Continuous
 62
   142
420
    32960
370
     0
100
AcDbLine
 10
-128.0574162369
 20
478.713700408
 30
0.0
 11
-128.8574162369
 21
478.713700408
 31
0.0
  0
ARC
  5
1E5
330
1F
100
AcDbEntity
  8
0
  6
Continuous
 62
   142
420
    32960
370
     0
100
AcDbCircle
 10
-126.8074162369
 20
478.713700408
 30
0.0
 40
1.250000000000028
100
AcDbArc
 50
75.0
 51
180.0
  0
LINE
  5
1E6
330
1F
100
AcDbEntity
  8
0
  6
Continuous
 62
   142
420
    32960
370
     0
100
AcDbLine
 10
-128.8574162369
 20
468.342732124
 30
0.0
 11
-128.0574162369
 21
468.342732124
 31
0.0
  0
ARC
  5
1E7
330
1F
100
AcDbEntity
  8
0
  6
Continuous
 62
     7
370
    15
100
AcDbCircle
 10
-99.6574162369
 20
446.8510705487
 30
0.0
 40
25.80000000000005
100
AcDbArc
 50
0.0
 51
75.0
  0
ARC
  5
1E8
330
1F
100
AcDbEntity
  8
0
  6
Continuous
 62
     7
370
    15
100
AcDbCircle
 10
-99.6574162369
 20
446.8510705487
 30
0.0
 40
25.00000000000003
100
AcDbArc
 50
0.0
 51
75.0
  0
LINE
  5
1E9
330
1F
100
AcDbEntity
  8
0
  6
Continuous
 62
   142
420
    32960
370
     0
100
AcDbLine
 10
-73.8574162369
 20
446.8510705487
 30
0.0
 11
-74.6574162369
 21
446.8510705487
 31
0.0
  0
LINE
  5
1EA
330
1F
100
AcDbEntity
  8
0
  6
Continuous
 62
   142
420
    32960
370
     0
100
AcDbLine
 10
-73.8574162369
 20
446.8510705487
 30
0.0
 11
-73.8574162369
 21
446.7510705487
 31
0.0
  0
LINE
  5
1EB
330
1F
100
AcDbEntity
  8
0
  6
Continuous
 62
   142
420
    32960
370
     0
100
AcDbLine
 10
-73.8574162369
 20
446.3510705487
 30
0.0
 11
-73.8574162369
 21
446.7510705487
 31
0.0
  0
LINE
  5
1EC
330
1F
100
AcDbEntity
  8
0
  6
Continuous
 62
   142
420
    32960
370
     0
100
AcDbLine
 10
-74.6574162369
 20
446.7510705487
 30
0.0
 11
-74.6574162369
 21
446.3510705487
 31
0.0
  0
LINE
  5
1ED
330
1F
100
AcDbEntity
  8
0
  6
Continuous
 62
   142
420
    32960
370
     0
100
AcDbLine
 10
-74.6574162369
 20
446.8510705487
 30
0.0
 11
-74.6574162369
 21
446.7510705487
 31
0.0
  0
LINE
  5
1EE
330
1F
100
AcDbEntity
  8
0
  6
Continuous
 62
   142
420
    32960
370
     0
100
AcDbLine
 10
578.7425837631
 20
244.5342452482
 30
0.0
 11
578.7425837631
 21
243.4468168072
 31
0.0
  0
LINE
  5
1EF
330
1F
100
AcDbEntity
  8
0
  6
Continuous
 62
   142
420
    32960
370
     0
100
AcDbLine
 10
578.7425837631
 20
242.4550557715
 30
0.0
 11
578.7425837631
 21
242.0842452482
 31
0.0
  0
LINE
  5
1F0
330
1F
100
AcDbEntity
  8
0
  6
Continuous
 62
   142
420
    32960
370
     0
100
AcDbLine
 10
578.7425837631
 20
244.5342452482
 30
0.0
 11
578.6425837631
 21
244.5342452482
 31
0.0
  0
SPLINE
  5
1F1
330
1F
100
AcDbEntity
  8
0
  6
Continuous
 62
   142
420
    32960
370
     0
100
AcDbSpline
210
0.0
220
0.0
230
1.0
 70
     8
 71
     3
 72
    14
 73
    10
 74
     0
 42
0.00000001
 43
0.00000001
 40
0.0
 40
0.0
 40
0.0
 40
0.0
 40
0.25
 40
0.25
 40
0.5
 40
0.5
 40
0.75
 40
0.75
 40
1.0
 40
1.0
 40
1.0
 40
1.0
 10
581.3928796224019
 20
-20.10342927894923
 30
0.0
 10
581.2892888790813
 20
-20.26707495780097
 30
0.0
 10
581.1857248003705
 20
-20.43061413439837
 30
0.0
 10
580.9785699783392
 20
-20.73295300441288
 30
0.0
 10
580.8749925673236
 20
-20.87161267891793
 30
0.0
 10
580.6678377452921
 20
-21.10301283194702
 30
0.0
 10
580.5642603342765
 20
-21.19566226439209
 30
0.0
 10
580.3571055122452
 20
-21.32089512478466
 30
0.0
 10
580.2535414335343
 20
-21.35342927894926
 30
0.0
 10
580.1499506902138
 20
-21.35342927894926
 30
0.0
  0
SPLINE
  5
1F2
330
1F
100
AcDbEntity
  8
0
  6
Continuous
 62
     7
370
    15
100
AcDbSpline
210
0.0
220
0.0
230
1.0
 70
     8
 71
     3
 72
    14
 73
    10
 74
     0
 42
0.00000001
 43
0.00000001
 40
0.0
 40
0.0
 40
0.0
 40
0.0
 40
0.25
 40
0.25
 40
0.5
 40
0.5
 40
0.75
 40
0.75
 40
1.0
 40
1.0
 40
1.0
 40
1.0
 10
580.1499506902138
 20
-22.15342927894923
 30
0.0
 10
580.2535443544537
 20
-22.15342927894923
 30
0.0
 10
580.3571055122452
 20
-22.10007326611932
 30
0.0
 10
580.5642603342765
 20
-21.89469137507552
 30
0.0
 10
580.6678377452921
 20
-21.74274630586556
 30
0.0
 10
580.8749925673236
 20
-21.36325005489784
 30
0.0
 10
580.9785699783392
 20
-21.13584818870964
 30
0.0
 10
581.1857248003705
 20
-20.64001244188576
 30
0.0
 10
581.2892859581619
 20
-20.37181575967153
 30
0.0
 10
581.3928796224019
 20
-20.10342927894923
 30
0.0
  0
LINE
  5
1F3
330
1F
100
AcDbEntity
  8
0
  6
Continuous
 62
     7
370
    15
100
AcDbLine
 10
580.1499506902
 20
-21.3534292789
 30
0.0
 11
580.1499506902
 21
-22.1534292789
 31
0.0
  0
LINE
  5
1F4
330
1F
100
AcDbEntity
  8
0
  6
Continuous
 62
     7
370
    15
100
AcDbLine
 10
636.8928796224
 20
101.0965707211
 30
0.0
 11
581.3928796224
 21
101.0965707211
 31
0.0
  0
LINE
  5
1F5
330
1F
100
AcDbEntity
  8
0
  6
Continuous
 62
     7
370
    15
100
AcDbLine
 10
636.8928796224
 20
101.0965707211
 30
0.0
 11
636.8928796224
 21
-20.1034292789
 31
0.0
  0
LINE
  5
1F6
330
1F
100
AcDbEntity
  8
0
  6
Continuous
 62
     7
370
    15
100
AcDbLine
 10
581.3928796224
 20
-20.1034292789
 30
0.0
 11
636.8928796224
 21
-20.1034292789
 31
0.0
  0
LINE
  5
1F7
330
1F
100
AcDbEntity
  8
0
  6
Continuous
 62
     7
370
    15
100
AcDbLine
 10
581.3928796224
 20
101.0965707211
 30
0.0
 11
581.3928796224
 21
-20.1034292789
 31
0.0
  0
LINE
  5
1F8
330
1F
100
AcDbEntity
  8
0
  6
Continuous
 62
   142
420
    32960
370
     0
100
AcDbLine
 10
580.1499506902
 20
103.1465707211
 30
0.0
 11
636.6006462055
 21
103.1465707211
 31
0.0
  0
SPLINE
  5
1F9
330
1F
100
AcDbEntity
  8
0
  6
Continuous
 62
   142
420
    32960
370
     0
100
AcDbSpline
210
0.0
220
0.0
230
1.0
 70
     8
 71
     3
 72
    22
 73
    18
 74
     0
 42
0.00000001
 43
0.00000001
 40
0.0
 40
0.0
 40
0.0
 40
0.0
 40
0.125
 40
0.125
 40
0.25
 40
0.25
 40
0.375
 40
0.375
 40
0.5
 40
0.5
 40
0.625
 40
0.625
 40
0.75
 40
0.75
 40
0.875
 40
0.875
 40
1.0
 40
1.0
 40
1.0
 40
1.0
 10
581.3928796224019
 20
101.0965707210509
 30
0.0
 10
581.3406288262721
 20
101.2319400739076
 30
0.0
 10
581.2891854316599
 20
101.3651965811884
 30
0.0
 10
581.1861596867309
 20
101.6270062276392
 30
0.0
 10
581.1341914297103
 20
101.7564998833365
 30
0.0
 10
581.0301582233417
 20
102.0055122859558
 30
0.0
 10
580.9788042706476
 20
102.1233752239284
 30
0.0
 10
580.8756957829819
 20
102.3455841512165
 30
0.0
 10
580.8234005038862
 20
102.4508865681152
 30
0.0
 10
580.7197425794475
 20
102.6408196415779
 30
0.0
 10
580.6684367372636
 20
102.7255693584469
 30
0.0
 10
580.5651604211712
 20
102.8744381590507
 30
0.0
 10
580.5127311537645
 20
102.938864103597
 30
0.0
 10
580.4093604691152
 20
103.0414634589944
 30
0.0
 10
580.3580627019785
 20
103.080355197548
 30
0.0
 10
580.254533237794
 20
103.1330110501111
 30
0.0
 10
580.2022014877566
 20
103.1465707210508
 30
0.0
 10
580.1499506902137
 20
103.1465707210508
 30
0.0
  0
SPLINE
  5
1FA
330
1F
100
AcDbEntity
  8
0
  6
Continuous
 62
   142
420
    32960
370
     0
100
AcDbSpline
210
0.0
220
0.0
230
1.0
 70
     8
 71
     3
 72
    14
 73
    10
 74
     0
 42
0.00000001
 43
0.00000001
 40
0.0
 40
0.0
 40
0.0
 40
0.0
 40
0.25
 40
0.25
 40
0.5
 40
0.5
 40
0.75
 40
0.75
 40
1.0
 40
1.0
 40
1.0
 40
1.0
 10
636.600646205463
 20
103.1465707210509
 30
0.0
 10
636.6249989902077
 20
103.1465707210508
 30
0.0
 10
636.6493517749528
 20
103.0932147082209
 30
0.0
 10
636.6980573444425
 20
102.8878328171771
 30
0.0
 10
636.7224101291876
 20
102.735887747967
 30
0.0
 10
636.7711156986772
 20
102.3563914969994
 30
0.0
 10
636.7954684834223
 20
102.1289896308112
 30
0.0
 10
636.8441740529121
 20
101.6331538839873
 30
0.0
 10
636.868526837657
 20
101.364915093545
 30
0.0
 10
636.8928796224018
 20
101.0965707210509
 30
0.0
  0
SPLINE
  5
1FB
330
1F
100
AcDbEntity
  8
0
  6
Continuous
 62
   142
420
    32960
370
     0
100
AcDbSpline
210
0.0
220
0.0
230
1.0
 70
     8
 71
     3
 72
    28
 73
    24
 74
     0
 42
0.00000001
 43
0.00000001
 40
0.0
 40
0.0
 40
0.0
 40
0.0
 40
0.0424516532510585
 40
0.0838292496525549
 40
0.1241394979978404
 40
0.1633896587859645
 40
0.2015876014007126
 40
0.2387418682024644
 40
0.2748617464205733
 40
0.3099573488356366
 40
0.3440397043458977
 40
0.3771208596145561
 40
0.4092139930879171
 40
0.4403335427473394
 40
0.4704953489921508
 40
0.4997168140251943
 40
0.5280170789912804
 40
0.5866880136436482
 40
0.6532855701695522
 40
0.7278754185627521
 40
0.8105036633011241
 40
0.9012036394826496
 40
1.0
 40
1.0
 40
1.0
 40
1.0
 10
579.3428796224018
 20
102.3394996532388
 30
0.0
 10
579.3438895094414
 20
102.3327480458461
 30
0.0
 10
579.3458837326641
 20
102.3194156515027
 30
0.0
 10
579.3616248575926
 20
102.2974496284573
 30
0.0
 10
579.385653266322
 20
102.2743474943043
 30
0.0
 10
579.4179728194575
 20
102.2499612688408
 30
0.0
 10
579.4574493726485
 20
102.2243290549946
 30
0.0
 10
579.5032576452168
 20
102.1974410225732
 30
0.0
 10
579.5545194644047
 20
102.16929965268
 30
0.0
 10
579.6104058447822
 20
102.1399042549147
 30
0.0
 10
579.6701180365222
 20
102.1092548647829
 30
0.0
 10
579.7328982535022
 20
102.077351510207
 30
0.0
 10
579.7980308758716
 20
102.0441934106094
 30
0.0
 10
579.8648464760956
 20
102.0097826688422
 30
0.0
 10
579.9327179778371
 20
101.9741108516957
 30
0.0
 10
580.0010791023327
 20
101.9372067898137
 30
0.0
 10
580.0945036220497
 20
101.8848851111343
 30
0.0
 10
580.2230636879551
 20
101.8093667718146
 30
0.0
 10
580.3989602559644
 20
101.7040047243503
 30
0.0
 10
580.6049554988857
 20
101.5795979922547
 30
0.0
 10
580.8416026055871
 20
101.4361399222653
 30
0.0
 10
581.108137970256
 20
101.2738683768672
 30
0.0
 10
581.2953001859773
 20
101.1573296764182
 30
0.0
 10
581.3928796224018
 20
101.0965707210507
 30
0.0
  0
LINE
  5
1FC
330
1F
100
AcDbEntity
  8
0
  6
Continuous
 62
   142
420
    32960
370
     0
100
AcDbLine
 10
579.3428796224
 20
102.3394996532
 30
0.0
 11
579.3428796224
 21
-21.3463582111
 31
0.0
  0
SPLINE
  5
1FD
330
1F
100
AcDbEntity
  8
0
  6
Continuous
 62
   142
420
    32960
370
     0
100
AcDbSpline
210
0.0
220
0.0
230
1.0
 70
     8
 71
     3
 72
    16
 73
    12
 74
     0
 42
0.00000001
 43
0.00000001
 40
0.0
 40
0.0
 40
0.0
 40
0.0
 40
0.25
 40
0.25
 40
0.5
 40
0.5
 40
0.75
 40
0.75
 40
0.875
 40
0.875
 40
1.0
 40
1.0
 40
1.0
 40
1.0
 10
581.3928796224018
 20
-20.10342927894923
 30
0.0
 10
581.1424172433129
 20
-20.25604967805103
 30
0.0
 10
580.8952476904703
 20
-20.40455218124806
 30
0.0
 10
580.4214028307529
 20
-20.69489901213475
 30
0.0
 10
580.2030150191226
 20
-20.82950403502906
 30
0.0
 10
579.8043732099529
 20
-21.05676633782158
 30
0.0
 10
579.6398708541188
 20
-21.14548914683725
 30
0.0
 10
579.4642137590915
 20
-21.24736145809755
 30
0.0
 10
579.4196382182286
 20
-21.27488265189223
 30
0.0
 10
579.3589088634014
 20
-21.31896075584041
 30
0.0
 10
579.3428796224018
 20
-21.33553494423482
 30
0.0
 10
579.3428796224018
 20
-21.34635821113726
 30
0.0
  0
LINE
  5
1FE
330
1F
100
AcDbEntity
  8
0
  6
Continuous
 62
     7
370
    15
100
AcDbLine
 10
580.1499506902
 20
-22.1534292789
 30
0.0
 11
636.4428796224
 21
-22.1534292789
 31
0.0
  0
SPLINE
  5
1FF
330
1F
100
AcDbEntity
  8
0
  6
Continuous
 62
   142
420
    32960
370
     0
100
AcDbSpline
210
0.0
220
0.0
230
1.0
 70
     8
 71
     3
 72
    14
 73
    10
 74
     0
 42
0.00000001
 43
0.00000001
 40
0.0
 40
0.0
 40
0.0
 40
0.0
 40
0.25
 40
0.25
 40
0.5
 40
0.5
 40
0.75
 40
0.75
 40
1.0
 40
1.0
 40
1.0
 40
1.0
 10
636.8928796224018
 20
-20.10342927894923
 30
0.0
 10
636.8553796224019
 20
-20.37177365144335
 30
0.0
 10
636.8178796224018
 20
-20.64001244188582
 30
0.0
 10
636.7428796224017
 20
-21.13584818870964
 30
0.0
 10
636.705379622402
 20
-21.36325005489789
 30
0.0
 10
636.630379622402
 20
-21.74274630586551
 30
0.0
 10
636.5928796224019
 20
-21.89469137507552
 30
0.0
 10
636.517879622402
 20
-22.10007326611932
 30
0.0
 10
636.4803796224019
 20
-22.15342927894928
 30
0.0
 10
636.442879622402
 20
-22.15342927894923
 30
0.0
  0
LINE
  5
200
330
1F
100
AcDbEntity
  8
0
  6
Continuous
 62
     7
370
    15
100
AcDbLine
 10
638.9428796224
 20
101.0965707211
 30
0.0
 11
638.9428796224
 21
-20.1034292789
 31
0.0
  0
LINE
  5
201
330
1F
100
AcDbEntity
  8
0
  6
Continuous
 62
   142
420
    32960
370
     0
100
AcDbLine
 10
636.8928796224
 20
101.0965707211
 30
0.0
 11
638.9428796224
 21
101.0965707211
 31
0.0
  0
LINE
  5
202
330
1F
100
AcDbEntity
  8
0
  6
Continuous
 62
   142
420
    32960
370
     0
100
AcDbLine
 10
638.9428796224
 20
-20.1034292789
 30
0.0
 11
636.8928796224
 21
-20.1034292789
 31
0.0
  0
LINE
  5
203
330
1F
100
AcDbEntity
  8
0
  6
Continuous
 62
     7
370
    15
100
AcDbLine
 10
580.1428796224
 20
-21.3463582111
 30
0.0
 11
580.1428796224
 21
-20.8591376486
 31
0.0
  0
LINE
  5
204
330
1F
100
AcDbEntity
  8
0
  6
Continuous
 62
     7
370
    15
100
AcDbLine
 10
580.1428796224
 20
101.8549738257
 30
0.0
 11
580.1428796224
 21
102.3394996532
 31
0.0
  0
SPLINE
  5
205
330
1F
100
AcDbEntity
  8
0
  6
Continuous
 62
   142
420
    32960
370
     0
100
AcDbSpline
210
0.0
220
0.0
230
1.0
 70
     8
 71
     3
 72
    16
 73
    12
 74
     0
 42
0.00000001
 43
0.00000001
 40
0.0
 40
0.0
 40
0.0
 40
0.0
 40
0.2500000000000134
 40
0.2500000000000134
 40
0.5000000000000268
 40
0.5000000000000268
 40
0.6250000000000128
 40
0.6250000000000128
 40
0.7499999999999988
 40
0.7499999999999988
 40
1.0
 40
1.0
 40
1.0
 40
1.0
 10
581.3928796224018
 20
-20.10342927894923
 30
0.0
 10
581.2520359022741
 20
-20.24418025625111
 30
0.0
 10
581.1130866875727
 20
-20.38113517967552
 30
0.0
 10
580.8433993806804
 20
-20.65154090661628
 30
0.0
 10
580.7116671119867
 20
-20.78643562728474
 30
0.0
 10
580.5279421007199
 20
-20.96030049967792
 30
0.0
 10
580.4684589111603
 20
-21.01495138491763
 30
0.0
 10
580.3613237288807
 20
-21.11279979933664
 30
0.0
 10
580.3132693888888
 20
-21.15639470103667
 30
0.0
 10
580.1906062844029
 20
-21.27133101248854
 30
0.0
 10
580.1428796224018
 20
-21.32231207799926
 30
0.0
 10
580.1428796224019
 20
-21.34635821113726
 30
0.0
  0
SPLINE
  5
206
330
1F
100
AcDbEntity
  8
0
  6
Continuous
 62
   142
420
    32960
370
     0
100
AcDbSpline
210
0.0
220
0.0
230
1.0
 70
     8
 71
     3
 72
    24
 73
    20
 74
     0
 42
0.00000001
 43
0.00000001
 40
0.0
 40
0.0
 40
0.0
 40
0.0
 40
0.0482715704397287
 40
0.0951910828383625
 40
0.1407892638214933
 40
0.1850996036450306
 40
0.228158612258588
 40
0.2700060894218047
 40
0.3106854053996396
 40
0.3502437869803157
 40
0.3887326013653423
 40
0.4262076278950078
 40
0.4627293046768404
 40
0.4983629341642143
 40
0.5714679046229725
 40
0.6580523495480864
 40
0.7582745289714725
 40
0.8722347873986901
 40
1.0
 40
1.0
 40
1.0
 40
1.0
 10
580.142879622402
 20
102.3394996532388
 30
0.0
 10
580.1438391934304
 20
102.3310292708848
 30
0.0
 10
580.1457314584719
 20
102.3143257565597
 30
0.0
 10
580.1605089624977
 20
102.2862590876857
 30
0.0
 10
580.1827639641052
 20
102.2564085659606
 30
0.0
 10
580.2122801486611
 20
102.224551130732
 30
0.0
 10
580.2477796844397
 20
102.1907433998425
 30
0.0
 10
580.2882956314817
 20
102.1549700076467
 30
0.0
 10
580.3328363657633
 20
102.1172342102591
 30
0.0
 10
580.3804836732725
 20
102.0775333618686
 30
0.0
 10
580.4303791146123
 20
102.0358697381854
 30
0.0
 10
580.4817249091473
 20
101.9922315519335
 30
0.0
 10
580.533817980336
 20
101.9466560414189
 30
0.0
 10
580.6045840687104
 20
101.8819478415507
 30
0.0
 10
580.702308875213
 20
101.7872329668287
 30
0.0
 10
580.8375967191935
 20
101.6538513585236
 30
0.0
 10
580.999583551728
 20
101.4930173622591
 30
0.0
 10
581.1884288308469
 20
101.3050511092749
 30
0.0
 10
581.3221831204146
 20
101.1686606066819
 30
0.0
 10
581.3928796224018
 20
101.0965707210507
 30
0.0
  0
SPLINE
  5
207
330
1F
100
AcDbEntity
  8
0
  6
Continuous
 62
   142
420
    32960
370
     0
100
AcDbSpline
210
0.0
220
0.0
230
1.0
 70
     8
 71
     3
 72
    20
 73
    16
 74
     0
 42
0.00000001
 43
0.00000001
 40
0.0
 40
0.0
 40
0.0
 40
0.0
 40
0.125
 40
0.125
 40
0.25
 40
0.25
 40
0.375
 40
0.375
 40
0.5
 40
0.5
 40
0.625
 40
0.625
 40
0.75
 40
0.75
 40
1.0
 40
1.0
 40
1.0
 40
1.0
 10
638.9428796224022
 20
101.0965707210508
 30
0.0
 10
638.942879622402
 20
101.2319211277608
 30
0.0
 10
638.9295991137453
 20
101.3650604187067
 30
0.0
 10
638.8775935167712
 20
101.6268760686223
 30
0.0
 10
638.8382990778796
 20
101.7568093525375
 30
0.0
 10
638.7354175573878
 20
102.0052102900746
 30
0.0
 10
638.6724719901024
 20
102.1229427715649
 30
0.0
 10
638.524026425012
 20
102.3454697119979
 30
0.0
 10
638.4375260588162
 20
102.450998289712
 30
0.0
 10
638.2483456690151
 20
102.6403059472977
 30
0.0
 10
638.1452540235949
 20
102.7250977105217
 30
0.0
 10
637.9220509556245
 20
102.8745887645676
 30
0.0
 10
637.8021930295444
 20
102.9387076696735
 30
0.0
 10
637.4323323371731
 20
103.0922581735552
 30
0.0
 10
637.1635804435839
 20
103.1465707210509
 30
0.0
 10
636.892879622402
 20
103.1465707210509
 30
0.0
  0
SPLINE
  5
208
330
1F
100
AcDbEntity
  8
0
  6
Continuous
 62
   142
420
    32960
370
     0
100
AcDbSpline
210
0.0
220
0.0
230
1.0
 70
     8
 71
     3
 72
    14
 73
    10
 74
     0
 42
0.00000001
 43
0.00000001
 40
0.0
 40
0.0
 40
0.0
 40
0.0
 40
0.25
 40
0.25
 40
0.5
 40
0.5
 40
0.75
 40
0.75
 40
1.0
 40
1.0
 40
1.0
 40
1.0
 10
638.142879622402
 20
101.0965707210508
 30
0.0
 10
638.142879622402
 20
101.2615533043785
 30
0.0
 10
638.1100555863943
 20
101.4246863772517
 30
0.0
 10
637.9848833552375
 20
101.7264159866818
 30
0.0
 10
637.8919902801412
 20
101.8652217702715
 30
0.0
 10
637.6615761607061
 20
102.0956463807862
 30
0.0
 10
637.5222661279026
 20
102.1887450292789
 30
0.0
 10
637.2217127105026
 20
102.3134687829402
 30
0.0
 10
637.0578622198809
 20
102.346570721051
 30
0.0
 10
636.892879622402
 20
102.346570721051
 30
0.0
  0
SPLINE
  5
209
330
1F
100
AcDbEntity
  8
0
  6
Continuous
 62
     7
370
    15
100
AcDbSpline
210
0.0
220
0.0
230
1.0
 70
     8
 71
     3
 72
    14
 73
    10
 74
     0
 42
0.00000001
 43
0.00000001
 40
0.0
 40
0.0
 40
0.0
 40
0.0
 40
0.25
 40
0.25
 40
0.5
 40
0.5
 40
0.75
 40
0.75
 40
1.0
 40
1.0
 40
1.0
 40
1.0
 10
636.8928796224018
 20
-22.15342927894923
 30
0.0
 10
637.161223994896
 20
-22.15342927894923
 30
0.0
 10
637.4294627853384
 20
-22.10007326611932
 30
0.0
 10
637.9252985321622
 20
-21.89469137507552
 30
0.0
 10
638.1527003983505
 20
-21.74274630586551
 30
0.0
 10
638.532196649318
 20
-21.36325005489789
 30
0.0
 10
638.684141718528
 20
-21.13584818870953
 30
0.0
 10
638.8895236095719
 20
-20.64001244188576
 30
0.0
 10
638.942879622402
 20
-20.37177365144341
 30
0.0
 10
638.942879622402
 20
-20.10342927894923
 30
0.0
  0
SPLINE
  5
20A
330
1F
100
AcDbEntity
  8
0
  6
Continuous
 62
   142
420
    32960
370
     0
100
AcDbSpline
210
0.0
220
0.0
230
1.0
 70
     8
 71
     3
 72
    14
 73
    10
 74
     0
 42
0.00000001
 43
0.00000001
 40
0.0
 40
0.0
 40
0.0
 40
0.0
 40
0.25
 40
0.25
 40
0.5
 40
0.5
 40
0.75
 40
0.75
 40
1.0
 40
1.0
 40
1.0
 40
1.0
 10
636.8928796224018
 20
-21.3534292789492
 30
0.0
 10
637.0565042397762
 20
-21.35342927894926
 30
0.0
 10
637.2200644778511
 20
-21.32089512478461
 30
0.0
 10
637.5224033478653
 20
-21.19566226439198
 30
0.0
 10
637.6610630223705
 20
-21.10301283194696
 30
0.0
 10
637.8924631753997
 20
-20.87161267891788
 30
0.0
 10
637.9851126078447
 20
-20.73295300441288
 30
0.0
 10
638.1103454682373
 20
-20.43061413439837
 30
0.0
 10
638.1428796224018
 20
-20.26705389632374
 30
0.0
 10
638.1428796224018
 20
-20.10342927894923
 30
0.0
  0
LINE
  5
20B
330
1F
100
AcDbEntity
  8
0
  6
Continuous
 62
   142
420
    32960
370
     0
100
AcDbLine
 10
636.8928796224
 20
-21.3534292789
 30
0.0
 11
636.8928796224
 21
-22.1534292789
 31
0.0
  0
LINE
  5
20C
330
1F
100
AcDbEntity
  8
0
  6
Continuous
 62
   142
420
    32960
370
     0
100
AcDbLine
 10
636.8928796224
 20
-22.1534292789
 30
0.0
 11
636.4428796224
 21
-22.1534292789
 31
0.0
  0
SPLINE
  5
20D
330
1F
100
AcDbEntity
  8
0
  6
Continuous
 62
     7
370
    15
100
AcDbSpline
210
0.0
220
0.0
230
1.0
 70
     8
 71
     3
 72
    22
 73
    18
 74
     0
 42
0.00000001
 43
0.00000001
 40
0.0
 40
0.0
 40
0.0
 40
0.0
 40
0.1249999999999997
 40
0.1249999999999997
 40
0.2499999999999998
 40
0.2499999999999998
 40
0.3749999999999998
 40
0.3749999999999998
 40
0.4999999999999999
 40
0.4999999999999999
 40
0.6249999999999999
 40
0.6249999999999999
 40
0.75
 40
0.75
 40
0.875
 40
0.875
 40
1.0
 40
1.0
 40
1.0
 40
1.0
 10
-126.2074162368848
 20
245.7842452481892
 30
0.0
 10
-126.2596623375583
 20
245.6224769014962
 30
0.0
 10
-126.3110850275348
 20
245.4632828136476
 30
0.0
 10
-126.4141067831053
 20
245.1503983310176
 30
0.0
 10
-126.466156341378
 20
244.9954012999842
 30
0.0
 10
-126.5700759055254
 20
244.6981254391422
 30
0.0
 10
-126.6213966846103
 20
244.5573412051824
 30
0.0
 10
-126.7245500707991
 20
244.2916425636049
 30
0.0
 10
-126.7769249299944
 20
244.1656156224123
 30
0.0
 10
-126.8804154684021
 20
243.9389735215089
 30
0.0
 10
-126.9316984893666
 20
243.8376849642191
 30
0.0
 10
-127.035117558438
 20
243.6594926536009
 30
0.0
 10
-127.0875209032758
 20
243.5825561451427
 30
0.0
 10
-127.1907197799946
 20
243.4600928621523
 30
0.0
 10
-127.2420281830988
 20
243.4135172244177
 30
0.0
 10
-127.3458495643059
 20
243.3503861106865
 30
0.0
 10
-127.3980990657745
 20
243.3342452481894
 30
0.0
 10
-127.450345169073
 20
243.3342452481894
 30
0.0
  0
LINE
  5
20E
330
1F
100
AcDbEntity
  8
0
  6
Continuous
 62
   142
420
    32960
370
     0
100
AcDbLine
 10
-127.4503451691
 20
244.5342452482
 30
0.0
 11
-127.4503451691
 21
243.3342452482
 31
0.0
  0
SPLINE
  5
20F
330
1F
100
AcDbEntity
  8
0
  6
Continuous
 62
   142
420
    32960
370
     0
100
AcDbSpline
210
0.0
220
0.0
230
1.0
 70
     8
 71
     3
 72
    14
 73
    10
 74
     0
 42
0.00000001
 43
0.00000001
 40
0.0
 40
0.0
 40
0.0
 40
0.0
 40
0.25
 40
0.25
 40
0.5
 40
0.5
 40
0.75
 40
0.75
 40
1.0
 40
1.0
 40
1.0
 40
1.0
 10
-126.2074162368848
 20
245.7842452481893
 30
0.0
 10
-126.3119621781392
 20
245.6190906119799
 30
0.0
 10
-126.4134604480919
 20
245.4587223744172
 30
0.0
 10
-126.6218014567349
 20
245.1545703602872
 30
0.0
 10
-126.7241599302363
 20
245.0174310480808
 30
0.0
 10
-126.9323498687793
 20
244.7846911415493
 30
0.0
 10
-127.034879317076
 20
244.6928509585792
 30
0.0
 10
-127.2428934627744
 20
244.5668201279781
 30
0.0
 10
-127.3457992343568
 20
244.5342452481894
 30
0.0
 10
-127.450345169073
 20
244.5342452481894
 30
0.0
  0
LINE
  5
210
330
1F
100
AcDbEntity
  8
0
  6
Continuous
 62
     7
370
    15
100
AcDbLine
 10
-126.2074162369
 20
245.7842452482
 30
0.0
 11
521.1925837631
 21
245.7842452482
 31
0.0
  0
LINE
  5
211
330
1F
100
AcDbEntity
  8
0
  6
Continuous
 62
   142
420
    32960
370
     0
100
AcDbLine
 10
521.1925837631
 20
243.3342452482
 30
0.0
 11
521.1925837631
 21
245.7842452482
 31
0.0
  0
LINE
  5
212
330
1F
100
AcDbEntity
  8
0
  6
Continuous
 62
     7
370
    15
100
AcDbLine
 10
-126.2074162369
 20
256.8842452482
 30
0.0
 11
-126.2074162369
 21
245.7842452482
 31
0.0
  0
LINE
  5
213
330
1F
100
AcDbEntity
  8
0
  6
Continuous
 62
     7
370
    15
100
AcDbLine
 10
519.6925837631
 20
256.8842452482
 30
0.0
 11
-126.2074162369
 21
256.8842452482
 31
0.0
  0
LINE
  5
214
330
1F
100
AcDbEntity
  8
0
  6
Continuous
 62
   142
420
    32960
370
     0
100
AcDbLine
 10
521.1925837631
 20
245.7842452482
 30
0.0
 11
521.1925837631
 21
256.8342452482
 31
0.0
  0
LINE
  5
215
330
1F
100
AcDbEntity
  8
0
  6
Continuous
 62
   142
420
    32960
370
     0
100
AcDbLine
 10
521.1925837631
 20
256.8342452482
 30
0.0
 11
519.6925837631
 21
256.8342452482
 31
0.0
  0
LINE
  5
216
330
1F
100
AcDbEntity
  8
0
  6
Continuous
 62
   142
420
    32960
370
     0
100
AcDbLine
 10
519.6925837631
 20
256.8342452482
 30
0.0
 11
519.6925837631
 21
256.8842452482
 31
0.0
  0
LINE
  5
217
330
1F
100
AcDbEntity
  8
0
  6
Continuous
 62
     7
370
    15
100
AcDbLine
 10
-128.6574162369
 20
256.8842452482
 30
0.0
 11
-128.6574162369
 21
244.541316316
 31
0.0
  0
LINE
  5
218
330
1F
100
AcDbEntity
  8
0
  6
Continuous
 62
   142
420
    32960
370
     0
100
AcDbLine
 10
-126.2074162369
 20
256.8842452482
 30
0.0
 11
-128.6574162369
 21
256.8842452482
 31
0.0
  0
SPLINE
  5
219
330
1F
100
AcDbEntity
  8
0
  6
Continuous
 62
   142
420
    32960
370
     0
100
AcDbSpline
210
0.0
220
0.0
230
1.0
 70
     8
 71
     3
 72
    30
 73
    26
 74
     0
 42
0.00000001
 43
0.00000001
 40
0.0
 40
0.0
 40
0.0
 40
0.0
 40
0.0377923865679728
 40
0.0746684389760241
 40
0.1106319752661907
 40
0.1456871141038192
 40
0.1798383052763367
 40
0.2130903639299178
 40
0.245448509063146
 40
0.276918406873569
 40
0.3075062196390526
 40
0.3372186609143862
 40
0.3660630579316757
 40
0.394047422214227
 40
0.4211805295426228
 40
0.4474720105483455
 40
0.472932453346933
 40
0.4975735197502523
 40
0.5503254310874606
 40
0.6093637364517729
 40
0.6747308490298726
 40
0.7464576369897493
 40
0.8245671094012075
 40
0.9090767420569874
 40
1.0
 40
1.0
 40
1.0
 40
1.0
 10
-128.6574162368848
 20
244.5413163160011
 30
0.0
 10
-128.6564930889935
 20
244.5464704290252
 30
0.0
 10
-128.6546691763418
 20
244.5566536857276
 30
0.0
 10
-128.6402351162087
 20
244.5736046225642
 30
0.0
 10
-128.6181195770238
 20
244.5915619196448
 30
0.0
 10
-128.5882522630548
 20
244.6106499254515
 30
0.0
 10
-128.5516058904197
 20
244.6308365328198
 30
0.0
 10
-128.5088723427009
 20
244.6521299942045
 30
0.0
 10
-128.460796733883
 20
244.674528163953
 30
0.0
 10
-128.408085077112
 20
244.6980315866586
 30
0.0
 10
-128.3514228387656
 20
244.7226401052492
 30
0.0
 10
-128.2914659533279
 20
244.7483538245973
 30
0.0
 10
-128.2288397062761
 20
244.7751725540221
 30
0.0
 10
-128.1641368435548
 20
244.8030970757378
 30
0.0
 10
-128.0979151360796
 20
244.8321248307278
 30
0.0
 10
-128.0307010974853
 20
244.8622652660142
 30
0.0
 10
-127.9629737336059
 20
244.8934852475599
 30
0.0
 10
-127.8687227294241
 20
244.9385823240246
 30
0.0
 10
-127.7377805544669
 20
245.0040010631582
 30
0.0
 10
-127.5575854910753
 20
245.0953421922614
 30
0.0
 10
-127.3472280634225
 20
245.2024283127193
 30
0.0
 10
-127.1055156870496
 20
245.3251703739437
 30
0.0
 10
-126.8324196174424
 20
245.4636705455425
 30
0.0
 10
-126.5292004532171
 20
245.6176656570102
 30
0.0
 10
-126.3172604040414
 20
245.7273816870523
 30
0.0
 10
-126.207416236885
 20
245.7842452481893
 30
0.0
  0
LINE
  5
21A
330
1F
100
AcDbEntity
  8
0
  6
Continuous
 62
     7
370
    15
100
AcDbLine
 10
-73.8574162369
 20
259.3342452482
 30
0.0
 11
519.6925837631
 21
259.3342452482
 31
0.0
  0
LINE
  5
21B
330
1F
100
AcDbEntity
  8
0
  6
Continuous
 62
   142
420
    32960
370
     0
100
AcDbLine
 10
-126.2074162369
 20
259.3342452482
 30
0.0
 11
-126.2074162369
 21
256.8842452482
 31
0.0
  0
LINE
  5
21C
330
1F
100
AcDbEntity
  8
0
  6
Continuous
 62
   142
420
    32960
370
     0
100
AcDbLine
 10
519.6925837631
 20
259.3342452482
 30
0.0
 11
519.6925837631
 21
256.8842452482
 31
0.0
  0
LINE
  5
21D
330
1F
100
AcDbEntity
  8
0
  6
Continuous
 62
     7
370
    15
100
AcDbLine
 10
614.7093922616
 20
280.7342452482
 30
0.0
 11
523.3925837631
 21
280.7342452482
 31
0.0
  0
ARC
  5
21E
330
1F
100
AcDbEntity
  8
0
  6
Continuous
 62
     7
370
    15
100
AcDbCircle
 10
523.3925837631
 20
278.2842452482
 30
0.0
 40
2.449999999999989
100
AcDbArc
 50
90.0
 51
180.0
  0
LINE
  5
21F
330
1F
100
AcDbEntity
  8
0
  6
Continuous
 62
   142
420
    32960
370
     0
100
AcDbLine
 10
521.2425837631
 20
278.2842452482
 30
0.0
 11
520.9425837631
 21
278.2842452482
 31
0.0
  0
ARC
  5
220
330
1F
100
AcDbEntity
  8
0
  6
Continuous
 62
     7
370
    15
100
AcDbCircle
 10
614.7093922616
 20
257.4342452482
 30
0.0
 40
23.30000000000001
100
AcDbArc
 50
293.5
 51
90.0
  0
LINE
  5
221
330
1F
100
AcDbEntity
  8
0
  6
Continuous
 62
     7
370
    15
100
AcDbLine
 10
600.8291428146
 20
225.9916632965
 30
0.0
 11
624.0002455675
 21
236.066745515
 31
0.0
  0
LINE
  5
222
330
1F
100
AcDbEntity
  8
0
  6
Continuous
 62
   142
420
    32960
370
     0
100
AcDbLine
 10
600.493564513
 20
226.7634405524
 30
0.0
 11
600.8291428146
 21
225.9916632965
 31
0.0
  0
LINE
  5
223
330
1F
100
AcDbEntity
  8
0
  6
Continuous
 62
   142
420
    32960
370
     0
100
AcDbLine
 10
-128.6574162369
 20
244.541316316
 30
0.0
 11
-127.4574162369
 21
244.541316316
 31
0.0
  0
LINE
  5
224
330
1F
100
AcDbEntity
  8
0
  6
Continuous
 62
   142
420
    32960
370
     0
100
AcDbLine
 10
-127.4574162369
 20
256.8842452482
 30
0.0
 11
-127.4574162369
 21
258.1271741804
 31
0.0
  0
LINE
  5
225
330
1F
100
AcDbEntity
  8
0
  6
Continuous
 62
   142
420
    32960
370
     0
100
AcDbLine
 10
-127.4574162369
 20
244.541316316
 30
0.0
 11
-127.4574162369
 21
245.1471009535
 31
0.0
  0
LINE
  5
226
330
1F
100
AcDbEntity
  8
0
  6
Continuous
 62
   142
420
    32960
370
     0
100
AcDbLine
 10
-128.6574162369
 20
256.8842452482
 30
0.0
 11
-128.6574162369
 21
258.1271741804
 31
0.0
  0
LINE
  5
227
330
1F
100
AcDbEntity
  8
0
  6
Continuous
 62
   142
420
    32960
370
     0
100
AcDbLine
 10
-127.4503451691
 20
258.1342452482
 30
0.0
 11
-126.2074162369
 21
258.1342452482
 31
0.0
  0
LINE
  5
228
330
1F
100
AcDbEntity
  8
0
  6
Continuous
 62
   142
420
    32960
370
     0
100
AcDbLine
 10
-128.6574162369
 20
258.1271741804
 30
0.0
 11
-127.4574162369
 21
258.1271741804
 31
0.0
  0
ARC
  5
229
330
1F
100
AcDbEntity
  8
0
  6
Continuous
 62
   142
420
    32960
370
     0
100
AcDbCircle
 10
519.6925837631
 20
260.5842452482
 30
0.0
 40
2.449999999999973
100
AcDbArc
 50
270.0
 51
309.2461329497
  0
LINE
  5
22A
330
1F
100
AcDbEntity
  8
0
  6
Continuous
 62
   142
420
    32960
370
     0
100
AcDbLine
 10
-127.4503451691
 20
259.3342452482
 30
0.0
 11
-127.4503451691
 21
258.1342452482
 31
0.0
  0
SPLINE
  5
22B
330
1F
100
AcDbEntity
  8
0
  6
Continuous
 62
   142
420
    32960
370
     0
100
AcDbSpline
210
0.0
220
0.0
230
1.0
 70
     8
 71
     3
 72
     9
 73
     5
 74
     0
 42
0.00000001
 43
0.00000001
 40
0.0
 40
0.0
 40
0.0
 40
0.0
 40
0.6480247741525291
 40
1.0
 40
1.0
 40
1.0
 40
1.0
 10
-126.2074162368849
 20
256.8842452481894
 30
0.0
 10
-126.2957301566386
 20
257.1777750159245
 30
0.0
 10
-126.4320118595553
 20
257.6307357350866
 30
0.0
 10
-126.5682936612188
 20
258.0031608383552
 30
0.0
 10
-126.6162614791381
 20
258.1342452481894
 30
0.0
  0
SPLINE
  5
22C
330
1F
100
AcDbEntity
  8
0
  6
Continuous
 62
   142
420
    32960
370
     0
100
AcDbSpline
210
0.0
220
0.0
230
1.0
 70
     8
 71
     3
 72
     9
 73
     5
 74
     0
 42
0.00000001
 43
0.00000001
 40
0.0
 40
0.0
 40
0.0
 40
0.0
 40
0.0222386452164744
 40
1.0
 40
1.0
 40
1.0
 40
1.0
 10
-127.2574162368875
 20
257.4127170566591
 30
0.0
 10
-127.2505971763395
 20
257.4093800737242
 30
0.0
 10
-126.9439660627217
 20
257.2593267362808
 30
0.0
 10
-126.5715501369806
 20
257.0696772180595
 30
0.0
 10
-126.2074162368851
 20
256.8842452481894
 30
0.0
  0
LINE
  5
22D
330
1F
100
AcDbEntity
  8
0
  6
Continuous
 62
     7
370
    15
100
AcDbLine
 10
614.2425837631
 20
280.4342452482
 30
0.0
 11
523.2425837631
 21
280.4342452482
 31
0.0
  0
LINE
  5
22E
330
1F
100
AcDbEntity
  8
0
  6
Continuous
 62
   142
420
    32960
370
     0
100
AcDbLine
 10
578.6425837631
 20
245.7842452482
 30
0.0
 11
578.6425837631
 21
243.3342452482
 31
0.0
  0
LINE
  5
22F
330
1F
100
AcDbEntity
  8
0
  6
Continuous
 62
   142
420
    32960
370
     0
100
AcDbLine
 10
578.5358085546
 20
243.3342452482
 30
0.0
 11
578.6425837631
 21
243.3342452482
 31
0.0
  0
LINE
  5
230
330
1F
100
AcDbEntity
  8
0
  6
Continuous
 62
   142
420
    32960
370
     0
100
AcDbLine
 10
521.2425837631
 20
243.3342452482
 30
0.0
 11
521.2425837631
 21
245.7842452482
 31
0.0
  0
LINE
  5
231
330
1F
100
AcDbEntity
  8
0
  6
Continuous
 62
     7
370
    15
100
AcDbLine
 10
521.2425837631
 20
245.7842452482
 30
0.0
 11
578.6425837631
 21
245.7842452482
 31
0.0
  0
LINE
  5
232
330
1F
100
AcDbEntity
  8
0
  6
Continuous
 62
     7
370
    15
100
AcDbLine
 10
521.2425837631
 20
278.4342452482
 30
0.0
 11
521.2425837631
 21
245.7842452482
 31
0.0
  0
ARC
  5
233
330
1F
100
AcDbEntity
  8
0
  6
Continuous
 62
   142
420
    32960
370
     0
100
AcDbCircle
 10
523.2425837631
 20
278.4342452482
 30
0.0
 40
2.0
100
AcDbArc
 50
90.0
 51
180.0
  0
ARC
  5
234
330
1F
100
AcDbEntity
  8
0
  6
Continuous
 62
     7
370
    15
100
AcDbCircle
 10
614.2425837631
 20
257.4342452482
 30
0.0
 40
23.0
100
AcDbArc
 50
299.5911871723
 51
90.0
  0
LINE
  5
235
330
1F
100
AcDbEntity
  8
0
  6
Continuous
 62
     7
370
    15
100
AcDbLine
 10
598.5425837631
 20
225.9342452482
 30
0.0
 11
625.6001705517
 21
237.4341146901
 31
0.0
  0
LINE
  5
236
330
1F
100
AcDbEntity
  8
0
  6
Continuous
 62
   142
420
    32960
370
     0
100
AcDbLine
 10
582.2425837631
 20
225.9342452482
 30
0.0
 11
598.5425837631
 21
225.9342452482
 31
0.0
  0
ARC
  5
237
330
1F
100
AcDbEntity
  8
0
  6
Continuous
 62
     7
370
    15
100
AcDbCircle
 10
582.2425837631
 20
227.9342452482
 30
0.0
 40
2.0
100
AcDbArc
 50
180.0
 51
270.0
  0
LINE
  5
238
330
1F
100
AcDbEntity
  8
0
  6
Continuous
 62
     7
370
    15
100
AcDbLine
 10
580.2425837631
 20
246.2842452482
 30
0.0
 11
580.2425837631
 21
227.9342452482
 31
0.0
  0
LINE
  5
239
330
1F
100
AcDbEntity
  8
0
  6
Continuous
 62
   142
420
    32960
370
     0
100
AcDbLine
 10
580.2425837631
 20
246.2842452482
 30
0.0
 11
578.6425837631
 21
246.2842452482
 31
0.0
  0
LINE
  5
23A
330
1F
100
AcDbEntity
  8
0
  6
Continuous
 62
   142
420
    32960
370
     0
100
AcDbLine
 10
578.6425837631
 20
246.2842452482
 30
0.0
 11
578.6425837631
 21
245.7842452482
 31
0.0
  0
ARC
  5
23B
330
1F
100
AcDbEntity
  8
0
  6
Continuous
 62
   142
420
    32960
370
     0
100
AcDbCircle
 10
601.2042710861
 20
242.1359321003
 30
0.0
 40
0.2503794968157601
100
AcDbArc
 50
259.1110070998
 51
83.3730607602
  0
ARC
  5
23C
330
1F
100
AcDbEntity
  8
0
  6
Continuous
 62
   142
420
    32960
370
     0
100
AcDbCircle
 10
601.7425837631
 20
244.9342452482
 30
0.0
 40
2.600000000000018
100
AcDbArc
 50
101.3148497955
 51
258.700947069
  0
ARC
  5
23D
330
1F
100
AcDbEntity
  8
0
  6
Continuous
 62
     7
370
    15
100
AcDbCircle
 10
601.2042710861
 20
247.7325282759
 30
0.0
 40
0.250409074676934
100
AcDbArc
 50
276.4642622073
 51
100.8891073053
  0
ARC
  5
23E
330
1F
100
AcDbEntity
  8
0
  6
Continuous
 62
   142
420
    32960
370
     0
100
AcDbCircle
 10
601.7425837631
 20
244.9342452482
 30
0.0
 40
3.100000000000023
100
AcDbArc
 50
100.8891073053
 51
259.1110070997
  0
ARC
  5
23F
330
1F
100
AcDbEntity
  8
0
  6
Continuous
 62
   142
420
    32960
370
     0
100
AcDbCircle
 10
601.7425837631
 20
244.9342452482
 30
0.0
 40
2.600000000000039
100
AcDbArc
 50
280.4998591652
 51
79.5001408348
  0
ARC
  5
240
330
1F
100
AcDbEntity
  8
0
  6
Continuous
 62
   142
420
    32960
370
     0
100
AcDbCircle
 10
602.2425837631
 20
242.1288043119
 30
0.0
 40
0.2503511010932581
100
AcDbArc
 50
96.005776495
 51
280.1054407084
  0
ARC
  5
241
330
1F
100
AcDbEntity
  8
0
  6
Continuous
 62
   142
420
    32960
370
     0
100
AcDbCircle
 10
601.7425837631
 20
244.9342452482
 30
0.0
 40
3.100000000000057
100
AcDbArc
 50
280.1054407084
 51
79.8945592916
  0
ARC
  5
242
330
1F
100
AcDbEntity
  8
0
  6
Continuous
 62
   142
420
    32960
370
     0
100
AcDbCircle
 10
602.2425837631
 20
247.7396861845
 30
0.0
 40
0.2503511010932462
100
AcDbArc
 50
79.8945592916
 51
263.9942235051
  0
LINE
  5
243
330
1F
100
AcDbEntity
  8
0
  6
Continuous
 62
   142
420
    32960
370
     0
100
AcDbLine
 10
578.7425837631
 20
244.5342452482
 30
0.0
 11
578.7425837631
 21
245.7842452482
 31
0.0
  0
LINE
  5
244
330
1F
100
AcDbEntity
  8
0
  6
Continuous
 62
   142
420
    32960
370
     0
100
AcDbLine
 10
578.7425837631
 20
245.7842452482
 30
0.0
 11
578.6425837631
 21
245.7842452482
 31
0.0
  0
LINE
  5
245
330
1F
100
AcDbEntity
  8
0
  6
Continuous
 62
   142
420
    32960
370
     0
100
AcDbLine
 10
578.7425837631
 20
246.2842452482
 30
0.0
 11
578.7425837631
 21
245.7842452482
 31
0.0
  0
LINE
  5
246
330
1F
100
AcDbEntity
  8
0
  6
Continuous
 62
     7
370
    15
100
AcDbLine
 10
-148.8571203776
 20
24.5342452482
 30
0.0
 11
-148.8571203776
 21
46.5342452482
 31
0.0
  0
LINE
  5
247
330
1F
100
AcDbEntity
  8
0
  6
Continuous
 62
     7
370
    15
100
AcDbLine
 10
-150.8571203776
 20
26.5342452482
 30
0.0
 11
-150.8571203776
 21
44.5342452482
 31
0.0
  0
LWPOLYLINE
  5
248
330
1F
100
AcDbEntity
  8
0
  6
Continuous
 62
   142
420
    32960
370
     0
100
AcDbPolyline
 90
        3
 70
   128
 43
0.0
 10
517.1925837631
 20
283.9342452482
 10
516.7146124742
 20
283.8871691852
 10
516.5351907857
 20
283.8444008518
  0
LINE
  5
249
330
1F
100
AcDbEntity
  8
0
  6
Continuous
 62
     7
370
    15
100
AcDbLine
 10
517.1925837631
 20
283.9342452482
 30
0.0
 11
540.7780181411
 21
283.9342452482
 31
0.0
  0
LINE
  5
24A
330
1F
100
AcDbEntity
  8
0
  6
Continuous
 62
     7
370
    15
100
AcDbLine
 10
540.7780181411
 20
282.7342452482
 30
0.0
 11
540.7780181411
 21
283.9342452482
 31
0.0
  0
LINE
  5
24B
330
1F
100
AcDbEntity
  8
0
  6
Continuous
 62
   142
420
    32960
370
     0
100
AcDbLine
 10
517.1925837631
 20
282.7342452482
 30
0.0
 11
517.1925837631
 21
283.9342452482
 31
0.0
  0
LINE
  5
24C
330
1F
100
AcDbEntity
  8
0
  6
Continuous
 62
   142
420
    32960
370
     0
100
AcDbLine
 10
517.1925837631
 20
282.7342452482
 30
0.0
 11
540.7780181411
 21
282.7342452482
 31
0.0
  0
ARC
  5
24D
330
1F
100
AcDbEntity
  8
0
  6
Continuous
 62
     7
370
    15
100
AcDbCircle
 10
540.7780181411
 20
281.4842452482
 30
0.0
 40
2.449999999999989
100
AcDbArc
 50
75.0
 51
90.0
  0
LINE
  5
24E
330
1F
100
AcDbEntity
  8
0
  6
Continuous
 62
   142
420
    32960
370
     0
100
AcDbLine
 10
544.1509440961
 20
283.1168991044
 30
0.0
 11
541.4121248016
 21
283.8507635226
 31
0.0
  0
LINE
  5
24F
330
1F
100
AcDbEntity
  8
0
  6
Continuous
 62
   142
420
    32960
370
     0
100
AcDbLine
 10
548.9805732276
 20
281.8228038789
 30
0.0
 11
544.1509440961
 21
283.1168991044
 31
0.0
  0
ARC
  5
250
330
1F
100
AcDbEntity
  8
0
  6
Continuous
 62
   142
420
    32960
370
     0
100
AcDbCircle
 10
540.7780181411
 20
281.4842452482
 30
0.0
 40
1.250000000000031
100
AcDbArc
 50
75.0
 51
90.0
  0
LINE
  5
251
330
1F
100
AcDbEntity
  8
0
  6
Continuous
 62
   142
420
    32960
370
     0
100
AcDbLine
 10
541.1015419475
 20
282.6916525311
 30
0.0
 11
541.4121248016
 21
283.8507635226
 31
0.0
  0
LINE
  5
252
330
1F
100
AcDbEntity
  8
0
  6
Continuous
 62
   142
420
    32960
370
     0
100
AcDbLine
 10
548.9805732276
 20
281.8228038789
 30
0.0
 11
548.6888948215
 21
280.7342452482
 31
0.0
  0
LINE
  5
253
330
1F
100
AcDbEntity
  8
0
  6
Continuous
 62
   142
420
    32960
370
     0
100
AcDbLine
 10
578.6425837631
 20
242.0842452482
 30
0.0
 11
578.6425837631
 21
242.3437443437
 31
0.0
  0
LINE
  5
254
330
1F
100
AcDbEntity
  8
0
  6
Continuous
 62
     7
370
    15
100
AcDbLine
 10
-152.8571203776
 20
24.5342452482
 30
0.0
 11
-152.8571203776
 21
46.5342452482
 31
0.0
  0
LINE
  5
255
330
1F
100
AcDbEntity
  8
0
  6
Continuous
 62
     7
370
    15
100
AcDbLine
 10
-154.8571203776
 20
26.5342452482
 30
0.0
 11
-154.8571203776
 21
44.5342452482
 31
0.0
  0
LINE
  5
256
330
1F
100
AcDbEntity
  8
0
  6
Continuous
 62
   142
420
    32960
370
     0
100
AcDbLine
 10
648.340253752
 20
10.9206866493
 30
0.0
 11
652.9871153277
 21
12.7804348407
 31
0.0
  0
LINE
  5
257
330
1F
100
AcDbEntity
  8
0
  6
Continuous
 62
   142
420
    32960
370
     0
100
AcDbLine
 10
652.987115378
 20
12.780434715
 30
0.0
 11
648.3402537993
 21
10.920686531
 31
0.0
  0
LINE
  5
258
330
1F
100
AcDbEntity
  8
0
  6
Continuous
 62
     7
370
    15
100
AcDbLine
 10
-156.8571203776
 20
24.5342452482
 30
0.0
 11
-156.8571203776
 21
46.5342452482
 31
0.0
  0
LINE
  5
259
330
1F
100
AcDbEntity
  8
0
  6
Continuous
 62
     7
370
    15
100
AcDbLine
 10
568.5428796224
 20
-23.9657547518
 30
0.0
 11
568.5428796224
 21
-22.2657547518
 31
0.0
  0
LINE
  5
25A
330
1F
100
AcDbEntity
  8
0
  6
Continuous
 62
     7
370
    15
100
AcDbLine
 10
478.5428796224
 20
-23.9657547518
 30
0.0
 11
568.5428796224
 21
-23.9657547518
 31
0.0
  0
LINE
  5
25B
330
1F
100
AcDbEntity
  8
0
  6
Continuous
 62
     7
370
    15
100
AcDbLine
 10
478.5428796224
 20
-23.9657547518
 30
0.0
 11
478.5428796224
 21
-22.2657547518
 31
0.0
  0
LINE
  5
25C
330
1F
100
AcDbEntity
  8
0
  6
Continuous
 62
     7
370
    15
100
AcDbLine
 10
554.5025298427
 20
-86.9657547518
 30
0.0
 11
492.5832294021
 21
-86.9657547518
 31
0.0
  0
LINE
  5
25D
330
1F
100
AcDbEntity
  8
0
  6
Continuous
 62
     8
370
    15
100
AcDbLine
 10
552.0428796224
 20
-119.9657547518
 30
0.0
 11
495.0428796224
 21
-119.9657547518
 31
0.0
  0
LINE
  5
25E
330
1F
100
AcDbEntity
  8
0
  6
Continuous
 62
     8
370
    15
100
AcDbLine
 10
472.3613553514
 20
261.3342452482
 30
0.0
 11
472.3613553514
 21
259.7079830731
 31
0.0
  0
LWPOLYLINE
  5
25F
330
1F
100
AcDbEntity
  8
0
  6
Continuous
 62
     8
370
    15
100
AcDbPolyline
 90
        3
 70
   128
 43
0.0
 10
462.270407157
 20
261.3342452482
 10
462.3671516363
 20
260.9175430696
 10
462.4848121415
 20
259.7079830731
  0
LINE
  5
260
330
1F
100
AcDbEntity
  8
0
  6
Continuous
 62
     8
370
    15
100
AcDbLine
 10
490.3613553514
 20
261.3342452482
 30
0.0
 11
490.3613553514
 21
259.7079830731
 31
0.0
  0
LWPOLYLINE
  5
261
330
1F
100
AcDbEntity
  8
0
  6
Continuous
 62
     8
370
    15
100
AcDbPolyline
 90
        3
 70
   128
 43
0.0
 10
500.4523035457
 20
261.3342452482
 10
500.3555590664
 20
260.9175430696
 10
500.2378985612
 20
259.7079830731
  0
LINE
  5
262
330
1F
100
AcDbEntity
  8
0
  6
Continuous
 62
     8
370
    15
100
AcDbLine
 10
490.3613553514
 20
259.3342452482
 30
0.0
 11
490.3613553514
 21
259.7079830731
 31
0.0
  0
LINE
  5
263
330
1F
100
AcDbEntity
  8
0
  6
Continuous
 62
     8
370
    15
100
AcDbLine
 10
500.3613553514
 20
259.7079830731
 30
0.0
 11
501.4230837464
 21
259.7079830731
 31
0.0
  0
LINE
  5
264
330
1F
100
AcDbEntity
  8
0
  6
Continuous
 62
     8
370
    15
100
AcDbLine
 10
656.2428796224
 20
42.2965707211
 30
0.0
 11
656.2428796224
 21
47.6965707211
 31
0.0
  0
LINE
  5
265
330
1F
100
AcDbEntity
  8
0
  6
Continuous
 62
     8
370
    15
100
AcDbLine
 10
656.2428796224
 20
36.8965707211
 30
0.0
 11
656.2428796224
 21
42.2965707211
 31
0.0
  0
LINE
  5
266
330
1F
100
AcDbEntity
  8
0
  6
Continuous
 62
     8
370
    15
100
AcDbLine
 10
39.5428796224
 20
-22.6657547518
 30
0.0
 11
39.5428796224
 21
-22.2657547518
 31
0.0
  0
LINE
  5
267
330
1F
100
AcDbEntity
  8
0
  6
Continuous
 62
     8
370
    15
100
AcDbLine
 10
589.5428796224
 20
-22.6657547518
 30
0.0
 11
589.5428796224
 21
-22.1534292789
 31
0.0
  0
LINE
  5
268
330
1F
100
AcDbEntity
  8
0
  6
Continuous
 62
     8
370
    15
100
AcDbLine
 10
521.1925837631
 20
244.5842452482
 30
0.0
 11
521.2425837631
 21
244.5842452482
 31
0.0
  0
LINE
  5
269
330
1F
100
AcDbEntity
  8
0
  6
Continuous
 62
     8
370
    15
100
AcDbLine
 10
654.9142702988
 20
19.7015040144
 30
0.0
 11
654.9142702988
 21
36.8965707211
 31
0.0
  0
LINE
  5
26A
330
1F
100
AcDbEntity
  8
0
  6
Continuous
 62
     8
370
    15
100
AcDbLine
 10
654.9142702988
 20
47.6965707211
 30
0.0
 11
654.9142702988
 21
64.8916374277
 31
0.0
  0
LINE
  5
26B
330
1F
100
AcDbEntity
  8
0
  6
Continuous
 62
     8
370
    15
100
AcDbLine
 10
674.9532442997
 20
22.5312348258
 30
0.0
 11
674.9532442997
 21
25.9759127434
 31
0.0
  0
LINE
  5
26C
330
1F
100
AcDbEntity
  8
0
  6
Continuous
 62
     8
370
    15
100
AcDbLine
 10
-50.4571203776
 20
-25.4657547518
 30
0.0
 11
-82.3571203776
 21
-25.4657547518
 31
0.0
  0
LINE
  5
26D
330
1F
100
AcDbEntity
  8
0
  6
Continuous
 62
     8
370
    15
100
AcDbLine
 10
-18.5571203776
 20
-25.4657547518
 30
0.0
 11
-50.4571203776
 21
-25.4657547518
 31
0.0
  0
LINE
  5
26E
330
1F
100
AcDbEntity
  8
0
  6
Continuous
 62
     8
370
    15
100
AcDbLine
 10
-50.4571203776
 20
-81.7056520306
 30
0.0
 11
-82.2932071506
 21
-81.7056520306
 31
0.0
  0
LINE
  5
26F
330
1F
100
AcDbEntity
  8
0
  6
Continuous
 62
     8
370
    15
100
AcDbLine
 10
-18.6210336046
 20
-81.7056520306
 30
0.0
 11
-50.4571203776
 21
-81.7056520306
 31
0.0
  0
LINE
  5
270
330
1F
100
AcDbEntity
  8
0
  6
Continuous
 62
     8
370
    15
100
AcDbLine
 10
-50.4571203776
 20
-80.9331888061
 30
0.0
 11
-82.3571203776
 21
-80.9331888061
 31
0.0
  0
LINE
  5
271
330
1F
100
AcDbEntity
  8
0
  6
Continuous
 62
     8
370
    15
100
AcDbLine
 10
-18.5571203776
 20
-80.9331888061
 30
0.0
 11
-50.4571203776
 21
-80.9331888061
 31
0.0
  0
LINE
  5
272
330
1F
100
AcDbEntity
  8
0
  6
Continuous
 62
     8
370
    15
100
AcDbLine
 10
-50.4571203776
 20
-119.9657547518
 30
0.0
 11
-78.9571203776
 21
-119.9657547518
 31
0.0
  0
LINE
  5
273
330
1F
100
AcDbEntity
  8
0
  6
Continuous
 62
     8
370
    15
100
AcDbLine
 10
-21.9571203776
 20
-119.9657547518
 30
0.0
 11
-50.4571203776
 21
-119.9657547518
 31
0.0
  0
LINE
  5
274
330
1F
100
AcDbEntity
  8
0
  6
Continuous
 62
     8
370
    15
100
AcDbLine
 10
578.6425837631
 20
242.0842452482
 30
0.0
 11
578.7425837631
 21
242.0842452482
 31
0.0
  0
LINE
  5
275
330
1F
100
AcDbEntity
  8
0
  6
Continuous
 62
     8
370
    15
100
AcDbLine
 10
614.7093922616
 20
280.4295075825
 30
0.0
 11
614.7093922616
 21
280.7342452482
 31
0.0
  0
LINE
  5
276
330
1F
100
AcDbEntity
  8
0
  6
Continuous
 62
     8
370
    15
100
AcDbLine
 10
523.3925837631
 20
280.7342452482
 30
0.0
 11
523.3925837631
 21
280.4342452482
 31
0.0
  0
LINE
  5
277
330
1F
100
AcDbEntity
  8
0
  6
Continuous
 62
     8
370
    15
100
AcDbLine
 10
624.0002455675
 20
236.066745515
 30
0.0
 11
623.7479836471
 21
236.6469082126
 31
0.0
  0
LINE
  5
278
330
1F
100
AcDbEntity
  8
0
  6
Continuous
 62
     8
370
    15
100
AcDbLine
 10
578.0880625154
 20
242.0842452482
 30
0.0
 11
578.3311887333
 21
242.0842452482
 31
0.0
  0
LINE
  5
279
330
1F
100
AcDbEntity
  8
0
  6
Continuous
 62
     8
370
    15
100
AcDbLine
 10
578.5428796224
 20
242.0842452482
 30
0.0
 11
578.6425837631
 21
242.0842452482
 31
0.0
  0
LINE
  5
27A
330
1F
100
AcDbEntity
  8
0
  6
Continuous
 62
     8
370
    15
100
AcDbLine
 10
555.4428796224
 20
-25.4657547518
 30
0.0
 11
491.6428796224
 21
-25.4657547518
 31
0.0
  0
LINE
  5
27B
330
1F
100
AcDbEntity
  8
0
  6
Continuous
 62
     8
370
    15
100
AcDbLine
 10
555.3789663954
 20
-81.7056520306
 30
0.0
 11
491.7067928494
 21
-81.7056520306
 31
0.0
  0
LINE
  5
27C
330
1F
100
AcDbEntity
  8
0
  6
Continuous
 62
     8
370
    15
100
AcDbLine
 10
555.4428796224
 20
-80.9331888061
 30
0.0
 11
491.6428796224
 21
-80.9331888061
 31
0.0
  0
ENDSEC
  0
SECTION
  2
OBJECTS
  0
DICTIONARY
  5
C
330
0
100
AcDbDictionary
281
     1
  3
ACAD_GROUP
350
D
  3
ACAD_LAYOUT
350
1A
  3
ACAD_MATERIAL
350
3B
  3
ACAD_MLEADERSTYLE
350
27E
  3
ACAD_MLINESTYLE
350
17
  3
ACAD_PLOTSETTINGS
350
19
  3
ACAD_PLOTSTYLENAME
350
E
  3
ACAD_TABLESTYLE
350
27D
  3
ACAD_VISUALSTYLE
350
2A
  0
DICTIONARY
  5
D
102
{ACAD_REACTORS
330
C
102
}
330
C
100
AcDbDictionary
281
     1
  0
DICTIONARY
  5
1A
102
{ACAD_REACTORS
330
C
102
}
330
C
100
AcDbDictionary
281
     1
  3
Layout1
350
1E
  3
Layout2
350
26
  3
Model
350
22
  0
DICTIONARY
  5
3B
102
{ACAD_REACTORS
330
C
102
}
330
C
100
AcDbDictionary
281
     1
  3
ByBlock
350
3D
  3
ByLayer
350
3C
  3
Global
350
3E
  0
DICTIONARY
  5
27E
102
{ACAD_REACTORS
330
C
102
}
330
C
100
AcDbDictionary
281
     1
  0
DICTIONARY
  5
17
102
{ACAD_REACTORS
330
C
102
}
330
C
100
AcDbDictionary
281
     1
  3
Standard
350
18
  0
DICTIONARY
  5
19
102
{ACAD_REACTORS
330
C
102
}
330
C
100
AcDbDictionary
281
     1
  0
ACDBDICTIONARYWDFLT
  5
E
102
{ACAD_REACTORS
330
C
102
}
330
C
100
AcDbDictionary
281
     1
  3
Normal
350
F
100
AcDbDictionaryWithDefault
340
F
  0
DICTIONARY
  5
27D
102
{ACAD_REACTORS
330
C
102
}
330
C
100
AcDbDictionary
281
     1
  0
DICTIONARY
  5
2A
102
{ACAD_REACTORS
330
C
102
}
330
C
100
AcDbDictionary
281
     1
  3
2dWireframe
350
2F
  3
3D Hidden
350
31
  3
3dWireframe
350
30
  3
Basic
350
32
  3
Brighten
350
36
  3
ColorChange
350
3A
  3
Conceptual
350
34
  3
Dim
350
35
  3
Facepattern
350
39
  3
Flat
350
2B
  3
FlatWithEdges
350
2C
  3
Gouraud
350
2D
  3
GouraudWithEdges
350
2E
  3
Linepattern
350
38
  3
Realistic
350
33
  3
Thicken
350
37
  0
LAYOUT
  5
1E
102
{ACAD_REACTORS
330
1A
102
}
330
1A
100
AcDbPlotSettings
  1

  2
none_device
  4

  6

 40
0.0
 41
0.0
 42
0.0
 43
0.0
 44
0.0
 45
0.0
 46
0.0
 47
0.0
 48
0.0
 49
0.0
140
0.0
141
0.0
142
1.0
143
1.0
 70
   688
 72
     0
 73
     0
 74
     5
  7

 75
    16
 76
     0
 77
     2
 78
   300
147
1.0
148
0.0
149
0.0
100
AcDbLayout
  1
Layout1
 70
     1
 71
     1
 10
0.0
 20
0.0
 11
420.0
 21
297.0
 12
0.0
 22
0.0
 32
0.0
 14
1.0000000000E+20
 24
1.0000000000E+20
 34
1.0000000000E+20
 15
-1.0000000000E+20
 25
-1.0000000000E+20
 35
-1.0000000000E+20
146
0.0
 13
0.0
 23
0.0
 33
0.0
 16
1.0
 26
0.0
 36
0.0
 17
0.0
 27
1.0
 37
0.0
 76
     0
330
1B
  0
LAYOUT
  5
26
102
{ACAD_REACTORS
330
1A
102
}
330
1A
100
AcDbPlotSettings
  1

  2
none_device
  4

  6

 40
0.0
 41
0.0
 42
0.0
 43
0.0
 44
0.0
 45
0.0
 46
0.0
 47
0.0
 48
0.0
 49
0.0
140
0.0
141
0.0
142
1.0
143
1.0
 70
   688
 72
     0
 73
     0
 74
     5
  7

 75
    16
 76
     0
 77
     2
 78
   300
147
1.0
148
0.0
149
0.0
100
AcDbLayout
  1
Layout2
 70
     1
 71
     2
 10
0.0
 20
0.0
 11
0.0
 21
0.0
 12
0.0
 22
0.0
 32
0.0
 14
0.0
 24
0.0
 34
0.0
 15
0.0
 25
0.0
 35
0.0
146
0.0
 13
0.0
 23
0.0
 33
0.0
 16
1.0
 26
0.0
 36
0.0
 17
0.0
 27
1.0
 37
0.0
 76
     0
330
23
  0
LAYOUT
  5
22
102
{ACAD_REACTORS
330
1A
102
}
330
1A
100
AcDbPlotSettings
  1

  2
none_device
  4

  6

 40
0.0
 41
0.0
 42
0.0
 43
0.0
 44
0.0
 45
0.0
 46
0.0
 47
0.0
 48
0.0
 49
0.0
140
0.0
141
0.0
142
1.0
143
1.0
 70
  1712
 72
     0
 73
     0
 74
     0
  7

 75
     0
 76
     0
 77
     2
 78
   300
147
1.0
148
0.0
149
0.0
100
AcDbLayout
  1
Model
 70
     1
 71
     0
 10
0.0
 20
0.0
 11
420.0
 21
297.0
 12
0.0
 22
0.0
 32
0.0
 14
0.0
 24
0.0
 34
0.0
 15
420.0
 25
297.0
 35
0.0
146
0.0
 13
0.0
 23
0.0
 33
0.0
 16
1.0
 26
0.0
 36
0.0
 17
0.0
 27
1.0
 37
0.0
 76
     0
330
1F
331
29
  0
MATERIAL
  5
3D
102
{ACAD_REACTORS
330
3B
102
}
330
3B
100
AcDbMaterial
  1
ByBlock
 72
     1
 94
      127
  0
MATERIAL
  5
3C
102
{ACAD_REACTORS
330
3B
102
}
330
3B
100
AcDbMaterial
  1
ByLayer
 72
     1
 94
      127
  0
MATERIAL
  5
3E
102
{ACAD_REACTORS
330
3B
102
}
330
3B
100
AcDbMaterial
  1
Global
 72
     1
 94
      127
  0
MLINESTYLE
  5
18
102
{ACAD_REACTORS
330
17
102
}
330
17
100
AcDbMlineStyle
  2
Standard
 70
     0
  3

 62
   256
 51
90.0
 52
90.0
 71
     2
 49
0.5
 62
   256
  6
BYLAYER
 49
-0.5
 62
   256
  6
BYLAYER
  0
ACDBPLACEHOLDER
  5
F
102
{ACAD_REACTORS
330
E
102
}
330
E
  0
VISUALSTYLE
  5
2F
102
{ACAD_REACTORS
330
2A
102
}
330
2A
100
AcDbVisualStyle
  2
2dWireframe
 70
     4
 71
     0
 72
     2
 73
     0
 90
        0
 40
-0.6
 41
-30.0
 62
     5
 63
     7
421
 16777215
 74
     1
 91
        4
 64
     7
 65
   257
 75
     1
175
     1
 42
1.0
 92
        0
 66
   257
 43
1.0
 76
     1
 77
     6
 78
     2
 67
     7
 79
     5
170
     0
171
     0
290
     0
174
     0
 93
        1
 44
0.0
173
     0
291
     0
 45
0.0
  0
VISUALSTYLE
  5
31
102
{ACAD_REACTORS
330
2A
102
}
330
2A
100
AcDbVisualStyle
  2
3D Hidden
 70
     6
 71
     1
 72
     2
 73
     2
 90
        0
 40
-0.6
 41
-30.0
 62
     5
 63
     7
421
 16777215
 74
     2
 91
        2
 64
     7
 65
   257
 75
     2
175
     1
 42
40.0
 92
        0
 66
   257
 43
1.0
 76
     1
 77
     6
 78
     2
 67
     7
 79
     3
170
     0
171
     0
290
     0
174
     0
 93
        1
 44
0.0
173
     0
291
     0
 45
0.0
  0
VISUALSTYLE
  5
30
102
{ACAD_REACTORS
330
2A
102
}
330
2A
100
AcDbVisualStyle
  2
3dWireframe
 70
     5
 71
     0
 72
     2
 73
     0
 90
        0
 40
-0.6
 41
-30.0
 62
     5
 63
     7
421
 16777215
 74
     1
 91
        4
 64
     7
 65
   257
 75
     1
175
     1
 42
1.0
 92
        0
 66
   257
 43
1.0
 76
     1
 77
     6
 78
     2
 67
     7
 79
     5
170
     0
171
     0
290
     0
174
     0
 93
        1
 44
0.0
173
     0
291
     0
 45
0.0
  0
VISUALSTYLE
  5
32
102
{ACAD_REACTORS
330
2A
102
}
330
2A
100
AcDbVisualStyle
  2
Basic
 70
     7
 71
     1
 72
     0
 73
     1
 90
        0
 40
-0.6
 41
-30.0
 62
     5
 63
     7
421
 16777215
 74
     0
 91
        4
 64
     7
 65
   257
 75
     1
175
     1
 42
1.0
 92
        8
 66
     7
 43
1.0
 76
     1
 77
     6
 78
     2
 67
     7
 79
     5
170
     0
171
     0
290
     0
174
     0
 93
        1
 44
0.0
173
     0
291
     1
 45
0.0
  0
VISUALSTYLE
  5
36
102
{ACAD_REACTORS
330
2A
102
}
330
2A
100
AcDbVisualStyle
  2
Brighten
 70
    12
 71
     2
 72
     2
 73
     0
 90
        0
 40
-0.6
 41
-30.0
 62
     5
 63
     7
421
 16777215
 74
     1
 91
        4
 64
     7
 65
   257
 75
     1
175
     1
 42
1.0
 92
        8
 66
     7
 43
1.0
 76
     1
 77
     6
 78
     2
 67
     7
 79
     5
170
     0
171
     0
290
     0
174
     0
 93
        1
 44
50.0
173
     0
291
     1
 45
0.0
  0
VISUALSTYLE
  5
3A
102
{ACAD_REACTORS
330
2A
102
}
330
2A
100
AcDbVisualStyle
  2
ColorChange
 70
    16
 71
     2
 72
     2
 73
     3
 90
        0
 40
-0.6
 41
-30.0
 62
     5
 63
     8
421
  8421504
 74
     1
 91
        4
 64
     7
 65
   257
 75
     1
175
     1
 42
1.0
 92
        8
 66
     8
424
  8421504
 43
1.0
 76
     1
 77
     6
 78
     2
 67
     7
 79
     5
170
     0
171
     0
290
     0
174
     0
 93
        1
 44
0.0
173
     0
291
     1
 45
0.0
  0
VISUALSTYLE
  5
34
102
{ACAD_REACTORS
330
2A
102
}
330
2A
100
AcDbVisualStyle
  2
Conceptual
 70
     9
 71
     3
 72
     2
 73
     0
 90
        0
 40
-0.6
 41
-30.0
 62
     5
 63
     7
421
 16777215
 74
     2
 91
        2
 64
     7
 65
   257
 75
     1
175
     1
 42
40.0
 92
        8
 66
     7
 43
1.0
 76
     1
 77
     6
 78
     2
 67
     7
 79
     3
170
     0
171
     0
290
     0
174
     0
 93
        1
 44
0.0
173
     0
291
     0
 45
0.0
  0
VISUALSTYLE
  5
35
102
{ACAD_REACTORS
330
2A
102
}
330
2A
100
AcDbVisualStyle
  2
Dim
 70
    11
 71
     2
 72
     2
 73
     0
 90
        0
 40
-0.6
 41
-30.0
 62
     5
 63
     7
421
 16777215
 74
     1
 91
        4
 64
     7
 65
   257
 75
     1
175
     1
 42
1.0
 92
        8
 66
     7
 43
1.0
 76
     1
 77
     6
 78
     2
 67
     7
 79
     5
170
     0
171
     0
290
     0
174
     0
 93
        1
 44
-50.0
173
     0
291
     1
 45
0.0
  0
VISUALSTYLE
  5
39
102
{ACAD_REACTORS
330
2A
102
}
330
2A
100
AcDbVisualStyle
  2
Facepattern
 70
    15
 71
     2
 72
     2
 73
     0
 90
        0
 40
-0.6
 41
-30.0
 62
     5
 63
     7
421
 16777215
 74
     1
 91
        4
 64
     7
 65
   257
 75
     1
175
     1
 42
1.0
 92
        8
 66
     7
 43
1.0
 76
     1
 77
     6
 78
     2
 67
     7
 79
     5
170
     0
171
     0
290
     0
174
     0
 93
        1
 44
0.0
173
     0
291
     1
 45
0.0
  0
VISUALSTYLE
  5
2B
102
{ACAD_REACTORS
330
2A
102
}
330
2A
100
AcDbVisualStyle
  2
Flat
 70
     0
 71
     2
 72
     1
 73
     1
 90
        2
 40
-0.6
 41
30.0
 62
     5
 63
     7
421
 16777215
 74
     0
 91
        4
 64
     7
 65
   257
 75
     1
175
     1
 42
1.0
 92
        8
 66
     7
 43
1.0
 76
     1
 77
     6
 78
     2
 67
     7
 79
     5
170
     0
171
     0
290
     0
174
     0
 93
       13
 44
0.0
173
     0
291
     1
 45
0.0
  0
VISUALSTYLE
  5
2C
102
{ACAD_REACTORS
330
2A
102
}
330
2A
100
AcDbVisualStyle
  2
FlatWithEdges
 70
     1
 71
     2
 72
     1
 73
     1
 90
        2
 40
-0.6
 41
30.0
 62
     5
 63
     7
421
 16777215
 74
     1
 91
        4
 64
     7
 65
   257
 75
     1
175
     1
 42
1.0
 92
        0
 66
   257
 43
1.0
 76
     1
 77
     6
 78
     2
 67
     7
 79
     5
170
     0
171
     0
290
     0
174
     0
 93
       13
 44
0.0
173
     0
291
     1
 45
0.0
  0
VISUALSTYLE
  5
2D
102
{ACAD_REACTORS
330
2A
102
}
330
2A
100
AcDbVisualStyle
  2
Gouraud
 70
     2
 71
     2
 72
     2
 73
     1
 90
        2
 40
-0.6
 41
30.0
 62
     5
 63
     7
421
 16777215
 74
     0
 91
        4
 64
     7
 65
   257
 75
     1
175
     1
 42
1.0
 92
        0
 66
     7
 43
1.0
 76
     1
 77
     6
 78
     2
 67
     7
 79
     5
170
     0
171
     0
290
     0
174
     0
 93
       13
 44
0.0
173
     0
291
     1
 45
0.0
  0
VISUALSTYLE
  5
2E
102
{ACAD_REACTORS
330
2A
102
}
330
2A
100
AcDbVisualStyle
  2
GouraudWithEdges
 70
     3
 71
     2
 72
     2
 73
     1
 90
        2
 40
-0.6
 41
30.0
 62
     5
 63
     7
421
 16777215
 74
     1
 91
        4
 64
     7
 65
   257
 75
     1
175
     1
 42
1.0
 92
        0
 66
   257
 43
1.0
 76
     1
 77
     6
 78
     2
 67
     7
 79
     5
170
     0
171
     0
290
     0
174
     0
 93
       13
 44
0.0
173
     0
291
     1
 45
0.0
  0
VISUALSTYLE
  5
38
102
{ACAD_REACTORS
330
2A
102
}
330
2A
100
AcDbVisualStyle
  2
Linepattern
 70
    14
 71
     2
 72
     2
 73
     0
 90
        0
 40
-0.6
 41
-30.0
 62
     5
 63
     7
421
 16777215
 74
     1
 91
        4
 64
     7
 65
   257
 75
     7
175
     7
 42
1.0
 92
        8
 66
     7
 43
1.0
 76
     1
 77
     6
 78
     2
 67
     7
 79
     5
170
     0
171
     0
290
     0
174
     0
 93
        1
 44
0.0
173
     0
291
     1
 45
0.0
  0
VISUALSTYLE
  5
33
102
{ACAD_REACTORS
330
2A
102
}
330
2A
100
AcDbVisualStyle
  2
Realistic
 70
     8
 71
     2
 72
     2
 73
     0
 90
        0
 40
-0.6
 41
-30.0
 62
     5
 63
     7
421
 16777215
 74
     1
 91
        0
 64
     7
 65
   257
 75
     1
175
     1
 42
1.0
 92
        8
 66
     8
424
  7895160
 43
1.0
 76
     1
 77
     6
 78
     2
 67
     7
 79
     5
170
     0
171
     0
290
     0
174
     0
 93
       13
 44
0.0
173
     0
291
     0
 45
0.0
  0
VISUALSTYLE
  5
37
102
{ACAD_REACTORS
330
2A
102
}
330
2A
100
AcDbVisualStyle
  2
Thicken
 70
    13
 71
     2
 72
     2
 73
     0
 90
        0
 40
-0.6
 41
-30.0
 62
     5
 63
     7
421
 16777215
 74
     1
 91
        4
 64
     7
 65
   257
 75
     1
175
     1
 42
1.0
 92
       12
 66
     7
 43
1.0
 76
     1
 77
     6
 78
     2
 67
     7
 79
     5
170
     0
171
     0
290
     0
174
     0
 93
        1
 44
0.0
173
     0
291
     1
 45
0.0
  0
ENDSEC
  0
EOF
