  0
SECTION
  2
HEADER
  9
$ACADVER
  1
AC1015
  9
$ACADMAINTVER
 70
     6
  9
$DWGCODEPAGE
  3
ANSI_1252
  9
$INSBASE
 10
0.0
 20
0.0
 30
0.0
  9
$EXTMIN
 10
0.0
 20
0.0
 30
0.0
  9
$EXTMAX
 10
420.0
 20
297.0
 30
0.0
  9
$LIMMIN
 10
0.0
 20
0.0
  9
$LIMMAX
 10
420.0
 20
297.0
  9
$ORTHOMODE
 70
     0
  9
$REGENMODE
 70
     1
  9
$FILLMODE
 70
     1
  9
$QTEXTMODE
 70
     0
  9
$MIRRTEXT
 70
     1
  9
$LTSCALE
 40
1.0
  9
$ATTMODE
 70
     1
  9
$TEXTSIZE
 40
3.5
  9
$TRACEWID
 40
1.0
  9
$TEXTSTYLE
  7
Standard
  9
$CLAYER
  8
0
  9
$CELTYPE
  6
ByLayer
  9
$CECOLOR
 62
   256
  9
$CELTSCALE
 40
1.0
  9
$DISPSILH
 70
     0
  9
$DIMSCALE
 40
1.0
  9
$DIMASZ
 40
3.302
  9
$DIMEXO
 40
1.0
  9
$DIMDLI
 40
3.75
  9
$DIMRND
 40
0.0
  9
$DIMDLE
 40
0.0
  9
$DIMEXE
 40
1.0
  9
$DIMTP
 40
0.0
  9
$DIMTM
 40
0.0
  9
$DIMTXT
 40
3.5
  9
$DIMCEN
 40
2.5
  9
$DIMTSZ
 40
0.0
  9
$DIMTOL
 70
     0
  9
$DIMLIM
 70
     0
  9
$DIMTIH
 70
     1
  9
$DIMTOH
 70
     1
  9
$DIMSE1
 70
     0
  9
$DIMSE2
 70
     0
  9
$DIMTAD
 70
     1
  9
$DIMZIN
 70
     0
  9
$DIMBLK
  1

  9
$DIMASO
 70
     1
  9
$DIMSHO
 70
     1
  9
$DIMPOST
  1

  9
$DIMAPOST
  1

  9
$DIMALT
 70
     0
  9
$DIMALTD
 70
     3
  9
$DIMALTF
 40
0.0393700787
  9
$DIMLFAC
 40
10.0
  9
$DIMTOFL
 70
     1
  9
$DIMTVP
 40
0.0
  9
$DIMTIX
 70
     0
  9
$DIMSOXD
 70
     0
  9
$DIMSAH
 70
     0
  9
$DIMBLK1
  1

  9
$DIMBLK2
  1

  9
$DIMSTYLE
  2
ISO-25
  9
$DIMCLRD
 70
     0
  9
$DIMCLRE
 70
     0
  9
$DIMCLRT
 70
     0
  9
$DIMTFAC
 40
1.0
  9
$DIMGAP
 40
1.524
  9
$DIMJUST
 70
     0
  9
$DIMSD1
 70
     0
  9
$DIMSD2
 70
     0
  9
$DIMTOLJ
 70
     0
  9
$DIMTZIN
 70
     0
  9
$DIMALTZ
 70
     0
  9
$DIMALTTZ
 70
     0
  9
$DIMUPT
 70
     0
  9
$DIMDEC
 70
     1
  9
$DIMTDEC
 70
     1
  9
$DIMALTU
 70
     2
  9
$DIMALTTD
 70
     3
  9
$DIMTXSTY
  7
Standard
  9
$DIMAUNIT
 70
     0
  9
$DIMADEC
 70
     1
  9
$DIMALTRND
 40
0.0
  9
$DIMAZIN
 70
     0
  9
$DIMDSEP
 70
    44
  9
$DIMATFIT
 70
     3
  9
$DIMFRAC
 70
     0
  9
$DIMLDRBLK
  1

  9
$DIMLUNIT
 70
     2
  9
$DIMLWD
 70
    -2
  9
$DIMLWE
 70
    -2
  9
$DIMTMOVE
 70
     0
  9
$LUNITS
 70
     2
  9
$LUPREC
 70
     1
  9
$SKETCHINC
 40
1.0
  9
$FILLETRAD
 40
10.0
  9
$AUNITS
 70
     0
  9
$AUPREC
 70
     1
  9
$MENU
  1
.
  9
$ELEVATION
 40
0.0
  9
$PELEVATION
 40
0.0
  9
$THICKNESS
 40
0.0
  9
$LIMCHECK
 70
     0
  9
$CHAMFERA
 40
10.0
  9
$CHAMFERB
 40
10.0
  9
$CHAMFERC
 40
20.0
  9
$CHAMFERD
 40
0.0
  9
$SKPOLY
 70
     0
  9
$TDCREATE
 40
2455768.532256482
  9
$TDUCREATE
 40
2455768.490589815
  9
$TDUPDATE
 40
2455768.532256493
  9
$TDUUPDATE
 40
2455768.490589826
  9
$TDINDWG
 40
0.0000000116
  9
$TDUSRTIMER
 40
0.0000000116
  9
$USRTIMER
 70
     1
  9
$ANGBASE
 50
0.0
  9
$ANGDIR
 70
     0
  9
$PDMODE
 70
     0
  9
$PDSIZE
 40
-1.0
  9
$PLINEWID
 40
0.0
  9
$SPLFRAME
 70
     0
  9
$SPLINETYPE
 70
     6
  9
$SPLINESEGS
 70
     8
  9
$HANDSEED
  5
300
  9
$SURFTAB1
 70
     6
  9
$SURFTAB2
 70
     6
  9
$SURFTYPE
 70
     6
  9
$SURFU
 70
     6
  9
$SURFV
 70
     6
  9
$UCSBASE
  2

  9
$UCSNAME
  2

  9
$UCSORG
 10
0.0
 20
0.0
 30
0.0
  9
$UCSXDIR
 10
1.0
 20
0.0
 30
0.0
  9
$UCSYDIR
 10
0.0
 20
1.0
 30
0.0
  9
$UCSORTHOREF
  2

  9
$UCSORTHOVIEW
 70
     0
  9
$UCSORGTOP
 10
0.0
 20
0.0
 30
0.0
  9
$UCSORGBOTTOM
 10
0.0
 20
0.0
 30
0.0
  9
$UCSORGLEFT
 10
0.0
 20
0.0
 30
0.0
  9
$UCSORGRIGHT
 10
0.0
 20
0.0
 30
0.0
  9
$UCSORGFRONT
 10
0.0
 20
0.0
 30
0.0
  9
$UCSORGBACK
 10
0.0
 20
0.0
 30
0.0
  9
$PUCSBASE
  2

  9
$PUCSNAME
  2

  9
$PUCSORG
 10
0.0
 20
0.0
 30
0.0
  9
$PUCSXDIR
 10
1.0
 20
0.0
 30
0.0
  9
$PUCSYDIR
 10
0.0
 20
1.0
 30
0.0
  9
$PUCSORTHOREF
  2

  9
$PUCSORTHOVIEW
 70
     0
  9
$PUCSORGTOP
 10
0.0
 20
0.0
 30
0.0
  9
$PUCSORGBOTTOM
 10
0.0
 20
0.0
 30
0.0
  9
$PUCSORGLEFT
 10
0.0
 20
0.0
 30
0.0
  9
$PUCSORGRIGHT
 10
0.0
 20
0.0
 30
0.0
  9
$PUCSORGFRONT
 10
0.0
 20
0.0
 30
0.0
  9
$PUCSORGBACK
 10
0.0
 20
0.0
 30
0.0
  9
$USERI1
 70
     0
  9
$USERI2
 70
     0
  9
$USERI3
 70
     0
  9
$USERI4
 70
     0
  9
$USERI5
 70
     0
  9
$USERR1
 40
0.0
  9
$USERR2
 40
0.0
  9
$USERR3
 40
0.0
  9
$USERR4
 40
0.0
  9
$USERR5
 40
0.0
  9
$WORLDVIEW
 70
     1
  9
$SHADEDGE
 70
     3
  9
$SHADEDIF
 70
    70
  9
$TILEMODE
 70
     1
  9
$MAXACTVP
 70
    64
  9
$PINSBASE
 10
0.0
 20
0.0
 30
0.0
  9
$PLIMCHECK
 70
     0
  9
$PEXTMIN
 10
1.0000000000E+20
 20
1.0000000000E+20
 30
1.0000000000E+20
  9
$PEXTMAX
 10
-1.0000000000E+20
 20
-1.0000000000E+20
 30
-1.0000000000E+20
  9
$PLIMMIN
 10
0.0
 20
0.0
  9
$PLIMMAX
 10
420.0
 20
297.0
  9
$UNITMODE
 70
     0
  9
$VISRETAIN
 70
     1
  9
$PLINEGEN
 70
     0
  9
$PSLTSCALE
 70
     1
  9
$TREEDEPTH
 70
  3020
  9
$CMLSTYLE
  2
Standard
  9
$CMLJUST
 70
     0
  9
$CMLSCALE
 40
20.0
  9
$PROXYGRAPHICS
 70
     1
  9
$MEASUREMENT
 70
     1
  9
$CELWEIGHT
370
    -1
  9
$ENDCAPS
280
     0
  9
$JOINSTYLE
280
     0
  9
$LWDISPLAY
290
     1
  9
$INSUNITS
 70
     4
  9
$HYPERLINKBASE
  1

  9
$STYLESHEET
  1

  9
$XEDIT
290
     1
  9
$CEPSNTYPE
380
     0
  9
$PSTYLEMODE
290
     1
  9
$FINGERPRINTGUID
  2
{463B675F-885C-42A3-863C-322C792BD643}
  9
$VERSIONGUID
  2
{FAEB1C32-E019-11D5-929B-00C0DF256EC4}
  9
$EXTNAMES
290
     1
  9
$PSVPSCALE
 40
0.0
  9
$OLESTARTUP
290
     0
  0
ENDSEC
  0
SECTION
  2
CLASSES
  0
CLASS
  1
ACDBDICTIONARYWDFLT
  2
AcDbDictionaryWithDefault
  3
ObjectDBX Classes
 90
        0
280
     0
281
     0
  0
CLASS
  1
VISUALSTYLE
  2
AcDbVisualStyle
  3
ObjectDBX Classes
 90
     4095
280
     0
281
     0
  0
CLASS
  1
MATERIAL
  2
AcDbMaterial
  3
ObjectDBX Classes
 90
     1153
280
     0
281
     0
  0
CLASS
  1
ACDBPLACEHOLDER
  2
AcDbPlaceHolder
  3
ObjectDBX Classes
 90
        0
280
     0
281
     0
  0
CLASS
  1
LAYOUT
  2
AcDbLayout
  3
ObjectDBX Classes
 90
        0
280
     0
281
     0
  0
ENDSEC
  0
SECTION
  2
TABLES
  0
TABLE
  2
VPORT
  5
8
330
0
100
AcDbSymbolTable
 70
     1
  0
VPORT
  5
29
330
8
100
AcDbSymbolTableRecord
100
AcDbViewportTableRecord
  2
*Active
 70
     0
 10
0.0
 20
0.0
 11
1.0
 21
1.0
 12
210.0
 22
148.5
 13
0.0
 23
0.0
 14
10.0
 24
10.0
 15
10.0
 25
10.0
 16
0.0
 26
0.0
 36
1.0
 17
0.0
 27
0.0
 37
0.0
 40
297.0
 41
1.4141414141
 42
50.0
 43
0.0
 44
0.0
 50
0.0
 51
0.0
 71
     0
 72
  2000
 73
     1
 74
     3
 75
     0
 76
     0
 77
     0
 78
     0
281
     0
 65
     1
110
0.0
120
0.0
130
0.0
111
1.0
121
0.0
131
0.0
112
0.0
122
1.0
132
0.0
 79
     0
146
0.0
  0
ENDTAB
  0
TABLE
  2
LTYPE
  5
5
330
0
100
AcDbSymbolTable
 70
     6
  0
LTYPE
  5
14
330
5
100
AcDbSymbolTableRecord
100
AcDbLinetypeTableRecord
  2
ByBlock
 70
     0
  3

 72
    65
 73
     0
 40
0.0
  0
LTYPE
  5
15
330
5
100
AcDbSymbolTableRecord
100
AcDbLinetypeTableRecord
  2
ByLayer
 70
     0
  3

 72
    65
 73
     0
 40
0.0
  0
LTYPE
  5
16
330
5
100
AcDbSymbolTableRecord
100
AcDbLinetypeTableRecord
  2
Continuous
 70
     0
  3
Solid line
 72
    65
 73
     0
 40
0.0
  0
LTYPE
  5
3F
330
5
100
AcDbSymbolTableRecord
100
AcDbLinetypeTableRecord
  2
HIDDEN
 70
     0
  3
Hidden __ __ __ __ __ __ __ __ __ __ __ __ __ __
 72
    65
 73
     2
 40
1.905
 49
1.27
 74
     0
 49
-0.635
 74
     0
  0
LTYPE
  5
40
330
5
100
AcDbSymbolTableRecord
100
AcDbLinetypeTableRecord
  2
PHANTOM
 70
     0
  3
Phantom ______  __  __  ______  __  __  ______
 72
    65
 73
     6
 40
12.7
 49
6.35
 74
     0
 49
-1.27
 74
     0
 49
1.27
 74
     0
 49
-1.27
 74
     0
 49
1.27
 74
     0
 49
-1.27
 74
     0
  0
LTYPE
  5
41
330
5
100
AcDbSymbolTableRecord
100
AcDbLinetypeTableRecord
  2
CENTER
 70
     0
  3
Center ____ _ ____ _ ____ _ ____ _ ____ _ ____
 72
    65
 73
     4
 40
10.16
 49
6.35
 74
     0
 49
-1.27
 74
     0
 49
1.27
 74
     0
 49
-1.27
 74
     0
  0
LTYPE
  5
42
330
5
100
AcDbSymbolTableRecord
100
AcDbLinetypeTableRecord
  2
CENTERX2
 70
     0
  3
Center (2x) ________  __  ________  __  _____
 72
    65
 73
     4
 40
20.32
 49
12.7
 74
     0
 49
-2.54
 74
     0
 49
2.54
 74
     0
 49
-2.54
 74
     0
  0
LTYPE
  5
43
330
5
100
AcDbSymbolTableRecord
100
AcDbLinetypeTableRecord
  2
DOT2
 70
     0
  3
Dot (.5x) ........................................
 72
    65
 73
     2
 40
0.635
 49
0.0
 74
     0
 49
-0.635
 74
     0
  0
ENDTAB
  0
TABLE
  2
LAYER
  5
2
330
0
100
AcDbSymbolTable
 70
     4
  0
LAYER
  5
10
330
2
100
AcDbSymbolTableRecord
100
AcDbLayerTableRecord
  2
0
 70
     0
 62
     7
  6
Continuous
370
    -3
390
F
  0
LAYER
  5
44
330
2
100
AcDbSymbolTableRecord
100
AcDbLayerTableRecord
  2
FORMAT
 70
     0
 62
     7
  6
Continuous
370
    -3
390
F
  0
LAYER
  5
45
330
2
100
AcDbSymbolTableRecord
100
AcDbLayerTableRecord
  2
SLD-0
 70
     0
 62
     1
  6
Continuous
370
    -3
390
F
  0
LAYER
  5
46
330
2
100
AcDbSymbolTableRecord
100
AcDbLayerTableRecord
  2
WATERMARK
 70
     0
 62
    20
  6
Continuous
370
    -3
390
F
  0
ENDTAB
  0
TABLE
  2
STYLE
  5
3
330
0
100
AcDbSymbolTable
 70
     1
  0
STYLE
  5
11
330
3
100
AcDbSymbolTableRecord
100
AcDbTextStyleTableRecord
  2
Standard
 70
     0
 40
0.0
 41
1.0
 50
0.0
 71
     0
 42
2.5
  3
txt
  4

  0
ENDTAB
  0
TABLE
  2
VIEW
  5
6
330
0
100
AcDbSymbolTable
 70
     0
  0
ENDTAB
  0
TABLE
  2
UCS
  5
7
330
0
100
AcDbSymbolTable
 70
     0
  0
ENDTAB
  0
TABLE
  2
APPID
  5
9
330
0
100
AcDbSymbolTable
 70
     1
  0
APPID
  5
12
330
9
100
AcDbSymbolTableRecord
100
AcDbRegAppTableRecord
  2
ACAD
 70
     0
  0
ENDTAB
  0
TABLE
  2
DIMSTYLE
  5
A
330
0
100
AcDbSymbolTable
 70
     1
100
AcDbDimStyleTable
  0
DIMSTYLE
105
27
330
A
100
AcDbSymbolTableRecord
100
AcDbDimStyleTableRecord
  2
ISO-25
 70
     0
 41
2.5
 42
0.625
 43
3.75
 44
1.25
 73
     0
 74
     0
 77
     1
 78
     8
140
2.5
141
2.5
143
0.0393700787
147
0.625
171
     3
172
     1
271
     2
272
     2
274
     3
278
    44
283
     0
284
     8
340
11
  0
ENDTAB
  0
TABLE
  2
BLOCK_RECORD
  5
1
330
0
100
AcDbSymbolTable
 70
     1
  0
BLOCK_RECORD
  5
1F
330
1
100
AcDbSymbolTableRecord
100
AcDbBlockTableRecord
  2
*Model_Space
340
22
  0
BLOCK_RECORD
  5
1B
330
1
100
AcDbSymbolTableRecord
100
AcDbBlockTableRecord
  2
*Paper_Space
340
1E
  0
BLOCK_RECORD
  5
23
330
1
100
AcDbSymbolTableRecord
100
AcDbBlockTableRecord
  2
*Paper_Space0
340
26
  0
ENDTAB
  0
ENDSEC
  0
SECTION
  2
BLOCKS
  0
BLOCK
  5
20
330
1F
100
AcDbEntity
  8
0
100
AcDbBlockBegin
  2
*Model_Space
 70
     0
 10
0.0
 20
0.0
 30
0.0
  3
*Model_Space
  1

  0
ENDBLK
  5
21
330
1F
100
AcDbEntity
  8
0
100
AcDbBlockEnd
  0
BLOCK
  5
1C
330
1B
100
AcDbEntity
 67
     1
  8
0
100
AcDbBlockBegin
  2
*Paper_Space
 70
     0
 10
0.0
 20
0.0
 30
0.0
  3
*Paper_Space
  1

  0
ENDBLK
  5
1D
330
1B
100
AcDbEntity
 67
     1
  8
0
100
AcDbBlockEnd
  0
BLOCK
  5
24
330
23
100
AcDbEntity
  8
0
100
AcDbBlockBegin
  2
*Paper_Space0
 70
     0
 10
0.0
 20
0.0
 30
0.0
  3
*Paper_Space0
  1

  0
ENDBLK
  5
25
330
23
100
AcDbEntity
  8
0
100
AcDbBlockEnd
  0
ENDSEC
  0
SECTION
  2
ENTITIES
  0
ARC
  5
47
330
1F
100
AcDbEntity
  8
0
  6
Continuous
 62
     7
370
    15
100
AcDbCircle
 10
308.6775808187
 20
236.6242130475
 30
0.0
 40
0.2961737536609294
100
AcDbArc
 50
353.2134432047
 51
25.4132268395
  0
LINE
  5
48
330
1F
100
AcDbEntity
  8
0
  6
Continuous
 62
     7
370
    15
100
AcDbLine
 10
316.1324025698
 20
238.8913142257
 30
0.0
 11
316.1324025698
 21
238.7913140231
 31
0.0
  0
LINE
  5
49
330
1F
100
AcDbEntity
  8
0
  6
Continuous
 62
     7
370
    15
100
AcDbLine
 10
316.7724044628
 20
238.7913140231
 30
0.0
 11
316.7724044628
 21
238.8913142257
 31
0.0
  0
LINE
  5
4A
330
1F
100
AcDbEntity
  8
0
  6
Continuous
 62
     7
370
    15
100
AcDbLine
 10
316.2024052448
 20
238.7913140231
 30
0.0
 11
316.2024052448
 21
238.6913141929
 31
0.0
  0
LINE
  5
4B
330
1F
100
AcDbEntity
  8
0
  6
Continuous
 62
     7
370
    15
100
AcDbLine
 10
316.702404768
 20
238.6913141929
 30
0.0
 11
316.702404768
 21
238.7913140231
 31
0.0
  0
ARC
  5
4C
330
1F
100
AcDbEntity
  8
0
  6
Continuous
 62
     7
370
    15
100
AcDbCircle
 10
318.6124336159
 20
149.9413141756
 30
0.0
 40
0.2000000000000455
100
AcDbArc
 50
270.0
 51
0.0
  0
ARC
  5
4D
330
1F
100
AcDbEntity
  8
0
  6
Continuous
 62
     7
370
    15
100
AcDbCircle
 10
313.3124336159
 20
149.9413141756
 30
0.0
 40
0.2000000000000455
100
AcDbArc
 50
180.0
 51
270.0
  0
LINE
  5
4E
330
1F
100
AcDbEntity
  8
0
  6
Continuous
 62
     7
370
    15
100
AcDbLine
 10
318.8124330349
 20
149.9413150125
 30
0.0
 11
318.8124330349
 21
150.3413158231
 31
0.0
  0
LINE
  5
4F
330
1F
100
AcDbEntity
  8
0
  6
Continuous
 62
     7
370
    15
100
AcDbLine
 10
313.1124348946
 20
150.3413158231
 30
0.0
 11
313.1124348946
 21
149.9413150125
 31
0.0
  0
LINE
  5
50
330
1F
100
AcDbEntity
  8
0
  6
Continuous
 62
     7
370
    15
100
AcDbLine
 10
259.9124328799
 20
149.9413150125
 30
0.0
 11
259.9124328799
 21
150.3413158231
 31
0.0
  0
LINE
  5
51
330
1F
100
AcDbEntity
  8
0
  6
Continuous
 62
     7
370
    15
100
AcDbLine
 10
254.2124332495
 20
150.3413158231
 30
0.0
 11
254.2124332495
 21
149.9413150125
 31
0.0
  0
ARC
  5
52
330
1F
100
AcDbEntity
  8
0
  6
Continuous
 62
     7
370
    15
100
AcDbCircle
 10
259.7124336159
 20
149.9413141756
 30
0.0
 40
0.1999999999999886
100
AcDbArc
 50
270.0
 51
0.0
  0
ARC
  5
53
330
1F
100
AcDbEntity
  8
0
  6
Continuous
 62
     7
370
    15
100
AcDbCircle
 10
254.4124336159
 20
149.9413141756
 30
0.0
 40
0.1999999999999886
100
AcDbArc
 50
180.0
 51
270.0
  0
LINE
  5
54
330
1F
100
AcDbEntity
  8
0
  6
Continuous
 62
     7
370
    15
100
AcDbLine
 10
318.7924326964
 20
150.3413158231
 30
0.0
 11
318.7924326964
 21
157.1413117223
 31
0.0
  0
LINE
  5
55
330
1F
100
AcDbEntity
  8
0
  6
Continuous
 62
     7
370
    15
100
AcDbLine
 10
313.1324322529
 20
157.1413117223
 30
0.0
 11
313.1324322529
 21
150.3413158231
 31
0.0
  0
LINE
  5
56
330
1F
100
AcDbEntity
  8
0
  6
Continuous
 62
     7
370
    15
100
AcDbLine
 10
259.8924340315
 20
150.3413158231
 30
0.0
 11
259.8924340315
 21
157.1413117223
 31
0.0
  0
LINE
  5
57
330
1F
100
AcDbEntity
  8
0
  6
Continuous
 62
     7
370
    15
100
AcDbLine
 10
254.232433588
 20
157.1413117223
 30
0.0
 11
254.232433588
 21
150.3413158231
 31
0.0
  0
ARC
  5
58
330
1F
100
AcDbEntity
  8
0
  6
Continuous
 62
     7
370
    15
100
AcDbCircle
 10
319.3024336159
 20
166.3913141756
 30
0.0
 40
0.1499999999999773
100
AcDbArc
 50
90.0
 51
180.0
  0
ARC
  5
59
330
1F
100
AcDbEntity
  8
0
  6
Continuous
 62
     7
370
    15
100
AcDbCircle
 10
312.6224336159
 20
166.3913141756
 30
0.0
 40
0.1500000000000341
100
AcDbArc
 50
0.0
 51
90.0
  0
LINE
  5
5A
330
1F
100
AcDbEntity
  8
0
  6
Continuous
 62
     7
370
    15
100
AcDbLine
 10
319.1524328299
 20
157.7445703321
 30
0.0
 11
319.1524328299
 21
166.3913148218
 31
0.0
  0
LINE
  5
5B
330
1F
100
AcDbEntity
  8
0
  6
Continuous
 62
     7
370
    15
100
AcDbLine
 10
312.7724350996
 20
166.3913148218
 30
0.0
 11
312.7724350996
 21
157.7445703321
 31
0.0
  0
ARC
  5
5C
330
1F
100
AcDbEntity
  8
0
  6
Continuous
 62
     7
370
    15
100
AcDbCircle
 10
318.6824336159
 20
157.7445707702
 30
0.0
 40
0.4700000000000273
100
AcDbArc
 50
350.5402980318
 51
0.0
  0
ARC
  5
5D
330
1F
100
AcDbEntity
  8
0
  6
Continuous
 62
     7
370
    15
100
AcDbCircle
 10
313.2424336159
 20
157.7445707702
 30
0.0
 40
0.4700000000000001
100
AcDbArc
 50
180.0
 51
189.4597019682
  0
LINE
  5
5E
330
1F
100
AcDbEntity
  8
0
  6
Continuous
 62
     7
370
    15
100
AcDbLine
 10
312.7788247175
 20
157.6673227125
 30
0.0
 11
312.8664673872
 21
157.1413117223
 31
0.0
  0
LINE
  5
5F
330
1F
100
AcDbEntity
  8
0
  6
Continuous
 62
     7
370
    15
100
AcDbLine
 10
319.058397562
 20
157.1413117223
 30
0.0
 11
319.146043212
 21
157.6673227125
 31
0.0
  0
ARC
  5
60
330
1F
100
AcDbEntity
  8
0
  6
Continuous
 62
     7
370
    15
100
AcDbCircle
 10
260.4024336159
 20
166.3913141756
 30
0.0
 40
0.1500000000000341
100
AcDbArc
 50
90.0
 51
180.0
  0
ARC
  5
61
330
1F
100
AcDbEntity
  8
0
  6
Continuous
 62
     7
370
    15
100
AcDbCircle
 10
253.7224336159
 20
166.3913141756
 30
0.0
 40
0.1499999999999773
100
AcDbArc
 50
0.0
 51
90.0
  0
LINE
  5
62
330
1F
100
AcDbEntity
  8
0
  6
Continuous
 62
     7
370
    15
100
AcDbLine
 10
260.252434165
 20
157.7445703321
 30
0.0
 11
260.252434165
 21
166.3913148218
 31
0.0
  0
LINE
  5
63
330
1F
100
AcDbEntity
  8
0
  6
Continuous
 62
     7
370
    15
100
AcDbLine
 10
253.8724334545
 20
166.3913148218
 30
0.0
 11
253.8724334545
 21
157.7445703321
 31
0.0
  0
ARC
  5
64
330
1F
100
AcDbEntity
  8
0
  6
Continuous
 62
     7
370
    15
100
AcDbCircle
 10
259.7824336159
 20
157.7445707702
 30
0.0
 40
0.4700000000000273
100
AcDbArc
 50
350.5402980318
 51
0.0
  0
ARC
  5
65
330
1F
100
AcDbEntity
  8
0
  6
Continuous
 62
     7
370
    15
100
AcDbCircle
 10
254.3424336159
 20
157.7445707702
 30
0.0
 40
0.4700000000000001
100
AcDbArc
 50
180.0
 51
189.4597019682
  0
LINE
  5
66
330
1F
100
AcDbEntity
  8
0
  6
Continuous
 62
     7
370
    15
100
AcDbLine
 10
253.8788260527
 20
157.6673227125
 30
0.0
 11
253.9664687224
 21
157.1413117223
 31
0.0
  0
LINE
  5
67
330
1F
100
AcDbEntity
  8
0
  6
Continuous
 62
     7
370
    15
100
AcDbLine
 10
260.1583988972
 20
157.1413117223
 30
0.0
 11
260.2460415669
 21
157.6673227125
 31
0.0
  0
LINE
  5
68
330
1F
100
AcDbEntity
  8
0
  6
Continuous
 62
     7
370
    15
100
AcDbLine
 10
326.9948573418
 20
217.580452817
 30
0.0
 11
326.9948573418
 21
217.5804543071
 31
0.0
  0
LINE
  5
69
330
1F
100
AcDbEntity
  8
0
  6
Continuous
 62
     7
370
    15
100
AcDbLine
 10
328.1570704289
 20
211.8954005414
 30
0.0
 11
328.4124346085
 21
211.9975465112
 31
0.0
  0
LINE
  5
6A
330
1F
100
AcDbEntity
  8
0
  6
Continuous
 62
     7
370
    15
100
AcDbLine
 10
327.4124325819
 20
211.5975471907
 30
0.0
 11
327.6923479147
 21
211.7095130258
 31
0.0
  0
LINE
  5
6B
330
1F
100
AcDbEntity
  8
0
  6
Continuous
 62
     7
370
    15
100
AcDbLine
 10
327.6445658512
 20
218.0046933465
 30
0.0
 11
327.4124325819
 21
218.0975469523
 31
0.0
  0
LINE
  5
6C
330
1F
100
AcDbEntity
  8
0
  6
Continuous
 62
     7
370
    15
100
AcDbLine
 10
328.4124346085
 20
217.6975461417
 30
0.0
 11
328.1087906666
 21
217.8190040164
 31
0.0
  0
LINE
  5
6D
330
1F
100
AcDbEntity
  8
0
  6
Continuous
 62
     7
370
    15
100
AcDbLine
 10
328.4124346085
 20
211.9975465112
 30
0.0
 11
330.3534688063
 21
212.8710138374
 31
0.0
  0
LINE
  5
6E
330
1F
100
AcDbEntity
  8
0
  6
Continuous
 62
     7
370
    15
100
AcDbLine
 10
328.4580291815
 20
217.6770287328
 30
0.0
 11
328.4124346085
 21
217.6975461417
 31
0.0
  0
ARC
  5
6F
330
1F
100
AcDbEntity
  8
0
  6
Continuous
 62
     7
370
    15
100
AcDbCircle
 10
330.3124336159
 20
212.9622052839
 30
0.0
 40
0.1000000000000227
100
AcDbArc
 50
294.2277453179
 51
0.0
  0
LINE
  5
70
330
1F
100
AcDbEntity
  8
0
  6
Continuous
 62
     7
370
    15
100
AcDbLine
 10
327.2124321766
 20
214.1363653117
 30
0.0
 11
327.4124325819
 21
214.1328754597
 31
0.0
  0
LINE
  5
71
330
1F
100
AcDbEntity
  8
0
  6
Continuous
 62
     7
370
    15
100
AcDbLine
 10
328.1094254561
 20
217.8198265605
 30
0.0
 11
327.6446791001
 21
218.0057245069
 31
0.0
  0
LINE
  5
72
330
1F
100
AcDbEntity
  8
0
  6
Continuous
 62
     7
370
    15
100
AcDbLine
 10
327.6921661205
 20
211.7083626562
 30
0.0
 11
328.1571091719
 21
211.8943395787
 31
0.0
  0
LINE
  5
73
330
1F
100
AcDbEntity
  8
0
  6
Continuous
 62
     7
370
    15
100
AcDbLine
 10
327.0524324484
 20
213.6361228996
 30
0.0
 11
327.0824344464
 21
213.7046324783
 31
0.0
  0
LINE
  5
74
330
1F
100
AcDbEntity
  8
0
  6
Continuous
 62
     7
370
    15
100
AcDbLine
 10
327.0824344464
 20
215.9904616647
 30
0.0
 11
327.0524324484
 21
216.0589712434
 31
0.0
  0
ARC
  5
75
330
1F
100
AcDbEntity
  8
0
  6
Continuous
 62
     7
370
    15
100
AcDbCircle
 10
328.4824336159
 20
214.3575467229
 30
0.0
 40
0.0500000000000114
100
AcDbArc
 50
270.0
 51
0.0
  0
ARC
  5
76
330
1F
100
AcDbEntity
  8
0
  6
Continuous
 62
     7
370
    15
100
AcDbCircle
 10
328.4824336159
 20
215.3375467229
 30
0.0
 40
0.0500000000000114
100
AcDbArc
 50
0.0
 51
90.0
  0
LINE
  5
77
330
1F
100
AcDbEntity
  8
0
  6
Continuous
 62
     7
370
    15
100
AcDbLine
 10
327.0824344464
 20
214.3075468712
 30
0.0
 11
328.4824343033
 21
214.3075468712
 31
0.0
  0
LINE
  5
78
330
1F
100
AcDbEntity
  8
0
  6
Continuous
 62
     7
370
    15
100
AcDbLine
 10
328.4824343033
 20
215.3875472718
 30
0.0
 11
327.0824344464
 21
215.3875472718
 31
0.0
  0
LINE
  5
79
330
1F
100
AcDbEntity
  8
0
  6
Continuous
 62
     7
370
    15
100
AcDbLine
 10
247.9724349089
 20
215.2713137441
 30
0.0
 11
247.7724345036
 21
215.0713148289
 31
0.0
  0
LINE
  5
7A
330
1F
100
AcDbEntity
  8
0
  6
Continuous
 62
     7
370
    15
100
AcDbLine
 10
247.7724345036
 20
213.2713141613
 30
0.0
 11
247.9724349089
 21
213.071313756
 31
0.0
  0
LINE
  5
7B
330
1F
100
AcDbEntity
  8
0
  6
Continuous
 62
     7
370
    15
100
AcDbLine
 10
247.9724349089
 20
213.071313756
 30
0.0
 11
248.172432334
 21
213.2713141613
 31
0.0
  0
LINE
  5
7C
330
1F
100
AcDbEntity
  8
0
  6
Continuous
 62
     7
370
    15
100
AcDbLine
 10
248.172432334
 20
215.0713148289
 30
0.0
 11
247.9724349089
 21
215.2713137441
 31
0.0
  0
LINE
  5
7D
330
1F
100
AcDbEntity
  8
0
  6
Continuous
 62
     7
370
    15
100
AcDbLine
 10
247.5724340983
 20
213.071313756
 30
0.0
 11
247.7724345036
 21
213.2713141613
 31
0.0
  0
LINE
  5
7E
330
1F
100
AcDbEntity
  8
0
  6
Continuous
 62
     7
370
    15
100
AcDbLine
 10
247.7724345036
 20
215.0713148289
 30
0.0
 11
247.5724340983
 21
215.2713137441
 31
0.0
  0
LINE
  5
7F
330
1F
100
AcDbEntity
  8
0
  6
Continuous
 62
     7
370
    15
100
AcDbLine
 10
247.5724340983
 20
215.2713137441
 30
0.0
 11
247.372433693
 21
215.0713148289
 31
0.0
  0
LINE
  5
80
330
1F
100
AcDbEntity
  8
0
  6
Continuous
 62
     7
370
    15
100
AcDbLine
 10
247.372433693
 20
213.2713141613
 30
0.0
 11
247.5724340983
 21
213.071313756
 31
0.0
  0
LINE
  5
81
330
1F
100
AcDbEntity
  8
0
  6
Continuous
 62
     7
370
    15
100
AcDbLine
 10
247.1724332876
 20
215.2713137441
 30
0.0
 11
246.9724328823
 21
215.0713148289
 31
0.0
  0
LINE
  5
82
330
1F
100
AcDbEntity
  8
0
  6
Continuous
 62
     7
370
    15
100
AcDbLine
 10
246.9724328823
 20
213.2713141613
 30
0.0
 11
247.1724332876
 21
213.071313756
 31
0.0
  0
LINE
  5
83
330
1F
100
AcDbEntity
  8
0
  6
Continuous
 62
     7
370
    15
100
AcDbLine
 10
247.1724332876
 20
213.071313756
 30
0.0
 11
247.372433693
 21
213.2713141613
 31
0.0
  0
LINE
  5
84
330
1F
100
AcDbEntity
  8
0
  6
Continuous
 62
     7
370
    15
100
AcDbLine
 10
247.372433693
 20
215.0713148289
 30
0.0
 11
247.1724332876
 21
215.2713137441
 31
0.0
  0
LINE
  5
85
330
1F
100
AcDbEntity
  8
0
  6
Continuous
 62
     7
370
    15
100
AcDbLine
 10
246.772432477
 20
213.071313756
 30
0.0
 11
246.9724328823
 21
213.2713141613
 31
0.0
  0
LINE
  5
86
330
1F
100
AcDbEntity
  8
0
  6
Continuous
 62
     7
370
    15
100
AcDbLine
 10
246.9724328823
 20
215.0713148289
 30
0.0
 11
246.772432477
 21
215.2713137441
 31
0.0
  0
LINE
  5
87
330
1F
100
AcDbEntity
  8
0
  6
Continuous
 62
     7
370
    15
100
AcDbLine
 10
246.772432477
 20
215.2713137441
 30
0.0
 11
246.5724350519
 21
215.0713148289
 31
0.0
  0
LINE
  5
88
330
1F
100
AcDbEntity
  8
0
  6
Continuous
 62
     7
370
    15
100
AcDbLine
 10
246.5724350519
 20
213.2713141613
 30
0.0
 11
246.772432477
 21
213.071313756
 31
0.0
  0
LINE
  5
89
330
1F
100
AcDbEntity
  8
0
  6
Continuous
 62
     7
370
    15
100
AcDbLine
 10
248.172432334
 20
213.071313756
 30
0.0
 11
250.0324340172
 21
213.071313756
 31
0.0
  0
LINE
  5
8A
330
1F
100
AcDbEntity
  8
0
  6
Continuous
 62
     7
370
    15
100
AcDbLine
 10
250.0324340172
 20
215.2713137441
 30
0.0
 11
248.172432334
 21
215.2713137441
 31
0.0
  0
LINE
  5
8B
330
1F
100
AcDbEntity
  8
0
  6
Continuous
 62
     7
370
    15
100
AcDbLine
 10
325.5624027558
 20
220.9325465136
 30
0.0
 11
325.5624027558
 21
220.98254736
 31
0.0
  0
LINE
  5
8C
330
1F
100
AcDbEntity
  8
0
  6
Continuous
 62
     7
370
    15
100
AcDbLine
 10
324.7624041147
 20
220.98254736
 30
0.0
 11
324.7624041147
 21
220.9325465136
 31
0.0
  0
LINE
  5
8D
330
1F
100
AcDbEntity
  8
0
  6
Continuous
 62
     7
370
    15
100
AcDbLine
 10
324.1324038811
 20
220.9325465136
 30
0.0
 11
324.1324038811
 21
220.98254736
 31
0.0
  0
LINE
  5
8E
330
1F
100
AcDbEntity
  8
0
  6
Continuous
 62
     7
370
    15
100
AcDbLine
 10
323.3324052401
 20
220.98254736
 30
0.0
 11
323.3324052401
 21
220.9325465136
 31
0.0
  0
LINE
  5
8F
330
1F
100
AcDbEntity
  8
0
  6
Continuous
 62
     7
370
    15
100
AcDbLine
 10
294.4524043806
 20
236.7513141357
 30
0.0
 11
294.4524043806
 21
236.5513141961
 31
0.0
  0
LINE
  5
90
330
1F
100
AcDbEntity
  8
0
  6
Continuous
 62
     7
370
    15
100
AcDbLine
 10
294.9524039037
 20
236.5513141961
 30
0.0
 11
294.9524039037
 21
236.7513141357
 31
0.0
  0
LINE
  5
91
330
1F
100
AcDbEntity
  8
0
  6
Continuous
 62
     7
370
    15
100
AcDbLine
 10
313.7324334688
 20
166.7413132959
 30
0.0
 11
313.7324334688
 21
166.7913156324
 31
0.0
  0
LINE
  5
92
330
1F
100
AcDbEntity
  8
0
  6
Continuous
 62
     7
370
    15
100
AcDbLine
 10
312.6924337454
 20
166.7913156324
 30
0.0
 11
312.6924337454
 21
166.7413132959
 31
0.0
  0
LINE
  5
93
330
1F
100
AcDbEntity
  8
0
  6
Continuous
 62
     7
370
    15
100
AcDbLine
 10
254.832434804
 20
166.7413132959
 30
0.0
 11
254.832434804
 21
166.7913156324
 31
0.0
  0
LINE
  5
94
330
1F
100
AcDbEntity
  8
0
  6
Continuous
 62
     7
370
    15
100
AcDbLine
 10
253.7924350805
 20
166.7913156324
 30
0.0
 11
253.7924350805
 21
166.7413132959
 31
0.0
  0
LINE
  5
95
330
1F
100
AcDbEntity
  8
0
  6
Continuous
 62
     7
370
    15
100
AcDbLine
 10
260.3324340291
 20
166.7413132959
 30
0.0
 11
260.3324340291
 21
166.7913156324
 31
0.0
  0
LINE
  5
96
330
1F
100
AcDbEntity
  8
0
  6
Continuous
 62
     7
370
    15
100
AcDbLine
 10
259.2924343057
 20
166.7913156324
 30
0.0
 11
259.2924343057
 21
166.7413132959
 31
0.0
  0
LINE
  5
97
330
1F
100
AcDbEntity
  8
0
  6
Continuous
 62
     7
370
    15
100
AcDbLine
 10
319.2324341841
 20
166.7413132959
 30
0.0
 11
319.2324341841
 21
166.7913156324
 31
0.0
  0
LINE
  5
98
330
1F
100
AcDbEntity
  8
0
  6
Continuous
 62
     7
370
    15
100
AcDbLine
 10
318.1924344607
 20
166.7913156324
 30
0.0
 11
318.1924344607
 21
166.7413132959
 31
0.0
  0
LINE
  5
99
330
1F
100
AcDbEntity
  8
0
  6
Continuous
 62
     7
370
    15
100
AcDbLine
 10
250.0431419916
 20
167.2713118368
 30
0.0
 11
325.8817256994
 21
167.2713118368
 31
0.0
  0
LINE
  5
9A
330
1F
100
AcDbEntity
  8
0
  6
Continuous
 62
     7
370
    15
100
AcDbLine
 10
250.0431419916
 20
170.6663149171
 30
0.0
 11
325.8817256994
 21
170.6663149171
 31
0.0
  0
LINE
  5
9B
330
1F
100
AcDbEntity
  8
0
  6
Continuous
 62
     7
370
    15
100
AcDbLine
 10
325.8817256994
 20
170.6663149171
 30
0.0
 11
325.8817256994
 21
167.2713118368
 31
0.0
  0
LINE
  5
9C
330
1F
100
AcDbEntity
  8
0
  6
Continuous
 62
     7
370
    15
100
AcDbLine
 10
250.0431419916
 20
170.6663149171
 30
0.0
 11
250.0431419916
 21
167.2713118368
 31
0.0
  0
LWPOLYLINE
  5
9D
330
1F
100
AcDbEntity
  8
0
  6
Continuous
 62
     7
370
    15
100
AcDbPolyline
 90
        6
 70
   128
 43
0.0
 10
325.7574321337
 20
170.8713131719
 10
325.7860513039
 20
170.8580511384
 10
325.8146794148
 20
170.8199637704
 10
325.8433075257
 20
170.761980372
 10
325.8719356365
 20
170.6916111284
 10
325.8817256994
 20
170.6663149171
  0
LINE
  5
9E
330
1F
100
AcDbEntity
  8
0
  6
Continuous
 62
     7
370
    15
100
AcDbLine
 10
250.1674325772
 20
170.8713131719
 30
0.0
 11
325.7574321337
 21
170.8713131719
 31
0.0
  0
LWPOLYLINE
  5
9F
330
1F
100
AcDbEntity
  8
0
  6
Continuous
 62
     7
370
    15
100
AcDbPolyline
 90
        6
 70
   128
 43
0.0
 10
250.0431419916
 20
170.6663149171
 10
250.0717581816
 20
170.7388478094
 10
250.1003862925
 20
170.8020227724
 10
250.1290144034
 20
170.8476203256
 10
250.1576425142
 20
170.8697455698
 10
250.1674325772
 20
170.8713131719
  0
ARC
  5
A0
330
1F
100
AcDbEntity
  8
0
  6
Continuous
 62
     7
370
    15
100
AcDbCircle
 10
250.1465819415
 20
170.6746499853
 30
0.0
 40
0.1044822406586846
100
AcDbArc
 50
130.5689478365
 51
184.57563141
  0
LINE
  5
A1
330
1F
100
AcDbEntity
  8
0
  6
Continuous
 62
     7
370
    15
100
AcDbLine
 10
249.9624343224
 20
170.6663149171
 30
0.0
 11
250.0424326964
 21
170.6663149171
 31
0.0
  0
ARC
  5
A2
330
1F
100
AcDbEntity
  8
0
  6
Continuous
 62
     7
370
    15
100
AcDbCircle
 10
250.1674344688
 20
170.6663130255
 30
0.0
 40
0.2050001464297417
100
AcDbArc
 50
90.0005286985
 51
179.9994713015
  0
LINE
  5
A3
330
1F
100
AcDbEntity
  8
0
  6
Continuous
 62
     7
370
    15
100
AcDbLine
 10
325.9624333687
 20
170.6663149171
 30
0.0
 11
325.8824349947
 21
170.6663149171
 31
0.0
  0
LWPOLYLINE
  5
A4
330
1F
100
AcDbEntity
  8
0
  6
Continuous
 62
     7
370
    15
100
AcDbPolyline
 90
        3
 70
   128
 43
0.0
 10
325.8824349947
 20
170.6663149171
 10
325.8725883074
 20
170.7149344259
 10
325.847521574
 20
170.7516210847
  0
ARC
  5
A5
330
1F
100
AcDbEntity
  8
0
  6
Continuous
 62
     7
370
    15
100
AcDbCircle
 10
325.7574305635
 20
170.6663103667
 30
0.0
 40
0.2050028052116462
100
AcDbArc
 50
0.0012717895
 51
89.9995611614
  0
LINE
  5
A6
330
1F
100
AcDbEntity
  8
0
  6
Continuous
 62
     7
370
    15
100
AcDbLine
 10
249.9624343224
 20
167.2713118368
 30
0.0
 11
250.0424326964
 21
167.2713118368
 31
0.0
  0
LINE
  5
A7
330
1F
100
AcDbEntity
  8
0
  6
Continuous
 62
     7
370
    15
100
AcDbLine
 10
250.0424326964
 20
170.6663149171
 30
0.0
 11
250.0424326964
 21
167.2713118368
 31
0.0
  0
LINE
  5
A8
330
1F
100
AcDbEntity
  8
0
  6
Continuous
 62
     7
370
    15
100
AcDbLine
 10
249.9624343224
 20
170.6663149171
 30
0.0
 11
249.9624343224
 21
167.2713118368
 31
0.0
  0
LINE
  5
A9
330
1F
100
AcDbEntity
  8
0
  6
Continuous
 62
     7
370
    15
100
AcDbLine
 10
325.9624333687
 20
170.6663149171
 30
0.0
 11
325.9624333687
 21
167.2713118368
 31
0.0
  0
LINE
  5
AA
330
1F
100
AcDbEntity
  8
0
  6
Continuous
 62
     7
370
    15
100
AcDbLine
 10
325.9624333687
 20
167.2713118368
 30
0.0
 11
325.8824349947
 21
167.2713118368
 31
0.0
  0
LINE
  5
AB
330
1F
100
AcDbEntity
  8
0
  6
Continuous
 62
     7
370
    15
100
AcDbLine
 10
325.8824349947
 20
170.6663149171
 30
0.0
 11
325.8824349947
 21
167.2713118368
 31
0.0
  0
LINE
  5
AC
330
1F
100
AcDbEntity
  8
0
  6
Continuous
 62
     7
370
    15
100
AcDbLine
 10
320.8117277928
 20
167.066313582
 30
0.0
 11
320.8117277928
 21
166.7913156324
 31
0.0
  0
LINE
  5
AD
330
1F
100
AcDbEntity
  8
0
  6
Continuous
 62
     7
370
    15
100
AcDbLine
 10
252.2131414719
 20
166.7913156324
 30
0.0
 11
320.8117277928
 21
166.7913156324
 31
0.0
  0
LINE
  5
AE
330
1F
100
AcDbEntity
  8
0
  6
Continuous
 62
     7
370
    15
100
AcDbLine
 10
252.2131414719
 20
166.7913156324
 30
0.0
 11
252.2131414719
 21
167.066313582
 31
0.0
  0
LINE
  5
AF
330
1F
100
AcDbEntity
  8
0
  6
Continuous
 62
     7
370
    15
100
AcDbLine
 10
252.2131414719
 20
167.066313582
 30
0.0
 11
320.8117277928
 21
167.066313582
 31
0.0
  0
LINE
  5
B0
330
1F
100
AcDbEntity
  8
0
  6
Continuous
 62
     7
370
    15
100
AcDbLine
 10
320.8117277928
 20
167.2713118368
 30
0.0
 11
320.8117277928
 21
167.066313582
 31
0.0
  0
LINE
  5
B1
330
1F
100
AcDbEntity
  8
0
  6
Continuous
 62
     7
370
    15
100
AcDbLine
 10
252.2131414719
 20
167.2713118368
 30
0.0
 11
252.2131414719
 21
167.066313582
 31
0.0
  0
LINE
  5
B2
330
1F
100
AcDbEntity
  8
0
  6
Continuous
 62
     7
370
    15
100
AcDbLine
 10
252.2124321766
 20
166.9413166814
 30
0.0
 11
252.0624341078
 21
166.9413166814
 31
0.0
  0
LINE
  5
B3
330
1F
100
AcDbEntity
  8
0
  6
Continuous
 62
     7
370
    15
100
AcDbLine
 10
252.0624341078
 20
167.2713118368
 30
0.0
 11
252.0624341078
 21
166.9413166814
 31
0.0
  0
LINE
  5
B4
330
1F
100
AcDbEntity
  8
0
  6
Continuous
 62
     7
370
    15
100
AcDbLine
 10
252.2124321766
 20
167.2713118368
 30
0.0
 11
252.2124321766
 21
166.9413166814
 31
0.0
  0
LINE
  5
B5
330
1F
100
AcDbEntity
  8
0
  6
Continuous
 62
     7
370
    15
100
AcDbLine
 10
320.8124341078
 20
166.9413166814
 30
0.0
 11
320.9624321766
 21
166.9413166814
 31
0.0
  0
LINE
  5
B6
330
1F
100
AcDbEntity
  8
0
  6
Continuous
 62
     7
370
    15
100
AcDbLine
 10
320.8124341078
 20
167.2713118368
 30
0.0
 11
320.8124341078
 21
166.9413166814
 31
0.0
  0
LINE
  5
B7
330
1F
100
AcDbEntity
  8
0
  6
Continuous
 62
     7
370
    15
100
AcDbLine
 10
320.9624321766
 20
166.9413166814
 30
0.0
 11
320.9624321766
 21
167.2713118368
 31
0.0
  0
ARC
  5
B8
330
1F
100
AcDbEntity
  8
0
  6
Continuous
 62
     7
370
    15
100
AcDbCircle
 10
252.3374336159
 20
167.0663141756
 30
0.0
 40
0.2749999999999728
100
AcDbArc
 50
207.0356917894
 51
243.1295854597
  0
LINE
  5
B9
330
1F
100
AcDbEntity
  8
0
  6
Continuous
 62
     7
370
    15
100
AcDbLine
 10
252.2124321766
 20
167.066313582
 30
0.0
 11
252.2131414719
 21
167.0530396276
 31
0.0
  0
LINE
  5
BA
330
1F
100
AcDbEntity
  8
0
  6
Continuous
 62
     7
370
    15
100
AcDbLine
 10
320.8117277928
 20
167.0530396276
 30
0.0
 11
320.8124341078
 21
167.066313582
 31
0.0
  0
ARC
  5
BB
330
1F
100
AcDbEntity
  8
0
  6
Continuous
 62
     7
370
    15
100
AcDbCircle
 10
320.6874336159
 20
167.0663141756
 30
0.0
 40
0.2749999999999752
100
AcDbArc
 50
296.8704145403
 51
332.9643082106
  0
LINE
  5
BC
330
1F
100
AcDbEntity
  8
0
  6
Continuous
 62
     7
370
    15
100
AcDbLine
 10
250.1324029274
 20
257.4821623736
 30
0.0
 11
250.1324029274
 21
257.4421631866
 31
0.0
  0
LINE
  5
BD
330
1F
100
AcDbEntity
  8
0
  6
Continuous
 62
     7
370
    15
100
AcDbLine
 10
250.0524045534
 20
257.4521633559
 30
0.0
 11
250.0524045534
 21
257.4421631866
 31
0.0
  0
LINE
  5
BE
330
1F
100
AcDbEntity
  8
0
  6
Continuous
 62
     7
370
    15
100
AcDbLine
 10
250.0524045534
 20
258.4721627408
 30
0.0
 11
250.0624032326
 21
258.4721627408
 31
0.0
  0
LINE
  5
BF
330
1F
100
AcDbEntity
  8
0
  6
Continuous
 62
     7
370
    15
100
AcDbLine
 10
250.0524045534
 20
234.8721628771
 30
0.0
 11
250.1124323912
 21
234.8721628771
 31
0.0
  0
LINE
  5
C0
330
1F
100
AcDbEntity
  8
0
  6
Continuous
 62
     7
370
    15
100
AcDbLine
 10
250.0524045534
 20
236.5513141961
 30
0.0
 11
250.0524045534
 21
236.424243147
 31
0.0
  0
LINE
  5
C1
330
1F
100
AcDbEntity
  8
0
  6
Continuous
 62
     7
370
    15
100
AcDbLine
 10
250.0524045534
 20
235.0721628633
 30
0.0
 11
250.0524045534
 21
234.8721628771
 31
0.0
  0
LINE
  5
C2
330
1F
100
AcDbEntity
  8
0
  6
Continuous
 62
     7
370
    15
100
AcDbLine
 10
266.8124334522
 20
208.3513128334
 30
0.0
 11
308.812433631
 21
208.3513128334
 31
0.0
  0
LINE
  5
C3
330
1F
100
AcDbEntity
  8
0
  6
Continuous
 62
     7
370
    15
100
AcDbLine
 10
266.312433929
 20
208.3513128334
 30
0.0
 11
266.312433929
 21
208.3913135105
 31
0.0
  0
LINE
  5
C4
330
1F
100
AcDbEntity
  8
0
  6
Continuous
 62
     7
370
    15
100
AcDbLine
 10
266.312433929
 20
208.3513128334
 30
0.0
 11
266.8124334522
 21
208.3513128334
 31
0.0
  0
LINE
  5
C5
330
1F
100
AcDbEntity
  8
0
  6
Continuous
 62
     7
370
    15
100
AcDbLine
 10
309.3124331541
 20
208.3513128334
 30
0.0
 11
309.3124331541
 21
208.3913135105
 31
0.0
  0
LINE
  5
C6
330
1F
100
AcDbEntity
  8
0
  6
Continuous
 62
     7
370
    15
100
AcDbLine
 10
308.812433631
 20
208.3513128334
 30
0.0
 11
309.3124331541
 21
208.3513128334
 31
0.0
  0
LINE
  5
C7
330
1F
100
AcDbEntity
  8
0
  6
Continuous
 62
     7
370
    15
100
AcDbLine
 10
263.0624340482
 20
208.3513128334
 30
0.0
 11
266.312433929
 21
208.3513128334
 31
0.0
  0
LINE
  5
C8
330
1F
100
AcDbEntity
  8
0
  6
Continuous
 62
     7
370
    15
100
AcDbLine
 10
309.3124331541
 20
208.3513128334
 30
0.0
 11
309.9624337263
 21
208.3513128334
 31
0.0
  0
LINE
  5
C9
330
1F
100
AcDbEntity
  8
0
  6
Continuous
 62
     7
370
    15
100
AcDbLine
 10
322.3124326773
 20
208.3513128334
 30
0.0
 11
322.3124326773
 21
208.4025460058
 31
0.0
  0
LINE
  5
CA
330
1F
100
AcDbEntity
  8
0
  6
Continuous
 62
     7
370
    15
100
AcDbLine
 10
321.9624342032
 20
208.3513128334
 30
0.0
 11
322.3124326773
 21
208.3513128334
 31
0.0
  0
LINE
  5
CB
330
1F
100
AcDbEntity
  8
0
  6
Continuous
 62
     7
370
    15
100
AcDbLine
 10
320.8852292605
 20
208.4713148647
 30
0.0
 11
320.8855272837
 21
208.4713148647
 31
0.0
  0
LINE
  5
CC
330
1F
100
AcDbEntity
  8
0
  6
Continuous
 62
     7
370
    15
100
AcDbLine
 10
320.9924043722
 20
233.2113141888
 30
0.0
 11
320.9924043722
 21
233.1313141384
 31
0.0
  0
LINE
  5
CD
330
1F
100
AcDbEntity
  8
0
  6
Continuous
 62
     7
370
    15
100
AcDbLine
 10
320.9924043722
 20
233.1313141384
 30
0.0
 11
320.7924039669
 21
233.1313141384
 31
0.0
  0
LINE
  5
CE
330
1F
100
AcDbEntity
  8
0
  6
Continuous
 62
     7
370
    15
100
AcDbLine
 10
320.7924039669
 20
233.1313141384
 30
0.0
 11
320.7924039669
 21
233.2113141888
 31
0.0
  0
LINE
  5
CF
330
1F
100
AcDbEntity
  8
0
  6
Continuous
 62
     7
370
    15
100
AcDbLine
 10
320.7924039669
 20
233.2113141888
 30
0.0
 11
320.9924043722
 21
233.2113141888
 31
0.0
  0
LINE
  5
D0
330
1F
100
AcDbEntity
  8
0
  6
Continuous
 62
     7
370
    15
100
AcDbLine
 10
322.6163209982
 20
233.1313141384
 30
0.0
 11
322.6163209982
 21
233.2113141888
 31
0.0
  0
LINE
  5
D1
330
1F
100
AcDbEntity
  8
0
  6
Continuous
 62
     7
370
    15
100
AcDbLine
 10
320.9924043722
 20
233.1313141384
 30
0.0
 11
322.6163209982
 21
233.1313141384
 31
0.0
  0
LINE
  5
D2
330
1F
100
AcDbEntity
  8
0
  6
Continuous
 62
     7
370
    15
100
AcDbLine
 10
320.9924043722
 20
233.2113141888
 30
0.0
 11
322.6163209982
 21
233.2113141888
 31
0.0
  0
LINE
  5
D3
330
1F
100
AcDbEntity
  8
0
  6
Continuous
 62
     7
370
    15
100
AcDbLine
 10
326.8568100043
 20
220.98254736
 30
0.0
 11
326.8568100043
 21
221.0625472241
 31
0.0
  0
LINE
  5
D4
330
1F
100
AcDbEntity
  8
0
  6
Continuous
 62
     7
370
    15
100
AcDbLine
 10
320.9924043722
 20
220.98254736
 30
0.0
 11
326.8568100043
 21
220.98254736
 31
0.0
  0
LINE
  5
D5
330
1F
100
AcDbEntity
  8
0
  6
Continuous
 62
     7
370
    15
100
AcDbLine
 10
320.9924043722
 20
221.0625472241
 30
0.0
 11
320.9924043722
 21
220.98254736
 31
0.0
  0
LINE
  5
D6
330
1F
100
AcDbEntity
  8
0
  6
Continuous
 62
     7
370
    15
100
AcDbLine
 10
320.9924043722
 20
221.0625472241
 30
0.0
 11
326.8568100043
 21
221.0625472241
 31
0.0
  0
LINE
  5
D7
330
1F
100
AcDbEntity
  8
0
  6
Continuous
 62
     7
370
    15
100
AcDbLine
 10
320.9924043722
 20
220.98254736
 30
0.0
 11
320.7924039669
 21
220.98254736
 31
0.0
  0
LINE
  5
D8
330
1F
100
AcDbEntity
  8
0
  6
Continuous
 62
     7
370
    15
100
AcDbLine
 10
320.7924039669
 20
220.98254736
 30
0.0
 11
320.7924039669
 21
221.0625472241
 31
0.0
  0
LINE
  5
D9
330
1F
100
AcDbEntity
  8
0
  6
Continuous
 62
     7
370
    15
100
AcDbLine
 10
320.7924039669
 20
221.0625472241
 30
0.0
 11
320.9924043722
 21
221.0625472241
 31
0.0
  0
ARC
  5
DA
330
1F
100
AcDbEntity
  8
0
  6
Continuous
 62
     7
370
    15
100
AcDbCircle
 10
322.6163201116
 20
233.0063141756
 30
0.0
 40
0.2050000000000162
100
AcDbArc
 50
18.0
 51
90.0
  0
LINE
  5
DB
330
1F
100
AcDbEntity
  8
0
  6
Continuous
 62
     7
370
    15
100
AcDbLine
 10
322.7352024622
 20
233.0449412339
 30
0.0
 11
322.8112877913
 21
233.0696626329
 31
0.0
  0
ARC
  5
DC
330
1F
100
AcDbEntity
  8
0
  6
Continuous
 62
     7
370
    15
100
AcDbCircle
 10
322.6163201116
 20
233.0063141756
 30
0.0
 40
0.125
100
AcDbArc
 50
18.0
 51
90.0
  0
LINE
  5
DD
330
1F
100
AcDbEntity
  8
0
  6
Continuous
 62
     7
370
    15
100
AcDbLine
 10
325.2436997004
 20
225.5834693783
 30
0.0
 11
322.8112877913
 21
233.0696626329
 31
0.0
  0
LINE
  5
DE
330
1F
100
AcDbEntity
  8
0
  6
Continuous
 62
     7
370
    15
100
AcDbLine
 10
325.1676143713
 20
225.5587476068
 30
0.0
 11
325.2436997004
 21
225.5834693783
 31
0.0
  0
LINE
  5
DF
330
1F
100
AcDbEntity
  8
0
  6
Continuous
 62
     7
370
    15
100
AcDbLine
 10
325.1676143713
 20
225.5587476068
 30
0.0
 11
322.7352024622
 21
233.0449412339
 31
0.0
  0
LINE
  5
E0
330
1F
100
AcDbEntity
  8
0
  6
Continuous
 62
     7
370
    15
100
AcDbLine
 10
327.770412118
 20
224.1696814769
 30
0.0
 11
327.7977736302
 21
224.24485709
 31
0.0
  0
LINE
  5
E1
330
1F
100
AcDbEntity
  8
0
  6
Continuous
 62
     7
370
    15
100
AcDbLine
 10
327.770412118
 20
224.1696814769
 30
0.0
 11
325.825372488
 21
224.8776185089
 31
0.0
  0
LINE
  5
E2
330
1F
100
AcDbEntity
  8
0
  6
Continuous
 62
     7
370
    15
100
AcDbLine
 10
325.8527340002
 20
224.952793377
 30
0.0
 11
325.825372488
 21
224.8776185089
 31
0.0
  0
LINE
  5
E3
330
1F
100
AcDbEntity
  8
0
  6
Continuous
 62
     7
370
    15
100
AcDbLine
 10
327.7977736302
 20
224.24485709
 30
0.0
 11
325.8527340002
 21
224.952793377
 31
0.0
  0
ARC
  5
E4
330
1F
100
AcDbEntity
  8
0
  6
Continuous
 62
     7
370
    15
100
AcDbCircle
 10
326.1947549091
 20
225.8924862234
 30
0.0
 40
1.08000000000003
100
AcDbArc
 50
198.0
 51
250.0
  0
ARC
  5
E5
330
1F
100
AcDbEntity
  8
0
  6
Continuous
 62
     7
370
    15
100
AcDbCircle
 10
326.1947549091
 20
225.8924862234
 30
0.0
 40
1.00000000000003
100
AcDbArc
 50
198.0
 51
250.0
  0
LINE
  5
E6
330
1F
100
AcDbEntity
  8
0
  6
Continuous
 62
     7
370
    15
100
AcDbLine
 10
326.9525678463
 20
221.1071985536
 30
0.0
 11
327.0138503618
 21
221.0557746463
 31
0.0
  0
ARC
  5
E7
330
1F
100
AcDbEntity
  8
0
  6
Continuous
 62
     7
370
    15
100
AcDbCircle
 10
326.8568109601
 20
221.1875467229
 30
0.0
 40
0.1250000000000037
100
AcDbArc
 50
270.0
 51
320.0
  0
ARC
  5
E8
330
1F
100
AcDbEntity
  8
0
  6
Continuous
 62
     7
370
    15
100
AcDbCircle
 10
326.8568109601
 20
221.1875467229
 30
0.0
 40
0.2050000000000125
100
AcDbArc
 50
270.0
 51
320.0
  0
LINE
  5
E9
330
1F
100
AcDbEntity
  8
0
  6
Continuous
 62
     7
370
    15
100
AcDbLine
 10
328.2557190962
 20
222.5357788377
 30
0.0
 11
328.1944365807
 21
222.5872012549
 31
0.0
  0
LINE
  5
EA
330
1F
100
AcDbEntity
  8
0
  6
Continuous
 62
     7
370
    15
100
AcDbLine
 10
327.0138503618
 20
221.0557746463
 30
0.0
 11
328.2557190962
 21
222.5357788377
 31
0.0
  0
LINE
  5
EB
330
1F
100
AcDbEntity
  8
0
  6
Continuous
 62
     7
370
    15
100
AcDbLine
 10
326.9525678463
 20
221.1071985536
 30
0.0
 11
328.1944365807
 21
222.5872012549
 31
0.0
  0
ARC
  5
EC
330
1F
100
AcDbEntity
  8
0
  6
Continuous
 62
     7
370
    15
100
AcDbCircle
 10
327.428392287
 20
223.2299891712
 30
0.0
 40
1.000000000000024
100
AcDbArc
 50
320.0
 51
70.0
  0
ARC
  5
ED
330
1F
100
AcDbEntity
  8
0
  6
Continuous
 62
     7
370
    15
100
AcDbCircle
 10
327.428392287
 20
223.2299891712
 30
0.0
 40
1.080000000000024
100
AcDbArc
 50
320.0
 51
70.0
  0
LINE
  5
EE
330
1F
100
AcDbEntity
  8
0
  6
Continuous
 62
     7
370
    15
100
AcDbLine
 10
322.7719576664
 20
233.1907092356
 30
0.0
 11
322.8112877913
 21
233.0696626329
 31
0.0
  0
LWPOLYLINE
  5
EF
330
1F
100
AcDbEntity
  8
0
  6
Continuous
 62
     7
370
    15
100
AcDbPolyline
 90
        3
 70
   128
 43
0.0
 10
322.7659286566
 20
233.2340624877
 10
322.7668912716
 20
233.213155786
 10
322.7719576664
 20
233.1907092356
  0
LWPOLYLINE
  5
F0
330
1F
100
AcDbEntity
  8
0
  6
Continuous
 62
     7
370
    15
100
AcDbPolyline
 90
        3
 70
   128
 43
0.0
 10
322.6866306372
 20
233.2113141888
 10
322.6875634499
 20
233.2028000378
 10
322.6882012196
 20
233.1982987695
  0
LINE
  5
F1
330
1F
100
AcDbEntity
  8
0
  6
Continuous
 62
     7
370
    15
100
AcDbLine
 10
314.9024041004
 20
238.2086879336
 30
0.0
 11
314.8988069601
 21
238.2086879336
 31
0.0
  0
LINE
  5
F2
330
1F
100
AcDbEntity
  8
0
  6
Continuous
 62
     7
370
    15
100
AcDbLine
 10
314.9024041004
 20
238.2086879336
 30
0.0
 11
314.9024041004
 21
238.201314094
 31
0.0
  0
LINE
  5
F3
330
1F
100
AcDbEntity
  8
0
  6
Continuous
 62
     7
370
    15
100
AcDbLine
 10
310.0942821808
 20
236.5886879847
 30
0.0
 11
308.9881093807
 21
236.5886879847
 31
0.0
  0
LINE
  5
F4
330
1F
100
AcDbEntity
  8
0
  6
Continuous
 62
     7
370
    15
100
AcDbLine
 10
313.0004526682
 20
236.5886879847
 30
0.0
 11
311.8942798681
 21
236.5886879847
 31
0.0
  0
LINE
  5
F5
330
1F
100
AcDbEntity
  8
0
  6
Continuous
 62
     7
370
    15
100
AcDbLine
 10
311.8942798681
 20
236.5886879847
 30
0.0
 11
310.0942821808
 21
236.5886879847
 31
0.0
  0
LINE
  5
F6
330
1F
100
AcDbEntity
  8
0
  6
Continuous
 62
     7
370
    15
100
AcDbLine
 10
308.9742811032
 20
236.5513141961
 30
0.0
 11
308.9742811032
 21
236.5890105949
 31
0.0
  0
LWPOLYLINE
  5
F7
330
1F
100
AcDbEntity
  8
0
  6
Continuous
 62
     7
370
    15
100
AcDbPolyline
 90
        3
 70
   128
 43
0.0
 10
308.9881093807
 20
236.5886879847
 10
308.979976327
 20
236.5887995572
 10
308.9742811032
 20
236.5890105949
  0
LWPOLYLINE
  5
F8
330
1F
100
AcDbEntity
  8
0
  6
Continuous
 62
     7
370
    15
100
AcDbPolyline
 90
        3
 70
   128
 43
0.0
 10
313.0142809458
 20
236.5890105949
 10
313.008585722
 20
236.5887995572
 10
313.0004526682
 20
236.5886879847
  0
LINE
  5
F9
330
1F
100
AcDbEntity
  8
0
  6
Continuous
 62
     7
370
    15
100
AcDbLine
 10
313.0142809458
 20
236.5890105949
 30
0.0
 11
313.0142809458
 21
236.5513141961
 31
0.0
  0
LWPOLYLINE
  5
FA
330
1F
100
AcDbEntity
  8
0
  6
Continuous
 62
     7
370
    15
100
AcDbPolyline
 90
        3
 70
   128
 43
0.0
 10
313.0413563557
 20
236.7513141357
 10
313.0234541006
 20
236.6843525083
 10
313.0142809458
 20
236.5890105949
  0
ARC
  5
FB
330
1F
100
AcDbEntity
  8
0
  6
Continuous
 62
     7
370
    15
100
AcDbCircle
 10
256.4656217636
 20
256.3191807247
 30
0.0
 40
1.785206902344609
100
AcDbArc
 50
258.2606552922
 51
269.5757310106
  0
LINE
  5
FC
330
1F
100
AcDbEntity
  8
0
  6
Continuous
 62
     7
370
    15
100
AcDbLine
 10
256.4524026222
 20
236.7513141357
 30
0.0
 11
256.4524026222
 21
254.5340227657
 31
0.0
  0
LINE
  5
FD
330
1F
100
AcDbEntity
  8
0
  6
Continuous
 62
     7
370
    15
100
AcDbLine
 10
256.4524026222
 20
236.7513141357
 30
0.0
 11
256.1024041481
 21
236.7513141357
 31
0.0
  0
LINE
  5
FE
330
1F
100
AcDbEntity
  8
0
  6
Continuous
 62
     7
370
    15
100
AcDbLine
 10
256.1024041481
 20
236.7513141357
 30
0.0
 11
256.1024041481
 21
254.5713144117
 31
0.0
  0
LINE
  5
FF
330
1F
100
AcDbEntity
  8
0
  6
Continuous
 62
     7
370
    15
100
AcDbLine
 10
313.4495081015
 20
240.3639091872
 30
0.0
 11
256.4524026222
 21
254.5340227657
 31
0.0
  0
ARC
  5
100
330
1F
100
AcDbEntity
  8
0
  6
Continuous
 62
     7
370
    15
100
AcDbCircle
 10
313.208240476
 20
239.3934505158
 30
0.0
 40
1.000000000000052
100
AcDbArc
 50
26.0033458445
 51
76.0386774171
  0
LINE
  5
101
330
1F
100
AcDbEntity
  8
0
  6
Continuous
 62
     7
370
    15
100
AcDbLine
 10
314.9024041004
 20
238.201314094
 30
0.0
 11
314.1070099182
 21
239.8318740302
 31
0.0
  0
LINE
  5
102
330
1F
100
AcDbEntity
  8
0
  6
Continuous
 62
     7
370
    15
100
AcDbLine
 10
314.9024041004
 20
236.7513141357
 30
0.0
 11
314.9024041004
 21
238.201314094
 31
0.0
  0
CIRCLE
  5
103
330
1F
100
AcDbEntity
  8
0
  6
Continuous
 62
     7
370
    15
100
AcDbCircle
 10
303.05240403
 20
240.8513141756
 30
0.0
 40
0.6999999999999886
  0
CIRCLE
  5
104
330
1F
100
AcDbEntity
  8
0
  6
Continuous
 62
     7
370
    15
100
AcDbCircle
 10
261.05240403
 20
251.2513141756
 30
0.0
 40
0.6999999999999886
  0
LINE
  5
105
330
1F
100
AcDbEntity
  8
0
  6
Continuous
 62
     7
370
    15
100
AcDbLine
 10
256.4524026222
 20
236.7513141357
 30
0.0
 11
314.9024041004
 21
236.7513141357
 31
0.0
  0
LINE
  5
106
330
1F
100
AcDbEntity
  8
0
  6
Continuous
 62
     7
370
    15
100
AcDbLine
 10
256.3024045534
 20
254.5713144117
 30
0.0
 11
256.1024041481
 21
254.5713144117
 31
0.0
  0
ARC
  5
107
330
1F
100
AcDbEntity
  8
0
  6
Continuous
 62
     7
370
    15
100
AcDbCircle
 10
256.4627315018
 20
254.8958827851
 30
0.0
 40
0.3620074024001491
100
AcDbArc
 50
243.7120226934
 51
268.3650015724
  0
LINE
  5
108
330
1F
100
AcDbEntity
  8
0
  6
Continuous
 62
     7
370
    15
100
AcDbLine
 10
255.86104706
 20
255.595399695
 30
0.0
 11
255.679786355
 21
255.5108758383
 31
0.0
  0
LINE
  5
109
330
1F
100
AcDbEntity
  8
0
  6
Continuous
 62
     7
370
    15
100
AcDbLine
 10
256.0883493729
 20
254.6347069316
 30
0.0
 11
256.2696130581
 21
254.7192307883
 31
0.0
  0
LINE
  5
10A
330
1F
100
AcDbEntity
  8
0
  6
Continuous
 62
     7
370
    15
100
AcDbLine
 10
256.2696130581
 20
254.7192307883
 30
0.0
 11
255.86104706
 21
255.595399695
 31
0.0
  0
LINE
  5
10B
330
1F
100
AcDbEntity
  8
0
  6
Continuous
 62
     7
370
    15
100
AcDbLine
 10
256.0883493729
 20
254.6347069316
 30
0.0
 11
255.679786355
 21
255.5108758383
 31
0.0
  0
LINE
  5
10C
330
1F
100
AcDbEntity
  8
0
  6
Continuous
 62
     7
370
    15
100
AcDbLine
 10
255.6497396536
 20
256.0485544377
 30
0.0
 11
255.4684759684
 21
255.964030581
 31
0.0
  0
LWPOLYLINE
  5
10D
330
1F
100
AcDbEntity
  8
0
  6
Continuous
 62
     7
370
    15
100
AcDbPolyline
 90
        9
 70
   128
 43
0.0
 10
255.86104706
 20
255.595399695
 10
255.8198215075
 20
255.6838053041
 10
255.7801814385
 20
255.7688149386
 10
255.7436497517
 20
255.8471592837
 10
255.7116301365
 20
255.9158283048
 10
255.6853504486
 20
255.9721830063
 10
255.665823967
 20
256.0140597396
 10
255.6537987299
 20
256.0398461991
 10
255.6497396536
 20
256.0485544377
  0
LWPOLYLINE
  5
10E
330
1F
100
AcDbEntity
  8
0
  6
Continuous
 62
     7
370
    15
100
AcDbPolyline
 90
        9
 70
   128
 43
0.0
 10
255.679786355
 20
255.5108758383
 10
255.6385608025
 20
255.5992814475
 10
255.5989207335
 20
255.684291082
 10
255.5623890467
 20
255.762635427
 10
255.5303664513
 20
255.8313044482
 10
255.5040897436
 20
255.8876591497
 10
255.4845602818
 20
255.929535883
 10
255.4725380249
 20
255.9553223424
 10
255.4684759684
 20
255.964030581
  0
ARC
  5
10F
330
1F
100
AcDbEntity
  8
0
  6
Continuous
 62
     7
370
    15
100
AcDbCircle
 10
255.95240403
 20
254.5713141756
 30
0.0
 40
0.1500000000000625
100
AcDbArc
 50
0.0
 51
25.0
  0
ARC
  5
110
330
1F
100
AcDbEntity
  8
0
  6
Continuous
 62
     7
370
    15
100
AcDbCircle
 10
255.95240403
 20
254.5713141756
 30
0.0
 40
0.3500000000000512
100
AcDbArc
 50
0.0
 51
25.0
  0
ARC
  5
111
330
1F
100
AcDbEntity
  8
0
  6
Continuous
 62
     7
370
    15
100
AcDbCircle
 10
320.7919306037
 20
208.6875948721
 30
0.0
 40
0.2205440589130396
100
AcDbArc
 50
291.6064690741
 51
338.7181986066
  0
ARC
  5
112
330
1F
100
AcDbEntity
  8
0
  6
Continuous
 62
     7
370
    15
100
AcDbCircle
 10
320.679184577
 20
208.6603239081
 30
0.0
 40
0.3225968242691474
100
AcDbArc
 50
306.95847928
 51
350.5841158953
  0
LINE
  5
113
330
1F
100
AcDbEntity
  8
0
  6
Continuous
 62
     7
370
    15
100
AcDbLine
 10
320.8731414385
 20
208.48254736
 30
0.0
 11
320.8731414385
 21
208.4025460058
 31
0.0
  0
ARC
  5
114
330
1F
100
AcDbEntity
  8
0
  6
Continuous
 62
     7
370
    15
100
AcDbCircle
 10
316.4371460587
 20
213.0688551055
 30
0.0
 40
6.379616221268811
100
AcDbArc
 50
314.0453668849
 51
315.6285994335
  0
LINE
  5
115
330
1F
100
AcDbEntity
  8
0
  6
Continuous
 62
     7
370
    15
100
AcDbLine
 10
320.7924337692
 20
208.483253675
 30
0.0
 11
320.8724321432
 21
208.483253675
 31
0.0
  0
ARC
  5
116
330
1F
100
AcDbEntity
  8
0
  6
Continuous
 62
     7
370
    15
100
AcDbCircle
 10
302.0997815343
 20
239.5448292994
 30
0.0
 40
36.25240306301018
100
AcDbArc
 50
301.0392527484
 51
301.4181520763
  0
LINE
  5
117
330
1F
100
AcDbEntity
  8
0
  6
Continuous
 62
     7
370
    15
100
AcDbLine
 10
320.8731414385
 20
208.4025460058
 30
0.0
 11
326.502433569
 21
208.4025460058
 31
0.0
  0
LINE
  5
118
330
1F
100
AcDbEntity
  8
0
  6
Continuous
 62
     7
370
    15
100
AcDbLine
 10
320.9974350043
 20
208.6075472408
 30
0.0
 11
326.5474350758
 21
208.6075472408
 31
0.0
  0
ARC
  5
119
330
1F
100
AcDbEntity
  8
0
  6
Continuous
 62
     7
370
    15
100
AcDbCircle
 10
326.0014950752
 20
208.6199510766
 30
0.0
 40
0.5460808908734099
100
AcDbArc
 50
336.5393716427
 51
358.6984555191
  0
ARC
  5
11A
330
1F
100
AcDbEntity
  8
0
  6
Continuous
 62
     7
370
    15
100
AcDbCircle
 10
320.7936293558
 20
220.6491882906
 30
0.0
 40
0.218350162426166
100
AcDbArc
 50
21.0305776034
 51
68.6447547159
  0
LINE
  5
11B
330
1F
100
AcDbEntity
  8
0
  6
Continuous
 62
     7
370
    15
100
AcDbLine
 10
320.8731414385
 20
220.8525466495
 30
0.0
 11
320.8731414385
 21
220.9325465136
 31
0.0
  0
ARC
  5
11C
330
1F
100
AcDbEntity
  8
0
  6
Continuous
 62
     7
370
    15
100
AcDbCircle
 10
320.6931263005
 20
220.6832212456
 30
0.0
 40
0.3075199817460243
100
AcDbArc
 50
8.2874050319
 51
54.1703690673
  0
LWPOLYLINE
  5
11D
330
1F
100
AcDbEntity
  8
0
  6
Continuous
 62
     7
370
    15
100
AcDbPolyline
 90
        2
 70
   128
 43
0.0
 10
320.9974350043
 20
220.7275467687
 10
320.9974350043
 20
220.7275467687
  0
LINE
  5
11E
330
1F
100
AcDbEntity
  8
0
  6
Continuous
 62
     7
370
    15
100
AcDbLine
 10
326.5474350758
 20
220.7275467687
 30
0.0
 11
320.9974350043
 21
220.7275467687
 31
0.0
  0
LINE
  5
11F
330
1F
100
AcDbEntity
  8
0
  6
Continuous
 62
     7
370
    15
100
AcDbLine
 10
326.5474350758
 20
220.7275467687
 30
0.0
 11
326.5474350758
 21
208.6075472408
 31
0.0
  0
LINE
  5
120
330
1F
100
AcDbEntity
  8
0
  6
Continuous
 62
     7
370
    15
100
AcDbLine
 10
320.9974350043
 20
220.7275467687
 30
0.0
 11
320.9974350043
 21
208.6075472408
 31
0.0
  0
LINE
  5
121
330
1F
100
AcDbEntity
  8
0
  6
Continuous
 62
     7
370
    15
100
AcDbLine
 10
320.7924337692
 20
220.8518403345
 30
0.0
 11
320.7924337692
 21
208.483253675
 31
0.0
  0
ARC
  5
122
330
1F
100
AcDbEntity
  8
0
  6
Continuous
 62
     7
370
    15
100
AcDbCircle
 10
374.3987405251
 20
309.0351813192
 30
0.0
 40
103.1985356060994
100
AcDbArc
 50
238.7047463079
 51
238.8378488674
  0
ARC
  5
123
330
1F
100
AcDbEntity
  8
0
  6
Continuous
 62
     7
370
    15
100
AcDbCircle
 10
325.7512909697
 20
220.7186337467
 30
0.0
 40
0.7961939962637121
100
AcDbArc
 50
0.6414130355
 51
15.5850890629
  0
LINE
  5
124
330
1F
100
AcDbEntity
  8
0
  6
Continuous
 62
     7
370
    15
100
AcDbLine
 10
320.8731414385
 20
220.9325465136
 30
0.0
 11
326.5182109184
 21
220.9325465136
 31
0.0
  0
ARC
  5
125
330
1F
100
AcDbEntity
  8
0
  6
Continuous
 62
     7
370
    15
100
AcDbCircle
 10
319.1662252211
 20
219.010891865
 30
0.0
 40
2.510026559287845
100
AcDbArc
 50
43.1506533629
 51
47.1753803186
  0
LINE
  5
126
330
1F
100
AcDbEntity
  8
0
  6
Continuous
 62
     7
370
    15
100
AcDbLine
 10
320.7924337692
 20
220.8518403345
 30
0.0
 11
320.8724321432
 21
220.8518403345
 31
0.0
  0
LINE
  5
127
330
1F
100
AcDbEntity
  8
0
  6
Continuous
 62
     7
370
    15
100
AcDbLine
 10
326.5474350758
 20
220.7275467687
 30
0.0
 11
326.7524333306
 21
220.7275467687
 31
0.0
  0
LINE
  5
128
330
1F
100
AcDbEntity
  8
0
  6
Continuous
 62
     7
370
    15
100
AcDbLine
 10
326.7524333306
 20
220.7275467687
 30
0.0
 11
326.7524333306
 21
208.6075472408
 31
0.0
  0
LINE
  5
129
330
1F
100
AcDbEntity
  8
0
  6
Continuous
 62
     7
370
    15
100
AcDbLine
 10
326.7524333306
 20
208.6075472408
 30
0.0
 11
326.5474350758
 21
208.6075472408
 31
0.0
  0
ARC
  5
12A
330
1F
100
AcDbEntity
  8
0
  6
Continuous
 62
     7
370
    15
100
AcDbCircle
 10
326.547433423
 20
220.7275451159
 30
0.0
 40
0.1250015335685487
100
AcDbArc
 50
0.0007575632
 51
89.9992424368
  0
LINE
  5
12B
330
1F
100
AcDbEntity
  8
0
  6
Continuous
 62
     7
370
    15
100
AcDbLine
 10
326.5474350758
 20
220.8525466495
 30
0.0
 11
326.5474350758
 21
220.9325465136
 31
0.0
  0
ARC
  5
12C
330
1F
100
AcDbEntity
  8
0
  6
Continuous
 62
     7
370
    15
100
AcDbCircle
 10
326.5474343563
 20
220.7275475393
 30
0.0
 40
0.2049989742822739
100
AcDbArc
 50
359.9997846196
 51
89.9997989035
  0
ARC
  5
12D
330
1F
100
AcDbEntity
  8
0
  6
Continuous
 62
     7
370
    15
100
AcDbCircle
 10
326.5474343995
 20
208.6075449368
 30
0.0
 40
0.2049989310398682
100
AcDbArc
 50
270.0001890074
 51
0.0006439435
  0
LINE
  5
12E
330
1F
100
AcDbEntity
  8
0
  6
Continuous
 62
     7
370
    15
100
AcDbLine
 10
326.5474350758
 20
208.48254736
 30
0.0
 11
326.5474350758
 21
208.4025460058
 31
0.0
  0
ARC
  5
12F
330
1F
100
AcDbEntity
  8
0
  6
Continuous
 62
     7
370
    15
100
AcDbCircle
 10
326.5474318239
 20
208.6075504927
 30
0.0
 40
0.1250031327458672
100
AcDbArc
 50
270.0014905297
 51
359.9985094703
  0
LINE
  5
130
330
1F
100
AcDbEntity
  8
0
  6
Continuous
 62
     7
370
    15
100
AcDbLine
 10
326.5474350758
 20
208.4025460058
 30
0.0
 11
326.502433569
 21
208.4025460058
 31
0.0
  0
LINE
  5
131
330
1F
100
AcDbEntity
  8
0
  6
Continuous
 62
     7
370
    15
100
AcDbLine
 10
326.5182109184
 20
220.9325465136
 30
0.0
 11
326.5474350758
 21
220.9325465136
 31
0.0
  0
LINE
  5
132
330
1F
100
AcDbEntity
  8
0
  6
Continuous
 62
     7
370
    15
100
AcDbLine
 10
316.1324025698
 20
238.7913140231
 30
0.0
 11
316.7724044628
 21
238.7913140231
 31
0.0
  0
LWPOLYLINE
  5
133
330
1F
100
AcDbEntity
  8
0
  6
Continuous
 62
     7
370
    15
100
AcDbPolyline
 90
        3
 70
   128
 43
0.0
 10
314.5774038143
 20
239.0113140219
 10
314.5296068497
 20
239.0066067451
 10
314.5116658516
 20
239.0023297393
  0
LINE
  5
134
330
1F
100
AcDbEntity
  8
0
  6
Continuous
 62
     7
370
    15
100
AcDbLine
 10
314.5774038143
 20
238.8913142257
 30
0.0
 11
314.5774038143
 21
239.0113140219
 31
0.0
  0
LINE
  5
135
330
1F
100
AcDbEntity
  8
0
  6
Continuous
 62
     7
370
    15
100
AcDbLine
 10
314.5774038143
 20
238.8913142257
 30
0.0
 11
314.5660699911
 21
238.8907993906
 31
0.0
  0
LINE
  5
136
330
1F
100
AcDbEntity
  8
0
  6
Continuous
 62
     7
370
    15
100
AcDbLine
 10
314.5774038143
 20
239.0113140219
 30
0.0
 11
316.9359476872
 21
239.0113140219
 31
0.0
  0
LINE
  5
137
330
1F
100
AcDbEntity
  8
0
  6
Continuous
 62
     7
370
    15
100
AcDbLine
 10
316.9359476872
 20
238.8913142257
 30
0.0
 11
316.9359476872
 21
239.0113140219
 31
0.0
  0
LINE
  5
138
330
1F
100
AcDbEntity
  8
0
  6
Continuous
 62
     7
370
    15
100
AcDbLine
 10
314.5774038143
 20
238.8913142257
 30
0.0
 11
316.9359476872
 21
238.8913142257
 31
0.0
  0
LINE
  5
139
330
1F
100
AcDbEntity
  8
0
  6
Continuous
 62
     7
370
    15
100
AcDbLine
 10
317.2732414313
 20
238.9295796626
 30
0.0
 11
317.2421814509
 21
238.8136683726
 31
0.0
  0
LWPOLYLINE
  5
13A
330
1F
100
AcDbEntity
  8
0
  6
Continuous
 62
     7
370
    15
100
AcDbPolyline
 90
        9
 70
   128
 43
0.0
 10
317.7562029667
 20
238.8001701557
 10
317.7469225235
 20
238.802656787
 10
317.7194388218
 20
238.8100205683
 10
317.674809844
 20
238.8219794952
 10
317.6147462435
 20
238.8380731218
 10
317.5415606804
 20
238.8576834225
 10
317.4580605335
 20
238.880056771
 10
317.3674614735
 20
238.9043329977
 10
317.2732414313
 20
238.9295796626
  0
LINE
  5
13B
330
1F
100
AcDbEntity
  8
0
  6
Continuous
 62
     7
370
    15
100
AcDbLine
 10
317.7562029667
 20
238.8001701557
 30
0.0
 11
317.7270354338
 21
238.6913141929
 31
0.0
  0
LWPOLYLINE
  5
13C
330
1F
100
AcDbEntity
  8
0
  6
Continuous
 62
     7
370
    15
100
AcDbPolyline
 90
        8
 70
   128
 43
0.0
 10
317.6988156147
 20
238.6913141929
 10
317.6883818217
 20
238.6941096508
 10
317.6437498636
 20
238.7060682052
 10
317.5836892433
 20
238.7221622043
 10
317.5105007
 20
238.741772505
 10
317.4270035334
 20
238.7641454809
 10
317.3364044733
 20
238.7884220802
 10
317.2421814509
 20
238.8136683726
  0
ARC
  5
13D
330
1F
100
AcDbEntity
  8
0
  6
Continuous
 62
     7
370
    15
100
AcDbCircle
 10
316.9359474678
 20
238.7663141756
 30
0.0
 40
0.245000000000033
100
AcDbArc
 50
75.0
 51
90.0
  0
LINE
  5
13E
330
1F
100
AcDbEntity
  8
0
  6
Continuous
 62
     7
370
    15
100
AcDbLine
 10
316.9683010884
 20
238.8870547288
 30
0.0
 11
316.9993580885
 21
239.0029660188
 31
0.0
  0
ARC
  5
13F
330
1F
100
AcDbEntity
  8
0
  6
Continuous
 62
     7
370
    15
100
AcDbCircle
 10
316.9359474678
 20
238.7663141756
 30
0.0
 40
0.1250000000000284
100
AcDbArc
 50
75.0
 51
90.0
  0
LINE
  5
140
330
1F
100
AcDbEntity
  8
0
  6
Continuous
 62
     7
370
    15
100
AcDbLine
 10
317.2732414313
 20
238.9295796626
 30
0.0
 11
316.9993580885
 21
239.0029660188
 31
0.0
  0
LINE
  5
141
330
1F
100
AcDbEntity
  8
0
  6
Continuous
 62
     7
370
    15
100
AcDbLine
 10
317.2421814509
 20
238.8136683726
 30
0.0
 11
316.9683010884
 21
238.8870547288
 31
0.0
  0
LINE
  5
142
330
1F
100
AcDbEntity
  8
0
  6
Continuous
 62
     7
370
    15
100
AcDbLine
 10
250.1774044342
 20
236.5513141961
 30
0.0
 11
249.9724031992
 21
236.5513141961
 31
0.0
  0
LINE
  5
143
330
1F
100
AcDbEntity
  8
0
  6
Continuous
 62
     7
370
    15
100
AcDbLine
 10
249.9724031992
 20
236.5513141961
 30
0.0
 11
249.9724031992
 21
257.4421631866
 31
0.0
  0
LINE
  5
144
330
1F
100
AcDbEntity
  8
0
  6
Continuous
 62
     7
370
    15
100
AcDbLine
 10
249.9724031992
 20
257.4421631866
 30
0.0
 11
250.1774044342
 21
257.4421631866
 31
0.0
  0
LINE
  5
145
330
1F
100
AcDbEntity
  8
0
  6
Continuous
 62
     7
370
    15
100
AcDbLine
 10
250.1774044342
 20
257.4421631866
 30
0.0
 11
250.1774044342
 21
236.5513141961
 31
0.0
  0
LINE
  5
146
330
1F
100
AcDbEntity
  8
0
  6
Continuous
 62
     7
370
    15
100
AcDbLine
 10
250.0624032326
 20
257.4821623736
 30
0.0
 11
250.0624032326
 21
258.4892603331
 31
0.0
  0
ARC
  5
147
330
1F
100
AcDbEntity
  8
0
  6
Continuous
 62
     7
370
    15
100
AcDbCircle
 10
250.17740403
 20
258.4892596916
 30
0.0
 40
0.1150000000000507
100
AcDbArc
 50
75.0
 51
180.0
  0
LINE
  5
148
330
1F
100
AcDbEntity
  8
0
  6
Continuous
 62
     7
370
    15
100
AcDbLine
 10
250.2071680136
 20
258.6003410392
 30
0.0
 11
253.5368622847
 21
257.7081518941
 31
0.0
  0
ARC
  5
149
330
1F
100
AcDbEntity
  8
0
  6
Continuous
 62
     7
370
    15
100
AcDbCircle
 10
252.89240403
 20
255.3029967057
 30
0.0
 40
2.490000000000009
100
AcDbArc
 50
0.0
 51
75.0
  0
LINE
  5
14A
330
1F
100
AcDbEntity
  8
0
  6
Continuous
 62
     7
370
    15
100
AcDbLine
 10
255.3824038811
 20
255.3029971891
 30
0.0
 11
255.26240483
 21
255.3029971891
 31
0.0
  0
LINE
  5
14B
330
1F
100
AcDbEntity
  8
0
  6
Continuous
 62
     7
370
    15
100
AcDbLine
 10
255.26240483
 20
255.3029971891
 30
0.0
 11
255.26240483
 21
255.2529963427
 31
0.0
  0
LINE
  5
14C
330
1F
100
AcDbEntity
  8
0
  6
Continuous
 62
     7
370
    15
100
AcDbLine
 10
255.26240483
 20
255.2529963427
 30
0.0
 11
255.2674026795
 21
255.2529963427
 31
0.0
  0
LINE
  5
14D
330
1F
100
AcDbEntity
  8
0
  6
Continuous
 62
     7
370
    15
100
AcDbLine
 10
255.2674026795
 20
255.2529963427
 30
0.0
 11
255.2674026795
 21
236.5513141961
 31
0.0
  0
LINE
  5
14E
330
1F
100
AcDbEntity
  8
0
  6
Continuous
 62
     7
370
    15
100
AcDbLine
 10
250.1774044342
 20
257.4421631866
 30
0.0
 11
250.2174051113
 21
257.4421631866
 31
0.0
  0
ARC
  5
14F
330
1F
100
AcDbEntity
  8
0
  6
Continuous
 62
     7
370
    15
100
AcDbCircle
 10
252.56240403
 20
256.4163433578
 30
0.0
 40
0.260000000000048
100
AcDbArc
 50
190.4998591652
 51
349.5001408348
  0
ARC
  5
150
330
1F
100
AcDbEntity
  8
0
  6
Continuous
 62
     7
370
    15
100
AcDbCircle
 10
252.2818599364
 20
256.3663433578
 30
0.0
 40
0.0250351101093782
100
AcDbArc
 50
6.0057764948
 51
190.1054407085
  0
ARC
  5
151
330
1F
100
AcDbEntity
  8
0
  6
Continuous
 62
     7
370
    15
100
AcDbCircle
 10
252.56240403
 20
256.4163433578
 30
0.0
 40
0.3100000000000665
100
AcDbArc
 50
190.1054407084
 51
349.8945592916
  0
ARC
  5
152
330
1F
100
AcDbEntity
  8
0
  6
Continuous
 62
     7
370
    15
100
AcDbCircle
 10
252.8429481236
 20
256.3663433578
 30
0.0
 40
0.0250351101093502
100
AcDbArc
 50
349.8945592915
 51
173.9942235052
  0
ARC
  5
153
330
1F
100
AcDbEntity
  8
0
  6
Continuous
 62
     7
370
    15
100
AcDbCircle
 10
252.8422353448
 20
256.4701746255
 30
0.0
 40
0.0250379496815702
100
AcDbArc
 50
186.6269392398
 51
10.8889929002
  0
ARC
  5
154
330
1F
100
AcDbEntity
  8
0
  6
Continuous
 62
     7
370
    15
100
AcDbCircle
 10
252.56240403
 20
256.4163433578
 30
0.0
 40
0.3100000000000136
100
AcDbArc
 50
10.8889929003
 51
169.1108926947
  0
ARC
  5
155
330
1F
100
AcDbEntity
  8
0
  6
Continuous
 62
     7
370
    15
100
AcDbCircle
 10
252.2825757272
 20
256.4701746255
 30
0.0
 40
0.025040907467727
100
AcDbArc
 50
169.1108926947
 51
353.5357377927
  0
ARC
  5
156
330
1F
100
AcDbEntity
  8
0
  6
Continuous
 62
     7
370
    15
100
AcDbCircle
 10
252.56240403
 20
256.4163433578
 30
0.0
 40
0.2600000000000057
100
AcDbArc
 50
11.299052931
 51
168.6851502045
  0
LINE
  5
157
330
1F
100
AcDbEntity
  8
0
  6
Continuous
 62
     7
370
    15
100
AcDbLine
 10
250.2174051113
 20
257.4421631866
 30
0.0
 11
250.2174051113
 21
257.4821623736
 31
0.0
  0
LINE
  5
158
330
1F
100
AcDbEntity
  8
0
  6
Continuous
 62
     7
370
    15
100
AcDbLine
 10
255.2674026795
 20
236.5513141961
 30
0.0
 11
250.1774044342
 21
236.5513141961
 31
0.0
  0
LINE
  5
159
330
1F
100
AcDbEntity
  8
0
  6
Continuous
 62
     7
370
    15
100
AcDbLine
 10
250.2174051113
 20
257.4821623736
 30
0.0
 11
250.0624032326
 21
257.4821623736
 31
0.0
  0
LINE
  5
15A
330
1F
100
AcDbEntity
  8
0
  6
Continuous
 62
     7
370
    15
100
AcDbLine
 10
255.4724039145
 20
236.5513141961
 30
0.0
 11
255.2674026795
 21
236.5513141961
 31
0.0
  0
LINE
  5
15B
330
1F
100
AcDbEntity
  8
0
  6
Continuous
 62
     7
370
    15
100
AcDbLine
 10
255.2674026795
 20
255.2529963427
 30
0.0
 11
255.4724039145
 21
255.2529963427
 31
0.0
  0
LINE
  5
15C
330
1F
100
AcDbEntity
  8
0
  6
Continuous
 62
     7
370
    15
100
AcDbLine
 10
255.4724039145
 20
255.2529963427
 30
0.0
 11
255.4724039145
 21
236.5513141961
 31
0.0
  0
ARC
  5
15D
330
1F
100
AcDbEntity
  8
0
  6
Continuous
 62
     7
370
    15
100
AcDbCircle
 10
250.17740403
 20
258.4892596916
 30
0.0
 40
0.2050000000000244
100
AcDbArc
 50
75.0
 51
180.0
  0
LINE
  5
15E
330
1F
100
AcDbEntity
  8
0
  6
Continuous
 62
     7
370
    15
100
AcDbLine
 10
250.2304615088
 20
258.6872744136
 30
0.0
 11
250.2097578354
 21
258.6099999719
 31
0.0
  0
ARC
  5
15F
330
1F
100
AcDbEntity
  8
0
  6
Continuous
 62
     7
370
    15
100
AcDbCircle
 10
250.17740403
 20
258.4892596916
 30
0.0
 40
0.125000000000055
100
AcDbArc
 50
75.0
 51
180.0
  0
LINE
  5
160
330
1F
100
AcDbEntity
  8
0
  6
Continuous
 62
     7
370
    15
100
AcDbLine
 10
250.0524045534
 20
258.4892603331
 30
0.0
 11
249.9724031992
 21
258.4892603331
 31
0.0
  0
LINE
  5
161
330
1F
100
AcDbEntity
  8
0
  6
Continuous
 62
     7
370
    15
100
AcDbLine
 10
249.9724031992
 20
257.4521633559
 30
0.0
 11
249.9724031992
 21
258.4892603331
 31
0.0
  0
LINE
  5
162
330
1F
100
AcDbEntity
  8
0
  6
Continuous
 62
     7
370
    15
100
AcDbLine
 10
249.9724031992
 20
257.4521633559
 30
0.0
 11
250.0524045534
 21
257.4521633559
 31
0.0
  0
LINE
  5
163
330
1F
100
AcDbEntity
  8
0
  6
Continuous
 62
     7
370
    15
100
AcDbLine
 10
250.0524045534
 20
257.4521633559
 30
0.0
 11
250.0524045534
 21
258.4892603331
 31
0.0
  0
LINE
  5
164
330
1F
100
AcDbEntity
  8
0
  6
Continuous
 62
     7
370
    15
100
AcDbLine
 10
253.5394521065
 20
257.7178108268
 30
0.0
 11
253.5601557799
 21
257.7950852685
 31
0.0
  0
LINE
  5
165
330
1F
100
AcDbEntity
  8
0
  6
Continuous
 62
     7
370
    15
100
AcDbLine
 10
250.2097578354
 20
258.6099999719
 30
0.0
 11
253.5394521065
 21
257.7178108268
 31
0.0
  0
LINE
  5
166
330
1F
100
AcDbEntity
  8
0
  6
Continuous
 62
     7
370
    15
100
AcDbLine
 10
250.2304615088
 20
258.6872744136
 30
0.0
 11
253.5601557799
 21
257.7950852685
 31
0.0
  0
LINE
  5
167
330
1F
100
AcDbEntity
  8
0
  6
Continuous
 62
     7
370
    15
100
AcDbLine
 10
255.4724039145
 20
255.3029971891
 30
0.0
 11
255.3924025603
 21
255.3029971891
 31
0.0
  0
ARC
  5
168
330
1F
100
AcDbEntity
  8
0
  6
Continuous
 62
     7
370
    15
100
AcDbCircle
 10
252.89240403
 20
255.3029967057
 30
0.0
 40
2.580000000000041
100
AcDbArc
 50
0.0
 51
75.0
  0
ARC
  5
169
330
1F
100
AcDbEntity
  8
0
  6
Continuous
 62
     7
370
    15
100
AcDbCircle
 10
252.89240403
 20
255.3029967057
 30
0.0
 40
2.5
100
AcDbArc
 50
0.0
 51
75.0
  0
LINE
  5
16A
330
1F
100
AcDbEntity
  8
0
  6
Continuous
 62
     7
370
    15
100
AcDbLine
 10
255.4724039145
 20
255.3029971891
 30
0.0
 11
255.4724039145
 21
255.2929970198
 31
0.0
  0
LINE
  5
16B
330
1F
100
AcDbEntity
  8
0
  6
Continuous
 62
     7
370
    15
100
AcDbLine
 10
255.3924025603
 20
255.3029971891
 30
0.0
 11
255.3924025603
 21
255.2929970198
 31
0.0
  0
LINE
  5
16C
330
1F
100
AcDbEntity
  8
0
  6
Continuous
 62
     7
370
    15
100
AcDbLine
 10
255.3924025603
 20
255.2929970198
 30
0.0
 11
255.4724039145
 21
255.2929970198
 31
0.0
  0
LINE
  5
16D
330
1F
100
AcDbEntity
  8
0
  6
Continuous
 62
     7
370
    15
100
AcDbLine
 10
255.4724039145
 20
255.2529963427
 30
0.0
 11
255.4724039145
 21
255.2929970198
 31
0.0
  0
LINE
  5
16E
330
1F
100
AcDbEntity
  8
0
  6
Continuous
 62
     7
370
    15
100
AcDbLine
 10
255.3924025603
 20
255.2929970198
 30
0.0
 11
255.3924025603
 21
255.2529963427
 31
0.0
  0
ARC
  5
16F
330
1F
100
AcDbEntity
  8
0
  6
Continuous
 62
     7
370
    15
100
AcDbCircle
 10
238.7568010623
 20
257.5228785296
 30
0.0
 40
25.10537299517752
100
AcDbArc
 50
296.5858188002
 51
297.2128060164
  0
ARC
  5
170
330
1F
100
AcDbEntity
  8
0
  6
Continuous
 62
     7
370
    15
100
AcDbCircle
 10
241.016587461
 20
244.3447990231
 30
0.0
 40
12.98915930687892
100
AcDbArc
 50
314.4480308793
 51
315.2256134588
  0
LINE
  5
171
330
1F
100
AcDbEntity
  8
0
  6
Continuous
 62
     7
370
    15
100
AcDbLine
 10
249.9924035378
 20
235.0720213023
 30
0.0
 11
250.1124025889
 21
235.0720213023
 31
0.0
  0
LINE
  5
172
330
1F
100
AcDbEntity
  8
0
  6
Continuous
 62
     7
370
    15
100
AcDbLine
 10
314.8274035759
 20
236.3013141551
 30
0.0
 11
314.8274035759
 21
236.3063141932
 31
0.0
  0
LINE
  5
173
330
1F
100
AcDbEntity
  8
0
  6
Continuous
 62
     7
370
    15
100
AcDbLine
 10
314.977404625
 20
236.3013141551
 30
0.0
 11
314.8274035759
 21
236.3013141551
 31
0.0
  0
LINE
  5
174
330
1F
100
AcDbEntity
  8
0
  6
Continuous
 62
     7
370
    15
100
AcDbLine
 10
314.977404625
 20
235.1963141695
 30
0.0
 11
314.977404625
 21
236.3013141551
 31
0.0
  0
LINE
  5
175
330
1F
100
AcDbEntity
  8
0
  6
Continuous
 62
     7
370
    15
100
AcDbLine
 10
250.2374054499
 20
235.1963141695
 30
0.0
 11
314.977404625
 21
235.1963141695
 31
0.0
  0
LINE
  5
176
330
1F
100
AcDbEntity
  8
0
  6
Continuous
 62
     7
370
    15
100
AcDbLine
 10
250.2374054499
 20
236.3063141932
 30
0.0
 11
250.2374054499
 21
235.1963141695
 31
0.0
  0
LINE
  5
177
330
1F
100
AcDbEntity
  8
0
  6
Continuous
 62
     7
370
    15
100
AcDbLine
 10
314.8274035759
 20
236.3063141932
 30
0.0
 11
250.2374054499
 21
236.3063141932
 31
0.0
  0
ARC
  5
178
330
1F
100
AcDbEntity
  8
0
  6
Continuous
 62
     7
370
    15
100
AcDbCircle
 10
249.7937915756
 20
235.2611894674
 30
0.0
 40
0.448332548114592
100
AcDbArc
 50
316.5277291007
 51
351.6798889287
  0
LINE
  5
179
330
1F
100
AcDbEntity
  8
0
  6
Continuous
 62
     7
370
    15
100
AcDbLine
 10
250.1131118841
 20
235.0713141956
 30
0.0
 11
250.1131118841
 21
234.9513141666
 31
0.0
  0
ARC
  5
17A
330
1F
100
AcDbEntity
  8
0
  6
Continuous
 62
     7
370
    15
100
AcDbCircle
 10
250.0248317995
 20
235.2833909478
 30
0.0
 40
0.2297170480170805
100
AcDbArc
 50
292.6002424885
 51
337.7244678802
  0
LINE
  5
17B
330
1F
100
AcDbEntity
  8
0
  6
Continuous
 62
     7
370
    15
100
AcDbLine
 10
249.9924035378
 20
236.3063141932
 30
0.0
 11
249.9924035378
 21
235.0720213023
 31
0.0
  0
LINE
  5
17C
330
1F
100
AcDbEntity
  8
0
  6
Continuous
 62
     7
370
    15
100
AcDbLine
 10
250.2374054499
 20
236.3063141932
 30
0.0
 11
249.9924035378
 21
236.3063141932
 31
0.0
  0
LINE
  5
17D
330
1F
100
AcDbEntity
  8
0
  6
Continuous
 62
     7
370
    15
100
AcDbLine
 10
314.977404625
 20
234.9513141666
 30
0.0
 11
314.977404625
 21
235.1963141695
 31
0.0
  0
LINE
  5
17E
330
1F
100
AcDbEntity
  8
0
  6
Continuous
 62
     7
370
    15
100
AcDbLine
 10
314.8274035759
 20
236.5513141961
 30
0.0
 11
314.8274035759
 21
236.3063141932
 31
0.0
  0
LINE
  5
17F
330
1F
100
AcDbEntity
  8
0
  6
Continuous
 62
     7
370
    15
100
AcDbLine
 10
255.4724039145
 20
236.5513141961
 30
0.0
 11
314.8274035759
 21
236.5513141961
 31
0.0
  0
LINE
  5
180
330
1F
100
AcDbEntity
  8
0
  6
Continuous
 62
     7
370
    15
100
AcDbLine
 10
250.2374054499
 20
236.5513141961
 30
0.0
 11
250.2374054499
 21
236.3063141932
 31
0.0
  0
LINE
  5
181
330
1F
100
AcDbEntity
  8
0
  6
Continuous
 62
     7
370
    15
100
AcDbLine
 10
324.3290843077
 20
238.6913141929
 30
0.0
 11
315.1974053688
 21
238.6913141929
 31
0.0
  0
LINE
  5
182
330
1F
100
AcDbEntity
  8
0
  6
Continuous
 62
     7
370
    15
100
AcDbLine
 10
314.9524034567
 20
238.4463141435
 30
0.0
 11
314.9524034567
 21
236.67631417
 31
0.0
  0
LINE
  5
183
330
1F
100
AcDbEntity
  8
0
  6
Continuous
 62
     7
370
    15
100
AcDbLine
 10
314.9524034567
 20
236.67631417
 30
0.0
 11
314.9824054547
 21
236.67631417
 31
0.0
  0
ARC
  5
184
330
1F
100
AcDbEntity
  8
0
  6
Continuous
 62
     7
370
    15
100
AcDbCircle
 10
315.19740403
 20
238.4463141756
 30
0.0
 40
0.2450000000000045
100
AcDbArc
 50
90.0
 51
180.0
  0
ARC
  5
185
330
1F
100
AcDbEntity
  8
0
  6
Continuous
 62
     7
370
    15
100
AcDbCircle
 10
324.3290848799
 20
236.3613141756
 30
0.0
 40
2.329999999999987
100
AcDbArc
 50
293.5
 51
90.0
  0
LINE
  5
186
330
1F
100
AcDbEntity
  8
0
  6
Continuous
 62
     7
370
    15
100
AcDbLine
 10
322.9075016089
 20
233.2942337491
 30
0.0
 11
322.9410590239
 21
233.2170559787
 31
0.0
  0
LINE
  5
187
330
1F
100
AcDbEntity
  8
0
  6
Continuous
 62
     7
370
    15
100
AcDbLine
 10
322.9410590239
 20
233.2170559787
 30
0.0
 11
325.2581687279
 21
234.2245641858
 31
0.0
  0
LINE
  5
188
330
1F
100
AcDbEntity
  8
0
  6
Continuous
 62
     7
370
    15
100
AcDbLine
 10
250.1131118841
 20
236.4313142137
 30
0.0
 11
250.2374054499
 21
236.4313142137
 31
0.0
  0
LINE
  5
189
330
1F
100
AcDbEntity
  8
0
  6
Continuous
 62
     7
370
    15
100
AcDbLine
 10
250.1131118841
 20
236.5513141961
 30
0.0
 11
250.1131118841
 21
236.4313142137
 31
0.0
  0
LINE
  5
18A
330
1F
100
AcDbEntity
  8
0
  6
Continuous
 62
     7
370
    15
100
AcDbLine
 10
249.9924035378
 20
236.4306070604
 30
0.0
 11
250.1124025889
 21
236.4306070604
 31
0.0
  0
LINE
  5
18B
330
1F
100
AcDbEntity
  8
0
  6
Continuous
 62
     7
370
    15
100
AcDbLine
 10
249.9924035378
 20
236.3063141932
 30
0.0
 11
249.9924035378
 21
236.4306070604
 31
0.0
  0
LINE
  5
18C
330
1F
100
AcDbEntity
  8
0
  6
Continuous
 62
     7
370
    15
100
AcDbLine
 10
250.1124025889
 20
236.3063141932
 30
0.0
 11
250.1124025889
 21
236.4306070604
 31
0.0
  0
ARC
  5
18D
330
1F
100
AcDbEntity
  8
0
  6
Continuous
 62
     7
370
    15
100
AcDbCircle
 10
314.82740403
 20
236.6763141756
 30
0.0
 40
0.2450000000000205
100
AcDbArc
 50
270.0
 51
309.2461329497
  0
ARC
  5
18E
330
1F
100
AcDbEntity
  8
0
  6
Continuous
 62
     7
370
    15
100
AcDbCircle
 10
314.82740403
 20
236.6763141756
 30
0.0
 40
0.1250000000000568
100
AcDbArc
 50
270.0
 51
0.0000000001
  0
LWPOLYLINE
  5
18F
330
1F
100
AcDbEntity
  8
0
  6
Continuous
 62
     7
370
    15
100
AcDbPolyline
 90
        3
 70
   128
 43
0.0
 10
255.4724039145
 20
236.5596951679
 10
255.4930181809
 20
236.5537159839
 10
255.5174054213
 20
236.5513141961
  0
LINE
  5
190
330
1F
100
AcDbEntity
  8
0
  6
Continuous
 62
     7
370
    15
100
AcDbLine
 10
318.6124326296
 20
149.741311627
 30
0.0
 11
313.3124323197
 21
149.741311627
 31
0.0
  0
LINE
  5
191
330
1F
100
AcDbEntity
  8
0
  6
Continuous
 62
     7
370
    15
100
AcDbLine
 10
318.8124330349
 20
150.3413158231
 30
0.0
 11
313.1124348946
 21
150.3413158231
 31
0.0
  0
LINE
  5
192
330
1F
100
AcDbEntity
  8
0
  6
Continuous
 62
     7
370
    15
100
AcDbLine
 10
259.9124328799
 20
150.3413158231
 30
0.0
 11
254.2124332495
 21
150.3413158231
 31
0.0
  0
LINE
  5
193
330
1F
100
AcDbEntity
  8
0
  6
Continuous
 62
     7
370
    15
100
AcDbLine
 10
259.7124339647
 20
149.741311627
 30
0.0
 11
254.4124336548
 21
149.741311627
 31
0.0
  0
LINE
  5
194
330
1F
100
AcDbEntity
  8
0
  6
Continuous
 62
     7
370
    15
100
AcDbLine
 10
319.4624336071
 20
166.5413158708
 30
0.0
 11
319.4624336071
 21
166.7413132959
 31
0.0
  0
LINE
  5
195
330
1F
100
AcDbEntity
  8
0
  6
Continuous
 62
     7
370
    15
100
AcDbLine
 10
312.4624343224
 20
166.5413158708
 30
0.0
 11
312.4624343224
 21
166.7413132959
 31
0.0
  0
LINE
  5
196
330
1F
100
AcDbEntity
  8
0
  6
Continuous
 62
     7
370
    15
100
AcDbLine
 10
312.4624343224
 20
166.7413132959
 30
0.0
 11
319.4624336071
 21
166.7413132959
 31
0.0
  0
LINE
  5
197
330
1F
100
AcDbEntity
  8
0
  6
Continuous
 62
     7
370
    15
100
AcDbLine
 10
312.4624343224
 20
166.5413158708
 30
0.0
 11
319.4624336071
 21
166.5413158708
 31
0.0
  0
LINE
  5
198
330
1F
100
AcDbEntity
  8
0
  6
Continuous
 62
     7
370
    15
100
AcDbLine
 10
319.058397562
 20
157.1413117223
 30
0.0
 11
312.8664673872
 21
157.1413117223
 31
0.0
  0
LINE
  5
199
330
1F
100
AcDbEntity
  8
0
  6
Continuous
 62
     7
370
    15
100
AcDbLine
 10
260.5624334522
 20
166.5413158708
 30
0.0
 11
260.5624334522
 21
166.7413132959
 31
0.0
  0
LINE
  5
19A
330
1F
100
AcDbEntity
  8
0
  6
Continuous
 62
     7
370
    15
100
AcDbLine
 10
253.5624326773
 20
166.5413158708
 30
0.0
 11
260.5624334522
 21
166.5413158708
 31
0.0
  0
LINE
  5
19B
330
1F
100
AcDbEntity
  8
0
  6
Continuous
 62
     7
370
    15
100
AcDbLine
 10
253.5624326773
 20
166.7413132959
 30
0.0
 11
260.5624334522
 21
166.7413132959
 31
0.0
  0
LINE
  5
19C
330
1F
100
AcDbEntity
  8
0
  6
Continuous
 62
     7
370
    15
100
AcDbLine
 10
253.5624326773
 20
166.5413158708
 30
0.0
 11
253.5624326773
 21
166.7413132959
 31
0.0
  0
LINE
  5
19D
330
1F
100
AcDbEntity
  8
0
  6
Continuous
 62
     7
370
    15
100
AcDbLine
 10
260.1583988972
 20
157.1413117223
 30
0.0
 11
253.9664687224
 21
157.1413117223
 31
0.0
  0
LINE
  5
19E
330
1F
100
AcDbEntity
  8
0
  6
Continuous
 62
     7
370
    15
100
AcDbLine
 10
326.7524333306
 20
211.8569451147
 30
0.0
 11
326.9124330588
 21
211.8569451147
 31
0.0
  0
LINE
  5
19F
330
1F
100
AcDbEntity
  8
0
  6
Continuous
 62
     7
370
    15
100
AcDbLine
 10
326.9124330588
 20
211.6575467163
 30
0.0
 11
326.9124330588
 21
211.8569451147
 31
0.0
  0
LINE
  5
1A0
330
1F
100
AcDbEntity
  8
0
  6
Continuous
 62
     7
370
    15
100
AcDbLine
 10
326.7524333306
 20
211.6575467163
 30
0.0
 11
326.9124330588
 21
211.6575467163
 31
0.0
  0
LINE
  5
1A1
330
1F
100
AcDbEntity
  8
0
  6
Continuous
 62
     7
370
    15
100
AcDbLine
 10
326.7524333306
 20
217.6575469547
 30
0.0
 11
326.9124330588
 21
217.6575469547
 31
0.0
  0
LINE
  5
1A2
330
1F
100
AcDbEntity
  8
0
  6
Continuous
 62
     7
370
    15
100
AcDbLine
 10
326.9124330588
 20
217.4581083231
 30
0.0
 11
326.9124330588
 21
217.6575469547
 31
0.0
  0
LINE
  5
1A3
330
1F
100
AcDbEntity
  8
0
  6
Continuous
 62
     7
370
    15
100
AcDbLine
 10
326.7524333306
 20
217.4581083231
 30
0.0
 11
326.9124330588
 21
217.4581083231
 31
0.0
  0
LINE
  5
1A4
330
1F
100
AcDbEntity
  8
0
  6
Continuous
 62
     7
370
    15
100
AcDbLine
 10
326.9124330588
 20
211.8569451147
 30
0.0
 11
326.9124330588
 21
217.4581083231
 31
0.0
  0
LWPOLYLINE
  5
1A5
330
1F
100
AcDbEntity
  8
0
  6
Continuous
 62
     7
370
    15
100
AcDbPolyline
 90
        5
 70
   128
 43
0.0
 10
326.9124330588
 20
217.4581083231
 10
326.9683362551
 20
217.4483510428
 10
327.0151110001
 20
217.4348014169
 10
327.0429523297
 20
217.4197944575
 10
327.0524324484
 20
217.4037757092
  0
LINE
  5
1A6
330
1F
100
AcDbEntity
  8
0
  6
Continuous
 62
     7
370
    15
100
AcDbLine
 10
327.0524324484
 20
217.4037757092
 30
0.0
 11
327.0524324484
 21
211.9113179617
 31
0.0
  0
LWPOLYLINE
  5
1A7
330
1F
100
AcDbEntity
  8
0
  6
Continuous
 62
     7
370
    15
100
AcDbPolyline
 90
        5
 70
   128
 43
0.0
 10
326.9124330588
 20
211.8569451147
 10
326.9683362551
 20
211.8667098456
 10
327.0151110001
 20
211.8802684122
 10
327.0429523297
 20
211.8952872925
 10
327.0524324484
 20
211.9113179617
  0
ARC
  5
1A8
330
1F
100
AcDbEntity
  8
0
  6
Continuous
 62
     7
370
    15
100
AcDbCircle
 10
326.7524406343
 20
211.9113133663
 30
0.0
 40
0.2999918141187101
100
AcDbArc
 50
302.2302279283
 51
0.0008776924
  0
ARC
  5
1A9
330
1F
100
AcDbEntity
  8
0
  6
Continuous
 62
     7
370
    15
100
AcDbCircle
 10
326.7524439918
 20
217.4037821569
 30
0.0
 40
0.2999884567009286
100
AcDbArc
 50
359.9987685355
 51
57.7701258439
  0
LINE
  5
1AA
330
1F
100
AcDbEntity
  8
0
  6
Continuous
 62
     7
370
    15
100
AcDbLine
 10
328.4124346085
 20
217.2175246053
 30
0.0
 11
328.4124346085
 21
217.6975461417
 31
0.0
  0
LWPOLYLINE
  5
1AB
330
1F
100
AcDbEntity
  8
0
  6
Continuous
 62
     7
370
    15
100
AcDbPolyline
 90
        3
 70
   128
 43
0.0
 10
328.3495725699
 20
217.1070533567
 10
328.3665658541
 20
217.1746956878
 10
328.4124346085
 20
217.2175246053
  0
LWPOLYLINE
  5
1AC
330
1F
100
AcDbEntity
  8
0
  6
Continuous
 62
     7
370
    15
100
AcDbPolyline
 90
        3
 70
   128
 43
0.0
 10
328.4124346085
 20
212.4775695377
 10
328.3665658541
 20
212.5203984552
 10
328.3495725699
 20
212.5880407863
  0
LINE
  5
1AD
330
1F
100
AcDbEntity
  8
0
  6
Continuous
 62
     7
370
    15
100
AcDbLine
 10
328.4124346085
 20
211.9975465112
 30
0.0
 11
328.4124346085
 21
212.4775695377
 31
0.0
  0
LWPOLYLINE
  5
1AE
330
1F
100
AcDbEntity
  8
0
  6
Continuous
 62
     7
370
    15
100
AcDbPolyline
 90
       10
 70
   128
 43
0.0
 10
327.6445658512
 20
218.0046933465
 10
327.6445598908
 20
218.0046963268
 10
327.661758811
 20
217.9963621073
 10
327.7108640976
 20
217.973181861
 10
327.7849109478
 20
217.9399552517
 10
327.8731615849
 20
217.9030659371
 10
327.9624374218
 20
217.8687455826
 10
328.0389668055
 20
217.8417223268
 10
328.0905248232
 20
217.8247722559
 10
328.1087906666
 20
217.8190040164
  0
LINE
  5
1AF
330
1F
100
AcDbEntity
  8
0
  6
Continuous
 62
     7
370
    15
100
AcDbLine
 10
327.7544768162
 20
212.5455545955
 30
0.0
 11
327.7545155592
 21
212.5922250324
 31
0.0
  0
LINE
  5
1B0
330
1F
100
AcDbEntity
  8
0
  6
Continuous
 62
     7
370
    15
100
AcDbLine
 10
327.7545155592
 20
212.5922250324
 30
0.0
 11
328.0782909699
 21
212.6868161135
 31
0.0
  0
LWPOLYLINE
  5
1B1
330
1F
100
AcDbEntity
  8
0
  6
Continuous
 62
     7
370
    15
100
AcDbPolyline
 90
        6
 70
   128
 43
0.0
 10
327.7769835301
 20
211.8405612879
 10
327.7826042481
 20
211.8349763327
 10
327.7897866078
 20
211.8344488316
 10
327.8000237055
 20
211.8355530077
 10
327.8259874888
 20
211.8419038826
 10
327.8556288786
 20
211.8519636565
  0
LINE
  5
1B2
330
1F
100
AcDbEntity
  8
0
  6
Continuous
 62
     7
370
    15
100
AcDbLine
 10
328.0466885872
 20
211.9756790572
 30
0.0
 11
328.0779989071
 21
211.9878339344
 31
0.0
  0
LINE
  5
1B3
330
1F
100
AcDbEntity
  8
0
  6
Continuous
 62
     7
370
    15
100
AcDbLine
 10
328.0474008627
 20
211.9341137581
 30
0.0
 11
328.0466885872
 21
211.9756790572
 31
0.0
  0
LINE
  5
1B4
330
1F
100
AcDbEntity
  8
0
  6
Continuous
 62
     7
370
    15
100
AcDbLine
 10
327.9602558918
 20
211.9218366914
 30
0.0
 11
328.0474008627
 21
211.9341137581
 31
0.0
  0
ARC
  5
1B5
330
1F
100
AcDbEntity
  8
0
  6
Continuous
 62
     7
370
    15
100
AcDbCircle
 10
327.9963525833
 20
211.4901468144
 30
0.0
 40
0.4331964000886508
100
AcDbArc
 50
94.7797925387
 51
110.8227298111
  0
ARC
  5
1B6
330
1F
100
AcDbEntity
  8
0
  6
Continuous
 62
     7
370
    15
100
AcDbCircle
 10
327.8775978653
 20
211.7403262439
 30
0.0
 40
0.1586843944388084
100
AcDbArc
 50
102.8298793043
 51
146.0114063006
  0
LINE
  5
1B7
330
1F
100
AcDbEntity
  8
0
  6
Continuous
 62
     7
370
    15
100
AcDbLine
 10
328.1554432221
 20
213.3088725381
 30
0.0
 11
327.6907624312
 21
213.2063421183
 31
0.0
  0
LINE
  5
1B8
330
1F
100
AcDbEntity
  8
0
  6
Continuous
 62
     7
370
    15
100
AcDbLine
 10
327.6907624312
 20
213.2063421183
 30
0.0
 11
327.6908846207
 21
213.0393328839
 31
0.0
  0
LINE
  5
1B9
330
1F
100
AcDbEntity
  8
0
  6
Continuous
 62
     7
370
    15
100
AcDbLine
 10
328.1561882801
 20
212.3229685002
 30
0.0
 11
327.6915015288
 21
212.1639298969
 31
0.0
  0
LINE
  5
1BA
330
1F
100
AcDbEntity
  8
0
  6
Continuous
 62
     7
370
    15
100
AcDbLine
 10
327.6915015288
 20
212.1639298969
 30
0.0
 11
327.6915670939
 21
212.065774458
 31
0.0
  0
LINE
  5
1BB
330
1F
100
AcDbEntity
  8
0
  6
Continuous
 62
     7
370
    15
100
AcDbLine
 10
328.1564863034
 20
211.8968608552
 30
0.0
 11
327.691799552
 21
211.7108869129
 31
0.0
  0
LINE
  5
1BC
330
1F
100
AcDbEntity
  8
0
  6
Continuous
 62
     7
370
    15
100
AcDbLine
 10
327.4124325819
 20
211.5975471907
 30
0.0
 11
327.4124325819
 21
214.3115701848
 31
0.0
  0
LINE
  5
1BD
330
1F
100
AcDbEntity
  8
0
  6
Continuous
 62
     7
370
    15
100
AcDbLine
 10
327.4124325819
 20
215.3875472718
 30
0.0
 11
327.4124325819
 21
218.0975469523
 31
0.0
  0
LINE
  5
1BE
330
1F
100
AcDbEntity
  8
0
  6
Continuous
 62
     7
370
    15
100
AcDbLine
 10
328.4124346085
 20
217.0340868407
 30
0.0
 11
328.4124346085
 21
215.3875472718
 31
0.0
  0
LINE
  5
1BF
330
1F
100
AcDbEntity
  8
0
  6
Continuous
 62
     7
370
    15
100
AcDbLine
 10
328.4124346085
 20
214.3202977949
 30
0.0
 11
328.4124346085
 21
212.6610073023
 31
0.0
  0
ARC
  5
1C0
330
1F
100
AcDbEntity
  8
0
  6
Continuous
 62
     7
370
    15
100
AcDbCircle
 10
328.3312539738
 20
212.6673842823
 30
0.0
 40
0.0814307147980817
100
AcDbArc
 50
283.0004844502
 51
355.5084696358
  0
ARC
  5
1C1
330
1F
100
AcDbEntity
  8
0
  6
Continuous
 62
     7
370
    15
100
AcDbCircle
 10
328.3312516805
 20
217.0277078849
 30
0.0
 40
0.0814331558881218
100
AcDbArc
 50
4.4927898857
 51
76.9982560284
  0
LINE
  5
1C2
330
1F
100
AcDbEntity
  8
0
  6
Continuous
 62
     7
370
    15
100
AcDbLine
 10
327.6912571497
 20
213.0387979322
 30
0.0
 11
328.1559468813
 21
213.1413194113
 31
0.0
  0
LINE
  5
1C3
330
1F
100
AcDbEntity
  8
0
  6
Continuous
 62
     7
370
    15
100
AcDbLine
 10
327.69113198
 20
213.2058563405
 30
0.0
 11
327.6912571497
 21
213.0387979322
 31
0.0
  0
LINE
  5
1C4
330
1F
100
AcDbEntity
  8
0
  6
Continuous
 62
     7
370
    15
100
AcDbLine
 10
328.1558157511
 20
213.3083897405
 30
0.0
 11
327.69113198
 21
213.2058563405
 31
0.0
  0
LINE
  5
1C5
330
1F
100
AcDbEntity
  8
0
  6
Continuous
 62
     7
370
    15
100
AcDbLine
 10
328.1559468813
 20
213.1413194113
 30
0.0
 11
328.1558157511
 21
213.3083897405
 31
0.0
  0
LINE
  5
1C6
330
1F
100
AcDbEntity
  8
0
  6
Continuous
 62
     7
370
    15
100
AcDbLine
 10
328.1554432221
 20
213.3088725381
 30
0.0
 11
328.1558157511
 21
213.3083897405
 31
0.0
  0
LINE
  5
1C7
330
1F
100
AcDbEntity
  8
0
  6
Continuous
 62
     7
370
    15
100
AcDbLine
 10
327.6907624312
 20
213.2063421183
 30
0.0
 11
327.69113198
 21
213.2058563405
 31
0.0
  0
LINE
  5
1C8
330
1F
100
AcDbEntity
  8
0
  6
Continuous
 62
     7
370
    15
100
AcDbLine
 10
327.6908846207
 20
213.0393328839
 30
0.0
 11
327.6912571497
 21
213.0387979322
 31
0.0
  0
LINE
  5
1C9
330
1F
100
AcDbEntity
  8
0
  6
Continuous
 62
     7
370
    15
100
AcDbLine
 10
328.0786605187
 20
212.6861440711
 30
0.0
 11
328.0782909699
 21
212.6868161135
 31
0.0
  0
LINE
  5
1CA
330
1F
100
AcDbEntity
  8
0
  6
Continuous
 62
     7
370
    15
100
AcDbLine
 10
327.7548880882
 20
212.5915514999
 30
0.0
 11
328.0786605187
 21
212.6861440711
 31
0.0
  0
LINE
  5
1CB
330
1F
100
AcDbEntity
  8
0
  6
Continuous
 62
     7
370
    15
100
AcDbLine
 10
327.7548880882
 20
212.5915514999
 30
0.0
 11
327.7545155592
 21
212.5922250324
 31
0.0
  0
LINE
  5
1CC
330
1F
100
AcDbEntity
  8
0
  6
Continuous
 62
     7
370
    15
100
AcDbLine
 10
327.7548493452
 20
212.544867652
 30
0.0
 11
327.7548880882
 21
212.5915514999
 31
0.0
  0
LINE
  5
1CD
330
1F
100
AcDbEntity
  8
0
  6
Continuous
 62
     7
370
    15
100
AcDbLine
 10
328.0786605187
 20
212.6861440711
 30
0.0
 11
328.0786933012
 21
212.6624497347
 31
0.0
  0
LINE
  5
1CE
330
1F
100
AcDbEntity
  8
0
  6
Continuous
 62
     7
370
    15
100
AcDbLine
 10
328.0786933012
 20
212.6624497347
 30
0.0
 11
327.7866275616
 21
212.5770869427
 31
0.0
  0
LINE
  5
1CF
330
1F
100
AcDbEntity
  8
0
  6
Continuous
 62
     7
370
    15
100
AcDbLine
 10
327.7866275616
 20
212.5770869427
 30
0.0
 11
327.7864368267
 21
212.5400650077
 31
0.0
  0
LINE
  5
1D0
330
1F
100
AcDbEntity
  8
0
  6
Continuous
 62
     7
370
    15
100
AcDbLine
 10
327.7864368267
 20
212.5400650077
 30
0.0
 11
327.7548493452
 21
212.544867652
 31
0.0
  0
LINE
  5
1D1
330
1F
100
AcDbEntity
  8
0
  6
Continuous
 62
     7
370
    15
100
AcDbLine
 10
327.7548493452
 20
212.544867652
 30
0.0
 11
327.7544768162
 21
212.5455545955
 31
0.0
  0
ARC
  5
1D2
330
1F
100
AcDbEntity
  8
0
  6
Continuous
 62
     7
370
    15
100
AcDbCircle
 10
328.5000883216
 20
212.6532665317
 30
0.0
 40
0.0879948461710897
100
AcDbArc
 50
174.9532555134
 51
241.5021318938
  0
ARC
  5
1D3
330
1F
100
AcDbEntity
  8
0
  6
Continuous
 62
     7
370
    15
100
AcDbCircle
 10
328.338610064
 20
212.57330193
 30
0.0
 40
0.1195225989353402
100
AcDbArc
 50
308.9456636774
 51
1.2616472569
  0
ARC
  5
1D4
330
1F
100
AcDbEntity
  8
0
  6
Continuous
 62
     7
370
    15
100
AcDbCircle
 10
328.4158146706
 20
212.4776737022
 30
0.0
 40
0.0033816667546526
100
AcDbArc
 50
127.8444634876
 51
181.7651449502
  0
ARC
  5
1D5
330
1F
100
AcDbEntity
  8
0
  6
Continuous
 62
     7
370
    15
100
AcDbCircle
 10
328.3386128289
 20
217.1217920471
 30
0.0
 40
0.1195198310777658
100
AcDbArc
 50
358.7384030626
 51
51.0549681358
  0
ARC
  5
1D6
330
1F
100
AcDbEntity
  8
0
  6
Continuous
 62
     7
370
    15
100
AcDbCircle
 10
328.4999907397
 20
217.041879995
 30
0.0
 40
0.087902271699544
100
AcDbArc
 50
118.4582608998
 51
185.086351693
  0
ARC
  5
1D7
330
1F
100
AcDbEntity
  8
0
  6
Continuous
 62
     7
370
    15
100
AcDbCircle
 10
328.4158437951
 20
217.2174327016
 30
0.0
 40
0.0034104251800556
100
AcDbArc
 50
178.455813835
 51
231.9108819029
  0
ARC
  5
1D8
330
1F
100
AcDbEntity
  8
0
  6
Continuous
 62
     7
370
    15
100
AcDbCircle
 10
328.5266345162
 20
216.8410553733
 30
0.0
 40
0.2864244471222083
100
AcDbArc
 50
50.9201098928
 51
103.8430577348
  0
LINE
  5
1D9
330
1F
100
AcDbEntity
  8
0
  6
Continuous
 62
     7
370
    15
100
AcDbLine
 10
328.7071974583
 20
217.0633974247
 30
0.0
 11
328.7071974583
 21
212.6316952281
 31
0.0
  0
ARC
  5
1DA
330
1F
100
AcDbEntity
  8
0
  6
Continuous
 62
     7
370
    15
100
AcDbCircle
 10
328.5224673098
 20
212.8726601115
 30
0.0
 40
0.3036269137432501
100
AcDbArc
 50
257.7614369981
 51
307.4747425843
  0
LINE
  5
1DB
330
1F
100
AcDbEntity
  8
0
  6
Continuous
 62
     7
370
    15
100
AcDbLine
 10
327.6919396229
 20
212.0649519139
 30
0.0
 11
328.1566263743
 21
212.2297840887
 31
0.0
  0
LINE
  5
1DC
330
1F
100
AcDbEntity
  8
0
  6
Continuous
 62
     7
370
    15
100
AcDbLine
 10
327.6918740578
 20
212.163135665
 30
0.0
 11
327.6919396229
 21
212.0649519139
 31
0.0
  0
LINE
  5
1DD
330
1F
100
AcDbEntity
  8
0
  6
Continuous
 62
     7
370
    15
100
AcDbLine
 10
328.1565578289
 20
212.3221742683
 30
0.0
 11
327.6918740578
 21
212.163135665
 31
0.0
  0
LINE
  5
1DE
330
1F
100
AcDbEntity
  8
0
  6
Continuous
 62
     7
370
    15
100
AcDbLine
 10
328.1566263743
 20
212.2297840887
 30
0.0
 11
328.1565578289
 21
212.3221742683
 31
0.0
  0
LINE
  5
1DF
330
1F
100
AcDbEntity
  8
0
  6
Continuous
 62
     7
370
    15
100
AcDbLine
 10
328.1561882801
 20
212.3229685002
 30
0.0
 11
328.1565578289
 21
212.3221742683
 31
0.0
  0
LINE
  5
1E0
330
1F
100
AcDbEntity
  8
0
  6
Continuous
 62
     7
370
    15
100
AcDbLine
 10
327.6915015288
 20
212.1639298969
 30
0.0
 11
327.6918740578
 21
212.163135665
 31
0.0
  0
LINE
  5
1E1
330
1F
100
AcDbEntity
  8
0
  6
Continuous
 62
     7
370
    15
100
AcDbLine
 10
327.6915670939
 20
212.065774458
 30
0.0
 11
327.6919396229
 21
212.0649519139
 31
0.0
  0
ARC
  5
1E2
330
1F
100
AcDbEntity
  8
0
  6
Continuous
 62
     7
370
    15
100
AcDbCircle
 10
328.5365003186
 20
212.8967210681
 30
0.0
 40
0.4340966014135983
100
AcDbArc
 50
253.572907145
 51
298.9297472091
  0
ARC
  5
1E3
330
1F
100
AcDbEntity
  8
0
  6
Continuous
 62
     7
370
    15
100
AcDbCircle
 10
328.3344025083
 20
212.4400465302
 30
0.0
 40
0.4191721581681601
100
AcDbArc
 50
10.5499490187
 51
27.2070655414
  0
ARC
  5
1E4
330
1F
100
AcDbEntity
  8
0
  6
Continuous
 62
     7
370
    15
100
AcDbCircle
 10
308.3771433355
 20
261.5636455074
 30
0.0
 40
53.10841639877396
100
AcDbArc
 50
292.5532991526
 51
294.4438438556
  0
ARC
  5
1E5
330
1F
100
AcDbEntity
  8
0
  6
Continuous
 62
     7
370
    15
100
AcDbCircle
 10
329.242128743
 20
219.3690349838
 30
0.0
 40
1.864858513547508
100
AcDbArc
 50
245.1363284132
 51
245.8549180414
  0
LINE
  5
1E6
330
1F
100
AcDbEntity
  8
0
  6
Continuous
 62
     7
370
    15
100
AcDbLine
 10
328.4793110199
 20
217.6673280769
 30
0.0
 11
330.2186848231
 21
216.8792041712
 31
0.0
  0
LINE
  5
1E7
330
1F
100
AcDbEntity
  8
0
  6
Continuous
 62
     7
370
    15
100
AcDbLine
 10
330.2186848231
 20
216.8792041712
 30
0.0
 11
330.3534688063
 21
216.8183806115
 31
0.0
  0
LINE
  5
1E8
330
1F
100
AcDbEntity
  8
0
  6
Continuous
 62
     7
370
    15
100
AcDbLine
 10
330.3534688063
 20
216.4796131425
 30
0.0
 11
330.3534688063
 21
216.8183806115
 31
0.0
  0
ARC
  5
1E9
330
1F
100
AcDbEntity
  8
0
  6
Continuous
 62
     7
370
    15
100
AcDbCircle
 10
308.3740434127
 20
168.1242141959
 30
0.0
 40
53.11628514794681
100
AcDbArc
 50
65.5563411946
 51
67.4466051622
  0
ARC
  5
1EA
330
1F
100
AcDbEntity
  8
0
  6
Continuous
 62
     7
370
    15
100
AcDbCircle
 10
328.5365014498
 20
216.7983819122
 30
0.0
 40
0.4340870154956429
100
AcDbArc
 50
61.0697240803
 51
106.4276215656
  0
ARC
  5
1EB
330
1F
100
AcDbEntity
  8
0
  6
Continuous
 62
     7
370
    15
100
AcDbCircle
 10
328.3343881147
 20
217.2550510447
 30
0.0
 40
0.4191872095808959
100
AcDbArc
 50
332.7932356294
 51
349.4497498105
  0
ARC
  5
1EC
330
1F
100
AcDbEntity
  8
0
  6
Continuous
 62
     7
370
    15
100
AcDbCircle
 10
306.98629476
 20
163.8011162177
 30
0.0
 40
57.52102409911301
100
AcDbArc
 50
66.0741503418
 51
67.8138628568
  0
ARC
  5
1ED
330
1F
100
AcDbEntity
  8
0
  6
Continuous
 62
     7
370
    15
100
AcDbCircle
 10
329.810534688
 20
216.6347292975
 30
0.0
 40
0.5646578418072571
100
AcDbArc
 50
333.1184565449
 51
344.0553728023
  0
ARC
  5
1EE
330
1F
100
AcDbEntity
  8
0
  6
Continuous
 62
     7
370
    15
100
AcDbCircle
 10
306.978867318
 20
265.9114269572
 30
0.0
 40
57.53998734622795
100
AcDbArc
 50
292.1864238406
 51
293.9255629607
  0
ARC
  5
1EF
330
1F
100
AcDbEntity
  8
0
  6
Continuous
 62
     7
370
    15
100
AcDbCircle
 10
329.8106177827
 20
213.0603936352
 30
0.0
 40
0.5645700352756212
100
AcDbArc
 50
15.9441344552
 51
26.8826154655
  0
LINE
  5
1F0
330
1F
100
AcDbEntity
  8
0
  6
Continuous
 62
     7
370
    15
100
AcDbLine
 10
330.3141774245
 20
213.315671938
 30
0.0
 11
330.3141774245
 21
216.3794207149
 31
0.0
  0
ARC
  5
1F1
330
1F
100
AcDbEntity
  8
0
  6
Continuous
 62
     7
370
    15
100
AcDbCircle
 10
330.3368507647
 20
213.1988052997
 30
0.0
 40
0.1190457538467024
100
AcDbArc
 50
50.587564446
 51
100.979574579
  0
ARC
  5
1F2
330
1F
100
AcDbEntity
  8
0
  6
Continuous
 62
     7
370
    15
100
AcDbCircle
 10
330.3289897085
 20
213.2953854504
 30
0.0
 40
0.0835700146868166
100
AcDbArc
 50
287.0326877156
 51
356.8405827707
  0
ARC
  5
1F3
330
1F
100
AcDbEntity
  8
0
  6
Continuous
 62
     7
370
    15
100
AcDbCircle
 10
330.3368458031
 20
216.4963069378
 30
0.0
 40
0.1190640352524204
100
AcDbArc
 50
259.0245643177
 51
309.4082966572
  0
ARC
  5
1F4
330
1F
100
AcDbEntity
  8
0
  6
Continuous
 62
     7
370
    15
100
AcDbCircle
 10
330.3289865153
 20
216.3997062832
 30
0.0
 40
0.0835732537104442
100
AcDbArc
 50
3.1599258008
 51
72.9657029511
  0
LINE
  5
1F5
330
1F
100
AcDbEntity
  8
0
  6
Continuous
 62
     7
370
    15
100
AcDbLine
 10
330.4124327011
 20
216.4043131047
 30
0.0
 11
330.4124327011
 21
213.2907795482
 31
0.0
  0
LINE
  5
1F6
330
1F
100
AcDbEntity
  8
0
  6
Continuous
 62
     7
370
    15
100
AcDbLine
 10
330.4124327011
 20
216.7269113236
 30
0.0
 11
330.4124327011
 21
216.4043131047
 31
0.0
  0
ARC
  5
1F7
330
1F
100
AcDbEntity
  8
0
  6
Continuous
 62
     7
370
    15
100
AcDbCircle
 10
330.3121144544
 20
216.7269827269
 30
0.0
 40
0.1003182721295855
100
AcDbArc
 50
359.9592187141
 51
65.6549085173
  0
LINE
  5
1F8
330
1F
100
AcDbEntity
  8
0
  6
Continuous
 62
     7
370
    15
100
AcDbLine
 10
330.4124327011
 20
213.2907795482
 30
0.0
 11
330.4124327011
 21
212.9622059637
 31
0.0
  0
LWPOLYLINE
  5
1F9
330
1F
100
AcDbEntity
  8
0
  6
Continuous
 62
     7
370
    15
100
AcDbPolyline
 90
        3
 70
   128
 43
0.0
 10
327.8427334137
 20
211.8941592746
 10
327.8425486393
 20
211.8946048193
 10
327.8423608847
 20
211.8950488739
  0
ARC
  5
1FA
330
1F
100
AcDbEntity
  8
0
  6
Continuous
 62
     7
370
    15
100
AcDbCircle
 10
327.8779647594
 20
211.7394588805
 30
0.0
 40
0.1586614624009683
100
AcDbArc
 50
102.8296782824
 51
146.0200498647
  0
LWPOLYLINE
  5
1FB
330
1F
100
AcDbEntity
  8
0
  6
Continuous
 62
     7
370
    15
100
AcDbPolyline
 90
        3
 70
   128
 43
0.0
 10
327.7463974066
 20
211.8281352096
 10
327.7462126322
 20
211.8285852247
 10
327.7460248776
 20
211.8290352397
  0
LINE
  5
1FC
330
1F
100
AcDbEntity
  8
0
  6
Continuous
 62
     7
370
    15
100
AcDbLine
 10
327.8559984274
 20
211.8510576659
 30
0.0
 11
327.8556646414
 21
211.8436413579
 31
0.0
  0
LWPOLYLINE
  5
1FD
330
1F
100
AcDbEntity
  8
0
  6
Continuous
 62
     7
370
    15
100
AcDbPolyline
 90
        6
 70
   128
 43
0.0
 10
327.8556646414
 20
211.8436413579
 10
327.8137595959
 20
211.8292170339
 10
327.7780981369
 20
211.82082619
 10
327.7641893931
 20
211.8194552832
 10
327.7541728325
 20
211.8202167325
 10
327.7463974066
 20
211.8281352096
  0
ARC
  5
1FE
330
1F
100
AcDbEntity
  8
0
  6
Continuous
 62
     7
370
    15
100
AcDbCircle
 10
327.9966668068
 20
211.4893937933
 30
0.0
 40
0.433048016229883
100
AcDbArc
 50
94.7736929568
 51
110.8219430096
  0
LINE
  5
1FF
330
1F
100
AcDbEntity
  8
0
  6
Continuous
 62
     7
370
    15
100
AcDbLine
 10
327.9606284209
 20
211.9209396415
 30
0.0
 11
328.0477704115
 21
211.9332107478
 31
0.0
  0
LINE
  5
200
330
1F
100
AcDbEntity
  8
0
  6
Continuous
 62
     7
370
    15
100
AcDbLine
 10
328.0477704115
 20
211.9332107478
 30
0.0
 11
328.0470611162
 21
211.9747894578
 31
0.0
  0
LINE
  5
201
330
1F
100
AcDbEntity
  8
0
  6
Continuous
 62
     7
370
    15
100
AcDbLine
 10
328.0470611162
 20
211.9747894578
 30
0.0
 11
328.0783714361
 21
211.986944335
 31
0.0
  0
LINE
  5
202
330
1F
100
AcDbEntity
  8
0
  6
Continuous
 62
     7
370
    15
100
AcDbLine
 10
328.0783714361
 20
211.986944335
 30
0.0
 11
328.0784012385
 21
211.9283037954
 31
0.0
  0
LINE
  5
203
330
1F
100
AcDbEntity
  8
0
  6
Continuous
 62
     7
370
    15
100
AcDbLine
 10
328.0784012385
 20
211.9283037954
 30
0.0
 11
327.9452236004
 21
211.9074183279
 31
0.0
  0
ARC
  5
204
330
1F
100
AcDbEntity
  8
0
  6
Continuous
 62
     7
370
    15
100
AcDbCircle
 10
327.9761448429
 20
211.5246255215
 30
0.0
 40
0.3840396539973766
100
AcDbArc
 50
94.6182119192
 51
110.1457718621
  0
ARC
  5
205
330
1F
100
AcDbEntity
  8
0
  6
Continuous
 62
     7
370
    15
100
AcDbCircle
 10
327.8723556822
 20
211.7721662025
 30
0.0
 40
0.1165363121190352
100
AcDbArc
 50
104.1445452946
 51
144.6064813958
  0
LWPOLYLINE
  5
206
330
1F
100
AcDbEntity
  8
0
  6
Continuous
 62
     7
370
    15
100
AcDbPolyline
 90
        6
 70
   128
 43
0.0
 10
327.7773560591
 20
211.8396627479
 10
327.7829767771
 20
211.8340733223
 10
327.7901591368
 20
211.8335458212
 10
327.8003962345
 20
211.8346499973
 10
327.8263600178
 20
211.8409993821
 10
327.8559984274
 20
211.8510576659
  0
LWPOLYLINE
  5
207
330
1F
100
AcDbEntity
  8
0
  6
Continuous
 62
     7
370
    15
100
AcDbPolyline
 90
        3
 70
   128
 43
0.0
 10
327.9606284209
 20
211.9209396415
 10
327.9604406662
 20
211.9213881665
 10
327.9602558918
 20
211.9218366914
  0
LINE
  5
208
330
1F
100
AcDbEntity
  8
0
  6
Continuous
 62
     7
370
    15
100
AcDbLine
 10
328.0783714361
 20
211.986944335
 30
0.0
 11
328.0779989071
 21
211.9878339344
 31
0.0
  0
LINE
  5
209
330
1F
100
AcDbEntity
  8
0
  6
Continuous
 62
     7
370
    15
100
AcDbLine
 10
328.0470611162
 20
211.9747894578
 30
0.0
 11
328.0466885872
 21
211.9756790572
 31
0.0
  0
LINE
  5
20A
330
1F
100
AcDbEntity
  8
0
  6
Continuous
 62
     7
370
    15
100
AcDbLine
 10
328.0477704115
 20
211.9332107478
 30
0.0
 11
328.0474008627
 21
211.9341137581
 31
0.0
  0
LINE
  5
20B
330
1F
100
AcDbEntity
  8
0
  6
Continuous
 62
     7
370
    15
100
AcDbLine
 10
327.8559984274
 20
211.8510576659
 30
0.0
 11
327.8556288786
 21
211.8519636565
 31
0.0
  0
LWPOLYLINE
  5
20C
330
1F
100
AcDbEntity
  8
0
  6
Continuous
 62
     7
370
    15
100
AcDbPolyline
 90
        3
 70
   128
 43
0.0
 10
327.7773560591
 20
211.8396627479
 10
327.7771712847
 20
211.840112763
 10
327.7769835301
 20
211.8405612879
  0
LINE
  5
20D
330
1F
100
AcDbEntity
  8
0
  6
Continuous
 62
     7
370
    15
100
AcDbLine
 10
327.2124321766
 20
214.3075468712
 30
0.0
 11
327.2124321766
 21
214.2503562146
 31
0.0
  0
LINE
  5
20E
330
1F
100
AcDbEntity
  8
0
  6
Continuous
 62
     7
370
    15
100
AcDbLine
 10
327.2124321766
 20
214.2503562146
 30
0.0
 11
327.2124321766
 21
214.1449394398
 31
0.0
  0
LINE
  5
20F
330
1F
100
AcDbEntity
  8
0
  6
Continuous
 62
     7
370
    15
100
AcDbLine
 10
327.2124321766
 20
214.1449394398
 30
0.0
 11
327.2124321766
 21
214.1363653117
 31
0.0
  0
LWPOLYLINE
  5
210
330
1F
100
AcDbEntity
  8
0
  6
Continuous
 62
     7
370
    15
100
AcDbPolyline
 90
       10
 70
   128
 43
0.0
 10
327.6449562617
 20
218.0056127482
 10
327.6449294396
 20
218.0056246691
 10
327.6621522017
 20
217.9972785287
 10
327.711305172
 20
217.9740774208
 10
327.7854086466
 20
217.9408269697
 10
327.8737129278
 20
217.9039182835
 10
327.9630155869
 20
217.8695934587
 10
328.0395270891
 20
217.842585104
 10
328.0910344429
 20
217.8256558948
 10
328.1091631956
 20
217.8199323588
  0
LINE
  5
211
330
1F
100
AcDbEntity
  8
0
  6
Continuous
 62
     7
370
    15
100
AcDbLine
 10
328.1568558521
 20
211.8959325128
 30
0.0
 11
327.692172081
 21
211.7099585705
 31
0.0
  0
LINE
  5
212
330
1F
100
AcDbEntity
  8
0
  6
Continuous
 62
     7
370
    15
100
AcDbLine
 10
327.691799552
 20
211.7108869129
 30
0.0
 11
327.692172081
 21
211.7099585705
 31
0.0
  0
LINE
  5
213
330
1F
100
AcDbEntity
  8
0
  6
Continuous
 62
     7
370
    15
100
AcDbLine
 10
328.1564863034
 20
211.8968608552
 30
0.0
 11
328.1568558521
 21
211.8959325128
 31
0.0
  0
LINE
  5
214
330
1F
100
AcDbEntity
  8
0
  6
Continuous
 62
     7
370
    15
100
AcDbLine
 10
327.0824344464
 20
214.8475470715
 30
0.0
 11
327.0824344464
 21
215.9904616647
 31
0.0
  0
LINE
  5
215
330
1F
100
AcDbEntity
  8
0
  6
Continuous
 62
     7
370
    15
100
AcDbLine
 10
327.0824344464
 20
213.7046324783
 30
0.0
 11
327.0824344464
 21
214.8475470715
 31
0.0
  0
LINE
  5
216
330
1F
100
AcDbEntity
  8
0
  6
Continuous
 62
     7
370
    15
100
AcDbLine
 10
328.5324336596
 20
214.3575462275
 30
0.0
 11
328.5324336596
 21
214.8475470715
 31
0.0
  0
LINE
  5
217
330
1F
100
AcDbEntity
  8
0
  6
Continuous
 62
     7
370
    15
100
AcDbLine
 10
314.8274035759
 20
236.406314163
 30
0.0
 11
314.9824054547
 21
236.406314163
 31
0.0
  0
LINE
  5
218
330
1F
100
AcDbEntity
  8
0
  6
Continuous
 62
     7
370
    15
100
AcDbLine
 10
250.1124323912
 20
236.3063141932
 30
0.0
 11
250.1124323912
 21
236.5513141961
 31
0.0
  0
LINE
  5
219
330
1F
100
AcDbEntity
  8
0
  6
Continuous
 62
     7
370
    15
100
AcDbLine
 10
314.9124325819
 20
236.386314197
 30
0.0
 11
314.9124325819
 21
236.3013141551
 31
0.0
  0
LINE
  5
21A
330
1F
100
AcDbEntity
  8
0
  6
Continuous
 62
     7
370
    15
100
AcDbLine
 10
314.8274035759
 20
236.386314197
 30
0.0
 11
314.9124325819
 21
236.386314197
 31
0.0
  0
LINE
  5
21B
330
1F
100
AcDbEntity
  8
0
  6
Continuous
 62
     7
370
    15
100
AcDbLine
 10
247.9724349089
 20
213.071313756
 30
0.0
 11
247.9724349089
 21
215.2713137441
 31
0.0
  0
LINE
  5
21C
330
1F
100
AcDbEntity
  8
0
  6
Continuous
 62
     7
370
    15
100
AcDbLine
 10
247.7724345036
 20
213.2713141613
 30
0.0
 11
247.7724345036
 21
215.0713148289
 31
0.0
  0
LINE
  5
21D
330
1F
100
AcDbEntity
  8
0
  6
Continuous
 62
     7
370
    15
100
AcDbLine
 10
247.5724340983
 20
213.071313756
 30
0.0
 11
247.5724340983
 21
215.2713137441
 31
0.0
  0
LINE
  5
21E
330
1F
100
AcDbEntity
  8
0
  6
Continuous
 62
     7
370
    15
100
AcDbLine
 10
247.372433693
 20
213.2713141613
 30
0.0
 11
247.372433693
 21
215.0713148289
 31
0.0
  0
LINE
  5
21F
330
1F
100
AcDbEntity
  8
0
  6
Continuous
 62
     7
370
    15
100
AcDbLine
 10
247.1724332876
 20
213.071313756
 30
0.0
 11
247.1724332876
 21
215.2713137441
 31
0.0
  0
LINE
  5
220
330
1F
100
AcDbEntity
  8
0
  6
Continuous
 62
     7
370
    15
100
AcDbLine
 10
246.9724328823
 20
213.2713141613
 30
0.0
 11
246.9724328823
 21
215.0713148289
 31
0.0
  0
LINE
  5
221
330
1F
100
AcDbEntity
  8
0
  6
Continuous
 62
     7
370
    15
100
AcDbLine
 10
246.772432477
 20
213.071313756
 30
0.0
 11
246.772432477
 21
215.2713137441
 31
0.0
  0
LINE
  5
222
330
1F
100
AcDbEntity
  8
0
  6
Continuous
 62
     7
370
    15
100
AcDbLine
 10
246.5724350519
 20
213.2713141613
 30
0.0
 11
246.5724350519
 21
215.0713148289
 31
0.0
  0
LINE
  5
223
330
1F
100
AcDbEntity
  8
0
  6
Continuous
 62
     7
370
    15
100
AcDbLine
 10
248.172432334
 20
215.2713137441
 30
0.0
 11
248.172432334
 21
213.071313756
 31
0.0
  0
LINE
  5
224
330
1F
100
AcDbEntity
  8
0
  6
Continuous
 62
     7
370
    15
100
AcDbLine
 10
326.6947449751
 20
231.4730263077
 30
0.0
 11
326.5520872183
 21
231.4266736382
 31
0.0
  0
ARC
  5
225
330
1F
100
AcDbEntity
  8
0
  6
Continuous
 62
     7
370
    15
100
AcDbCircle
 10
324.364655998
 20
230.715934519
 30
0.0
 40
2.299999999999992
100
AcDbArc
 50
18.0
 51
108.0
  0
LINE
  5
226
330
1F
100
AcDbEntity
  8
0
  6
Continuous
 62
     7
370
    15
100
AcDbLine
 10
323.6539156742
 20
232.9033645564
 30
0.0
 11
323.6075641222
 21
233.0460230582
 31
0.0
  0
ARC
  5
227
330
1F
100
AcDbEntity
  8
0
  6
Continuous
 62
     7
370
    15
100
AcDbCircle
 10
324.364655998
 20
230.715934519
 30
0.0
 40
2.449999999999986
100
AcDbArc
 50
18.0
 51
108.0
  0
LINE
  5
228
330
1F
100
AcDbEntity
  8
0
  6
Continuous
 62
     7
370
    15
100
AcDbLine
 10
323.1558115788
 20
232.8992399149
 30
0.0
 11
323.202166111
 21
232.7565814131
 31
0.0
  0
LINE
  5
229
330
1F
100
AcDbEntity
  8
0
  6
Continuous
 62
     7
370
    15
100
AcDbLine
 10
323.202166111
 20
232.7565814131
 30
0.0
 11
323.6539156742
 21
232.9033645564
 31
0.0
  0
LINE
  5
22A
330
1F
100
AcDbEntity
  8
0
  6
Continuous
 62
     7
370
    15
100
AcDbLine
 10
323.1558115788
 20
232.8992399149
 30
0.0
 11
323.6075641222
 21
233.0460230582
 31
0.0
  0
LINE
  5
22B
330
1F
100
AcDbEntity
  8
0
  6
Continuous
 62
     7
370
    15
100
AcDbLine
 10
323.1219114371
 20
232.5990722277
 30
0.0
 11
322.9792507
 21
232.5527197444
 31
0.0
  0
LINE
  5
22C
330
1F
100
AcDbEntity
  8
0
  6
Continuous
 62
     7
370
    15
100
AcDbLine
 10
325.0918926306
 20
226.5360872024
 30
0.0
 11
323.1219114371
 21
232.5990722277
 31
0.0
  0
LINE
  5
22D
330
1F
100
AcDbEntity
  8
0
  6
Continuous
 62
     7
370
    15
100
AcDbLine
 10
324.9492348738
 20
226.4897341602
 30
0.0
 11
325.0918926306
 21
226.5360872024
 31
0.0
  0
LINE
  5
22E
330
1F
100
AcDbEntity
  8
0
  6
Continuous
 62
     7
370
    15
100
AcDbLine
 10
325.246402771
 20
226.0605583661
 30
0.0
 11
325.103742034
 21
226.014206069
 31
0.0
  0
LWPOLYLINE
  5
22F
330
1F
100
AcDbEntity
  8
0
  6
Continuous
 62
     7
370
    15
100
AcDbPolyline
 90
        9
 70
   128
 43
0.0
 10
325.0918926306
 20
226.5360872024
 10
325.1220376797
 20
226.4433162981
 10
325.1510204382
 20
226.3541104966
 10
325.17773524
 20
226.27189781
 10
325.2011479445
 20
226.1998380297
 10
325.2203615017
 20
226.1406997912
 10
325.2346397944
 20
226.0967562669
 10
325.2434344597
 20
226.0696957582
 10
325.246402771
 20
226.0605583661
  0
LINE
  5
230
330
1F
100
AcDbEntity
  8
0
  6
Continuous
 62
     7
370
    15
100
AcDbLine
 10
326.6947449751
 20
231.4730263077
 30
0.0
 11
326.9110561915
 21
230.8072867566
 31
0.0
  0
LINE
  5
231
330
1F
100
AcDbEntity
  8
0
  6
Continuous
 62
     7
370
    15
100
AcDbLine
 10
326.7683984347
 20
230.760934087
 30
0.0
 11
326.9110561915
 21
230.8072867566
 31
0.0
  0
LINE
  5
232
330
1F
100
AcDbEntity
  8
0
  6
Continuous
 62
     7
370
    15
100
AcDbLine
 10
326.5520872183
 20
231.4266736382
 30
0.0
 11
326.7683984347
 21
230.760934087
 31
0.0
  0
ARC
  5
233
330
1F
100
AcDbEntity
  8
0
  6
Continuous
 62
     7
370
    15
100
AcDbCircle
 10
323.24079219
 20
232.6376993696
 30
0.0
 40
0.2750000000000521
100
AcDbArc
 50
108.0
 51
198.0
  0
ARC
  5
234
330
1F
100
AcDbEntity
  8
0
  6
Continuous
 62
     7
370
    15
100
AcDbCircle
 10
323.24079219
 20
232.6376993696
 30
0.0
 40
0.1250000000000408
100
AcDbArc
 50
108.0
 51
198.0
  0
LINE
  5
235
330
1F
100
AcDbEntity
  8
0
  6
Continuous
 62
     7
370
    15
100
AcDbLine
 10
327.2200734921
 20
229.8562302016
 30
0.0
 11
327.0774157353
 21
229.8098775321
 31
0.0
  0
LWPOLYLINE
  5
236
330
1F
100
AcDbEntity
  8
0
  6
Continuous
 62
     7
370
    15
100
AcDbPolyline
 90
        9
 70
   128
 43
0.0
 10
327.0774157353
 20
229.8098775321
 10
327.0714761324
 20
229.8281519436
 10
327.0538927622
 20
229.882272216
 10
327.0253361769
 20
229.9701596373
 10
326.9869060822
 20
230.0884353691
 10
326.940077693
 20
230.2325553023
 10
326.8866540499
 20
230.3969803029
 10
326.8286855526
 20
230.5753922784
 10
326.7683984347
 20
230.760934087
  0
LWPOLYLINE
  5
237
330
1F
100
AcDbEntity
  8
0
  6
Continuous
 62
     7
370
    15
100
AcDbPolyline
 90
        9
 70
   128
 43
0.0
 10
326.9110561915
 20
230.8072867566
 10
326.9713433094
 20
230.6217445754
 10
327.0293118067
 20
230.4433329725
 10
327.08273843
 20
230.2789079719
 10
327.129563839
 20
230.1347880387
 10
327.1679939337
 20
230.0165119343
 10
327.196550519
 20
229.9286248856
 10
327.2141368695
 20
229.8745042407
 10
327.2200734921
 20
229.8562302016
  0
ARC
  5
238
330
1F
100
AcDbEntity
  8
0
  6
Continuous
 62
     7
370
    15
100
AcDbCircle
 10
320.89240403
 20
233.0313141756
 30
0.0
 40
0.1000000000000796
100
AcDbArc
 50
90.0
 51
180.0
  0
LINE
  5
239
330
1F
100
AcDbEntity
  8
0
  6
Continuous
 62
     7
370
    15
100
AcDbLine
 10
320.8924026795
 20
233.1313141384
 30
0.0
 11
320.8924026795
 21
233.0813142233
 31
0.0
  0
ARC
  5
23A
330
1F
100
AcDbEntity
  8
0
  6
Continuous
 62
     7
370
    15
100
AcDbCircle
 10
320.89240403
 20
233.0313141756
 30
0.0
 40
0.0500000000000114
100
AcDbArc
 50
90.0
 51
180.0
  0
LINE
  5
23B
330
1F
100
AcDbEntity
  8
0
  6
Continuous
 62
     7
370
    15
100
AcDbLine
 10
320.7924039669
 20
233.031314122
 30
0.0
 11
320.8424033232
 21
233.031314122
 31
0.0
  0
LINE
  5
23C
330
1F
100
AcDbEntity
  8
0
  6
Continuous
 62
     7
370
    15
100
AcDbLine
 10
320.7924039669
 20
221.1625474267
 30
0.0
 11
320.7924039669
 21
233.031314122
 31
0.0
  0
LINE
  5
23D
330
1F
100
AcDbEntity
  8
0
  6
Continuous
 62
     7
370
    15
100
AcDbLine
 10
320.8424033232
 20
233.031314122
 30
0.0
 11
320.8424033232
 21
221.1625474267
 31
0.0
  0
LINE
  5
23E
330
1F
100
AcDbEntity
  8
0
  6
Continuous
 62
     7
370
    15
100
AcDbLine
 10
320.8424033232
 20
221.1625474267
 30
0.0
 11
320.7924039669
 21
221.1625474267
 31
0.0
  0
ARC
  5
23F
330
1F
100
AcDbEntity
  8
0
  6
Continuous
 62
     7
370
    15
100
AcDbCircle
 10
320.89240403
 20
221.1625467229
 30
0.0
 40
0.0500000000000114
100
AcDbArc
 50
180.0
 51
270.0
  0
LINE
  5
240
330
1F
100
AcDbEntity
  8
0
  6
Continuous
 62
     7
370
    15
100
AcDbLine
 10
320.8924026795
 20
221.1125465804
 30
0.0
 11
320.8924026795
 21
221.0625472241
 31
0.0
  0
ARC
  5
241
330
1F
100
AcDbEntity
  8
0
  6
Continuous
 62
     7
370
    15
100
AcDbCircle
 10
320.89240403
 20
221.1625467229
 30
0.0
 40
0.1000000000000796
100
AcDbArc
 50
180.0
 51
270.0
  0
LINE
  5
242
330
1F
100
AcDbEntity
  8
0
  6
Continuous
 62
     7
370
    15
100
AcDbLine
 10
320.8924026795
 20
221.1125465804
 30
0.0
 11
326.8568100043
 21
221.1125465804
 31
0.0
  0
LINE
  5
243
330
1F
100
AcDbEntity
  8
0
  6
Continuous
 62
     7
370
    15
100
AcDbLine
 10
326.8568100043
 20
221.1125465804
 30
0.0
 11
326.8568100043
 21
221.0625472241
 31
0.0
  0
LINE
  5
244
330
1F
100
AcDbEntity
  8
0
  6
Continuous
 62
     7
370
    15
100
AcDbLine
 10
326.9142629214
 20
221.1393373781
 30
0.0
 11
328.1561346359
 21
222.6193415695
 31
0.0
  0
ARC
  5
245
330
1F
100
AcDbEntity
  8
0
  6
Continuous
 62
     7
370
    15
100
AcDbCircle
 10
326.8568109601
 20
221.1875467229
 30
0.0
 40
0.0749999999999886
100
AcDbArc
 50
270.0
 51
320.0
  0
LINE
  5
246
330
1F
100
AcDbEntity
  8
0
  6
Continuous
 62
     7
370
    15
100
AcDbLine
 10
322.6344825335
 20
233.0813142233
 30
0.0
 11
320.8924026795
 21
233.0813142233
 31
0.0
  0
ARC
  5
247
330
1F
100
AcDbEntity
  8
0
  6
Continuous
 62
     7
370
    15
100
AcDbCircle
 10
322.6344836748
 20
233.0313141756
 30
0.0
 40
0.0500000000000038
100
AcDbArc
 50
18.0
 51
90.0
  0
LINE
  5
248
330
1F
100
AcDbEntity
  8
0
  6
Continuous
 62
     7
370
    15
100
AcDbLine
 10
325.1200617857
 20
225.5432973378
 30
0.0
 11
322.6820351191
 21
233.0467649498
 31
0.0
  0
ARC
  5
249
330
1F
100
AcDbEntity
  8
0
  6
Continuous
 62
     7
370
    15
100
AcDbCircle
 10
326.1947549091
 20
225.8924862234
 30
0.0
 40
1.130000000000026
100
AcDbArc
 50
198.0
 51
250.0
  0
LINE
  5
24A
330
1F
100
AcDbEntity
  8
0
  6
Continuous
 62
     7
370
    15
100
AcDbLine
 10
327.7533115454
 20
224.1226973706
 30
0.0
 11
325.8082719155
 21
224.8306336575
 31
0.0
  0
ARC
  5
24B
330
1F
100
AcDbEntity
  8
0
  6
Continuous
 62
     7
370
    15
100
AcDbCircle
 10
327.428392287
 20
223.2299891712
 30
0.0
 40
0.9500000000000388
100
AcDbArc
 50
320.0
 51
70.0
  0
LWPOLYLINE
  5
24C
330
1F
100
AcDbEntity
  8
0
  6
Continuous
 62
     7
370
    15
100
AcDbPolyline
 90
        9
 70
   128
 43
0.0
 10
325.1676143713
 20
225.5587476068
 10
325.16669944
 20
225.5584510737
 10
325.1639933892
 20
225.5575719052
 10
325.1596005268
 20
225.5561436289
 10
325.1536847658
 20
225.5542221241
 10
325.1464785643
 20
225.5518811517
 10
325.1382590838
 20
225.5492101186
 10
325.1293392487
 20
225.5463110977
 10
325.1200617857
 20
225.5432973378
  0
LWPOLYLINE
  5
24D
330
1F
100
AcDbEntity
  8
0
  6
Continuous
 62
     7
370
    15
100
AcDbPolyline
 90
        9
 70
   128
 43
0.0
 10
327.7533115454
 20
224.1226973706
 10
327.7566464253
 20
224.1318630748
 10
327.7598561354
 20
224.1406771117
 10
327.7628125258
 20
224.1488004797
 10
327.7654023476
 20
224.1559202545
 10
327.7675302334
 20
224.1617637449
 10
327.7691097565
 20
224.1661051982
 10
327.7700842924
 20
224.1687792116
 10
327.770412118
 20
224.1696814769
  0
LWPOLYLINE
  5
24E
330
1F
100
AcDbEntity
  8
0
  6
Continuous
 62
     7
370
    15
100
AcDbPolyline
 90
        9
 70
   128
 43
0.0
 10
325.825372488
 20
224.8776185089
 10
325.8250446625
 20
224.8767154985
 10
325.8240701266
 20
224.8740414851
 10
325.8224906035
 20
224.8697000318
 10
325.8203656979
 20
224.8638565414
 10
325.8177728958
 20
224.8567367666
 10
325.8148165055
 20
224.8486141437
 10
325.8116097756
 20
224.8398001068
 10
325.8082719155
 20
224.8306336575
  0
LWPOLYLINE
  5
24F
330
1F
100
AcDbEntity
  8
0
  6
Continuous
 62
     7
370
    15
100
AcDbPolyline
 90
        9
 70
   128
 43
0.0
 10
326.9142629214
 20
221.1393373781
 10
326.9217373438
 20
221.1330669694
 10
326.9289226837
 20
221.1270379596
 10
326.9355447598
 20
221.1214813166
 10
326.9413472719
 20
221.1166116171
 10
326.9461126633
 20
221.1126151257
 10
326.949650199
 20
221.1096453243
 10
326.951831729
 20
221.1078154617
 10
326.9525678463
 20
221.1071985536
  0
LWPOLYLINE
  5
250
330
1F
100
AcDbEntity
  8
0
  6
Continuous
 62
     7
370
    15
100
AcDbPolyline
 90
        9
 70
   128
 43
0.0
 10
328.1561346359
 20
222.6193415695
 10
328.1636060782
 20
222.6130711608
 10
328.1707914181
 20
222.607042151
 10
328.1774134941
 20
222.601485508
 10
328.1832189865
 20
222.5966143184
 10
328.1879813976
 20
222.592617827
 10
328.1915219135
 20
222.5896480256
 10
328.1937004633
 20
222.5878196531
 10
328.1944365807
 20
222.5872012549
  0
LINE
  5
251
330
1F
100
AcDbEntity
  8
0
  6
Continuous
 62
     7
370
    15
100
AcDbLine
 10
250.0324042149
 20
234.3706071139
 30
0.0
 11
250.0324042149
 21
234.8706070562
 31
0.0
  0
LINE
  5
252
330
1F
100
AcDbEntity
  8
0
  6
Continuous
 62
     7
370
    15
100
AcDbLine
 10
250.0324042149
 20
234.3706071139
 30
0.0
 11
250.0324042149
 21
215.6276452117
 31
0.0
  0
LINE
  5
253
330
1F
100
AcDbEntity
  8
0
  6
Continuous
 62
     7
370
    15
100
AcDbLine
 10
250.0324042149
 20
215.6276452117
 30
0.0
 11
250.0324042149
 21
215.4295044713
 31
0.0
  0
LINE
  5
254
330
1F
100
AcDbEntity
  8
0
  6
Continuous
 62
     7
370
    15
100
AcDbLine
 10
250.0324042149
 20
212.7149837785
 30
0.0
 11
250.0324042149
 21
208.9720207029
 31
0.0
  0
LINE
  5
255
330
1F
100
AcDbEntity
  8
0
  6
Continuous
 62
     7
370
    15
100
AcDbLine
 10
250.0324042149
 20
212.9131230288
 30
0.0
 11
250.0324042149
 21
212.7149837785
 31
0.0
  0
LINE
  5
256
330
1F
100
AcDbEntity
  8
0
  6
Continuous
 62
     7
370
    15
100
AcDbLine
 10
250.0324042149
 20
208.4720211797
 30
0.0
 11
250.0324042149
 21
208.9720207029
 31
0.0
  0
LINE
  5
257
330
1F
100
AcDbEntity
  8
0
  6
Continuous
 62
     7
370
    15
100
AcDbLine
 10
250.0324042149
 20
215.4295044713
 30
0.0
 11
250.0324042149
 21
215.2713137441
 31
0.0
  0
LINE
  5
258
330
1F
100
AcDbEntity
  8
0
  6
Continuous
 62
     7
370
    15
100
AcDbLine
 10
250.0324042149
 20
213.071313756
 30
0.0
 11
250.0324042149
 21
212.9131230288
 31
0.0
  0
ARC
  5
259
330
1F
100
AcDbEntity
  8
0
  6
Continuous
 62
     7
370
    15
100
AcDbCircle
 10
250.0329431195
 20
208.6753509534
 30
0.0
 40
0.2192316939320585
100
AcDbArc
 50
291.4578390095
 51
338.8682024673
  0
ARC
  5
25A
330
1F
100
AcDbEntity
  8
0
  6
Continuous
 62
     7
370
    15
100
AcDbCircle
 10
249.9246640618
 20
208.6457647694
 30
0.0
 40
0.3166532143105241
100
AcDbArc
 50
306.5281590058
 51
351.0156542826
  0
LINE
  5
25B
330
1F
100
AcDbEntity
  8
0
  6
Continuous
 62
     7
370
    15
100
AcDbLine
 10
250.1131416865
 20
208.3913135105
 30
0.0
 11
250.1131416865
 21
208.4713148647
 31
0.0
  0
LINE
  5
25C
330
1F
100
AcDbEntity
  8
0
  6
Continuous
 62
     7
370
    15
100
AcDbLine
 10
320.7117261
 20
208.3913135105
 30
0.0
 11
250.1131416865
 21
208.3913135105
 31
0.0
  0
LINE
  5
25D
330
1F
100
AcDbEntity
  8
0
  6
Continuous
 62
     7
370
    15
100
AcDbLine
 10
250.237432272
 20
208.5963147455
 30
0.0
 11
320.5874325342
 21
208.5963147455
 31
0.0
  0
ARC
  5
25E
330
1F
100
AcDbEntity
  8
0
  6
Continuous
 62
     7
370
    15
100
AcDbCircle
 10
289.9529198712
 20
189.882232305
 30
0.0
 40
35.89833210180711
100
AcDbArc
 50
31.0373841693
 51
31.4200206554
  0
ARC
  5
25F
330
1F
100
AcDbEntity
  8
0
  6
Continuous
 62
     7
370
    15
100
AcDbCircle
 10
253.6760845154
 20
202.6937220269
 30
0.0
 40
6.831173402368465
100
AcDbArc
 50
120.2236408287
 51
122.2345025488
  0
LINE
  5
260
330
1F
100
AcDbEntity
  8
0
  6
Continuous
 62
     7
370
    15
100
AcDbLine
 10
250.0324340172
 20
234.8706070562
 30
0.0
 11
250.0324340172
 21
208.4720211797
 31
0.0
  0
ARC
  5
261
330
1F
100
AcDbEntity
  8
0
  6
Continuous
 62
     7
370
    15
100
AcDbCircle
 10
217.0031168605
 20
180.1636152214
 30
0.0
 40
63.90454402814341
100
AcDbArc
 50
58.6635996138
 51
58.8785425045
  0
LINE
  5
262
330
1F
100
AcDbEntity
  8
0
  6
Continuous
 62
     7
370
    15
100
AcDbLine
 10
250.237432272
 20
234.7463141889
 30
0.0
 11
250.237432272
 21
208.5963147455
 31
0.0
  0
ARC
  5
263
330
1F
100
AcDbEntity
  8
0
  6
Continuous
 62
     7
370
    15
100
AcDbCircle
 10
253.329757432
 20
205.3614151407
 30
0.0
 40
4.475159253968641
100
AcDbArc
 50
133.7091446787
 51
135.9661876406
  0
LINE
  5
264
330
1F
100
AcDbEntity
  8
0
  6
Continuous
 62
     7
370
    15
100
AcDbLine
 10
250.0324340172
 20
208.4720211797
 30
0.0
 11
250.1124323912
 21
208.4720211797
 31
0.0
  0
LINE
  5
265
330
1F
100
AcDbEntity
  8
0
  6
Continuous
 62
     7
370
    15
100
AcDbLine
 10
320.5874325342
 20
234.7463141889
 30
0.0
 11
250.237432272
 21
234.7463141889
 31
0.0
  0
LINE
  5
266
330
1F
100
AcDbEntity
  8
0
  6
Continuous
 62
     7
370
    15
100
AcDbLine
 10
320.5874325342
 20
208.5963147455
 30
0.0
 11
320.5874325342
 21
234.7463141889
 31
0.0
  0
ARC
  5
267
330
1F
100
AcDbEntity
  8
0
  6
Continuous
 62
     7
370
    15
100
AcDbCircle
 10
187.8419713113
 20
172.1209318147
 30
0.0
 40
88.40323560829381
100
AcDbArc
 50
45.1053705239
 51
45.2196191372
  0
LWPOLYLINE
  5
268
330
1F
100
AcDbEntity
  8
0
  6
Continuous
 62
     7
370
    15
100
AcDbPolyline
 90
        2
 70
   128
 43
0.0
 10
250.237432272
 20
234.7463141889
 10
250.237432272
 20
234.7463141889
  0
LINE
  5
269
330
1F
100
AcDbEntity
  8
0
  6
Continuous
 62
     7
370
    15
100
AcDbLine
 10
250.0324340172
 20
234.8706070562
 30
0.0
 11
250.1124323912
 21
234.8706070562
 31
0.0
  0
ARC
  5
26A
330
1F
100
AcDbEntity
  8
0
  6
Continuous
 62
     7
370
    15
100
AcDbCircle
 10
250.031945149
 20
234.666285826
 30
0.0
 40
0.2205209663382664
100
AcDbArc
 50
21.2787657772
 51
68.395150058
  0
LINE
  5
26B
330
1F
100
AcDbEntity
  8
0
  6
Continuous
 62
     7
370
    15
100
AcDbLine
 10
250.1131416865
 20
234.8713141628
 30
0.0
 11
250.1131416865
 21
234.9513141666
 31
0.0
  0
ARC
  5
26C
330
1F
100
AcDbEntity
  8
0
  6
Continuous
 62
     7
370
    15
100
AcDbCircle
 10
249.9192008703
 20
234.6935502954
 30
0.0
 40
0.3225759654689463
100
AcDbArc
 50
9.4141986478
 51
53.0422996355
  0
ARC
  5
26D
330
1F
100
AcDbEntity
  8
0
  6
Continuous
 62
     7
370
    15
100
AcDbCircle
 10
326.8495924852
 20
231.089683309
 30
0.0
 40
7.251592696969298
100
AcDbArc
 50
147.8240015847
 51
149.7182820156
  0
LINE
  5
26E
330
1F
100
AcDbEntity
  8
0
  6
Continuous
 62
     7
370
    15
100
AcDbLine
 10
320.7117261
 20
234.9513141666
 30
0.0
 11
250.1131416865
 21
234.9513141666
 31
0.0
  0
LINE
  5
26F
330
1F
100
AcDbEntity
  8
0
  6
Continuous
 62
     7
370
    15
100
AcDbLine
 10
320.7924337692
 20
208.4720211797
 30
0.0
 11
320.712432415
 21
208.4720211797
 31
0.0
  0
ARC
  5
270
330
1F
100
AcDbEntity
  8
0
  6
Continuous
 62
     7
370
    15
100
AcDbCircle
 10
320.5073977796
 20
208.3908232948
 30
0.0
 40
0.2205273185988011
100
AcDbArc
 50
21.6045728668
 51
68.7200948138
  0
ARC
  5
271
330
1F
100
AcDbEntity
  8
0
  6
Continuous
 62
     7
370
    15
100
AcDbCircle
 10
320.5346558669
 20
208.2780643183
 30
0.0
 40
0.3225968242694399
100
AcDbArc
 50
36.95847928
 51
80.5841158953
  0
ARC
  5
272
330
1F
100
AcDbEntity
  8
0
  6
Continuous
 62
     7
370
    15
100
AcDbCircle
 10
316.1617762119
 20
204.0713701467
 30
0.0
 40
6.329419997577769
100
AcDbArc
 50
44.0397810395
 51
45.6355512798
  0
LINE
  5
273
330
1F
100
AcDbEntity
  8
0
  6
Continuous
 62
     7
370
    15
100
AcDbLine
 10
320.7117261
 20
208.3913135105
 30
0.0
 11
320.7117261
 21
208.4713148647
 31
0.0
  0
LWPOLYLINE
  5
274
330
1F
100
AcDbEntity
  8
0
  6
Continuous
 62
     7
370
    15
100
AcDbPolyline
 90
        6
 70
   128
 43
0.0
 10
320.5874325342
 20
234.7463141889
 10
320.6599684067
 20
234.7749319621
 10
320.7231403895
 20
234.8035601196
 10
320.7687409229
 20
234.8321884167
 10
320.7908661671
 20
234.8608167139
 10
320.7924337692
 20
234.8706070562
  0
LINE
  5
275
330
1F
100
AcDbEntity
  8
0
  6
Continuous
 62
     7
370
    15
100
AcDbLine
 10
320.7924337692
 20
208.4720211797
 30
0.0
 11
320.7924337692
 21
220.98254736
 31
0.0
  0
LINE
  5
276
330
1F
100
AcDbEntity
  8
0
  6
Continuous
 62
     7
370
    15
100
AcDbLine
 10
320.7924337692
 20
221.0625472241
 30
0.0
 11
320.7924337692
 21
221.1601140671
 31
0.0
  0
LINE
  5
277
330
1F
100
AcDbEntity
  8
0
  6
Continuous
 62
     7
370
    15
100
AcDbLine
 10
320.7924337692
 20
233.0337465503
 30
0.0
 11
320.7924337692
 21
233.1313141384
 31
0.0
  0
LINE
  5
278
330
1F
100
AcDbEntity
  8
0
  6
Continuous
 62
     7
370
    15
100
AcDbLine
 10
320.7924337692
 20
233.2113141888
 30
0.0
 11
320.7924337692
 21
234.8706070562
 31
0.0
  0
LINE
  5
279
330
1F
100
AcDbEntity
  8
0
  6
Continuous
 62
     7
370
    15
100
AcDbLine
 10
320.7117261
 20
234.9513141666
 30
0.0
 11
320.7117261
 21
234.8713141628
 31
0.0
  0
ARC
  5
27A
330
1F
100
AcDbEntity
  8
0
  6
Continuous
 62
     7
370
    15
100
AcDbCircle
 10
324.0139197886
 20
231.4634864892
 30
0.0
 40
4.745289518009684
100
AcDbArc
 50
134.0980831104
 51
136.2266272582
  0
LWPOLYLINE
  5
27B
330
1F
100
AcDbEntity
  8
0
  6
Continuous
 62
     7
370
    15
100
AcDbPolyline
 90
        2
 70
   128
 43
0.0
 10
320.5874325342
 20
234.7463141889
 10
320.5874325342
 20
234.7463141889
  0
ARC
  5
27C
330
1F
100
AcDbEntity
  8
0
  6
Continuous
 62
     7
370
    15
100
AcDbCircle
 10
320.5090921427
 20
234.9501020948
 30
0.0
 40
0.2183271112970659
100
AcDbArc
 50
291.0278182561
 51
338.6471920827
  0
LINE
  5
27D
330
1F
100
AcDbEntity
  8
0
  6
Continuous
 62
     7
370
    15
100
AcDbLine
 10
320.712432415
 20
234.8706070562
 30
0.0
 11
320.7924337692
 21
234.8706070562
 31
0.0
  0
LINE
  5
27E
330
1F
100
AcDbEntity
  8
0
  6
Continuous
 62
     7
370
    15
100
AcDbLine
 10
314.977404625
 20
235.7513141814
 30
0.0
 11
314.9824054547
 21
235.7513141814
 31
0.0
  0
LINE
  5
27F
330
1F
100
AcDbEntity
  8
0
  6
Continuous
 62
     7
370
    15
100
AcDbLine
 10
320.7324029513
 20
235.0713141956
 30
0.0
 11
320.7324029513
 21
234.962571342
 31
0.0
  0
LINE
  5
280
330
1F
100
AcDbEntity
  8
0
  6
Continuous
 62
     7
370
    15
100
AcDbLine
 10
320.7324029513
 20
234.8633952201
 30
0.0
 11
320.7324029513
 21
234.8263141927
 31
0.0
  0
LINE
  5
281
330
1F
100
AcDbEntity
  8
0
  6
Continuous
 62
     7
370
    15
100
AcDbLine
 10
320.7324029513
 20
235.0713141956
 30
0.0
 11
320.7224042721
 21
235.0713141956
 31
0.0
  0
LINE
  5
282
330
1F
100
AcDbEntity
  8
0
  6
Continuous
 62
     7
370
    15
100
AcDbLine
 10
320.7324029513
 20
235.0713141956
 30
0.0
 11
320.7324029513
 21
235.1963141695
 31
0.0
  0
LINE
  5
283
330
1F
100
AcDbEntity
  8
0
  6
Continuous
 62
     7
370
    15
100
AcDbLine
 10
320.7324029513
 20
235.2463141777
 30
0.0
 11
320.7324029513
 21
235.1963141695
 31
0.0
  0
LINE
  5
284
330
1F
100
AcDbEntity
  8
0
  6
Continuous
 62
     7
370
    15
100
AcDbLine
 10
314.9824054547
 20
238.4613142111
 30
0.0
 11
314.9824054547
 21
235.1963141695
 31
0.0
  0
ARC
  5
285
330
1F
100
AcDbEntity
  8
0
  6
Continuous
 62
     7
370
    15
100
AcDbCircle
 10
315.18240403
 20
238.4613141756
 30
0.0
 40
0.2000000000000455
100
AcDbArc
 50
90.0
 51
180.0
  0
LINE
  5
286
330
1F
100
AcDbEntity
  8
0
  6
Continuous
 62
     7
370
    15
100
AcDbLine
 10
324.2824049301
 20
238.6613142439
 30
0.0
 11
315.1824028797
 21
238.6613142439
 31
0.0
  0
ARC
  5
287
330
1F
100
AcDbEntity
  8
0
  6
Continuous
 62
     7
370
    15
100
AcDbCircle
 10
324.28240403
 20
236.3613141756
 30
0.0
 40
2.300000000000016
100
AcDbArc
 50
299.5911871723
 51
90.0
  0
LINE
  5
288
330
1F
100
AcDbEntity
  8
0
  6
Continuous
 62
     7
370
    15
100
AcDbLine
 10
322.7124036856
 20
233.2113141888
 30
0.0
 11
325.4181624956
 21
234.3613011525
 31
0.0
  0
LINE
  5
289
330
1F
100
AcDbEntity
  8
0
  6
Continuous
 62
     7
370
    15
100
AcDbLine
 10
321.0824044056
 20
233.2113141888
 30
0.0
 11
322.7124036856
 21
233.2113141888
 31
0.0
  0
ARC
  5
28A
330
1F
100
AcDbEntity
  8
0
  6
Continuous
 62
     7
370
    15
100
AcDbCircle
 10
321.08240403
 20
233.4113141756
 30
0.0
 40
0.1999999999999886
100
AcDbArc
 50
180.0
 51
270.0
  0
LINE
  5
28B
330
1F
100
AcDbEntity
  8
0
  6
Continuous
 62
     7
370
    15
100
AcDbLine
 10
320.8824040003
 20
235.2463141777
 30
0.0
 11
320.8824040003
 21
233.4113142215
 31
0.0
  0
LINE
  5
28C
330
1F
100
AcDbEntity
  8
0
  6
Continuous
 62
     7
370
    15
100
AcDbLine
 10
320.8824040003
 20
235.2463141777
 30
0.0
 11
320.7224042721
 21
235.2463141777
 31
0.0
  0
LINE
  5
28D
330
1F
100
AcDbEntity
  8
0
  6
Continuous
 62
     7
370
    15
100
AcDbLine
 10
320.7224042721
 20
235.2463141777
 30
0.0
 11
320.7224042721
 21
235.1963141695
 31
0.0
  0
LINE
  5
28E
330
1F
100
AcDbEntity
  8
0
  6
Continuous
 62
     7
370
    15
100
AcDbLine
 10
314.9824054547
 20
235.1963141695
 30
0.0
 11
320.7224042721
 21
235.1963141695
 31
0.0
  0
ARC
  5
28F
330
1F
100
AcDbEntity
  8
0
  6
Continuous
 62
     7
370
    15
100
AcDbCircle
 10
322.9785727623
 20
234.8314828608
 30
0.0
 40
0.0250379496815984
100
AcDbArc
 50
259.1110070998
 51
83.3730607602
  0
ARC
  5
290
330
1F
100
AcDbEntity
  8
0
  6
Continuous
 62
     7
370
    15
100
AcDbCircle
 10
323.03240403
 20
235.1113141756
 30
0.0
 40
0.2600000000000041
100
AcDbArc
 50
101.3148497955
 51
258.700947069
  0
ARC
  5
291
330
1F
100
AcDbEntity
  8
0
  6
Continuous
 62
     7
370
    15
100
AcDbCircle
 10
322.9785727623
 20
235.3911424784
 30
0.0
 40
0.0250409074677152
100
AcDbArc
 50
276.4642622074
 51
100.8891073053
  0
ARC
  5
292
330
1F
100
AcDbEntity
  8
0
  6
Continuous
 62
     7
370
    15
100
AcDbCircle
 10
323.03240403
 20
235.1113141756
 30
0.0
 40
0.3100000000000201
100
AcDbArc
 50
100.8891073053
 51
259.1110070998
  0
ARC
  5
293
330
1F
100
AcDbEntity
  8
0
  6
Continuous
 62
     7
370
    15
100
AcDbCircle
 10
323.03240403
 20
235.1113141756
 30
0.0
 40
0.2600000000000304
100
AcDbArc
 50
280.4998591652
 51
79.5001408348
  0
ARC
  5
294
330
1F
100
AcDbEntity
  8
0
  6
Continuous
 62
     7
370
    15
100
AcDbCircle
 10
323.08240403
 20
234.830770082
 30
0.0
 40
0.0250351101093402
100
AcDbArc
 50
96.0057764949
 51
280.1054407083
  0
ARC
  5
295
330
1F
100
AcDbEntity
  8
0
  6
Continuous
 62
     7
370
    15
100
AcDbCircle
 10
323.03240403
 20
235.1113141756
 30
0.0
 40
0.3100000000000205
100
AcDbArc
 50
280.1054407084
 51
79.8945592916
  0
ARC
  5
296
330
1F
100
AcDbEntity
  8
0
  6
Continuous
 62
     7
370
    15
100
AcDbCircle
 10
323.08240403
 20
235.3918582693
 30
0.0
 40
0.0250351101093222
100
AcDbArc
 50
79.8945592915
 51
263.9942235052
  0
LINE
  5
297
330
1F
100
AcDbEntity
  8
0
  6
Continuous
 62
     7
370
    15
100
AcDbLine
 10
320.7224042721
 20
235.1963141695
 30
0.0
 11
320.7224042721
 21
234.9513141666
 31
0.0
  0
LINE
  5
298
330
1F
100
AcDbEntity
  8
0
  6
Continuous
 62
     7
370
    15
100
AcDbLine
 10
320.7117261
 20
234.9513141666
 30
0.0
 11
320.7224042721
 21
234.9513141666
 31
0.0
  0
LINE
  5
299
330
1F
100
AcDbEntity
  8
0
  6
Continuous
 62
     7
370
    15
100
AcDbLine
 10
314.9824054547
 20
234.9513141666
 30
0.0
 11
314.9824054547
 21
235.1963141695
 31
0.0
  0
LINE
  5
29A
330
1F
100
AcDbEntity
  8
0
  6
Continuous
 62
     7
370
    15
100
AcDbLine
 10
320.7224042721
 20
234.8263141927
 30
0.0
 11
320.7224042721
 21
234.8549131998
 31
0.0
  0
LINE
  5
29B
330
1F
100
AcDbEntity
  8
0
  6
Continuous
 62
     7
370
    15
100
AcDbLine
 10
314.1124339409
 20
208.1713127666
 30
0.0
 11
314.1124339409
 21
170.8713131719
 31
0.0
  0
LINE
  5
29C
330
1F
100
AcDbEntity
  8
0
  6
Continuous
 62
     7
370
    15
100
AcDbLine
 10
314.1124339409
 20
208.1713127666
 30
0.0
 11
317.8124339886
 21
208.1713127666
 31
0.0
  0
LINE
  5
29D
330
1F
100
AcDbEntity
  8
0
  6
Continuous
 62
     7
370
    15
100
AcDbLine
 10
317.8124339886
 20
208.1713127666
 30
0.0
 11
317.8124339886
 21
170.8713131719
 31
0.0
  0
LINE
  5
29E
330
1F
100
AcDbEntity
  8
0
  6
Continuous
 62
     7
370
    15
100
AcDbLine
 10
317.9624350376
 20
208.1713127666
 30
0.0
 11
317.9624350376
 21
170.8713131719
 31
0.0
  0
LINE
  5
29F
330
1F
100
AcDbEntity
  8
0
  6
Continuous
 62
     7
370
    15
100
AcDbLine
 10
317.8124339886
 20
208.1713127666
 30
0.0
 11
317.953854949
 21
208.1713127666
 31
0.0
  0
LINE
  5
2A0
330
1F
100
AcDbEntity
  8
0
  6
Continuous
 62
     7
370
    15
100
AcDbLine
 10
313.9624328919
 20
208.1713127666
 30
0.0
 11
313.9624328919
 21
170.8713131719
 31
0.0
  0
LINE
  5
2A1
330
1F
100
AcDbEntity
  8
0
  6
Continuous
 62
     7
370
    15
100
AcDbLine
 10
313.9710129805
 20
208.1713127666
 30
0.0
 11
314.1124339409
 21
208.1713127666
 31
0.0
  0
LINE
  5
2A2
330
1F
100
AcDbEntity
  8
0
  6
Continuous
 62
     7
370
    15
100
AcDbLine
 10
255.2124322958
 20
208.1713127666
 30
0.0
 11
255.2124322958
 21
170.8713131719
 31
0.0
  0
LINE
  5
2A3
330
1F
100
AcDbEntity
  8
0
  6
Continuous
 62
     7
370
    15
100
AcDbLine
 10
255.2124322958
 20
208.1713127666
 30
0.0
 11
258.9124338336
 21
208.1713127666
 31
0.0
  0
LINE
  5
2A4
330
1F
100
AcDbEntity
  8
0
  6
Continuous
 62
     7
370
    15
100
AcDbLine
 10
258.9124338336
 20
208.1713127666
 30
0.0
 11
258.9124338336
 21
170.8713131719
 31
0.0
  0
LINE
  5
2A5
330
1F
100
AcDbEntity
  8
0
  6
Continuous
 62
     7
370
    15
100
AcDbLine
 10
255.062434227
 20
208.1713127666
 30
0.0
 11
255.062434227
 21
170.8713131719
 31
0.0
  0
LINE
  5
2A6
330
1F
100
AcDbEntity
  8
0
  6
Continuous
 62
     7
370
    15
100
AcDbLine
 10
255.0710113354
 20
208.1713127666
 30
0.0
 11
255.2124322958
 21
208.1713127666
 31
0.0
  0
LINE
  5
2A7
330
1F
100
AcDbEntity
  8
0
  6
Continuous
 62
     7
370
    15
100
AcDbLine
 10
259.0624333925
 20
208.1713127666
 30
0.0
 11
259.0624333925
 21
170.8713131719
 31
0.0
  0
LINE
  5
2A8
330
1F
100
AcDbEntity
  8
0
  6
Continuous
 62
     7
370
    15
100
AcDbLine
 10
258.9124338336
 20
208.1713127666
 30
0.0
 11
259.053854794
 21
208.1713127666
 31
0.0
  0
LINE
  5
2A9
330
1F
100
AcDbEntity
  8
0
  6
Continuous
 62
     7
370
    15
100
AcDbLine
 10
253.2324345417
 20
208.1713127666
 30
0.0
 11
253.2324345417
 21
208.3913135105
 31
0.0
  0
LINE
  5
2AA
330
1F
100
AcDbEntity
  8
0
  6
Continuous
 62
     7
370
    15
100
AcDbLine
 10
253.2324345417
 20
208.1713127666
 30
0.0
 11
253.4824343033
 21
208.1713127666
 31
0.0
  0
LINE
  5
2AB
330
1F
100
AcDbEntity
  8
0
  6
Continuous
 62
     7
370
    15
100
AcDbLine
 10
253.4824343033
 20
208.1713127666
 30
0.0
 11
255.0710113354
 21
208.1713127666
 31
0.0
  0
LINE
  5
2AC
330
1F
100
AcDbEntity
  8
0
  6
Continuous
 62
     7
370
    15
100
AcDbLine
 10
259.053854794
 20
208.1713127666
 30
0.0
 11
260.6424333163
 21
208.1713127666
 31
0.0
  0
LINE
  5
2AD
330
1F
100
AcDbEntity
  8
0
  6
Continuous
 62
     7
370
    15
100
AcDbLine
 10
251.0624350615
 20
208.1713127666
 30
0.0
 11
251.0624350615
 21
208.3913135105
 31
0.0
  0
LINE
  5
2AE
330
1F
100
AcDbEntity
  8
0
  6
Continuous
 62
     7
370
    15
100
AcDbLine
 10
251.0624350615
 20
208.1713127666
 30
0.0
 11
251.3124348231
 21
208.1713127666
 31
0.0
  0
LINE
  5
2AF
330
1F
100
AcDbEntity
  8
0
  6
Continuous
 62
     7
370
    15
100
AcDbLine
 10
251.3124348231
 20
208.1713127666
 30
0.0
 11
252.8824330874
 21
208.1713127666
 31
0.0
  0
LINE
  5
2B0
330
1F
100
AcDbEntity
  8
0
  6
Continuous
 62
     7
370
    15
100
AcDbLine
 10
253.132432849
 20
208.1713127666
 30
0.0
 11
253.132432849
 21
208.3913135105
 31
0.0
  0
LINE
  5
2B1
330
1F
100
AcDbEntity
  8
0
  6
Continuous
 62
     7
370
    15
100
AcDbLine
 10
252.8824330874
 20
208.1713127666
 30
0.0
 11
253.132432849
 21
208.1713127666
 31
0.0
  0
LINE
  5
2B2
330
1F
100
AcDbEntity
  8
0
  6
Continuous
 62
     7
370
    15
100
AcDbLine
 10
261.2424330421
 20
208.1713127666
 30
0.0
 11
262.8124342866
 21
208.1713127666
 31
0.0
  0
LINE
  5
2B3
330
1F
100
AcDbEntity
  8
0
  6
Continuous
 62
     7
370
    15
100
AcDbLine
 10
263.0624340482
 20
208.1713127666
 30
0.0
 11
263.0624340482
 21
208.3913135105
 31
0.0
  0
LINE
  5
2B4
330
1F
100
AcDbEntity
  8
0
  6
Continuous
 62
     7
370
    15
100
AcDbLine
 10
262.8124342866
 20
208.1713127666
 30
0.0
 11
263.0624340482
 21
208.1713127666
 31
0.0
  0
LINE
  5
2B5
330
1F
100
AcDbEntity
  8
0
  6
Continuous
 62
     7
370
    15
100
AcDbLine
 10
260.9924332805
 20
208.1713127666
 30
0.0
 11
260.9924332805
 21
208.3913135105
 31
0.0
  0
LINE
  5
2B6
330
1F
100
AcDbEntity
  8
0
  6
Continuous
 62
     7
370
    15
100
AcDbLine
 10
260.9924332805
 20
208.1713127666
 30
0.0
 11
261.2424330421
 21
208.1713127666
 31
0.0
  0
LINE
  5
2B7
330
1F
100
AcDbEntity
  8
0
  6
Continuous
 62
     7
370
    15
100
AcDbLine
 10
260.8924330778
 20
208.1713127666
 30
0.0
 11
260.8924330778
 21
208.3913135105
 31
0.0
  0
LINE
  5
2B8
330
1F
100
AcDbEntity
  8
0
  6
Continuous
 62
     7
370
    15
100
AcDbLine
 10
260.6424333163
 20
208.1713127666
 30
0.0
 11
260.8924330778
 21
208.1713127666
 31
0.0
  0
LINE
  5
2B9
330
1F
100
AcDbEntity
  8
0
  6
Continuous
 62
     7
370
    15
100
AcDbLine
 10
253.132432849
 20
208.1713127666
 30
0.0
 11
253.2324345417
 21
208.1713127666
 31
0.0
  0
LINE
  5
2BA
330
1F
100
AcDbEntity
  8
0
  6
Continuous
 62
     7
370
    15
100
AcDbLine
 10
260.8924330778
 20
208.1713127666
 30
0.0
 11
260.9924332805
 21
208.1713127666
 31
0.0
  0
LINE
  5
2BB
330
1F
100
AcDbEntity
  8
0
  6
Continuous
 62
     7
370
    15
100
AcDbLine
 10
312.1324332066
 20
208.1713127666
 30
0.0
 11
312.1324332066
 21
208.3913135105
 31
0.0
  0
LINE
  5
2BC
330
1F
100
AcDbEntity
  8
0
  6
Continuous
 62
     7
370
    15
100
AcDbLine
 10
312.1324332066
 20
208.1713127666
 30
0.0
 11
312.3824329682
 21
208.1713127666
 31
0.0
  0
LINE
  5
2BD
330
1F
100
AcDbEntity
  8
0
  6
Continuous
 62
     7
370
    15
100
AcDbLine
 10
312.3824329682
 20
208.1713127666
 30
0.0
 11
313.9710129805
 21
208.1713127666
 31
0.0
  0
LINE
  5
2BE
330
1F
100
AcDbEntity
  8
0
  6
Continuous
 62
     7
370
    15
100
AcDbLine
 10
317.953854949
 20
208.1713127666
 30
0.0
 11
319.5424349613
 21
208.1713127666
 31
0.0
  0
LINE
  5
2BF
330
1F
100
AcDbEntity
  8
0
  6
Continuous
 62
     7
370
    15
100
AcDbLine
 10
309.9624337263
 20
208.1713127666
 30
0.0
 11
309.9624337263
 21
208.3913135105
 31
0.0
  0
LINE
  5
2C0
330
1F
100
AcDbEntity
  8
0
  6
Continuous
 62
     7
370
    15
100
AcDbLine
 10
309.9624337263
 20
208.1713127666
 30
0.0
 11
310.2124334879
 21
208.1713127666
 31
0.0
  0
LINE
  5
2C1
330
1F
100
AcDbEntity
  8
0
  6
Continuous
 62
     7
370
    15
100
AcDbLine
 10
312.032434494
 20
208.1713127666
 30
0.0
 11
312.032434494
 21
208.3913135105
 31
0.0
  0
LINE
  5
2C2
330
1F
100
AcDbEntity
  8
0
  6
Continuous
 62
     7
370
    15
100
AcDbLine
 10
311.7824347325
 20
208.1713127666
 30
0.0
 11
312.032434494
 21
208.1713127666
 31
0.0
  0
LINE
  5
2C3
330
1F
100
AcDbEntity
  8
0
  6
Continuous
 62
     7
370
    15
100
AcDbLine
 10
310.2124334879
 20
208.1713127666
 30
0.0
 11
311.7824347325
 21
208.1713127666
 31
0.0
  0
LINE
  5
2C4
330
1F
100
AcDbEntity
  8
0
  6
Continuous
 62
     7
370
    15
100
AcDbLine
 10
320.142433197
 20
208.1713127666
 30
0.0
 11
321.7124344416
 21
208.1713127666
 31
0.0
  0
LINE
  5
2C5
330
1F
100
AcDbEntity
  8
0
  6
Continuous
 62
     7
370
    15
100
AcDbLine
 10
320.7117261
 20
208.4213155084
 30
0.0
 11
320.8731414385
 21
208.4213155084
 31
0.0
  0
LINE
  5
2C6
330
1F
100
AcDbEntity
  8
0
  6
Continuous
 62
     7
370
    15
100
AcDbLine
 10
321.9624342032
 20
208.1713127666
 30
0.0
 11
321.9624342032
 21
208.4025460058
 31
0.0
  0
LINE
  5
2C7
330
1F
100
AcDbEntity
  8
0
  6
Continuous
 62
     7
370
    15
100
AcDbLine
 10
321.7124344416
 20
208.1713127666
 30
0.0
 11
321.9624342032
 21
208.1713127666
 31
0.0
  0
LINE
  5
2C8
330
1F
100
AcDbEntity
  8
0
  6
Continuous
 62
     7
370
    15
100
AcDbLine
 10
319.8924334355
 20
208.1713127666
 30
0.0
 11
319.8924334355
 21
208.3913135105
 31
0.0
  0
LINE
  5
2C9
330
1F
100
AcDbEntity
  8
0
  6
Continuous
 62
     7
370
    15
100
AcDbLine
 10
319.8924334355
 20
208.1713127666
 30
0.0
 11
320.142433197
 21
208.1713127666
 31
0.0
  0
LINE
  5
2CA
330
1F
100
AcDbEntity
  8
0
  6
Continuous
 62
     7
370
    15
100
AcDbLine
 10
319.7924347229
 20
208.1713127666
 30
0.0
 11
319.7924347229
 21
208.3913135105
 31
0.0
  0
LINE
  5
2CB
330
1F
100
AcDbEntity
  8
0
  6
Continuous
 62
     7
370
    15
100
AcDbLine
 10
319.5424349613
 20
208.1713127666
 30
0.0
 11
319.7924347229
 21
208.1713127666
 31
0.0
  0
LINE
  5
2CC
330
1F
100
AcDbEntity
  8
0
  6
Continuous
 62
     7
370
    15
100
AcDbLine
 10
312.032434494
 20
208.1713127666
 30
0.0
 11
312.1324332066
 21
208.1713127666
 31
0.0
  0
LINE
  5
2CD
330
1F
100
AcDbEntity
  8
0
  6
Continuous
 62
     7
370
    15
100
AcDbLine
 10
319.7924347229
 20
208.1713127666
 30
0.0
 11
319.8924334355
 21
208.1713127666
 31
0.0
  0
LINE
  5
2CE
330
1F
100
AcDbEntity
  8
0
  6
Continuous
 62
     8
370
    15
100
AcDbLine
 10
250.0524045534
 20
257.9721632176
 30
0.0
 11
250.0624032326
 21
257.9721632176
 31
0.0
  0
LINE
  5
2CF
330
1F
100
AcDbEntity
  8
0
  6
Continuous
 62
     8
370
    15
100
AcDbLine
 10
308.812433631
 20
208.3513128334
 30
0.0
 11
308.812433631
 21
208.3913135105
 31
0.0
  0
LINE
  5
2D0
330
1F
100
AcDbEntity
  8
0
  6
Continuous
 62
     8
370
    15
100
AcDbLine
 10
266.8124334522
 20
208.3513128334
 30
0.0
 11
266.8124334522
 21
208.3913135105
 31
0.0
  0
LINE
  5
2D1
330
1F
100
AcDbEntity
  8
0
  6
Continuous
 62
     8
370
    15
100
AcDbLine
 10
322.7719576664
 20
233.1907092356
 30
0.0
 11
322.7298291035
 21
233.1770210289
 31
0.0
  0
LINE
  5
2D2
330
1F
100
AcDbEntity
  8
0
  6
Continuous
 62
     8
370
    15
100
AcDbLine
 10
310.0942821808
 20
236.7513141357
 30
0.0
 11
310.0942821808
 21
236.5886879847
 31
0.0
  0
LWPOLYLINE
  5
2D3
330
1F
100
AcDbEntity
  8
0
  6
Continuous
 62
     8
370
    15
100
AcDbPolyline
 90
        3
 70
   128
 43
0.0
 10
308.9612574883
 20
236.7513141357
 10
308.9786203213
 20
236.6862331279
 10
308.9881093807
 20
236.5886879847
  0
LWPOLYLINE
  5
2D4
330
1F
100
AcDbEntity
  8
0
  6
Continuous
 62
     8
370
    15
100
AcDbPolyline
 90
        3
 70
   128
 43
0.0
 10
313.0273045607
 20
236.7513141357
 10
313.0099417277
 20
236.6862331279
 10
313.0004526682
 20
236.5886879847
  0
LINE
  5
2D5
330
1F
100
AcDbEntity
  8
0
  6
Continuous
 62
     8
370
    15
100
AcDbLine
 10
311.8942798681
 20
236.7513141357
 30
0.0
 11
311.8942798681
 21
236.5886879847
 31
0.0
  0
LINE
  5
2D6
330
1F
100
AcDbEntity
  8
0
  6
Continuous
 62
     8
370
    15
100
AcDbLine
 10
310.0942821808
 20
236.5886879847
 30
0.0
 11
310.0942821808
 21
236.5513141961
 31
0.0
  0
LINE
  5
2D7
330
1F
100
AcDbEntity
  8
0
  6
Continuous
 62
     8
370
    15
100
AcDbLine
 10
311.8942798681
 20
236.5513141961
 30
0.0
 11
311.8942798681
 21
236.5886879847
 31
0.0
  0
LINE
  5
2D8
330
1F
100
AcDbEntity
  8
0
  6
Continuous
 62
     8
370
    15
100
AcDbLine
 10
324.3290843077
 20
238.660840387
 30
0.0
 11
324.3290843077
 21
238.6913141929
 31
0.0
  0
LINE
  5
2D9
330
1F
100
AcDbEntity
  8
0
  6
Continuous
 62
     8
370
    15
100
AcDbLine
 10
315.1974053688
 20
238.6913141929
 30
0.0
 11
315.1974053688
 21
238.6613142439
 31
0.0
  0
LINE
  5
2DA
330
1F
100
AcDbEntity
  8
0
  6
Continuous
 62
     8
370
    15
100
AcDbLine
 10
314.9824054547
 20
238.4463141435
 30
0.0
 11
314.9524034567
 21
238.4463141435
 31
0.0
  0
LINE
  5
2DB
330
1F
100
AcDbEntity
  8
0
  6
Continuous
 62
     8
370
    15
100
AcDbLine
 10
325.2581687279
 20
234.2245641858
 30
0.0
 11
325.2329440422
 21
234.2825804599
 31
0.0
  0
LINE
  5
2DC
330
1F
100
AcDbEntity
  8
0
  6
Continuous
 62
     8
370
    15
100
AcDbLine
 10
318.8124330349
 20
149.9413150125
 30
0.0
 11
313.1124348946
 21
149.9413150125
 31
0.0
  0
LINE
  5
2DD
330
1F
100
AcDbEntity
  8
0
  6
Continuous
 62
     8
370
    15
100
AcDbLine
 10
259.9124328799
 20
149.9413150125
 30
0.0
 11
254.2124332495
 21
149.9413150125
 31
0.0
  0
LINE
  5
2DE
330
1F
100
AcDbEntity
  8
0
  6
Continuous
 62
     8
370
    15
100
AcDbLine
 10
319.1524328299
 20
166.3913148218
 30
0.0
 11
312.7724350996
 21
166.3913148218
 31
0.0
  0
LINE
  5
2DF
330
1F
100
AcDbEntity
  8
0
  6
Continuous
 62
     8
370
    15
100
AcDbLine
 10
319.1524328299
 20
157.7445703321
 30
0.0
 11
312.7724350996
 21
157.7445703321
 31
0.0
  0
LINE
  5
2E0
330
1F
100
AcDbEntity
  8
0
  6
Continuous
 62
     8
370
    15
100
AcDbLine
 10
319.146043212
 20
157.6673227125
 30
0.0
 11
312.7788247175
 21
157.6673227125
 31
0.0
  0
LINE
  5
2E1
330
1F
100
AcDbEntity
  8
0
  6
Continuous
 62
     8
370
    15
100
AcDbLine
 10
260.252434165
 20
166.3913148218
 30
0.0
 11
253.8724334545
 21
166.3913148218
 31
0.0
  0
LINE
  5
2E2
330
1F
100
AcDbEntity
  8
0
  6
Continuous
 62
     8
370
    15
100
AcDbLine
 10
260.252434165
 20
157.7445703321
 30
0.0
 11
253.8724334545
 21
157.7445703321
 31
0.0
  0
LINE
  5
2E3
330
1F
100
AcDbEntity
  8
0
  6
Continuous
 62
     8
370
    15
100
AcDbLine
 10
260.2460415669
 20
157.6673227125
 30
0.0
 11
253.8788260527
 21
157.6673227125
 31
0.0
  0
LINE
  5
2E4
330
1F
100
AcDbEntity
  8
0
  6
Continuous
 62
     8
370
    15
100
AcDbLine
 10
328.3495725699
 20
212.5880407863
 30
0.0
 11
328.3495725699
 21
214.3075468712
 31
0.0
  0
LINE
  5
2E5
330
1F
100
AcDbEntity
  8
0
  6
Continuous
 62
     8
370
    15
100
AcDbLine
 10
328.3495725699
 20
215.3875472718
 30
0.0
 11
328.3495725699
 21
217.1070533567
 31
0.0
  0
LINE
  5
2E6
330
1F
100
AcDbEntity
  8
0
  6
Continuous
 62
     8
370
    15
100
AcDbLine
 10
330.3534688063
 20
212.8710138374
 30
0.0
 11
330.3534688063
 21
213.2154810005
 31
0.0
  0
LINE
  5
2E7
330
1F
100
AcDbEntity
  8
0
  6
Continuous
 62
     8
370
    15
100
AcDbLine
 10
327.4124325819
 20
214.247949677
 30
0.0
 11
327.2124321766
 21
214.2503562146
 31
0.0
  0
LINE
  5
2E8
330
1F
100
AcDbEntity
  8
0
  6
Continuous
 62
     8
370
    15
100
AcDbLine
 10
327.4124325819
 20
214.1420471244
 30
0.0
 11
327.2124321766
 21
214.1449394398
 31
0.0
  0
LINE
  5
2E9
330
1F
100
AcDbEntity
  8
0
  6
Continuous
 62
     8
370
    15
100
AcDbLine
 10
328.4824343033
 20
214.8475470715
 30
0.0
 11
328.4824343033
 21
215.3875472718
 31
0.0
  0
LINE
  5
2EA
330
1F
100
AcDbEntity
  8
0
  6
Continuous
 62
     8
370
    15
100
AcDbLine
 10
328.4824343033
 20
214.3075468712
 30
0.0
 11
328.4824343033
 21
214.8475470715
 31
0.0
  0
LINE
  5
2EB
330
1F
100
AcDbEntity
  8
0
  6
Continuous
 62
     8
370
    15
100
AcDbLine
 10
314.9824054547
 20
236.1613141601
 30
0.0
 11
314.977404625
 21
236.1613141601
 31
0.0
  0
LINE
  5
2EC
330
1F
100
AcDbEntity
  8
0
  6
Continuous
 62
     8
370
    15
100
AcDbLine
 10
322.6344825335
 20
233.1299875625
 30
0.0
 11
322.6344825335
 21
233.0813142233
 31
0.0
  0
LWPOLYLINE
  5
2ED
330
1F
100
AcDbEntity
  8
0
  6
Continuous
 62
     8
370
    15
100
AcDbPolyline
 90
        8
 70
   128
 43
0.0
 10
322.7283270664
 20
233.0618058094
 10
322.7259697027
 20
233.0610397034
 10
322.7215738602
 20
233.0596119859
 10
322.7156610794
 20
233.0576904812
 10
322.7084548779
 20
233.0553491362
 10
322.7002353974
 20
233.0526777305
 10
322.691312582
 20
233.0497792684
 10
322.6820351191
 20
233.0467649498
  0
LINE
  5
2EE
330
1F
100
AcDbEntity
  8
0
  6
Continuous
 62
     8
370
    15
100
AcDbLine
 10
314.9824054547
 20
235.0763141871
 30
0.0
 11
314.977404625
 21
235.0763141871
 31
0.0
  0
LINE
  5
2EF
330
1F
100
AcDbEntity
  8
0
  6
Continuous
 62
     8
370
    15
100
AcDbLine
 10
320.7324029513
 20
235.1963141695
 30
0.0
 11
320.7224042721
 21
235.1963141695
 31
0.0
  0
LINE
  5
2F0
330
1F
100
AcDbEntity
  8
0
  6
Continuous
 62
     8
370
    15
100
AcDbLine
 10
320.6669510908
 20
234.8263141927
 30
0.0
 11
320.6912638254
 21
234.8263141927
 31
0.0
  0
LINE
  5
2F1
330
1F
100
AcDbEntity
  8
0
  6
Continuous
 62
     8
370
    15
100
AcDbLine
 10
253.4824343033
 20
208.1713127666
 30
0.0
 11
253.4824343033
 21
208.3913135105
 31
0.0
  0
LINE
  5
2F2
330
1F
100
AcDbEntity
  8
0
  6
Continuous
 62
     8
370
    15
100
AcDbLine
 10
260.6424333163
 20
208.1713127666
 30
0.0
 11
260.6424333163
 21
208.3913135105
 31
0.0
  0
LINE
  5
2F3
330
1F
100
AcDbEntity
  8
0
  6
Continuous
 62
     8
370
    15
100
AcDbLine
 10
251.3124348231
 20
208.1713127666
 30
0.0
 11
251.3124348231
 21
208.3913135105
 31
0.0
  0
LINE
  5
2F4
330
1F
100
AcDbEntity
  8
0
  6
Continuous
 62
     8
370
    15
100
AcDbLine
 10
252.8824330874
 20
208.1713127666
 30
0.0
 11
252.8824330874
 21
208.3913135105
 31
0.0
  0
LINE
  5
2F5
330
1F
100
AcDbEntity
  8
0
  6
Continuous
 62
     8
370
    15
100
AcDbLine
 10
262.8124342866
 20
208.1713127666
 30
0.0
 11
262.8124342866
 21
208.3913135105
 31
0.0
  0
LINE
  5
2F6
330
1F
100
AcDbEntity
  8
0
  6
Continuous
 62
     8
370
    15
100
AcDbLine
 10
261.2424330421
 20
208.1713127666
 30
0.0
 11
261.2424330421
 21
208.3913135105
 31
0.0
  0
LINE
  5
2F7
330
1F
100
AcDbEntity
  8
0
  6
Continuous
 62
     8
370
    15
100
AcDbLine
 10
312.3824329682
 20
208.1713127666
 30
0.0
 11
312.3824329682
 21
208.3913135105
 31
0.0
  0
LINE
  5
2F8
330
1F
100
AcDbEntity
  8
0
  6
Continuous
 62
     8
370
    15
100
AcDbLine
 10
319.5424349613
 20
208.1713127666
 30
0.0
 11
319.5424349613
 21
208.3913135105
 31
0.0
  0
LINE
  5
2F9
330
1F
100
AcDbEntity
  8
0
  6
Continuous
 62
     8
370
    15
100
AcDbLine
 10
310.2124334879
 20
208.1713127666
 30
0.0
 11
310.2124334879
 21
208.3913135105
 31
0.0
  0
LINE
  5
2FA
330
1F
100
AcDbEntity
  8
0
  6
Continuous
 62
     8
370
    15
100
AcDbLine
 10
311.7824347325
 20
208.1713127666
 30
0.0
 11
311.7824347325
 21
208.3913135105
 31
0.0
  0
LINE
  5
2FB
330
1F
100
AcDbEntity
  8
0
  6
Continuous
 62
     8
370
    15
100
AcDbLine
 10
321.7124344416
 20
208.1713127666
 30
0.0
 11
321.7124344416
 21
208.4025460058
 31
0.0
  0
LINE
  5
2FC
330
1F
100
AcDbEntity
  8
0
  6
Continuous
 62
     8
370
    15
100
AcDbLine
 10
320.142433197
 20
208.1713127666
 30
0.0
 11
320.142433197
 21
208.3913135105
 31
0.0
  0
LINE
  5
2FD
330
1F
100
AcDbEntity
  8
0
  6
Continuous
 62
     7
370
     0
100
AcDbLine
 10
249.97240403
 20
258.4892596916
 30
0.0
 11
249.97240403
 21
258.7413141756
 31
0.0
  0
LINE
  5
2FE
330
1F
100
AcDbEntity
  8
0
  6
Continuous
 62
     7
370
     0
100
AcDbLine
 10
250.2304619343
 20
258.687274486
 30
0.0
 11
249.97240403
 21
258.7413141756
 31
0.0
  0
LINE
  5
2FF
330
1F
100
AcDbEntity
  8
0
  6
CENTERX2
 62
     7
370
     0
100
AcDbLine
 10
246.1724336159
 20
214.1713141756
 30
0.0
 11
252.9567539863
 21
214.1713141756
 31
0.0
  0
ENDSEC
  0
SECTION
  2
OBJECTS
  0
DICTIONARY
  5
C
330
0
100
AcDbDictionary
281
     1
  3
ACAD_GROUP
350
D
  3
ACAD_LAYOUT
350
1A
  3
ACAD_MLINESTYLE
350
17
  3
ACAD_PLOTSETTINGS
350
19
  3
ACAD_PLOTSTYLENAME
350
E
  0
DICTIONARY
  5
D
102
{ACAD_REACTORS
330
C
102
}
330
C
100
AcDbDictionary
281
     1
  0
DICTIONARY
  5
1A
102
{ACAD_REACTORS
330
C
102
}
330
C
100
AcDbDictionary
281
     1
  3
Layout1
350
1E
  3
Layout2
350
26
  3
Model
350
22
  0
DICTIONARY
  5
17
102
{ACAD_REACTORS
330
C
102
}
330
C
100
AcDbDictionary
281
     1
  3
Standard
350
18
  0
DICTIONARY
  5
19
102
{ACAD_REACTORS
330
C
102
}
330
C
100
AcDbDictionary
281
     1
  0
ACDBDICTIONARYWDFLT
  5
E
102
{ACAD_REACTORS
330
C
102
}
330
C
100
AcDbDictionary
281
     1
  3
Normal
350
F
100
AcDbDictionaryWithDefault
340
F
  0
LAYOUT
  5
1E
102
{ACAD_REACTORS
330
1A
102
}
330
1A
100
AcDbPlotSettings
  1

  2
none_device
  4

  6

 40
0.0
 41
0.0
 42
0.0
 43
0.0
 44
0.0
 45
0.0
 46
0.0
 47
0.0
 48
0.0
 49
0.0
140
0.0
141
0.0
142
1.0
143
1.0
 70
   688
 72
     0
 73
     0
 74
     5
  7

 75
    16
147
1.0
148
0.0
149
0.0
100
AcDbLayout
  1
Layout1
 70
     1
 71
     1
 10
0.0
 20
0.0
 11
420.0
 21
297.0
 12
0.0
 22
0.0
 32
0.0
 14
1.0000000000E+20
 24
1.0000000000E+20
 34
1.0000000000E+20
 15
-1.0000000000E+20
 25
-1.0000000000E+20
 35
-1.0000000000E+20
146
0.0
 13
0.0
 23
0.0
 33
0.0
 16
1.0
 26
0.0
 36
0.0
 17
0.0
 27
1.0
 37
0.0
 76
     0
330
1B
  0
LAYOUT
  5
26
102
{ACAD_REACTORS
330
1A
102
}
330
1A
100
AcDbPlotSettings
  1

  2
none_device
  4

  6

 40
0.0
 41
0.0
 42
0.0
 43
0.0
 44
0.0
 45
0.0
 46
0.0
 47
0.0
 48
0.0
 49
0.0
140
0.0
141
0.0
142
1.0
143
1.0
 70
   688
 72
     0
 73
     0
 74
     5
  7

 75
    16
147
1.0
148
0.0
149
0.0
100
AcDbLayout
  1
Layout2
 70
     1
 71
     2
 10
0.0
 20
0.0
 11
0.0
 21
0.0
 12
0.0
 22
0.0
 32
0.0
 14
0.0
 24
0.0
 34
0.0
 15
0.0
 25
0.0
 35
0.0
146
0.0
 13
0.0
 23
0.0
 33
0.0
 16
1.0
 26
0.0
 36
0.0
 17
0.0
 27
1.0
 37
0.0
 76
     0
330
23
  0
LAYOUT
  5
22
102
{ACAD_REACTORS
330
1A
102
}
330
1A
100
AcDbPlotSettings
  1

  2
none_device
  4

  6

 40
0.0
 41
0.0
 42
0.0
 43
0.0
 44
0.0
 45
0.0
 46
0.0
 47
0.0
 48
0.0
 49
0.0
140
0.0
141
0.0
142
1.0
143
1.0
 70
  1712
 72
     0
 73
     0
 74
     0
  7

 75
     0
147
1.0
148
0.0
149
0.0
100
AcDbLayout
  1
Model
 70
     1
 71
     0
 10
0.0
 20
0.0
 11
420.0
 21
297.0
 12
0.0
 22
0.0
 32
0.0
 14
0.0
 24
0.0
 34
0.0
 15
420.0
 25
297.0
 35
0.0
146
0.0
 13
0.0
 23
0.0
 33
0.0
 16
1.0
 26
0.0
 36
0.0
 17
0.0
 27
1.0
 37
0.0
 76
     0
330
1F
331
29
  0
MLINESTYLE
  5
18
102
{ACAD_REACTORS
330
17
102
}
330
17
100
AcDbMlineStyle
  2
Standard
 70
     0
  3

 62
   256
 51
90.0
 52
90.0
 71
     2
 49
0.5
 62
   256
  6
BYLAYER
 49
-0.5
 62
   256
  6
BYLAYER
  0
ACDBPLACEHOLDER
  5
F
102
{ACAD_REACTORS
330
E
102
}
330
E
  0
ENDSEC
  0
EOF
