  0
SECTION
  2
HEADER
  9
$ACADVER
  1
AC1015
  9
$ACADMAINTVER
 70
     6
  9
$DWGCODEPAGE
  3
ANSI_1252
  9
$INSBASE
 10
0.0
 20
0.0
 30
0.0
  9
$EXTMIN
 10
0.0
 20
0.0
 30
0.0
  9
$EXTMAX
 10
420.0
 20
297.0
 30
0.0
  9
$LIMMIN
 10
0.0
 20
0.0
  9
$LIMMAX
 10
420.0
 20
297.0
  9
$ORTHOMODE
 70
     0
  9
$REGENMODE
 70
     1
  9
$FILLMODE
 70
     1
  9
$QTEXTMODE
 70
     0
  9
$MIRRTEXT
 70
     1
  9
$LTSCALE
 40
1.0
  9
$ATTMODE
 70
     1
  9
$TEXTSIZE
 40
3.5
  9
$TRACEWID
 40
1.0
  9
$TEXTSTYLE
  7
Standard
  9
$CLAYER
  8
0
  9
$CELTYPE
  6
ByLayer
  9
$CECOLOR
 62
   256
  9
$CELTSCALE
 40
1.0
  9
$DISPSILH
 70
     0
  9
$DIMSCALE
 40
1.0
  9
$DIMASZ
 40
3.302
  9
$DIMEXO
 40
1.0
  9
$DIMDLI
 40
3.75
  9
$DIMRND
 40
0.0
  9
$DIMDLE
 40
0.0
  9
$DIMEXE
 40
1.0
  9
$DIMTP
 40
0.0
  9
$DIMTM
 40
0.0
  9
$DIMTXT
 40
3.5
  9
$DIMCEN
 40
2.5
  9
$DIMTSZ
 40
0.0
  9
$DIMTOL
 70
     0
  9
$DIMLIM
 70
     0
  9
$DIMTIH
 70
     1
  9
$DIMTOH
 70
     1
  9
$DIMSE1
 70
     0
  9
$DIMSE2
 70
     0
  9
$DIMTAD
 70
     1
  9
$DIMZIN
 70
     0
  9
$DIMBLK
  1

  9
$DIMASO
 70
     1
  9
$DIMSHO
 70
     1
  9
$DIMPOST
  1

  9
$DIMAPOST
  1

  9
$DIMALT
 70
     0
  9
$DIMALTD
 70
     3
  9
$DIMALTF
 40
0.0393700787
  9
$DIMLFAC
 40
10.0
  9
$DIMTOFL
 70
     1
  9
$DIMTVP
 40
0.0
  9
$DIMTIX
 70
     0
  9
$DIMSOXD
 70
     0
  9
$DIMSAH
 70
     0
  9
$DIMBLK1
  1

  9
$DIMBLK2
  1

  9
$DIMSTYLE
  2
ISO-25
  9
$DIMCLRD
 70
     0
  9
$DIMCLRE
 70
     0
  9
$DIMCLRT
 70
     0
  9
$DIMTFAC
 40
1.0
  9
$DIMGAP
 40
1.524
  9
$DIMJUST
 70
     0
  9
$DIMSD1
 70
     0
  9
$DIMSD2
 70
     0
  9
$DIMTOLJ
 70
     0
  9
$DIMTZIN
 70
     0
  9
$DIMALTZ
 70
     0
  9
$DIMALTTZ
 70
     0
  9
$DIMUPT
 70
     0
  9
$DIMDEC
 70
     1
  9
$DIMTDEC
 70
     1
  9
$DIMALTU
 70
     2
  9
$DIMALTTD
 70
     3
  9
$DIMTXSTY
  7
Standard
  9
$DIMAUNIT
 70
     0
  9
$DIMADEC
 70
     1
  9
$DIMALTRND
 40
0.0
  9
$DIMAZIN
 70
     0
  9
$DIMDSEP
 70
    44
  9
$DIMATFIT
 70
     3
  9
$DIMFRAC
 70
     0
  9
$DIMLDRBLK
  1

  9
$DIMLUNIT
 70
     2
  9
$DIMLWD
 70
    -2
  9
$DIMLWE
 70
    -2
  9
$DIMTMOVE
 70
     0
  9
$LUNITS
 70
     2
  9
$LUPREC
 70
     1
  9
$SKETCHINC
 40
1.0
  9
$FILLETRAD
 40
10.0
  9
$AUNITS
 70
     0
  9
$AUPREC
 70
     1
  9
$MENU
  1
.
  9
$ELEVATION
 40
0.0
  9
$PELEVATION
 40
0.0
  9
$THICKNESS
 40
0.0
  9
$LIMCHECK
 70
     0
  9
$CHAMFERA
 40
10.0
  9
$CHAMFERB
 40
10.0
  9
$CHAMFERC
 40
20.0
  9
$CHAMFERD
 40
0.0
  9
$SKPOLY
 70
     0
  9
$TDCREATE
 40
2455768.531290995
  9
$TDUCREATE
 40
2455768.489624329
  9
$TDUPDATE
 40
2455768.531291007
  9
$TDUUPDATE
 40
2455768.48962434
  9
$TDINDWG
 40
0.0000000116
  9
$TDUSRTIMER
 40
0.0000000116
  9
$USRTIMER
 70
     1
  9
$ANGBASE
 50
0.0
  9
$ANGDIR
 70
     0
  9
$PDMODE
 70
     0
  9
$PDSIZE
 40
-1.0
  9
$PLINEWID
 40
0.0
  9
$SPLFRAME
 70
     0
  9
$SPLINETYPE
 70
     6
  9
$SPLINESEGS
 70
     8
  9
$HANDSEED
  5
5D4
  9
$SURFTAB1
 70
     6
  9
$SURFTAB2
 70
     6
  9
$SURFTYPE
 70
     6
  9
$SURFU
 70
     6
  9
$SURFV
 70
     6
  9
$UCSBASE
  2

  9
$UCSNAME
  2

  9
$UCSORG
 10
0.0
 20
0.0
 30
0.0
  9
$UCSXDIR
 10
1.0
 20
0.0
 30
0.0
  9
$UCSYDIR
 10
0.0
 20
1.0
 30
0.0
  9
$UCSORTHOREF
  2

  9
$UCSORTHOVIEW
 70
     0
  9
$UCSORGTOP
 10
0.0
 20
0.0
 30
0.0
  9
$UCSORGBOTTOM
 10
0.0
 20
0.0
 30
0.0
  9
$UCSORGLEFT
 10
0.0
 20
0.0
 30
0.0
  9
$UCSORGRIGHT
 10
0.0
 20
0.0
 30
0.0
  9
$UCSORGFRONT
 10
0.0
 20
0.0
 30
0.0
  9
$UCSORGBACK
 10
0.0
 20
0.0
 30
0.0
  9
$PUCSBASE
  2

  9
$PUCSNAME
  2

  9
$PUCSORG
 10
0.0
 20
0.0
 30
0.0
  9
$PUCSXDIR
 10
1.0
 20
0.0
 30
0.0
  9
$PUCSYDIR
 10
0.0
 20
1.0
 30
0.0
  9
$PUCSORTHOREF
  2

  9
$PUCSORTHOVIEW
 70
     0
  9
$PUCSORGTOP
 10
0.0
 20
0.0
 30
0.0
  9
$PUCSORGBOTTOM
 10
0.0
 20
0.0
 30
0.0
  9
$PUCSORGLEFT
 10
0.0
 20
0.0
 30
0.0
  9
$PUCSORGRIGHT
 10
0.0
 20
0.0
 30
0.0
  9
$PUCSORGFRONT
 10
0.0
 20
0.0
 30
0.0
  9
$PUCSORGBACK
 10
0.0
 20
0.0
 30
0.0
  9
$USERI1
 70
     0
  9
$USERI2
 70
     0
  9
$USERI3
 70
     0
  9
$USERI4
 70
     0
  9
$USERI5
 70
     0
  9
$USERR1
 40
0.0
  9
$USERR2
 40
0.0
  9
$USERR3
 40
0.0
  9
$USERR4
 40
0.0
  9
$USERR5
 40
0.0
  9
$WORLDVIEW
 70
     1
  9
$SHADEDGE
 70
     3
  9
$SHADEDIF
 70
    70
  9
$TILEMODE
 70
     1
  9
$MAXACTVP
 70
    64
  9
$PINSBASE
 10
0.0
 20
0.0
 30
0.0
  9
$PLIMCHECK
 70
     0
  9
$PEXTMIN
 10
1.0000000000E+20
 20
1.0000000000E+20
 30
1.0000000000E+20
  9
$PEXTMAX
 10
-1.0000000000E+20
 20
-1.0000000000E+20
 30
-1.0000000000E+20
  9
$PLIMMIN
 10
0.0
 20
0.0
  9
$PLIMMAX
 10
420.0
 20
297.0
  9
$UNITMODE
 70
     0
  9
$VISRETAIN
 70
     1
  9
$PLINEGEN
 70
     0
  9
$PSLTSCALE
 70
     1
  9
$TREEDEPTH
 70
  3020
  9
$CMLSTYLE
  2
Standard
  9
$CMLJUST
 70
     0
  9
$CMLSCALE
 40
20.0
  9
$PROXYGRAPHICS
 70
     1
  9
$MEASUREMENT
 70
     1
  9
$CELWEIGHT
370
    -1
  9
$ENDCAPS
280
     0
  9
$JOINSTYLE
280
     0
  9
$LWDISPLAY
290
     1
  9
$INSUNITS
 70
     4
  9
$HYPERLINKBASE
  1

  9
$STYLESHEET
  1

  9
$XEDIT
290
     1
  9
$CEPSNTYPE
380
     0
  9
$PSTYLEMODE
290
     1
  9
$FINGERPRINTGUID
  2
{6FCE0E06-8751-4F37-AE2A-425509C2FF1D}
  9
$VERSIONGUID
  2
{FAEB1C32-E019-11D5-929B-00C0DF256EC4}
  9
$EXTNAMES
290
     1
  9
$PSVPSCALE
 40
0.0
  9
$OLESTARTUP
290
     0
  0
ENDSEC
  0
SECTION
  2
CLASSES
  0
CLASS
  1
ACDBDICTIONARYWDFLT
  2
AcDbDictionaryWithDefault
  3
ObjectDBX Classes
 90
        0
280
     0
281
     0
  0
CLASS
  1
VISUALSTYLE
  2
AcDbVisualStyle
  3
ObjectDBX Classes
 90
     4095
280
     0
281
     0
  0
CLASS
  1
MATERIAL
  2
AcDbMaterial
  3
ObjectDBX Classes
 90
     1153
280
     0
281
     0
  0
CLASS
  1
ACDBPLACEHOLDER
  2
AcDbPlaceHolder
  3
ObjectDBX Classes
 90
        0
280
     0
281
     0
  0
CLASS
  1
LAYOUT
  2
AcDbLayout
  3
ObjectDBX Classes
 90
        0
280
     0
281
     0
  0
ENDSEC
  0
SECTION
  2
TABLES
  0
TABLE
  2
VPORT
  5
8
330
0
100
AcDbSymbolTable
 70
     1
  0
VPORT
  5
29
330
8
100
AcDbSymbolTableRecord
100
AcDbViewportTableRecord
  2
*Active
 70
     0
 10
0.0
 20
0.0
 11
1.0
 21
1.0
 12
210.0
 22
148.5
 13
0.0
 23
0.0
 14
10.0
 24
10.0
 15
10.0
 25
10.0
 16
0.0
 26
0.0
 36
1.0
 17
0.0
 27
0.0
 37
0.0
 40
297.0
 41
1.4141414141
 42
50.0
 43
0.0
 44
0.0
 50
0.0
 51
0.0
 71
     0
 72
  2000
 73
     1
 74
     3
 75
     0
 76
     0
 77
     0
 78
     0
281
     0
 65
     1
110
0.0
120
0.0
130
0.0
111
1.0
121
0.0
131
0.0
112
0.0
122
1.0
132
0.0
 79
     0
146
0.0
  0
ENDTAB
  0
TABLE
  2
LTYPE
  5
5
330
0
100
AcDbSymbolTable
 70
     6
  0
LTYPE
  5
14
330
5
100
AcDbSymbolTableRecord
100
AcDbLinetypeTableRecord
  2
ByBlock
 70
     0
  3

 72
    65
 73
     0
 40
0.0
  0
LTYPE
  5
15
330
5
100
AcDbSymbolTableRecord
100
AcDbLinetypeTableRecord
  2
ByLayer
 70
     0
  3

 72
    65
 73
     0
 40
0.0
  0
LTYPE
  5
16
330
5
100
AcDbSymbolTableRecord
100
AcDbLinetypeTableRecord
  2
Continuous
 70
     0
  3
Solid line
 72
    65
 73
     0
 40
0.0
  0
LTYPE
  5
3F
330
5
100
AcDbSymbolTableRecord
100
AcDbLinetypeTableRecord
  2
HIDDEN
 70
     0
  3
Hidden __ __ __ __ __ __ __ __ __ __ __ __ __ __
 72
    65
 73
     2
 40
1.905
 49
1.27
 74
     0
 49
-0.635
 74
     0
  0
LTYPE
  5
40
330
5
100
AcDbSymbolTableRecord
100
AcDbLinetypeTableRecord
  2
PHANTOM
 70
     0
  3
Phantom ______  __  __  ______  __  __  ______
 72
    65
 73
     6
 40
12.7
 49
6.35
 74
     0
 49
-1.27
 74
     0
 49
1.27
 74
     0
 49
-1.27
 74
     0
 49
1.27
 74
     0
 49
-1.27
 74
     0
  0
LTYPE
  5
41
330
5
100
AcDbSymbolTableRecord
100
AcDbLinetypeTableRecord
  2
CENTER
 70
     0
  3
Center ____ _ ____ _ ____ _ ____ _ ____ _ ____
 72
    65
 73
     4
 40
10.16
 49
6.35
 74
     0
 49
-1.27
 74
     0
 49
1.27
 74
     0
 49
-1.27
 74
     0
  0
LTYPE
  5
42
330
5
100
AcDbSymbolTableRecord
100
AcDbLinetypeTableRecord
  2
CENTERX2
 70
     0
  3
Center (2x) ________  __  ________  __  _____
 72
    65
 73
     4
 40
20.32
 49
12.7
 74
     0
 49
-2.54
 74
     0
 49
2.54
 74
     0
 49
-2.54
 74
     0
  0
LTYPE
  5
43
330
5
100
AcDbSymbolTableRecord
100
AcDbLinetypeTableRecord
  2
DOT2
 70
     0
  3
Dot (.5x) ........................................
 72
    65
 73
     2
 40
0.635
 49
0.0
 74
     0
 49
-0.635
 74
     0
  0
ENDTAB
  0
TABLE
  2
LAYER
  5
2
330
0
100
AcDbSymbolTable
 70
     4
  0
LAYER
  5
10
330
2
100
AcDbSymbolTableRecord
100
AcDbLayerTableRecord
  2
0
 70
     0
 62
     7
  6
Continuous
370
    -3
390
F
  0
LAYER
  5
44
330
2
100
AcDbSymbolTableRecord
100
AcDbLayerTableRecord
  2
FORMAT
 70
     0
 62
     7
  6
Continuous
370
    -3
390
F
  0
LAYER
  5
45
330
2
100
AcDbSymbolTableRecord
100
AcDbLayerTableRecord
  2
SLD-0
 70
     0
 62
     1
  6
Continuous
370
    -3
390
F
  0
LAYER
  5
46
330
2
100
AcDbSymbolTableRecord
100
AcDbLayerTableRecord
  2
WATERMARK
 70
     0
 62
    20
  6
Continuous
370
    -3
390
F
  0
ENDTAB
  0
TABLE
  2
STYLE
  5
3
330
0
100
AcDbSymbolTable
 70
     1
  0
STYLE
  5
11
330
3
100
AcDbSymbolTableRecord
100
AcDbTextStyleTableRecord
  2
Standard
 70
     0
 40
0.0
 41
1.0
 50
0.0
 71
     0
 42
2.5
  3
txt
  4

  0
ENDTAB
  0
TABLE
  2
VIEW
  5
6
330
0
100
AcDbSymbolTable
 70
     0
  0
ENDTAB
  0
TABLE
  2
UCS
  5
7
330
0
100
AcDbSymbolTable
 70
     0
  0
ENDTAB
  0
TABLE
  2
APPID
  5
9
330
0
100
AcDbSymbolTable
 70
     1
  0
APPID
  5
12
330
9
100
AcDbSymbolTableRecord
100
AcDbRegAppTableRecord
  2
ACAD
 70
     0
  0
ENDTAB
  0
TABLE
  2
DIMSTYLE
  5
A
330
0
100
AcDbSymbolTable
 70
     1
100
AcDbDimStyleTable
  0
DIMSTYLE
105
27
330
A
100
AcDbSymbolTableRecord
100
AcDbDimStyleTableRecord
  2
ISO-25
 70
     0
 41
2.5
 42
0.625
 43
3.75
 44
1.25
 73
     0
 74
     0
 77
     1
 78
     8
140
2.5
141
2.5
143
0.0393700787
147
0.625
171
     3
172
     1
271
     2
272
     2
274
     3
278
    44
283
     0
284
     8
340
11
  0
ENDTAB
  0
TABLE
  2
BLOCK_RECORD
  5
1
330
0
100
AcDbSymbolTable
 70
     1
  0
BLOCK_RECORD
  5
1F
330
1
100
AcDbSymbolTableRecord
100
AcDbBlockTableRecord
  2
*Model_Space
340
22
  0
BLOCK_RECORD
  5
1B
330
1
100
AcDbSymbolTableRecord
100
AcDbBlockTableRecord
  2
*Paper_Space
340
1E
  0
BLOCK_RECORD
  5
23
330
1
100
AcDbSymbolTableRecord
100
AcDbBlockTableRecord
  2
*Paper_Space0
340
26
  0
ENDTAB
  0
ENDSEC
  0
SECTION
  2
BLOCKS
  0
BLOCK
  5
20
330
1F
100
AcDbEntity
  8
0
100
AcDbBlockBegin
  2
*Model_Space
 70
     0
 10
0.0
 20
0.0
 30
0.0
  3
*Model_Space
  1

  0
ENDBLK
  5
21
330
1F
100
AcDbEntity
  8
0
100
AcDbBlockEnd
  0
BLOCK
  5
1C
330
1B
100
AcDbEntity
 67
     1
  8
0
100
AcDbBlockBegin
  2
*Paper_Space
 70
     0
 10
0.0
 20
0.0
 30
0.0
  3
*Paper_Space
  1

  0
ENDBLK
  5
1D
330
1B
100
AcDbEntity
 67
     1
  8
0
100
AcDbBlockEnd
  0
BLOCK
  5
24
330
23
100
AcDbEntity
  8
0
100
AcDbBlockBegin
  2
*Paper_Space0
 70
     0
 10
0.0
 20
0.0
 30
0.0
  3
*Paper_Space0
  1

  0
ENDBLK
  5
25
330
23
100
AcDbEntity
  8
0
100
AcDbBlockEnd
  0
ENDSEC
  0
SECTION
  2
ENTITIES
  0
ARC
  5
47
330
1F
100
AcDbEntity
  8
0
  6
Continuous
 62
     7
370
    15
100
AcDbCircle
 10
126.9442246245
 20
227.9249972992
 30
0.0
 40
0.2884942765435266
100
AcDbArc
 50
267.6563571888
 51
357.4233214318
  0
ARC
  5
48
330
1F
100
AcDbEntity
  8
0
  6
Continuous
 62
     7
370
    15
100
AcDbCircle
 10
122.5210156233
 20
227.9254177323
 30
0.0
 40
0.288898858815026
100
AcDbArc
 50
182.6565368673
 51
272.2637667907
  0
LINE
  5
49
330
1F
100
AcDbEntity
  8
0
  6
Continuous
 62
     7
370
    15
100
AcDbLine
 10
126.9324272633
 20
227.6367443376
 30
0.0
 11
122.5324271008
 21
227.6367443376
 31
0.0
  0
ARC
  5
4A
330
1F
100
AcDbEntity
  8
0
  6
Continuous
 62
     7
370
    15
100
AcDbCircle
 10
111.0210176416
 20
227.9254205343
 30
0.0
 40
0.2889015853382385
100
AcDbArc
 50
182.6570680669
 51
272.2633773622
  0
LINE
  5
4B
330
1F
100
AcDbEntity
  8
0
  6
Continuous
 62
     7
370
    15
100
AcDbLine
 10
115.4324272409
 20
227.6367443376
 30
0.0
 11
111.0324272647
 21
227.6367443376
 31
0.0
  0
ARC
  5
4C
330
1F
100
AcDbEntity
  8
0
  6
Continuous
 62
     7
370
    15
100
AcDbCircle
 10
115.4442252448
 20
227.9249965014
 30
0.0
 40
0.2884935056509929
100
AcDbArc
 50
267.656223186
 51
357.423473156
  0
LINE
  5
4D
330
1F
100
AcDbEntity
  8
0
  6
Continuous
 62
     7
370
    15
100
AcDbLine
 10
147.3574274912
 20
258.694260078
 30
0.0
 11
87.5174278155
 21
258.694260078
 31
0.0
  0
LINE
  5
4E
330
1F
100
AcDbEntity
  8
0
  6
Continuous
 62
     7
370
    15
100
AcDbLine
 10
87.5174278155
 20
258.6042600446
 30
0.0
 11
87.4374264613
 21
258.6042600446
 31
0.0
  0
LINE
  5
4F
330
1F
100
AcDbEntity
  8
0
  6
Continuous
 62
     7
370
    15
100
AcDbLine
 10
147.4374273553
 20
258.6042600446
 30
0.0
 11
147.3574274912
 21
258.6042600446
 31
0.0
  0
ARC
  5
50
330
1F
100
AcDbEntity
  8
0
  6
Continuous
 62
     7
370
    15
100
AcDbCircle
 10
97.687427221
 20
149.9413141756
 30
0.0
 40
0.2000000000000028
100
AcDbArc
 50
270.0
 51
0.0
  0
ARC
  5
51
330
1F
100
AcDbEntity
  8
0
  6
Continuous
 62
     7
370
    15
100
AcDbCircle
 10
92.387427221
 20
149.9413141756
 30
0.0
 40
0.1999999999999886
100
AcDbArc
 50
180.0
 51
270.0
  0
LINE
  5
52
330
1F
100
AcDbEntity
  8
0
  6
Continuous
 62
     7
370
    15
100
AcDbLine
 10
97.8874260321
 20
149.9413150125
 30
0.0
 11
97.8874260321
 21
150.3413158231
 31
0.0
  0
LINE
  5
53
330
1F
100
AcDbEntity
  8
0
  6
Continuous
 62
     7
370
    15
100
AcDbLine
 10
92.1874278918
 20
150.3413158231
 30
0.0
 11
92.1874278918
 21
149.9413150125
 31
0.0
  0
ARC
  5
54
330
1F
100
AcDbEntity
  8
0
  6
Continuous
 62
     7
370
    15
100
AcDbCircle
 10
142.487427221
 20
149.9413141756
 30
0.0
 40
0.2000000000000171
100
AcDbArc
 50
270.0
 51
0.0
  0
ARC
  5
55
330
1F
100
AcDbEntity
  8
0
  6
Continuous
 62
     7
370
    15
100
AcDbCircle
 10
137.187427221
 20
149.9413141756
 30
0.0
 40
0.2000000000000171
100
AcDbArc
 50
180.0
 51
270.0
  0
LINE
  5
56
330
1F
100
AcDbEntity
  8
0
  6
Continuous
 62
     7
370
    15
100
AcDbLine
 10
142.687427415
 20
149.9413150125
 30
0.0
 11
142.687427415
 21
150.3413158231
 31
0.0
  0
LINE
  5
57
330
1F
100
AcDbEntity
  8
0
  6
Continuous
 62
     7
370
    15
100
AcDbLine
 10
136.9874270394
 20
150.3413158231
 30
0.0
 11
136.9874270394
 21
149.9413150125
 31
0.0
  0
LINE
  5
58
330
1F
100
AcDbEntity
  8
0
  6
Continuous
 62
     7
370
    15
100
AcDbLine
 10
142.6674270764
 20
150.3413158231
 30
0.0
 11
142.6674270764
 21
157.1413117223
 31
0.0
  0
LINE
  5
59
330
1F
100
AcDbEntity
  8
0
  6
Continuous
 62
     7
370
    15
100
AcDbLine
 10
137.007427378
 20
157.1413117223
 30
0.0
 11
137.007427378
 21
150.3413158231
 31
0.0
  0
LINE
  5
5A
330
1F
100
AcDbEntity
  8
0
  6
Continuous
 62
     7
370
    15
100
AcDbLine
 10
97.8674286738
 20
150.3413158231
 30
0.0
 11
97.8674286738
 21
157.1413117223
 31
0.0
  0
LINE
  5
5B
330
1F
100
AcDbEntity
  8
0
  6
Continuous
 62
     7
370
    15
100
AcDbLine
 10
92.2074282303
 20
157.1413117223
 30
0.0
 11
92.2074282303
 21
150.3413158231
 31
0.0
  0
ARC
  5
5C
330
1F
100
AcDbEntity
  8
0
  6
Continuous
 62
     7
370
    15
100
AcDbCircle
 10
98.377427221
 20
166.3913141756
 30
0.0
 40
0.1499999999999915
100
AcDbArc
 50
90.0
 51
180.0
  0
ARC
  5
5D
330
1F
100
AcDbEntity
  8
0
  6
Continuous
 62
     7
370
    15
100
AcDbCircle
 10
91.697427221
 20
166.3913141756
 30
0.0
 40
0.1499999999999915
100
AcDbArc
 50
0.0
 51
90.0
  0
ARC
  5
5E
330
1F
100
AcDbEntity
  8
0
  6
Continuous
 62
     7
370
    15
100
AcDbCircle
 10
97.757427221
 20
157.7445707702
 30
0.0
 40
0.4700000000000001
100
AcDbArc
 50
350.5402980318
 51
0.0
  0
ARC
  5
5F
330
1F
100
AcDbEntity
  8
0
  6
Continuous
 62
     7
370
    15
100
AcDbCircle
 10
92.317427221
 20
157.7445707702
 30
0.0
 40
0.4699999999999989
100
AcDbArc
 50
180.0
 51
189.4597019682
  0
LINE
  5
60
330
1F
100
AcDbEntity
  8
0
  6
Continuous
 62
     7
370
    15
100
AcDbLine
 10
98.2274258271
 20
157.7445703321
 30
0.0
 11
98.2274258271
 21
166.3913148218
 31
0.0
  0
LINE
  5
61
330
1F
100
AcDbEntity
  8
0
  6
Continuous
 62
     7
370
    15
100
AcDbLine
 10
91.8474280968
 20
166.3913148218
 30
0.0
 11
91.8474280968
 21
157.7445703321
 31
0.0
  0
LINE
  5
62
330
1F
100
AcDbEntity
  8
0
  6
Continuous
 62
     7
370
    15
100
AcDbLine
 10
91.8538177147
 20
157.6673227125
 30
0.0
 11
91.9414633647
 21
157.1413117223
 31
0.0
  0
LINE
  5
63
330
1F
100
AcDbEntity
  8
0
  6
Continuous
 62
     7
370
    15
100
AcDbLine
 10
98.1333935395
 20
157.1413117223
 30
0.0
 11
98.2210362092
 21
157.6673227125
 31
0.0
  0
ARC
  5
64
330
1F
100
AcDbEntity
  8
0
  6
Continuous
 62
     7
370
    15
100
AcDbCircle
 10
143.177427221
 20
166.3913141756
 30
0.0
 40
0.1499999999999773
100
AcDbArc
 50
90.0
 51
180.0
  0
ARC
  5
65
330
1F
100
AcDbEntity
  8
0
  6
Continuous
 62
     7
370
    15
100
AcDbCircle
 10
136.497427221
 20
166.3913141756
 30
0.0
 40
0.1499999999999773
100
AcDbArc
 50
0.0
 51
90.0
  0
ARC
  5
66
330
1F
100
AcDbEntity
  8
0
  6
Continuous
 62
     7
370
    15
100
AcDbCircle
 10
142.557427221
 20
157.7445707702
 30
0.0
 40
0.4700000000000001
100
AcDbArc
 50
350.5402980318
 51
0.0
  0
ARC
  5
67
330
1F
100
AcDbEntity
  8
0
  6
Continuous
 62
     7
370
    15
100
AcDbCircle
 10
137.117427221
 20
157.7445707702
 30
0.0
 40
0.4700000000000273
100
AcDbArc
 50
180.0
 51
189.4597019682
  0
LINE
  5
68
330
1F
100
AcDbEntity
  8
0
  6
Continuous
 62
     7
370
    15
100
AcDbLine
 10
143.0274272099
 20
157.7445703321
 30
0.0
 11
143.0274272099
 21
166.3913148218
 31
0.0
  0
LINE
  5
69
330
1F
100
AcDbEntity
  8
0
  6
Continuous
 62
     7
370
    15
100
AcDbLine
 10
136.6474272445
 20
166.3913148218
 30
0.0
 11
136.6474272445
 21
157.7445703321
 31
0.0
  0
LINE
  5
6A
330
1F
100
AcDbEntity
  8
0
  6
Continuous
 62
     7
370
    15
100
AcDbLine
 10
136.6538183525
 20
157.6673227125
 30
0.0
 11
136.7414625123
 21
157.1413117223
 31
0.0
  0
LINE
  5
6B
330
1F
100
AcDbEntity
  8
0
  6
Continuous
 62
     7
370
    15
100
AcDbLine
 10
142.9333919421
 20
157.1413117223
 30
0.0
 11
143.0210361019
 21
157.6673227125
 31
0.0
  0
LINE
  5
6C
330
1F
100
AcDbEntity
  8
0
  6
Continuous
 62
     7
370
    15
100
AcDbLine
 10
108.3324277535
 20
233.165934565
 30
0.0
 11
91.3324260846
 21
233.165934565
 31
0.0
  0
LINE
  5
6D
330
1F
100
AcDbEntity
  8
0
  6
Continuous
 62
     7
370
    15
100
AcDbLine
 10
141.8374279276
 20
220.9325465136
 30
0.0
 11
141.8374279276
 21
220.98254736
 31
0.0
  0
LINE
  5
6E
330
1F
100
AcDbEntity
  8
0
  6
Continuous
 62
     7
370
    15
100
AcDbLine
 10
141.0374277964
 20
220.98254736
 30
0.0
 11
141.0374277964
 21
220.9325465136
 31
0.0
  0
LINE
  5
6F
330
1F
100
AcDbEntity
  8
0
  6
Continuous
 62
     7
370
    15
100
AcDbLine
 10
117.8374269739
 20
220.9325465136
 30
0.0
 11
117.8374269739
 21
220.98254736
 31
0.0
  0
LINE
  5
70
330
1F
100
AcDbEntity
  8
0
  6
Continuous
 62
     7
370
    15
100
AcDbLine
 10
117.0374275878
 20
220.98254736
 30
0.0
 11
117.0374275878
 21
220.9325465136
 31
0.0
  0
LINE
  5
71
330
1F
100
AcDbEntity
  8
0
  6
Continuous
 62
     7
370
    15
100
AcDbLine
 10
93.8374275103
 20
220.9325465136
 30
0.0
 11
93.8374275103
 21
220.98254736
 31
0.0
  0
LINE
  5
72
330
1F
100
AcDbEntity
  8
0
  6
Continuous
 62
     7
370
    15
100
AcDbLine
 10
93.0374258891
 20
220.98254736
 30
0.0
 11
93.0374258891
 21
220.9325465136
 31
0.0
  0
LINE
  5
73
330
1F
100
AcDbEntity
  8
0
  6
Continuous
 62
     7
370
    15
100
AcDbLine
 10
146.057427837
 20
220.9325465136
 30
0.0
 11
146.057427837
 21
220.98254736
 31
0.0
  0
LINE
  5
74
330
1F
100
AcDbEntity
  8
0
  6
Continuous
 62
     7
370
    15
100
AcDbLine
 10
145.2574277058
 20
220.98254736
 30
0.0
 11
145.2574277058
 21
220.9325465136
 31
0.0
  0
LINE
  5
75
330
1F
100
AcDbEntity
  8
0
  6
Continuous
 62
     7
370
    15
100
AcDbLine
 10
89.6174276009
 20
220.9325465136
 30
0.0
 11
89.6174276009
 21
220.98254736
 31
0.0
  0
LINE
  5
76
330
1F
100
AcDbEntity
  8
0
  6
Continuous
 62
     7
370
    15
100
AcDbLine
 10
88.8174259797
 20
220.98254736
 30
0.0
 11
88.8174259797
 21
220.9325465136
 31
0.0
  0
LINE
  5
77
330
1F
100
AcDbEntity
  8
0
  6
Continuous
 62
     7
370
    15
100
AcDbLine
 10
141.287427558
 20
173.3513134294
 30
0.0
 11
141.3374269143
 21
173.3513134294
 31
0.0
  0
LINE
  5
78
330
1F
100
AcDbEntity
  8
0
  6
Continuous
 62
     7
370
    15
100
AcDbLine
 10
141.3374269143
 20
174.3913131528
 30
0.0
 11
141.287427558
 21
174.3913131528
 31
0.0
  0
LINE
  5
79
330
1F
100
AcDbEntity
  8
0
  6
Continuous
 62
     7
370
    15
100
AcDbLine
 10
93.5874277487
 20
174.3913131528
 30
0.0
 11
93.5374283925
 21
174.3913131528
 31
0.0
  0
LINE
  5
7A
330
1F
100
AcDbEntity
  8
0
  6
Continuous
 62
     7
370
    15
100
AcDbLine
 10
93.5374283925
 20
173.3513134294
 30
0.0
 11
93.5874277487
 21
173.3513134294
 31
0.0
  0
LINE
  5
7B
330
1F
100
AcDbEntity
  8
0
  6
Continuous
 62
     7
370
    15
100
AcDbLine
 10
136.857427074
 20
166.7413132959
 30
0.0
 11
136.857427074
 21
166.7913156324
 31
0.0
  0
LINE
  5
7C
330
1F
100
AcDbEntity
  8
0
  6
Continuous
 62
     7
370
    15
100
AcDbLine
 10
135.8174273506
 20
166.7913156324
 30
0.0
 11
135.8174273506
 21
166.7413132959
 31
0.0
  0
LINE
  5
7D
330
1F
100
AcDbEntity
  8
0
  6
Continuous
 62
     7
370
    15
100
AcDbLine
 10
143.8574278489
 20
166.7413132959
 30
0.0
 11
143.8574278489
 21
166.7913156324
 31
0.0
  0
LINE
  5
7E
330
1F
100
AcDbEntity
  8
0
  6
Continuous
 62
     7
370
    15
100
AcDbLine
 10
142.8174266353
 20
166.7913156324
 30
0.0
 11
142.8174266353
 21
166.7413132959
 31
0.0
  0
LINE
  5
7F
330
1F
100
AcDbEntity
  8
0
  6
Continuous
 62
     7
370
    15
100
AcDbLine
 10
99.057426466
 20
166.7413132959
 30
0.0
 11
99.057426466
 21
166.7913156324
 31
0.0
  0
LINE
  5
80
330
1F
100
AcDbEntity
  8
0
  6
Continuous
 62
     7
370
    15
100
AcDbLine
 10
98.0174267426
 20
166.7913156324
 30
0.0
 11
98.0174267426
 21
166.7413132959
 31
0.0
  0
LINE
  5
81
330
1F
100
AcDbEntity
  8
0
  6
Continuous
 62
     7
370
    15
100
AcDbLine
 10
100.7574284211
 20
198.2713150554
 30
0.0
 11
100.7574284211
 21
198.3213144117
 31
0.0
  0
LINE
  5
82
330
1F
100
AcDbEntity
  8
0
  6
Continuous
 62
     7
370
    15
100
AcDbLine
 10
99.7174286976
 20
198.3213144117
 30
0.0
 11
99.7174286976
 21
198.2713150554
 31
0.0
  0
LINE
  5
83
330
1F
100
AcDbEntity
  8
0
  6
Continuous
 62
     7
370
    15
100
AcDbLine
 10
135.1574273542
 20
198.2713150554
 30
0.0
 11
135.1574273542
 21
198.3213144117
 31
0.0
  0
LINE
  5
84
330
1F
100
AcDbEntity
  8
0
  6
Continuous
 62
     7
370
    15
100
AcDbLine
 10
134.1174272582
 20
198.3213144117
 30
0.0
 11
134.1174272582
 21
198.2713150554
 31
0.0
  0
LINE
  5
85
330
1F
100
AcDbEntity
  8
0
  6
Continuous
 62
     7
370
    15
100
AcDbLine
 10
92.0574271813
 20
166.7413132959
 30
0.0
 11
92.0574271813
 21
166.7913156324
 31
0.0
  0
LINE
  5
86
330
1F
100
AcDbEntity
  8
0
  6
Continuous
 62
     7
370
    15
100
AcDbLine
 10
91.0174274579
 20
166.7913156324
 30
0.0
 11
91.0174274579
 21
166.7413132959
 31
0.0
  0
LINE
  5
87
330
1F
100
AcDbEntity
  8
0
  6
Continuous
 62
     7
370
    15
100
AcDbLine
 10
93.8124263421
 20
201.8463152223
 30
0.0
 11
93.6874264613
 21
201.8463152223
 31
0.0
  0
LINE
  5
88
330
1F
100
AcDbEntity
  8
0
  6
Continuous
 62
     7
370
    15
100
AcDbLine
 10
141.0624274746
 20
201.8463152223
 30
0.0
 11
93.8124263421
 21
201.8463152223
 31
0.0
  0
LINE
  5
89
330
1F
100
AcDbEntity
  8
0
  6
Continuous
 62
     7
370
    15
100
AcDbLine
 10
141.1874273553
 20
201.8463152223
 30
0.0
 11
141.0624274746
 21
201.8463152223
 31
0.0
  0
LINE
  5
8A
330
1F
100
AcDbEntity
  8
0
  6
Continuous
 62
     7
370
    15
100
AcDbLine
 10
141.1874273553
 20
198.5963153415
 30
0.0
 11
141.0624274746
 21
198.5963153415
 31
0.0
  0
LINE
  5
8B
330
1F
100
AcDbEntity
  8
0
  6
Continuous
 62
     7
370
    15
100
AcDbLine
 10
141.0624274746
 20
198.5963153415
 30
0.0
 11
93.8124263421
 21
198.5963153415
 31
0.0
  0
LINE
  5
8C
330
1F
100
AcDbEntity
  8
0
  6
Continuous
 62
     7
370
    15
100
AcDbLine
 10
93.8124263421
 20
198.5963153415
 30
0.0
 11
93.6874264613
 21
198.5963153415
 31
0.0
  0
LINE
  5
8D
330
1F
100
AcDbEntity
  8
0
  6
Continuous
 62
     7
370
    15
100
AcDbLine
 10
93.6874264613
 20
198.5963153415
 30
0.0
 11
93.6874264613
 21
201.8463152223
 31
0.0
  0
LINE
  5
8E
330
1F
100
AcDbEntity
  8
0
  6
Continuous
 62
     7
370
    15
100
AcDbLine
 10
141.1874273553
 20
198.5963153415
 30
0.0
 11
141.1874273553
 21
201.8463152223
 31
0.0
  0
LINE
  5
8F
330
1F
100
AcDbEntity
  8
0
  6
Continuous
 62
     7
370
    15
100
AcDbLine
 10
93.8124263421
 20
202.1213131719
 30
0.0
 11
93.8124263421
 21
201.8463152223
 31
0.0
  0
LINE
  5
90
330
1F
100
AcDbEntity
  8
0
  6
Continuous
 62
     7
370
    15
100
AcDbLine
 10
141.0624274746
 20
202.1213131719
 30
0.0
 11
93.8124263421
 21
202.1213131719
 31
0.0
  0
LINE
  5
91
330
1F
100
AcDbEntity
  8
0
  6
Continuous
 62
     7
370
    15
100
AcDbLine
 10
141.0624274746
 20
201.8463152223
 30
0.0
 11
141.0624274746
 21
202.1213131719
 31
0.0
  0
LINE
  5
92
330
1F
100
AcDbEntity
  8
0
  6
Continuous
 62
     7
370
    15
100
AcDbLine
 10
93.8124263421
 20
198.5963153415
 30
0.0
 11
93.8124263421
 21
198.3213144117
 31
0.0
  0
LINE
  5
93
330
1F
100
AcDbEntity
  8
0
  6
Continuous
 62
     7
370
    15
100
AcDbLine
 10
141.0624274746
 20
198.3213144117
 30
0.0
 11
93.8124263421
 21
198.3213144117
 31
0.0
  0
LINE
  5
94
330
1F
100
AcDbEntity
  8
0
  6
Continuous
 62
     7
370
    15
100
AcDbLine
 10
141.0624274746
 20
198.3213144117
 30
0.0
 11
141.0624274746
 21
198.5963153415
 31
0.0
  0
LINE
  5
95
330
1F
100
AcDbEntity
  8
0
  6
Continuous
 62
     7
370
    15
100
AcDbLine
 10
93.6874264613
 20
198.1963145309
 30
0.0
 11
93.5374283925
 21
198.1963145309
 31
0.0
  0
LINE
  5
96
330
1F
100
AcDbEntity
  8
0
  6
Continuous
 62
     7
370
    15
100
AcDbLine
 10
93.6874264613
 20
195.8213138156
 30
0.0
 11
93.6874264613
 21
198.1963145309
 31
0.0
  0
LINE
  5
97
330
1F
100
AcDbEntity
  8
0
  6
Continuous
 62
     7
370
    15
100
AcDbLine
 10
93.5374283925
 20
195.8213138156
 30
0.0
 11
93.6874264613
 21
195.8213138156
 31
0.0
  0
LINE
  5
98
330
1F
100
AcDbEntity
  8
0
  6
Continuous
 62
     7
370
    15
100
AcDbLine
 10
141.1874273553
 20
195.8213138156
 30
0.0
 11
141.3374269143
 21
195.8213138156
 31
0.0
  0
LINE
  5
99
330
1F
100
AcDbEntity
  8
0
  6
Continuous
 62
     7
370
    15
100
AcDbLine
 10
141.3374269143
 20
195.3213142925
 30
0.0
 11
141.1874273553
 21
195.3213142925
 31
0.0
  0
LINE
  5
9A
330
1F
100
AcDbEntity
  8
0
  6
Continuous
 62
     7
370
    15
100
AcDbLine
 10
141.1874273553
 20
195.3213142925
 30
0.0
 11
141.1874273553
 21
195.8213138156
 31
0.0
  0
LINE
  5
9B
330
1F
100
AcDbEntity
  8
0
  6
Continuous
 62
     7
370
    15
100
AcDbLine
 10
141.1874273553
 20
205.1213132911
 30
0.0
 11
141.3374269143
 21
205.1213132911
 31
0.0
  0
LINE
  5
9C
330
1F
100
AcDbEntity
  8
0
  6
Continuous
 62
     7
370
    15
100
AcDbLine
 10
141.3374269143
 20
204.621313768
 30
0.0
 11
141.1874273553
 21
204.621313768
 31
0.0
  0
LINE
  5
9D
330
1F
100
AcDbEntity
  8
0
  6
Continuous
 62
     7
370
    15
100
AcDbLine
 10
141.1874273553
 20
204.621313768
 30
0.0
 11
141.1874273553
 21
205.1213132911
 31
0.0
  0
LINE
  5
9E
330
1F
100
AcDbEntity
  8
0
  6
Continuous
 62
     7
370
    15
100
AcDbLine
 10
141.1874273553
 20
198.1963145309
 30
0.0
 11
141.3374269143
 21
198.1963145309
 31
0.0
  0
LINE
  5
9F
330
1F
100
AcDbEntity
  8
0
  6
Continuous
 62
     7
370
    15
100
AcDbLine
 10
141.1874273553
 20
198.1963145309
 30
0.0
 11
141.1874273553
 21
195.8213138156
 31
0.0
  0
LINE
  5
A0
330
1F
100
AcDbEntity
  8
0
  6
Continuous
 62
     7
370
    15
100
AcDbLine
 10
141.1874273553
 20
204.621313768
 30
0.0
 11
141.1874273553
 21
202.2463130527
 31
0.0
  0
LINE
  5
A1
330
1F
100
AcDbEntity
  8
0
  6
Continuous
 62
     7
370
    15
100
AcDbLine
 10
141.1874273553
 20
202.2463130527
 30
0.0
 11
141.3374269143
 21
202.2463130527
 31
0.0
  0
LINE
  5
A2
330
1F
100
AcDbEntity
  8
0
  6
Continuous
 62
     7
370
    15
100
AcDbLine
 10
93.6874264613
 20
202.2463130527
 30
0.0
 11
93.5374283925
 21
202.2463130527
 31
0.0
  0
LINE
  5
A3
330
1F
100
AcDbEntity
  8
0
  6
Continuous
 62
     7
370
    15
100
AcDbLine
 10
93.6874264613
 20
204.621313768
 30
0.0
 11
93.5374283925
 21
204.621313768
 31
0.0
  0
LINE
  5
A4
330
1F
100
AcDbEntity
  8
0
  6
Continuous
 62
     7
370
    15
100
AcDbLine
 10
93.6874264613
 20
202.2463130527
 30
0.0
 11
93.6874264613
 21
204.621313768
 31
0.0
  0
LINE
  5
A5
330
1F
100
AcDbEntity
  8
0
  6
Continuous
 62
     7
370
    15
100
AcDbLine
 10
93.5374283925
 20
205.1213132911
 30
0.0
 11
93.6874264613
 21
205.1213132911
 31
0.0
  0
LINE
  5
A6
330
1F
100
AcDbEntity
  8
0
  6
Continuous
 62
     7
370
    15
100
AcDbLine
 10
93.6874264613
 20
205.1213132911
 30
0.0
 11
93.6874264613
 21
204.621313768
 31
0.0
  0
LINE
  5
A7
330
1F
100
AcDbEntity
  8
0
  6
Continuous
 62
     7
370
    15
100
AcDbLine
 10
93.6874264613
 20
195.3213142925
 30
0.0
 11
93.5374283925
 21
195.3213142925
 31
0.0
  0
LINE
  5
A8
330
1F
100
AcDbEntity
  8
0
  6
Continuous
 62
     7
370
    15
100
AcDbLine
 10
93.6874264613
 20
195.8213138156
 30
0.0
 11
93.6874264613
 21
195.3213142925
 31
0.0
  0
ARC
  5
A9
330
1F
100
AcDbEntity
  8
0
  6
Continuous
 62
     7
370
    15
100
AcDbCircle
 10
141.062427221
 20
202.2463141756
 30
0.0
 40
0.125
100
AcDbArc
 50
270.0
 51
0.0
  0
ARC
  5
AA
330
1F
100
AcDbEntity
  8
0
  6
Continuous
 62
     7
370
    15
100
AcDbCircle
 10
141.062427221
 20
202.2463141756
 30
0.0
 40
0.2750000000000057
100
AcDbArc
 50
270.0
 51
0.0
  0
ARC
  5
AB
330
1F
100
AcDbEntity
  8
0
  6
Continuous
 62
     7
370
    15
100
AcDbCircle
 10
93.812427221
 20
198.1963141756
 30
0.0
 40
0.2749999999999915
100
AcDbArc
 50
90.0
 51
180.0
  0
ARC
  5
AC
330
1F
100
AcDbEntity
  8
0
  6
Continuous
 62
     7
370
    15
100
AcDbCircle
 10
93.812427221
 20
198.1963141756
 30
0.0
 40
0.125
100
AcDbArc
 50
90.0
 51
180.0
  0
ARC
  5
AD
330
1F
100
AcDbEntity
  8
0
  6
Continuous
 62
     7
370
    15
100
AcDbCircle
 10
93.812427221
 20
202.2463141756
 30
0.0
 40
0.2750000000000057
100
AcDbArc
 50
180.0
 51
270.0
  0
ARC
  5
AE
330
1F
100
AcDbEntity
  8
0
  6
Continuous
 62
     7
370
    15
100
AcDbCircle
 10
93.812427221
 20
202.2463141756
 30
0.0
 40
0.125
100
AcDbArc
 50
180.0
 51
270.0
  0
ARC
  5
AF
330
1F
100
AcDbEntity
  8
0
  6
Continuous
 62
     7
370
    15
100
AcDbCircle
 10
141.062427221
 20
198.1963141756
 30
0.0
 40
0.2749999999999773
100
AcDbArc
 50
0.0
 51
90.0
  0
ARC
  5
B0
330
1F
100
AcDbEntity
  8
0
  6
Continuous
 62
     7
370
    15
100
AcDbCircle
 10
141.062427221
 20
198.1963141756
 30
0.0
 40
0.125
100
AcDbArc
 50
0.0
 51
90.0
  0
LINE
  5
B1
330
1F
100
AcDbEntity
  8
0
  6
Continuous
 62
     7
370
    15
100
AcDbLine
 10
87.5181341305
 20
167.2713118368
 30
0.0
 11
147.3567196861
 21
167.2713118368
 31
0.0
  0
LINE
  5
B2
330
1F
100
AcDbEntity
  8
0
  6
Continuous
 62
     7
370
    15
100
AcDbLine
 10
87.5181341305
 20
170.6663149171
 30
0.0
 11
147.3567196861
 21
170.6663149171
 31
0.0
  0
LINE
  5
B3
330
1F
100
AcDbEntity
  8
0
  6
Continuous
 62
     7
370
    15
100
AcDbLine
 10
87.5181341305
 20
170.6663149171
 30
0.0
 11
87.5181341305
 21
167.2713118368
 31
0.0
  0
LINE
  5
B4
330
1F
100
AcDbEntity
  8
0
  6
Continuous
 62
     7
370
    15
100
AcDbLine
 10
147.3567196861
 20
170.6663149171
 30
0.0
 11
147.3567196861
 21
167.2713118368
 31
0.0
  0
LINE
  5
B5
330
1F
100
AcDbEntity
  8
0
  6
Continuous
 62
     7
370
    15
100
AcDbLine
 10
87.6424276963
 20
170.8713131719
 30
0.0
 11
147.2324276105
 21
170.8713131719
 31
0.0
  0
LWPOLYLINE
  5
B6
330
1F
100
AcDbEntity
  8
0
  6
Continuous
 62
     7
370
    15
100
AcDbPolyline
 90
        6
 70
   128
 43
0.0
 10
87.5181341305
 20
170.6663149171
 10
87.5467533007
 20
170.7388478094
 10
87.5753814116
 20
170.8020227724
 10
87.6040095225
 20
170.8476203256
 10
87.6326376334
 20
170.8697455698
 10
87.6424276963
 20
170.8713131719
  0
LWPOLYLINE
  5
B7
330
1F
100
AcDbEntity
  8
0
  6
Continuous
 62
     7
370
    15
100
AcDbPolyline
 90
        6
 70
   128
 43
0.0
 10
147.2324276105
 20
170.8713131719
 10
147.2610452905
 20
170.8580511384
 10
147.2896734014
 20
170.8199637704
 10
147.3183015123
 20
170.761980372
 10
147.3469296232
 20
170.6916111284
 10
147.3567196861
 20
170.6663149171
  0
ARC
  5
B8
330
1F
100
AcDbEntity
  8
0
  6
Continuous
 62
     7
370
    15
100
AcDbCircle
 10
147.2324246808
 20
170.6663104973
 30
0.0
 40
0.2050026746338049
100
AcDbArc
 50
0.0012352912
 51
89.9991811858
  0
LINE
  5
B9
330
1F
100
AcDbEntity
  8
0
  6
Continuous
 62
     7
370
    15
100
AcDbLine
 10
147.4374273553
 20
170.6663149171
 30
0.0
 11
147.3574274912
 21
170.6663149171
 31
0.0
  0
LWPOLYLINE
  5
BA
330
1F
100
AcDbEntity
  8
0
  6
Continuous
 62
     7
370
    15
100
AcDbPolyline
 90
        3
 70
   128
 43
0.0
 10
147.3574274912
 20
170.6663149171
 10
147.3475837842
 20
170.7149344259
 10
147.3225155607
 20
170.7516210847
  0
ARC
  5
BB
330
1F
100
AcDbEntity
  8
0
  6
Continuous
 62
     7
370
    15
100
AcDbCircle
 10
87.6424303258
 20
170.6663093073
 30
0.0
 40
0.2050038646030529
100
AcDbArc
 50
90.0007349144
 51
179.9984321347
  0
ARC
  5
BC
330
1F
100
AcDbEntity
  8
0
  6
Continuous
 62
     7
370
    15
100
AcDbCircle
 10
87.6215770606
 20
170.6746499853
 30
0.0
 40
0.1044822406585305
100
AcDbArc
 50
130.5689478365
 51
184.57563141
  0
LINE
  5
BD
330
1F
100
AcDbEntity
  8
0
  6
Continuous
 62
     7
370
    15
100
AcDbLine
 10
87.4374264613
 20
170.6663149171
 30
0.0
 11
87.5174278155
 21
170.6663149171
 31
0.0
  0
LINE
  5
BE
330
1F
100
AcDbEntity
  8
0
  6
Continuous
 62
     7
370
    15
100
AcDbLine
 10
87.5174278155
 20
170.6663149171
 30
0.0
 11
87.5174278155
 21
167.2713118368
 31
0.0
  0
LINE
  5
BF
330
1F
100
AcDbEntity
  8
0
  6
Continuous
 62
     7
370
    15
100
AcDbLine
 10
87.4374264613
 20
167.2713118368
 30
0.0
 11
87.5174278155
 21
167.2713118368
 31
0.0
  0
LINE
  5
C0
330
1F
100
AcDbEntity
  8
0
  6
Continuous
 62
     7
370
    15
100
AcDbLine
 10
87.4374264613
 20
170.6663149171
 30
0.0
 11
87.4374264613
 21
167.2713118368
 31
0.0
  0
LINE
  5
C1
330
1F
100
AcDbEntity
  8
0
  6
Continuous
 62
     7
370
    15
100
AcDbLine
 10
147.3574274912
 20
170.6663149171
 30
0.0
 11
147.3574274912
 21
167.2713118368
 31
0.0
  0
LINE
  5
C2
330
1F
100
AcDbEntity
  8
0
  6
Continuous
 62
     7
370
    15
100
AcDbLine
 10
147.4374273553
 20
170.6663149171
 30
0.0
 11
147.4374273553
 21
167.2713118368
 31
0.0
  0
LINE
  5
C3
330
1F
100
AcDbEntity
  8
0
  6
Continuous
 62
     7
370
    15
100
AcDbLine
 10
147.4374273553
 20
167.2713118368
 30
0.0
 11
147.3574274912
 21
167.2713118368
 31
0.0
  0
LINE
  5
C4
330
1F
100
AcDbEntity
  8
0
  6
Continuous
 62
     7
370
    15
100
AcDbLine
 10
145.4367199674
 20
166.9413166814
 30
0.0
 11
145.4367199674
 21
167.2713118368
 31
0.0
  0
LINE
  5
C5
330
1F
100
AcDbEntity
  8
0
  6
Continuous
 62
     7
370
    15
100
AcDbLine
 10
141.0374277964
 20
167.1413141065
 30
0.0
 11
141.1124268308
 21
167.1413141065
 31
0.0
  0
LINE
  5
C6
330
1F
100
AcDbEntity
  8
0
  6
Continuous
 62
     7
370
    15
100
AcDbLine
 10
93.8374275103
 20
167.066313582
 30
0.0
 11
141.0374277964
 21
167.066313582
 31
0.0
  0
LINE
  5
C7
330
1F
100
AcDbEntity
  8
0
  6
Continuous
 62
     7
370
    15
100
AcDbLine
 10
93.7624269858
 20
167.1413141065
 30
0.0
 11
93.8374275103
 21
167.1413141065
 31
0.0
  0
LINE
  5
C8
330
1F
100
AcDbEntity
  8
0
  6
Continuous
 62
     7
370
    15
100
AcDbLine
 10
93.8374275103
 20
167.1413141065
 30
0.0
 11
93.8374275103
 21
167.066313582
 31
0.0
  0
LINE
  5
C9
330
1F
100
AcDbEntity
  8
0
  6
Continuous
 62
     7
370
    15
100
AcDbLine
 10
141.0374277964
 20
167.066313582
 30
0.0
 11
141.0374277964
 21
167.1413141065
 31
0.0
  0
LINE
  5
CA
330
1F
100
AcDbEntity
  8
0
  6
Continuous
 62
     7
370
    15
100
AcDbLine
 10
141.1124268308
 20
167.1413141065
 30
0.0
 11
141.1124268308
 21
166.9413166814
 31
0.0
  0
LINE
  5
CB
330
1F
100
AcDbEntity
  8
0
  6
Continuous
 62
     7
370
    15
100
AcDbLine
 10
93.7624269858
 20
166.9413166814
 30
0.0
 11
93.7624269858
 21
167.1413141065
 31
0.0
  0
LINE
  5
CC
330
1F
100
AcDbEntity
  8
0
  6
Continuous
 62
     7
370
    15
100
AcDbLine
 10
93.7624269858
 20
166.9413166814
 30
0.0
 11
89.4381338492
 21
166.9413166814
 31
0.0
  0
LINE
  5
CD
330
1F
100
AcDbEntity
  8
0
  6
Continuous
 62
     7
370
    15
100
AcDbLine
 10
89.4381338492
 20
166.9413166814
 30
0.0
 11
89.4381338492
 21
167.2713118368
 31
0.0
  0
LINE
  5
CE
330
1F
100
AcDbEntity
  8
0
  6
Continuous
 62
     7
370
    15
100
AcDbLine
 10
145.4367199674
 20
166.9413166814
 30
0.0
 11
141.1124268308
 21
166.9413166814
 31
0.0
  0
LINE
  5
CF
330
1F
100
AcDbEntity
  8
0
  6
Continuous
 62
     7
370
    15
100
AcDbLine
 10
141.0374277964
 20
166.7913156324
 30
0.0
 11
93.8374275103
 21
166.7913156324
 31
0.0
  0
LINE
  5
D0
330
1F
100
AcDbEntity
  8
0
  6
Continuous
 62
     7
370
    15
100
AcDbLine
 10
93.8374275103
 20
166.7913156324
 30
0.0
 11
93.8374275103
 21
167.066313582
 31
0.0
  0
LINE
  5
D1
330
1F
100
AcDbEntity
  8
0
  6
Continuous
 62
     7
370
    15
100
AcDbLine
 10
141.0374277964
 20
167.066313582
 30
0.0
 11
141.0374277964
 21
166.7913156324
 31
0.0
  0
ARC
  5
D2
330
1F
100
AcDbEntity
  8
0
  6
Continuous
 62
     7
370
    15
100
AcDbCircle
 10
89.562427221
 20
167.0663141756
 30
0.0
 40
0.2750000000000341
100
AcDbArc
 50
180.0
 51
270.0
  0
LINE
  5
D3
330
1F
100
AcDbEntity
  8
0
  6
Continuous
 62
     7
370
    15
100
AcDbLine
 10
89.4374275342
 20
167.066313582
 30
0.0
 11
89.2874264851
 21
167.066313582
 31
0.0
  0
LINE
  5
D4
330
1F
100
AcDbEntity
  8
0
  6
Continuous
 62
     7
370
    15
100
AcDbLine
 10
89.4374275342
 20
167.066313582
 30
0.0
 11
89.4381338492
 21
167.0530396276
 31
0.0
  0
LINE
  5
D5
330
1F
100
AcDbEntity
  8
0
  6
Continuous
 62
     7
370
    15
100
AcDbLine
 10
89.562427415
 20
166.9413166814
 30
0.0
 11
89.562427415
 21
166.7913156324
 31
0.0
  0
LINE
  5
D6
330
1F
100
AcDbEntity
  8
0
  6
Continuous
 62
     7
370
    15
100
AcDbLine
 10
145.4374277726
 20
167.066313582
 30
0.0
 11
145.5874273315
 21
167.066313582
 31
0.0
  0
ARC
  5
D7
330
1F
100
AcDbEntity
  8
0
  6
Continuous
 62
     7
370
    15
100
AcDbCircle
 10
145.312427221
 20
167.0663141756
 30
0.0
 40
0.2750000000000341
100
AcDbArc
 50
270.0
 51
0.0
  0
LINE
  5
D8
330
1F
100
AcDbEntity
  8
0
  6
Continuous
 62
     7
370
    15
100
AcDbLine
 10
145.3124278918
 20
166.9413166814
 30
0.0
 11
145.3124278918
 21
166.7913156324
 31
0.0
  0
LINE
  5
D9
330
1F
100
AcDbEntity
  8
0
  6
Continuous
 62
     7
370
    15
100
AcDbLine
 10
145.4367199674
 20
167.0530396276
 30
0.0
 11
145.4374277726
 21
167.066313582
 31
0.0
  0
LINE
  5
DA
330
1F
100
AcDbEntity
  8
0
  6
Continuous
 62
     7
370
    15
100
AcDbLine
 10
145.3124278918
 20
166.7913156324
 30
0.0
 11
141.0874271527
 21
166.7913156324
 31
0.0
  0
LINE
  5
DB
330
1F
100
AcDbEntity
  8
0
  6
Continuous
 62
     7
370
    15
100
AcDbLine
 10
141.0874271527
 20
166.7913156324
 30
0.0
 11
141.0874271527
 21
166.9413166814
 31
0.0
  0
LINE
  5
DC
330
1F
100
AcDbEntity
  8
0
  6
Continuous
 62
     7
370
    15
100
AcDbLine
 10
141.1124268308
 20
166.9413166814
 30
0.0
 11
141.0874271527
 21
166.9413166814
 31
0.0
  0
LINE
  5
DD
330
1F
100
AcDbEntity
  8
0
  6
Continuous
 62
     7
370
    15
100
AcDbLine
 10
93.7874281541
 20
166.7913156324
 30
0.0
 11
93.7874281541
 21
166.9413166814
 31
0.0
  0
LINE
  5
DE
330
1F
100
AcDbEntity
  8
0
  6
Continuous
 62
     7
370
    15
100
AcDbLine
 10
93.7624269858
 20
166.9413166814
 30
0.0
 11
93.7874281541
 21
166.9413166814
 31
0.0
  0
LINE
  5
DF
330
1F
100
AcDbEntity
  8
0
  6
Continuous
 62
     7
370
    15
100
AcDbLine
 10
89.562427415
 20
166.7913156324
 30
0.0
 11
93.7874281541
 21
166.7913156324
 31
0.0
  0
LINE
  5
E0
330
1F
100
AcDbEntity
  8
0
  6
Continuous
 62
     7
370
    15
100
AcDbLine
 10
145.4374277726
 20
167.2713118368
 30
0.0
 11
145.4374277726
 21
167.066313582
 31
0.0
  0
LINE
  5
E1
330
1F
100
AcDbEntity
  8
0
  6
Continuous
 62
     7
370
    15
100
AcDbLine
 10
145.5874273315
 20
167.2713118368
 30
0.0
 11
145.5874273315
 21
167.066313582
 31
0.0
  0
LINE
  5
E2
330
1F
100
AcDbEntity
  8
0
  6
Continuous
 62
     7
370
    15
100
AcDbLine
 10
89.2874264851
 20
167.2713118368
 30
0.0
 11
89.2874264851
 21
167.066313582
 31
0.0
  0
LINE
  5
E3
330
1F
100
AcDbEntity
  8
0
  6
Continuous
 62
     7
370
    15
100
AcDbLine
 10
89.4374275342
 20
167.2713118368
 30
0.0
 11
89.4374275342
 21
167.066313582
 31
0.0
  0
LINE
  5
E4
330
1F
100
AcDbEntity
  8
0
  6
Continuous
 62
     7
370
    15
100
AcDbLine
 10
145.1149174705
 20
258.4721627408
 30
0.0
 11
138.8166235521
 21
258.4721627408
 31
0.0
  0
LINE
  5
E5
330
1F
100
AcDbEntity
  8
0
  6
Continuous
 62
     7
370
    15
100
AcDbLine
 10
137.0497563615
 20
258.4721627408
 30
0.0
 11
128.8166236825
 21
258.4721627408
 31
0.0
  0
LINE
  5
E6
330
1F
100
AcDbEntity
  8
0
  6
Continuous
 62
     7
370
    15
100
AcDbLine
 10
127.0497561194
 20
258.4721627408
 30
0.0
 11
118.8166239992
 21
258.4721627408
 31
0.0
  0
LINE
  5
E7
330
1F
100
AcDbEntity
  8
0
  6
Continuous
 62
     7
370
    15
100
AcDbLine
 10
117.0497560635
 20
258.4721627408
 30
0.0
 11
108.8166231051
 21
258.4721627408
 31
0.0
  0
LINE
  5
E8
330
1F
100
AcDbEntity
  8
0
  6
Continuous
 62
     7
370
    15
100
AcDbLine
 10
107.0497566596
 20
258.4721627408
 30
0.0
 11
98.8166237012
 21
258.4721627408
 31
0.0
  0
LINE
  5
E9
330
1F
100
AcDbEntity
  8
0
  6
Continuous
 62
     7
370
    15
100
AcDbLine
 10
97.0497572556
 20
258.4721627408
 30
0.0
 11
89.7599363461
 21
258.4721627408
 31
0.0
  0
LWPOLYLINE
  5
EA
330
1F
100
AcDbEntity
  8
0
  6
Continuous
 62
     7
370
    15
100
AcDbPolyline
 90
        3
 70
   128
 43
0.0
 10
137.6258888975
 20
257.8386637145
 10
137.6406805351
 20
257.8679728084
 10
137.6574272051
 20
257.952162879
  0
LWPOLYLINE
  5
EB
330
1F
100
AcDbEntity
  8
0
  6
Continuous
 62
     7
370
    15
100
AcDbPolyline
 90
        3
 70
   128
 43
0.0
 10
117.6258893445
 20
257.8386637145
 10
117.6406809822
 20
257.8679728084
 10
117.6574269071
 20
257.952162879
  0
LWPOLYLINE
  5
EC
330
1F
100
AcDbEntity
  8
0
  6
Continuous
 62
     7
370
    15
100
AcDbPolyline
 90
        3
 70
   128
 43
0.0
 10
97.6258897915
 20
257.8386637145
 10
97.6406806841
 20
257.8679728084
 10
97.6574266091
 20
257.952162879
  0
LINE
  5
ED
330
1F
100
AcDbEntity
  8
0
  6
Continuous
 62
     7
370
    15
100
AcDbLine
 10
98.4374278918
 20
208.3513128334
 30
0.0
 11
136.437427415
 21
208.3513128334
 31
0.0
  0
LINE
  5
EE
330
1F
100
AcDbEntity
  8
0
  6
Continuous
 62
     7
370
    15
100
AcDbLine
 10
136.9374269381
 20
208.3513128334
 30
0.0
 11
136.9374269381
 21
208.4025460058
 31
0.0
  0
LINE
  5
EF
330
1F
100
AcDbEntity
  8
0
  6
Continuous
 62
     7
370
    15
100
AcDbLine
 10
136.437427415
 20
208.3513128334
 30
0.0
 11
136.9374269381
 21
208.3513128334
 31
0.0
  0
LINE
  5
F0
330
1F
100
AcDbEntity
  8
0
  6
Continuous
 62
     7
370
    15
100
AcDbLine
 10
97.9374283686
 20
208.3513128334
 30
0.0
 11
97.9374283686
 21
208.4025460058
 31
0.0
  0
LINE
  5
F1
330
1F
100
AcDbEntity
  8
0
  6
Continuous
 62
     7
370
    15
100
AcDbLine
 10
97.9374283686
 20
208.3513128334
 30
0.0
 11
98.4374278918
 21
208.3513128334
 31
0.0
  0
LINE
  5
F2
330
1F
100
AcDbEntity
  8
0
  6
Continuous
 62
     7
370
    15
100
AcDbLine
 10
95.4374277726
 20
208.3513128334
 30
0.0
 11
95.4374277726
 21
208.4025460058
 31
0.0
  0
LINE
  5
F3
330
1F
100
AcDbEntity
  8
0
  6
Continuous
 62
     7
370
    15
100
AcDbLine
 10
95.4374277726
 20
208.3513128334
 30
0.0
 11
95.9374272957
 21
208.3513128334
 31
0.0
  0
LINE
  5
F4
330
1F
100
AcDbEntity
  8
0
  6
Continuous
 62
     7
370
    15
100
AcDbLine
 10
139.4374275342
 20
208.3513128334
 30
0.0
 11
139.4374275342
 21
208.4025460058
 31
0.0
  0
LINE
  5
F5
330
1F
100
AcDbEntity
  8
0
  6
Continuous
 62
     7
370
    15
100
AcDbLine
 10
138.9374272659
 20
208.3513128334
 30
0.0
 11
139.4374275342
 21
208.3513128334
 31
0.0
  0
LINE
  5
F6
330
1F
100
AcDbEntity
  8
0
  6
Continuous
 62
     7
370
    15
100
AcDbLine
 10
95.9374272957
 20
208.3513128334
 30
0.0
 11
97.9374283686
 21
208.3513128334
 31
0.0
  0
LINE
  5
F7
330
1F
100
AcDbEntity
  8
0
  6
Continuous
 62
     7
370
    15
100
AcDbLine
 10
136.9374269381
 20
208.3513128334
 30
0.0
 11
138.9374272659
 21
208.3513128334
 31
0.0
  0
LINE
  5
F8
330
1F
100
AcDbEntity
  8
0
  6
Continuous
 62
     7
370
    15
100
AcDbLine
 10
147.4374273553
 20
224.24485709
 30
0.0
 11
87.4374264613
 21
224.24485709
 31
0.0
  0
LINE
  5
F9
330
1F
100
AcDbEntity
  8
0
  6
Continuous
 62
     7
370
    15
100
AcDbLine
 10
147.4374273553
 20
222.5357788377
 30
0.0
 11
87.4374264613
 21
222.5357788377
 31
0.0
  0
LINE
  5
FA
330
1F
100
AcDbEntity
  8
0
  6
Continuous
 62
     7
370
    15
100
AcDbLine
 10
87.4374264613
 20
222.5357788377
 30
0.0
 11
87.4374264613
 21
224.24485709
 31
0.0
  0
LINE
  5
FB
330
1F
100
AcDbEntity
  8
0
  6
Continuous
 62
     7
370
    15
100
AcDbLine
 10
147.4374273553
 20
222.5357788377
 30
0.0
 11
147.4374273553
 21
224.24485709
 31
0.0
  0
LINE
  5
FC
330
1F
100
AcDbEntity
  8
0
  6
Continuous
 62
     7
370
    15
100
AcDbLine
 10
147.4374273553
 20
221.0557746463
 30
0.0
 11
147.4374273553
 21
222.5357788377
 31
0.0
  0
LINE
  5
FD
330
1F
100
AcDbEntity
  8
0
  6
Continuous
 62
     7
370
    15
100
AcDbLine
 10
147.4374273553
 20
221.0557746463
 30
0.0
 11
87.4374264613
 21
221.0557746463
 31
0.0
  0
LINE
  5
FE
330
1F
100
AcDbEntity
  8
0
  6
Continuous
 62
     7
370
    15
100
AcDbLine
 10
87.4374264613
 20
221.0557746463
 30
0.0
 11
87.4374264613
 21
222.5357788377
 31
0.0
  0
LINE
  5
FF
330
1F
100
AcDbEntity
  8
0
  6
Continuous
 62
     7
370
    15
100
AcDbLine
 10
147.4374273553
 20
224.952793377
 30
0.0
 11
87.4374264613
 21
224.952793377
 31
0.0
  0
LINE
  5
100
330
1F
100
AcDbEntity
  8
0
  6
Continuous
 62
     7
370
    15
100
AcDbLine
 10
147.4374273553
 20
224.24485709
 30
0.0
 11
147.4374273553
 21
224.952793377
 31
0.0
  0
LINE
  5
101
330
1F
100
AcDbEntity
  8
0
  6
Continuous
 62
     7
370
    15
100
AcDbLine
 10
87.4374264613
 20
224.24485709
 30
0.0
 11
87.4374264613
 21
224.952793377
 31
0.0
  0
LINE
  5
102
330
1F
100
AcDbEntity
  8
0
  6
Continuous
 62
     7
370
    15
100
AcDbLine
 10
147.4374273553
 20
220.98254736
 30
0.0
 11
87.4374264613
 21
220.98254736
 31
0.0
  0
LINE
  5
103
330
1F
100
AcDbEntity
  8
0
  6
Continuous
 62
     7
370
    15
100
AcDbLine
 10
147.4374273553
 20
220.98254736
 30
0.0
 11
147.4374273553
 21
221.0557746463
 31
0.0
  0
LINE
  5
104
330
1F
100
AcDbEntity
  8
0
  6
Continuous
 62
     7
370
    15
100
AcDbLine
 10
87.4374264613
 20
220.98254736
 30
0.0
 11
87.4374264613
 21
221.0557746463
 31
0.0
  0
LINE
  5
105
330
1F
100
AcDbEntity
  8
0
  6
Continuous
 62
     7
370
    15
100
AcDbLine
 10
147.4374273553
 20
225.5834693783
 30
0.0
 11
87.4374264613
 21
225.5834693783
 31
0.0
  0
LINE
  5
106
330
1F
100
AcDbEntity
  8
0
  6
Continuous
 62
     7
370
    15
100
AcDbLine
 10
147.4374273553
 20
224.952793377
 30
0.0
 11
147.4374273553
 21
225.5834693783
 31
0.0
  0
LINE
  5
107
330
1F
100
AcDbEntity
  8
0
  6
Continuous
 62
     7
370
    15
100
AcDbLine
 10
87.4374264613
 20
224.952793377
 30
0.0
 11
87.4374264613
 21
225.5834693783
 31
0.0
  0
LINE
  5
108
330
1F
100
AcDbEntity
  8
0
  6
Continuous
 62
     7
370
    15
100
AcDbLine
 10
87.4374264613
 20
225.5834693783
 30
0.0
 11
87.4374264613
 21
233.0696626329
 31
0.0
  0
LINE
  5
109
330
1F
100
AcDbEntity
  8
0
  6
Continuous
 62
     7
370
    15
100
AcDbLine
 10
88.937428011
 20
233.0696626329
 30
0.0
 11
87.4374264613
 21
233.0696626329
 31
0.0
  0
LINE
  5
10A
330
1F
100
AcDbEntity
  8
0
  6
Continuous
 62
     7
370
    15
100
AcDbLine
 10
88.9874273673
 20
233.0696626329
 30
0.0
 11
88.937428011
 21
233.0696626329
 31
0.0
  0
LINE
  5
10B
330
1F
100
AcDbEntity
  8
0
  6
Continuous
 62
     7
370
    15
100
AcDbLine
 10
88.9874273673
 20
233.1907092356
 30
0.0
 11
88.9874273673
 21
233.0696626329
 31
0.0
  0
LINE
  5
10C
330
1F
100
AcDbEntity
  8
0
  6
Continuous
 62
     7
370
    15
100
AcDbLine
 10
88.9874273673
 20
233.1907092356
 30
0.0
 11
90.4874259368
 21
233.1907092356
 31
0.0
  0
LINE
  5
10D
330
1F
100
AcDbEntity
  8
0
  6
Continuous
 62
     7
370
    15
100
AcDbLine
 10
90.4874259368
 20
233.1907092356
 30
0.0
 11
90.4874259368
 21
233.0696626329
 31
0.0
  0
LINE
  5
10E
330
1F
100
AcDbEntity
  8
0
  6
Continuous
 62
     7
370
    15
100
AcDbLine
 10
90.5374282733
 20
233.0696626329
 30
0.0
 11
90.4874259368
 21
233.0696626329
 31
0.0
  0
LINE
  5
10F
330
1F
100
AcDbEntity
  8
0
  6
Continuous
 62
     7
370
    15
100
AcDbLine
 10
144.3874278799
 20
233.0696626329
 30
0.0
 11
144.3374270335
 21
233.0696626329
 31
0.0
  0
LINE
  5
110
330
1F
100
AcDbEntity
  8
0
  6
Continuous
 62
     7
370
    15
100
AcDbLine
 10
144.3874278799
 20
233.1907092356
 30
0.0
 11
144.3874278799
 21
233.0696626329
 31
0.0
  0
LINE
  5
111
330
1F
100
AcDbEntity
  8
0
  6
Continuous
 62
     7
370
    15
100
AcDbLine
 10
144.3874278799
 20
233.1907092356
 30
0.0
 11
145.8874279395
 21
233.1907092356
 31
0.0
  0
LINE
  5
112
330
1F
100
AcDbEntity
  8
0
  6
Continuous
 62
     7
370
    15
100
AcDbLine
 10
145.8874279395
 20
233.1907092356
 30
0.0
 11
145.8874279395
 21
233.0696626329
 31
0.0
  0
LINE
  5
113
330
1F
100
AcDbEntity
  8
0
  6
Continuous
 62
     7
370
    15
100
AcDbLine
 10
145.9374272957
 20
233.0696626329
 30
0.0
 11
145.8874279395
 21
233.0696626329
 31
0.0
  0
LINE
  5
114
330
1F
100
AcDbEntity
  8
0
  6
Continuous
 62
     7
370
    15
100
AcDbLine
 10
147.4374273553
 20
233.0696626329
 30
0.0
 11
145.9374272957
 21
233.0696626329
 31
0.0
  0
LINE
  5
115
330
1F
100
AcDbEntity
  8
0
  6
Continuous
 62
     7
370
    15
100
AcDbLine
 10
147.4374273553
 20
225.5834693783
 30
0.0
 11
147.4374273553
 21
233.0696626329
 31
0.0
  0
ARC
  5
116
330
1F
100
AcDbEntity
  8
0
  6
Continuous
 62
     7
370
    15
100
AcDbCircle
 10
126.9444833878
 20
227.9880525694
 30
0.0
 40
0.4931068191628273
100
AcDbArc
 50
268.5990177637
 51
358.5269274021
  0
LINE
  5
117
330
1F
100
AcDbEntity
  8
0
  6
Continuous
 62
     7
370
    15
100
AcDbLine
 10
127.4374272436
 20
227.975376206
 30
0.0
 11
127.4374272436
 21
230.9236514144
 31
0.0
  0
ARC
  5
118
330
1F
100
AcDbEntity
  8
0
  6
Continuous
 62
     7
370
    15
100
AcDbCircle
 10
126.9444828197
 20
230.9109752184
 30
0.0
 40
0.493107382833519
100
AcDbArc
 50
1.4730514653
 51
91.4009145985
  0
LINE
  5
119
330
1F
100
AcDbEntity
  8
0
  6
Continuous
 62
     7
370
    15
100
AcDbLine
 10
126.9324272633
 20
231.4039352112
 30
0.0
 11
122.5324271008
 21
231.4039352112
 31
0.0
  0
ARC
  5
11A
330
1F
100
AcDbEntity
  8
0
  6
Continuous
 62
     7
370
    15
100
AcDbCircle
 10
122.5203716526
 20
230.9109751046
 30
0.0
 40
0.4931074938833143
100
AcDbArc
 50
88.5990982886
 51
178.5269356477
  0
LINE
  5
11B
330
1F
100
AcDbEntity
  8
0
  6
Continuous
 62
     7
370
    15
100
AcDbLine
 10
122.0274271205
 20
230.9236514144
 30
0.0
 11
122.0274271205
 21
227.975376206
 31
0.0
  0
ARC
  5
11C
330
1F
100
AcDbEntity
  8
0
  6
Continuous
 62
     7
370
    15
100
AcDbCircle
 10
122.5203710844
 20
227.9880526831
 30
0.0
 40
0.4931069302124985
100
AcDbArc
 50
181.4730854849
 51
271.4009693493
  0
LINE
  5
11D
330
1F
100
AcDbEntity
  8
0
  6
Continuous
 62
     7
370
    15
100
AcDbLine
 10
122.5324271008
 20
227.4950931542
 30
0.0
 11
126.9324272633
 21
227.4950931542
 31
0.0
  0
ARC
  5
11E
330
1F
100
AcDbEntity
  8
0
  6
Continuous
 62
     7
370
    15
100
AcDbCircle
 10
115.4444839698
 20
227.9880515516
 30
0.0
 40
0.4931058165040743
100
AcDbArc
 50
268.5989446787
 51
358.5270426999
  0
LINE
  5
11F
330
1F
100
AcDbEntity
  8
0
  6
Continuous
 62
     7
370
    15
100
AcDbLine
 10
115.9374268487
 20
227.975376206
 30
0.0
 11
115.9374268487
 21
230.9236514144
 31
0.0
  0
ARC
  5
120
330
1F
100
AcDbEntity
  8
0
  6
Continuous
 62
     7
370
    15
100
AcDbCircle
 10
115.4444834016
 20
230.9109762361
 30
0.0
 40
0.4931063801740502
100
AcDbArc
 50
1.4729361676
 51
91.4009876833
  0
LINE
  5
121
330
1F
100
AcDbEntity
  8
0
  6
Continuous
 62
     7
370
    15
100
AcDbLine
 10
115.4324272409
 20
231.4039352112
 30
0.0
 11
111.0324272647
 21
231.4039352112
 31
0.0
  0
ARC
  5
122
330
1F
100
AcDbEntity
  8
0
  6
Continuous
 62
     7
370
    15
100
AcDbCircle
 10
111.0203718103
 20
230.9109747288
 30
0.0
 40
0.4931078697643722
100
AcDbArc
 50
88.5990986373
 51
178.526893086
  0
LINE
  5
123
330
1F
100
AcDbEntity
  8
0
  6
Continuous
 62
     7
370
    15
100
AcDbLine
 10
110.5274269119
 20
230.9236514144
 30
0.0
 11
110.5274269119
 21
227.975376206
 31
0.0
  0
ARC
  5
124
330
1F
100
AcDbEntity
  8
0
  6
Continuous
 62
     7
370
    15
100
AcDbCircle
 10
111.0203712421
 20
227.9880530589
 30
0.0
 40
0.4931073060900571
100
AcDbArc
 50
181.4731280462
 51
271.4009690009
  0
LINE
  5
125
330
1F
100
AcDbEntity
  8
0
  6
Continuous
 62
     7
370
    15
100
AcDbLine
 10
111.0324272647
 20
227.4950931542
 30
0.0
 11
115.4324272409
 21
227.4950931542
 31
0.0
  0
LWPOLYLINE
  5
126
330
1F
100
AcDbEntity
  8
0
  6
Continuous
 62
     7
370
    15
100
AcDbPolyline
 90
        9
 70
   128
 43
0.0
 10
127.4374272436
 20
227.975376206
 10
127.3974336911
 20
227.9741587811
 10
127.3589771003
 20
227.9705541902
 10
127.3235353403
 20
227.964700269
 10
127.2924703307
 20
227.9568220251
 10
127.2669759341
 20
227.9472226971
 10
127.2480319016
 20
227.9362703436
 10
127.2363662481
 20
227.9243866675
 10
127.2324272193
 20
227.9120276444
  0
LWPOLYLINE
  5
127
330
1F
100
AcDbEntity
  8
0
  6
Continuous
 62
     7
370
    15
100
AcDbPolyline
 90
        9
 70
   128
 43
0.0
 10
122.2324272379
 20
227.9120276444
 10
122.228488116
 20
227.9243866675
 10
122.2168223694
 20
227.9362703436
 10
122.1978785232
 20
227.9472226971
 10
122.1723841265
 20
227.9568220251
 10
122.1413193032
 20
227.964700269
 10
122.1058772638
 20
227.9705541902
 10
122.0674207196
 20
227.9741587811
 10
122.0274271205
 20
227.975376206
  0
LWPOLYLINE
  5
128
330
1F
100
AcDbEntity
  8
0
  6
Continuous
 62
     7
370
    15
100
AcDbPolyline
 90
        9
 70
   128
 43
0.0
 10
110.7324266568
 20
227.9120276444
 10
110.7284882799
 20
227.9243866675
 10
110.7168221608
 20
227.9362703436
 10
110.6978783146
 20
227.9472226971
 10
110.6723839179
 20
227.9568220251
 10
110.6413194671
 20
227.964700269
 10
110.6058770552
 20
227.9705541902
 10
110.5674201384
 20
227.9741587811
 10
110.5274269119
 20
227.975376206
  0
LWPOLYLINE
  5
129
330
1F
100
AcDbEntity
  8
0
  6
Continuous
 62
     7
370
    15
100
AcDbPolyline
 90
        9
 70
   128
 43
0.0
 10
115.9374268487
 20
227.975376206
 10
115.8974336222
 20
227.9741587811
 10
115.8589774504
 20
227.9705541902
 10
115.8235350385
 20
227.964700269
 10
115.7924705878
 20
227.9568220251
 10
115.7669761911
 20
227.9472226971
 10
115.7480315998
 20
227.9362703436
 10
115.7363662258
 20
227.9243866675
 10
115.7324271038
 20
227.9120276444
  0
LINE
  5
12A
330
1F
100
AcDbEntity
  8
0
  6
Continuous
 62
     7
370
    15
100
AcDbLine
 10
127.2324272193
 20
230.8603032254
 30
0.0
 11
127.2324272193
 21
227.9120276444
 31
0.0
  0
LWPOLYLINE
  5
12B
330
1F
100
AcDbEntity
  8
0
  6
Continuous
 62
     7
370
    15
100
AcDbPolyline
 90
        9
 70
   128
 43
0.0
 10
127.4374272436
 20
230.9236514144
 10
127.3974336911
 20
230.9224343621
 10
127.3589771003
 20
230.9188293987
 10
127.3235353403
 20
230.9129754775
 10
127.2924703307
 20
230.9050972336
 10
127.2669759341
 20
230.895497533
 10
127.2480319016
 20
230.8845455521
 10
127.2363662481
 20
230.872661876
 10
127.2324272193
 20
230.8603032254
  0
LWPOLYLINE
  5
12C
330
1F
100
AcDbEntity
  8
0
  6
Continuous
 62
     7
370
    15
100
AcDbPolyline
 90
        9
 70
   128
 43
0.0
 10
122.2324272379
 20
230.8603032254
 10
122.228488116
 20
230.872661876
 10
122.2168223694
 20
230.8845455521
 10
122.1978785232
 20
230.895497533
 10
122.1723841265
 20
230.9050972336
 10
122.1413193032
 20
230.9129754775
 10
122.1058772638
 20
230.9188293987
 10
122.0674207196
 20
230.9224343621
 10
122.0274271205
 20
230.9236514144
  0
LINE
  5
12D
330
1F
100
AcDbEntity
  8
0
  6
Continuous
 62
     7
370
    15
100
AcDbLine
 10
122.2324272379
 20
227.9120276444
 30
0.0
 11
122.2324272379
 21
230.8603032254
 31
0.0
  0
LWPOLYLINE
  5
12E
330
1F
100
AcDbEntity
  8
0
  6
Continuous
 62
     7
370
    15
100
AcDbPolyline
 90
        9
 70
   128
 43
0.0
 10
110.7324266568
 20
230.8603032254
 10
110.7284882799
 20
230.872661876
 10
110.7168221608
 20
230.8845455521
 10
110.6978783146
 20
230.895497533
 10
110.6723839179
 20
230.9050972336
 10
110.6413194671
 20
230.9129754775
 10
110.6058770552
 20
230.9188293987
 10
110.5674201384
 20
230.9224343621
 10
110.5274269119
 20
230.9236514144
  0
LINE
  5
12F
330
1F
100
AcDbEntity
  8
0
  6
Continuous
 62
     7
370
    15
100
AcDbLine
 10
110.7324266568
 20
227.9120276444
 30
0.0
 11
110.7324266568
 21
230.8603032254
 31
0.0
  0
LINE
  5
130
330
1F
100
AcDbEntity
  8
0
  6
Continuous
 62
     7
370
    15
100
AcDbLine
 10
115.7324271038
 20
230.8603032254
 30
0.0
 11
115.7324271038
 21
227.9120276444
 31
0.0
  0
LWPOLYLINE
  5
131
330
1F
100
AcDbEntity
  8
0
  6
Continuous
 62
     7
370
    15
100
AcDbPolyline
 90
        9
 70
   128
 43
0.0
 10
115.9374268487
 20
230.9236514144
 10
115.8974336222
 20
230.9224343621
 10
115.8589774504
 20
230.9188293987
 10
115.8235350385
 20
230.9129754775
 10
115.7924705878
 20
230.9050972336
 10
115.7669761911
 20
230.895497533
 10
115.7480315998
 20
230.8845455521
 10
115.7363662258
 20
230.872661876
 10
115.7324271038
 20
230.8603032254
  0
ARC
  5
132
330
1F
100
AcDbEntity
  8
0
  6
Continuous
 62
     7
370
    15
100
AcDbCircle
 10
126.9395893365
 20
230.8527727316
 30
0.0
 40
0.2929346922773086
100
AcDbArc
 50
1.4730691281
 51
91.4009862079
  0
LINE
  5
133
330
1F
100
AcDbEntity
  8
0
  6
Continuous
 62
     7
370
    15
100
AcDbLine
 10
126.9324272633
 20
231.4039352112
 30
0.0
 11
126.9324272633
 21
231.1456198566
 31
0.0
  0
LINE
  5
134
330
1F
100
AcDbEntity
  8
0
  6
Continuous
 62
     7
370
    15
100
AcDbLine
 10
122.5324271008
 20
231.1456198566
 30
0.0
 11
122.5324271008
 21
231.4039352112
 31
0.0
  0
ARC
  5
135
330
1F
100
AcDbEntity
  8
0
  6
Continuous
 62
     7
370
    15
100
AcDbCircle
 10
122.5252650784
 20
230.8527727738
 30
0.0
 40
0.2929346488668726
100
AcDbArc
 50
88.599023522
 51
178.5269389066
  0
LINE
  5
136
330
1F
100
AcDbEntity
  8
0
  6
Continuous
 62
     7
370
    15
100
AcDbLine
 10
111.0324272647
 20
231.1456198566
 30
0.0
 11
111.0324272647
 21
231.4039352112
 31
0.0
  0
ARC
  5
137
330
1F
100
AcDbEntity
  8
0
  6
Continuous
 62
     7
370
    15
100
AcDbCircle
 10
111.0252655932
 20
230.8527716402
 30
0.0
 40
0.2929357735733368
100
AcDbArc
 50
88.5990975491
 51
178.526722763
  0
ARC
  5
138
330
1F
100
AcDbEntity
  8
0
  6
Continuous
 62
     7
370
    15
100
AcDbCircle
 10
115.4395896188
 20
230.8527731475
 30
0.0
 40
0.2929342839804142
100
AcDbArc
 50
1.472989814
 51
91.4010477574
  0
LINE
  5
139
330
1F
100
AcDbEntity
  8
0
  6
Continuous
 62
     7
370
    15
100
AcDbLine
 10
115.4324272409
 20
231.4039352112
 30
0.0
 11
115.4324272409
 21
231.1456198566
 31
0.0
  0
LINE
  5
13A
330
1F
100
AcDbEntity
  8
0
  6
Continuous
 62
     7
370
    15
100
AcDbLine
 10
122.5324271008
 20
231.1456198566
 30
0.0
 11
126.9324272633
 21
231.1456198566
 31
0.0
  0
LINE
  5
13B
330
1F
100
AcDbEntity
  8
0
  6
Continuous
 62
     7
370
    15
100
AcDbLine
 10
111.0324272647
 20
231.1456198566
 30
0.0
 11
115.4324272409
 21
231.1456198566
 31
0.0
  0
LINE
  5
13C
330
1F
100
AcDbEntity
  8
0
  6
Continuous
 62
     7
370
    15
100
AcDbLine
 10
122.5324271008
 20
231.1162634515
 30
0.0
 11
122.5324271008
 21
231.1456198566
 31
0.0
  0
ARC
  5
13D
330
1F
100
AcDbEntity
  8
0
  6
Continuous
 62
     7
370
    15
100
AcDbCircle
 10
122.5252654333
 20
230.8234160053
 30
0.0
 40
0.2929350034579372
100
AcDbArc
 50
88.5990946631
 51
178.5269424806
  0
LINE
  5
13E
330
1F
100
AcDbEntity
  8
0
  6
Continuous
 62
     7
370
    15
100
AcDbLine
 10
126.9324272633
 20
231.1456198566
 30
0.0
 11
126.9324272633
 21
231.1162634515
 31
0.0
  0
ARC
  5
13F
330
1F
100
AcDbEntity
  8
0
  6
Continuous
 62
     7
370
    15
100
AcDbCircle
 10
126.9395889816
 20
230.8234159631
 30
0.0
 40
0.2929350468682265
100
AcDbArc
 50
1.4730655541
 51
91.4009150668
  0
LINE
  5
140
330
1F
100
AcDbEntity
  8
0
  6
Continuous
 62
     7
370
    15
100
AcDbLine
 10
115.4324272409
 20
231.1456198566
 30
0.0
 11
115.4324272409
 21
231.1162634515
 31
0.0
  0
ARC
  5
141
330
1F
100
AcDbEntity
  8
0
  6
Continuous
 62
     7
370
    15
100
AcDbCircle
 10
115.4395892638
 20
230.823416379
 30
0.0
 40
0.2929346385704797
100
AcDbArc
 50
1.47298624
 51
91.4009766163
  0
LINE
  5
142
330
1F
100
AcDbEntity
  8
0
  6
Continuous
 62
     7
370
    15
100
AcDbLine
 10
111.0324272647
 20
231.1162634515
 30
0.0
 11
111.0324272647
 21
231.1456198566
 31
0.0
  0
ARC
  5
143
330
1F
100
AcDbEntity
  8
0
  6
Continuous
 62
     7
370
    15
100
AcDbCircle
 10
111.0252659481
 20
230.8234148716
 30
0.0
 40
0.2929361281661127
100
AcDbArc
 50
88.5991686902
 51
178.526726337
  0
LINE
  5
144
330
1F
100
AcDbEntity
  8
0
  6
Continuous
 62
     7
370
    15
100
AcDbLine
 10
122.5324271008
 20
231.1162634515
 30
0.0
 11
126.9324272633
 21
231.1162634515
 31
0.0
  0
LINE
  5
145
330
1F
100
AcDbEntity
  8
0
  6
Continuous
 62
     7
370
    15
100
AcDbLine
 10
111.0324272647
 20
231.1162634515
 30
0.0
 11
115.4324272409
 21
231.1162634515
 31
0.0
  0
LINE
  5
146
330
1F
100
AcDbEntity
  8
0
  6
Continuous
 62
     7
370
    15
100
AcDbLine
 10
145.8874279395
 20
233.1907092356
 30
0.0
 11
145.8874279395
 21
233.2170559787
 31
0.0
  0
LINE
  5
147
330
1F
100
AcDbEntity
  8
0
  6
Continuous
 62
     7
370
    15
100
AcDbLine
 10
144.3874278799
 20
233.2170559787
 30
0.0
 11
144.3874278799
 21
233.1907092356
 31
0.0
  0
LINE
  5
148
330
1F
100
AcDbEntity
  8
0
  6
Continuous
 62
     7
370
    15
100
AcDbLine
 10
90.4874259368
 20
233.1907092356
 30
0.0
 11
90.4874259368
 21
233.2170559787
 31
0.0
  0
LINE
  5
149
330
1F
100
AcDbEntity
  8
0
  6
Continuous
 62
     7
370
    15
100
AcDbLine
 10
88.9874273673
 20
233.2170559787
 30
0.0
 11
88.9874273673
 21
233.1907092356
 31
0.0
  0
LINE
  5
14A
330
1F
100
AcDbEntity
  8
0
  6
Continuous
 62
     7
370
    15
100
AcDbLine
 10
145.9374272957
 20
233.0696626329
 30
0.0
 11
145.9374272957
 21
233.2113141888
 31
0.0
  0
LINE
  5
14B
330
1F
100
AcDbEntity
  8
0
  6
Continuous
 62
     7
370
    15
100
AcDbLine
 10
147.3174268141
 20
233.2113141888
 30
0.0
 11
145.9374272957
 21
233.2113141888
 31
0.0
  0
LINE
  5
14C
330
1F
100
AcDbEntity
  8
0
  6
Continuous
 62
     7
370
    15
100
AcDbLine
 10
147.4374273553
 20
233.2113141888
 30
0.0
 11
147.4374273553
 21
233.0696626329
 31
0.0
  0
LINE
  5
14D
330
1F
100
AcDbEntity
  8
0
  6
Continuous
 62
     7
370
    15
100
AcDbLine
 10
144.3374270335
 20
233.2113141888
 30
0.0
 11
90.5374282733
 21
233.2113141888
 31
0.0
  0
LINE
  5
14E
330
1F
100
AcDbEntity
  8
0
  6
Continuous
 62
     7
370
    15
100
AcDbLine
 10
144.3374270335
 20
233.2113141888
 30
0.0
 11
144.3374270335
 21
233.0696626329
 31
0.0
  0
LINE
  5
14F
330
1F
100
AcDbEntity
  8
0
  6
Continuous
 62
     7
370
    15
100
AcDbLine
 10
90.5374282733
 20
233.0696626329
 30
0.0
 11
90.5374282733
 21
233.2113141888
 31
0.0
  0
LINE
  5
150
330
1F
100
AcDbEntity
  8
0
  6
Continuous
 62
     7
370
    15
100
AcDbLine
 10
88.937428011
 20
233.2113141888
 30
0.0
 11
87.5574284926
 21
233.2113141888
 31
0.0
  0
LINE
  5
151
330
1F
100
AcDbEntity
  8
0
  6
Continuous
 62
     7
370
    15
100
AcDbLine
 10
88.937428011
 20
233.2113141888
 30
0.0
 11
88.937428011
 21
233.0696626329
 31
0.0
  0
LINE
  5
152
330
1F
100
AcDbEntity
  8
0
  6
Continuous
 62
     7
370
    15
100
AcDbLine
 10
87.4374264613
 20
233.0696626329
 30
0.0
 11
87.4374264613
 21
233.2113141888
 31
0.0
  0
LINE
  5
153
330
1F
100
AcDbEntity
  8
0
  6
Continuous
 62
     7
370
    15
100
AcDbLine
 10
147.3374271527
 20
239.8318740302
 30
0.0
 11
147.1374267474
 21
239.8318740302
 31
0.0
  0
LINE
  5
154
330
1F
100
AcDbEntity
  8
0
  6
Continuous
 62
     7
370
    15
100
AcDbLine
 10
147.1374267474
 20
239.8318740302
 30
0.0
 11
147.1374267474
 21
238.6913141929
 31
0.0
  0
LINE
  5
155
330
1F
100
AcDbEntity
  8
0
  6
Continuous
 62
     7
370
    15
100
AcDbLine
 10
147.3374271527
 20
239.8318740302
 30
0.0
 11
147.3374271527
 21
238.6613142439
 31
0.0
  0
LINE
  5
156
330
1F
100
AcDbEntity
  8
0
  6
Continuous
 62
     7
370
    15
100
AcDbLine
 10
87.5374281541
 20
238.6613142439
 30
0.0
 11
87.5374281541
 21
239.8318740302
 31
0.0
  0
LINE
  5
157
330
1F
100
AcDbEntity
  8
0
  6
Continuous
 62
     7
370
    15
100
AcDbLine
 10
87.5374281541
 20
239.8318740302
 30
0.0
 11
87.7374285594
 21
239.8318740302
 31
0.0
  0
LINE
  5
158
330
1F
100
AcDbEntity
  8
0
  6
Continuous
 62
     7
370
    15
100
AcDbLine
 10
87.7374285594
 20
238.6913141929
 30
0.0
 11
87.7374285594
 21
239.8318740302
 31
0.0
  0
LINE
  5
159
330
1F
100
AcDbEntity
  8
0
  6
Continuous
 62
     7
370
    15
100
AcDbLine
 10
147.3374271527
 20
240.3639091872
 30
0.0
 11
147.1374267474
 21
240.3639091872
 31
0.0
  0
LINE
  5
15A
330
1F
100
AcDbEntity
  8
0
  6
Continuous
 62
     7
370
    15
100
AcDbLine
 10
147.1374267474
 20
240.3639091872
 30
0.0
 11
147.1374267474
 21
239.8318740302
 31
0.0
  0
LINE
  5
15B
330
1F
100
AcDbEntity
  8
0
  6
Continuous
 62
     7
370
    15
100
AcDbLine
 10
147.3374271527
 20
240.3639091872
 30
0.0
 11
147.3374271527
 21
239.8318740302
 31
0.0
  0
LINE
  5
15C
330
1F
100
AcDbEntity
  8
0
  6
Continuous
 62
     7
370
    15
100
AcDbLine
 10
87.5374281541
 20
240.3639091872
 30
0.0
 11
87.7374285594
 21
240.3639091872
 31
0.0
  0
LINE
  5
15D
330
1F
100
AcDbEntity
  8
0
  6
Continuous
 62
     7
370
    15
100
AcDbLine
 10
87.5374281541
 20
239.8318740302
 30
0.0
 11
87.5374281541
 21
240.3639091872
 31
0.0
  0
LINE
  5
15E
330
1F
100
AcDbEntity
  8
0
  6
Continuous
 62
     7
370
    15
100
AcDbLine
 10
87.7374285594
 20
239.8318740302
 30
0.0
 11
87.7374285594
 21
240.3639091872
 31
0.0
  0
LINE
  5
15F
330
1F
100
AcDbEntity
  8
0
  6
Continuous
 62
     7
370
    15
100
AcDbLine
 10
147.1374267474
 20
254.5340227657
 30
0.0
 11
147.3374271527
 21
254.5340227657
 31
0.0
  0
LINE
  5
160
330
1F
100
AcDbEntity
  8
0
  6
Continuous
 62
     7
370
    15
100
AcDbLine
 10
147.1374267474
 20
254.5340227657
 30
0.0
 11
147.1374267474
 21
240.3639091872
 31
0.0
  0
LINE
  5
161
330
1F
100
AcDbEntity
  8
0
  6
Continuous
 62
     7
370
    15
100
AcDbLine
 10
147.3374271527
 20
254.5340227657
 30
0.0
 11
147.3374271527
 21
240.3639091872
 31
0.0
  0
LINE
  5
162
330
1F
100
AcDbEntity
  8
0
  6
Continuous
 62
     7
370
    15
100
AcDbLine
 10
87.7374285594
 20
254.5340227657
 30
0.0
 11
87.5374281541
 21
254.5340227657
 31
0.0
  0
LINE
  5
163
330
1F
100
AcDbEntity
  8
0
  6
Continuous
 62
     7
370
    15
100
AcDbLine
 10
87.5374281541
 20
240.3639091872
 30
0.0
 11
87.5374281541
 21
254.5340227657
 31
0.0
  0
LINE
  5
164
330
1F
100
AcDbEntity
  8
0
  6
Continuous
 62
     7
370
    15
100
AcDbLine
 10
87.7374285594
 20
240.3639091872
 30
0.0
 11
87.7374285594
 21
254.5340227657
 31
0.0
  0
ARC
  5
165
330
1F
100
AcDbEntity
  8
0
  6
Continuous
 62
     7
370
    15
100
AcDbCircle
 10
87.9006793279
 20
252.785841492
 30
0.0
 40
1.785522103170681
100
AcDbArc
 50
90.4252709806
 51
101.7383427166
  0
ARC
  5
166
330
1F
100
AcDbEntity
  8
0
  6
Continuous
 62
     7
370
    15
100
AcDbCircle
 10
87.8977687602
 20
254.2094010869
 30
0.0
 40
0.362061064372793
100
AcDbArc
 50
91.6368540788
 51
116.2861216554
  0
ARC
  5
167
330
1F
100
AcDbEntity
  8
0
  6
Continuous
 62
     7
370
    15
100
AcDbCircle
 10
146.9741733789
 20
252.7858165614
 30
0.0
 40
1.785547041340653
100
AcDbArc
 50
78.2617383535
 51
89.5746993474
  0
ARC
  5
168
330
1F
100
AcDbEntity
  8
0
  6
Continuous
 62
     7
370
    15
100
AcDbCircle
 10
146.9770827781
 20
254.2093855157
 30
0.0
 40
0.3620766942960237
100
AcDbArc
 50
63.7144348818
 51
88.362855924
  0
LINE
  5
169
330
1F
100
AcDbEntity
  8
0
  6
Continuous
 62
     7
370
    15
100
AcDbLine
 10
146.9874271885
 20
254.5713144117
 30
0.0
 11
87.8874266282
 21
254.5713144117
 31
0.0
  0
LINE
  5
16A
330
1F
100
AcDbEntity
  8
0
  6
Continuous
 62
     7
370
    15
100
AcDbLine
 10
87.8874266282
 20
254.5713144117
 30
0.0
 11
87.8874266282
 21
254.7192307883
 31
0.0
  0
LINE
  5
16B
330
1F
100
AcDbEntity
  8
0
  6
Continuous
 62
     7
370
    15
100
AcDbLine
 10
87.8874266282
 20
254.7192307883
 30
0.0
 11
146.9874271885
 21
254.7192307883
 31
0.0
  0
LINE
  5
16C
330
1F
100
AcDbEntity
  8
0
  6
Continuous
 62
     7
370
    15
100
AcDbLine
 10
146.9874271885
 20
254.7192307883
 30
0.0
 11
146.9874271885
 21
254.5713144117
 31
0.0
  0
ARC
  5
16D
330
1F
100
AcDbEntity
  8
0
  6
Continuous
 62
     7
370
    15
100
AcDbCircle
 10
88.3651033804
 20
255.5707640126
 30
0.0
 40
0.4783116101818622
100
AcDbArc
 50
87.3250381409
 51
177.0476454527
  0
LINE
  5
16E
330
1F
100
AcDbEntity
  8
0
  6
Continuous
 62
     7
370
    15
100
AcDbLine
 10
88.3874261513
 20
256.0485544377
 30
0.0
 11
146.4874276653
 21
256.0485544377
 31
0.0
  0
ARC
  5
16F
330
1F
100
AcDbEntity
  8
0
  6
Continuous
 62
     7
370
    15
100
AcDbCircle
 10
146.5097518175
 20
255.5707655366
 30
0.0
 40
0.4783101522698058
100
AcDbArc
 50
2.9521807503
 51
92.6751356561
  0
LINE
  5
170
330
1F
100
AcDbEntity
  8
0
  6
Continuous
 62
     7
370
    15
100
AcDbLine
 10
87.8874266282
 20
254.7192307883
 30
0.0
 11
87.8874266282
 21
255.595399695
 31
0.0
  0
LINE
  5
171
330
1F
100
AcDbEntity
  8
0
  6
Continuous
 62
     7
370
    15
100
AcDbLine
 10
146.9874271885
 20
255.595399695
 30
0.0
 11
146.9874271885
 21
254.7192307883
 31
0.0
  0
LINE
  5
172
330
1F
100
AcDbEntity
  8
0
  6
Continuous
 62
     7
370
    15
100
AcDbLine
 10
87.7374285594
 20
239.4313140535
 30
0.0
 11
147.1374267474
 21
239.4313140535
 31
0.0
  0
LINE
  5
173
330
1F
100
AcDbEntity
  8
0
  6
Continuous
 62
     7
370
    15
100
AcDbLine
 10
87.4374264613
 20
220.7275467687
 30
0.0
 11
87.4374264613
 21
208.6075472408
 31
0.0
  0
LINE
  5
174
330
1F
100
AcDbEntity
  8
0
  6
Continuous
 62
     7
370
    15
100
AcDbLine
 10
87.4374264613
 20
220.7275467687
 30
0.0
 11
87.6424276963
 21
220.7275467687
 31
0.0
  0
LINE
  5
175
330
1F
100
AcDbEntity
  8
0
  6
Continuous
 62
     7
370
    15
100
AcDbLine
 10
87.6424276963
 20
220.7275467687
 30
0.0
 11
87.6424276963
 21
208.6075472408
 31
0.0
  0
LINE
  5
176
330
1F
100
AcDbEntity
  8
0
  6
Continuous
 62
     7
370
    15
100
AcDbLine
 10
87.6424276963
 20
208.6075472408
 30
0.0
 11
87.4374264613
 21
208.6075472408
 31
0.0
  0
LINE
  5
177
330
1F
100
AcDbEntity
  8
0
  6
Continuous
 62
     7
370
    15
100
AcDbLine
 10
129.4829590008
 20
218.1581857377
 30
0.0
 11
129.9537034467
 21
218.0624398165
 31
0.0
  0
LINE
  5
178
330
1F
100
AcDbEntity
  8
0
  6
Continuous
 62
     7
370
    15
100
AcDbLine
 10
129.9537034467
 20
218.0624398165
 30
0.0
 11
129.7223206371
 21
218.3975460701
 31
0.0
  0
LINE
  5
179
330
1F
100
AcDbEntity
  8
0
  6
Continuous
 62
     7
370
    15
100
AcDbLine
 10
130.009554489
 20
218.8204186731
 30
0.0
 11
129.7223206371
 21
218.3975460701
 31
0.0
  0
LINE
  5
17A
330
1F
100
AcDbEntity
  8
0
  6
Continuous
 62
     7
370
    15
100
AcDbLine
 10
129.5627462439
 20
218.6768012815
 30
0.0
 11
130.009554489
 21
218.8204186731
 31
0.0
  0
LINE
  5
17B
330
1F
100
AcDbEntity
  8
0
  6
Continuous
 62
     7
370
    15
100
AcDbLine
 10
129.5627462439
 20
218.6768012815
 30
0.0
 11
129.2994484998
 21
219.1395672732
 31
0.0
  0
LINE
  5
17C
330
1F
100
AcDbEntity
  8
0
  6
Continuous
 62
     7
370
    15
100
AcDbLine
 10
129.1398741066
 20
218.628929811
 30
0.0
 11
129.2994484998
 21
219.1395672732
 31
0.0
  0
LINE
  5
17D
330
1F
100
AcDbEntity
  8
0
  6
Continuous
 62
     7
370
    15
100
AcDbLine
 10
129.1398741066
 20
218.628929811
 30
0.0
 11
128.7568955909
 21
218.6768012815
 31
0.0
  0
LINE
  5
17E
330
1F
100
AcDbEntity
  8
0
  6
Continuous
 62
     7
370
    15
100
AcDbLine
 10
129.0281720221
 20
218.3975460701
 30
0.0
 11
128.7568955909
 21
218.6768012815
 31
0.0
  0
LINE
  5
17F
330
1F
100
AcDbEntity
  8
0
  6
Continuous
 62
     7
370
    15
100
AcDbLine
 10
128.3499808976
 20
217.7512707882
 30
0.0
 11
129.0281720221
 21
218.3975460701
 31
0.0
  0
LINE
  5
180
330
1F
100
AcDbEntity
  8
0
  6
Continuous
 62
     7
370
    15
100
AcDbLine
 10
128.3499808976
 20
217.7512707882
 30
0.0
 11
129.2276399903
 21
218.1581857377
 31
0.0
  0
LINE
  5
181
330
1F
100
AcDbEntity
  8
0
  6
Continuous
 62
     7
370
    15
100
AcDbLine
 10
129.2276399903
 20
218.1581857377
 30
0.0
 11
129.4510441594
 21
217.6395687037
 31
0.0
  0
LINE
  5
182
330
1F
100
AcDbEntity
  8
0
  6
Continuous
 62
     7
370
    15
100
AcDbLine
 10
129.4829590008
 20
218.1581857377
 30
0.0
 11
129.4510441594
 21
217.6395687037
 31
0.0
  0
LINE
  5
183
330
1F
100
AcDbEntity
  8
0
  6
Continuous
 62
     7
370
    15
100
AcDbLine
 10
147.2324276105
 20
220.7275467687
 30
0.0
 11
87.6424276963
 21
220.7275467687
 31
0.0
  0
LINE
  5
184
330
1F
100
AcDbEntity
  8
0
  6
Continuous
 62
     7
370
    15
100
AcDbLine
 10
147.2324276105
 20
208.6075472408
 30
0.0
 11
147.2324276105
 21
220.7275467687
 31
0.0
  0
LINE
  5
185
330
1F
100
AcDbEntity
  8
0
  6
Continuous
 62
     7
370
    15
100
AcDbLine
 10
87.6424276963
 20
208.6075472408
 30
0.0
 11
147.2324276105
 21
208.6075472408
 31
0.0
  0
ARC
  5
186
330
1F
100
AcDbEntity
  8
0
  6
Continuous
 62
     7
370
    15
100
AcDbCircle
 10
123.807427221
 20
218.3975467229
 30
0.0
 40
0.0999999999999943
100
AcDbArc
 50
180.0
 51
0.0
  0
LINE
  5
187
330
1F
100
AcDbEntity
  8
0
  6
Continuous
 62
     7
370
    15
100
AcDbLine
 10
123.9074272797
 20
218.3975460701
 30
0.0
 11
123.9074272797
 21
218.4975462728
 31
0.0
  0
ARC
  5
188
330
1F
100
AcDbEntity
  8
0
  6
Continuous
 62
     7
370
    15
100
AcDbCircle
 10
123.807427221
 20
218.4975467229
 30
0.0
 40
0.0999999999999943
100
AcDbArc
 50
0.0
 51
180.0
  0
LINE
  5
189
330
1F
100
AcDbEntity
  8
0
  6
Continuous
 62
     7
370
    15
100
AcDbLine
 10
123.7074272469
 20
218.4975462728
 30
0.0
 11
123.7074272469
 21
218.3975460701
 31
0.0
  0
ARC
  5
18A
330
1F
100
AcDbEntity
  8
0
  6
Continuous
 62
     7
370
    15
100
AcDbCircle
 10
134.807427221
 20
218.3975467229
 30
0.0
 40
0.1000000000000227
100
AcDbArc
 50
180.0
 51
0.0
  0
LINE
  5
18B
330
1F
100
AcDbEntity
  8
0
  6
Continuous
 62
     7
370
    15
100
AcDbLine
 10
134.9074275926
 20
218.3975460701
 30
0.0
 11
134.9074275926
 21
218.4975462728
 31
0.0
  0
ARC
  5
18C
330
1F
100
AcDbEntity
  8
0
  6
Continuous
 62
     7
370
    15
100
AcDbCircle
 10
134.807427221
 20
218.4975467229
 30
0.0
 40
0.1000000000000227
100
AcDbArc
 50
0.0
 51
180.0
  0
LINE
  5
18D
330
1F
100
AcDbEntity
  8
0
  6
Continuous
 62
     7
370
    15
100
AcDbLine
 10
134.7074271873
 20
218.4975462728
 30
0.0
 11
134.7074271873
 21
218.3975460701
 31
0.0
  0
LINE
  5
18E
330
1F
100
AcDbEntity
  8
0
  6
Continuous
 62
     7
370
    15
100
AcDbLine
 10
118.4829586878
 20
218.1581857377
 30
0.0
 11
118.9537035063
 21
218.0624398165
 31
0.0
  0
LINE
  5
18F
330
1F
100
AcDbEntity
  8
0
  6
Continuous
 62
     7
370
    15
100
AcDbLine
 10
118.9537035063
 20
218.0624398165
 30
0.0
 11
118.7223205104
 21
218.3975460701
 31
0.0
  0
LINE
  5
190
330
1F
100
AcDbEntity
  8
0
  6
Continuous
 62
     7
370
    15
100
AcDbLine
 10
119.0095545486
 20
218.8204186731
 30
0.0
 11
118.7223205104
 21
218.3975460701
 31
0.0
  0
LINE
  5
191
330
1F
100
AcDbEntity
  8
0
  6
Continuous
 62
     7
370
    15
100
AcDbLine
 10
118.5627462104
 20
218.6768012815
 30
0.0
 11
119.0095545486
 21
218.8204186731
 31
0.0
  0
LINE
  5
192
330
1F
100
AcDbEntity
  8
0
  6
Continuous
 62
     7
370
    15
100
AcDbLine
 10
118.5627462104
 20
218.6768012815
 30
0.0
 11
118.2994486526
 21
219.1395672732
 31
0.0
  0
LINE
  5
193
330
1F
100
AcDbEntity
  8
0
  6
Continuous
 62
     7
370
    15
100
AcDbLine
 10
118.1398743525
 20
218.628929811
 30
0.0
 11
118.2994486526
 21
219.1395672732
 31
0.0
  0
LINE
  5
194
330
1F
100
AcDbEntity
  8
0
  6
Continuous
 62
     7
370
    15
100
AcDbLine
 10
118.1398743525
 20
218.628929811
 30
0.0
 11
117.7568958834
 21
218.6768012815
 31
0.0
  0
LINE
  5
195
330
1F
100
AcDbEntity
  8
0
  6
Continuous
 62
     7
370
    15
100
AcDbLine
 10
118.028172268
 20
218.3975460701
 30
0.0
 11
117.7568958834
 21
218.6768012815
 31
0.0
  0
LINE
  5
196
330
1F
100
AcDbEntity
  8
0
  6
Continuous
 62
     7
370
    15
100
AcDbLine
 10
117.349980934
 20
217.7512707882
 30
0.0
 11
118.028172268
 21
218.3975460701
 31
0.0
  0
LINE
  5
197
330
1F
100
AcDbEntity
  8
0
  6
Continuous
 62
     7
370
    15
100
AcDbLine
 10
117.349980934
 20
217.7512707882
 30
0.0
 11
118.2276399568
 21
218.1581857377
 31
0.0
  0
LINE
  5
198
330
1F
100
AcDbEntity
  8
0
  6
Continuous
 62
     7
370
    15
100
AcDbLine
 10
118.2276399568
 20
218.1581857377
 30
0.0
 11
118.4510441259
 21
217.6395687037
 31
0.0
  0
LINE
  5
199
330
1F
100
AcDbEntity
  8
0
  6
Continuous
 62
     7
370
    15
100
AcDbLine
 10
118.4829586878
 20
218.1581857377
 30
0.0
 11
118.4510441259
 21
217.6395687037
 31
0.0
  0
LINE
  5
19A
330
1F
100
AcDbEntity
  8
0
  6
Continuous
 62
     7
370
    15
100
AcDbLine
 10
127.4574272096
 20
211.6675468855
 30
0.0
 11
127.4574272096
 21
210.5675461464
 31
0.0
  0
ARC
  5
19B
330
1F
100
AcDbEntity
  8
0
  6
Continuous
 62
     7
370
    15
100
AcDbCircle
 10
127.657427221
 20
210.5675467229
 30
0.0
 40
0.2000000000000171
100
AcDbArc
 50
180.0
 51
270.0
  0
LINE
  5
19C
330
1F
100
AcDbEntity
  8
0
  6
Continuous
 62
     7
370
    15
100
AcDbLine
 10
128.9574271761
 20
210.3675472312
 30
0.0
 11
127.6574272191
 21
210.3675472312
 31
0.0
  0
ARC
  5
19D
330
1F
100
AcDbEntity
  8
0
  6
Continuous
 62
     7
370
    15
100
AcDbCircle
 10
128.957427221
 20
210.5675467229
 30
0.0
 40
0.2000000000000171
100
AcDbArc
 50
270.0
 51
0.0
  0
LINE
  5
19E
330
1F
100
AcDbEntity
  8
0
  6
Continuous
 62
     7
370
    15
100
AcDbLine
 10
129.1574272089
 20
210.5675461464
 30
0.0
 11
129.1574272089
 21
211.6675468855
 31
0.0
  0
ARC
  5
19F
330
1F
100
AcDbEntity
  8
0
  6
Continuous
 62
     7
370
    15
100
AcDbCircle
 10
128.957427221
 20
211.6675467229
 30
0.0
 40
0.2000000000000171
100
AcDbArc
 50
0.0
 51
90.0
  0
LINE
  5
1A0
330
1F
100
AcDbEntity
  8
0
  6
Continuous
 62
     7
370
    15
100
AcDbLine
 10
128.9574271761
 20
211.8675472908
 30
0.0
 11
127.6574272191
 21
211.8675472908
 31
0.0
  0
ARC
  5
1A1
330
1F
100
AcDbEntity
  8
0
  6
Continuous
 62
     7
370
    15
100
AcDbCircle
 10
127.657427221
 20
211.6675467229
 30
0.0
 40
0.2000000000000171
100
AcDbArc
 50
90.0
 51
180.0
  0
LINE
  5
1A2
330
1F
100
AcDbEntity
  8
0
  6
Continuous
 62
     7
370
    15
100
AcDbLine
 10
140.1574270561
 20
210.5675461464
 30
0.0
 11
140.1574270561
 21
211.6675468855
 31
0.0
  0
ARC
  5
1A3
330
1F
100
AcDbEntity
  8
0
  6
Continuous
 62
     7
370
    15
100
AcDbCircle
 10
139.957427221
 20
211.6675467229
 30
0.0
 40
0.1999999999999886
100
AcDbArc
 50
0.0
 51
90.0
  0
LINE
  5
1A4
330
1F
100
AcDbEntity
  8
0
  6
Continuous
 62
     7
370
    15
100
AcDbLine
 10
138.6574269965
 20
211.8675472908
 30
0.0
 11
139.9574273959
 21
211.8675472908
 31
0.0
  0
ARC
  5
1A5
330
1F
100
AcDbEntity
  8
0
  6
Continuous
 62
     7
370
    15
100
AcDbCircle
 10
138.657427221
 20
211.6675467229
 30
0.0
 40
0.1999999999999886
100
AcDbArc
 50
90.0
 51
180.0
  0
LINE
  5
1A6
330
1F
100
AcDbEntity
  8
0
  6
Continuous
 62
     7
370
    15
100
AcDbLine
 10
138.4574273363
 20
211.6675468855
 30
0.0
 11
138.4574273363
 21
210.5675461464
 31
0.0
  0
ARC
  5
1A7
330
1F
100
AcDbEntity
  8
0
  6
Continuous
 62
     7
370
    15
100
AcDbCircle
 10
138.657427221
 20
210.5675467229
 30
0.0
 40
0.2000000000000171
100
AcDbArc
 50
180.0
 51
270.0
  0
LINE
  5
1A8
330
1F
100
AcDbEntity
  8
0
  6
Continuous
 62
     7
370
    15
100
AcDbLine
 10
138.6574269965
 20
210.3675472312
 30
0.0
 11
139.9574273959
 21
210.3675472312
 31
0.0
  0
ARC
  5
1A9
330
1F
100
AcDbEntity
  8
0
  6
Continuous
 62
     7
370
    15
100
AcDbCircle
 10
139.957427221
 20
210.5675467229
 30
0.0
 40
0.2000000000000171
100
AcDbArc
 50
270.0
 51
0.0
  0
ARC
  5
1AA
330
1F
100
AcDbEntity
  8
0
  6
Continuous
 62
     7
370
    15
100
AcDbCircle
 10
146.6864318937
 20
208.6199596657
 30
0.0
 40
0.5461367877880995
100
AcDbArc
 50
336.5409343812
 51
358.6976874338
  0
LINE
  5
1AB
330
1F
100
AcDbEntity
  8
0
  6
Continuous
 62
     7
370
    15
100
AcDbLine
 10
87.6874262229
 20
208.4025460058
 30
0.0
 11
147.1874275938
 21
208.4025460058
 31
0.0
  0
ARC
  5
1AC
330
1F
100
AcDbEntity
  8
0
  6
Continuous
 62
     7
370
    15
100
AcDbCircle
 10
88.1884535072
 20
208.6199626298
 30
0.0
 40
0.5461669415636762
100
AcDbArc
 50
181.3025516867
 51
203.4580318426
  0
ARC
  5
1AD
330
1F
100
AcDbEntity
  8
0
  6
Continuous
 62
     7
370
    15
100
AcDbCircle
 10
87.9873017325
 20
220.725184553
 30
0.0
 40
0.3448821260795731
100
AcDbArc
 50
143.0401961669
 51
179.6075585259
  0
LINE
  5
1AE
330
1F
100
AcDbEntity
  8
0
  6
Continuous
 62
     7
370
    15
100
AcDbLine
 10
147.1631327406
 20
220.9325465136
 30
0.0
 11
87.7117210761
 21
220.9325465136
 31
0.0
  0
ARC
  5
1AF
330
1F
100
AcDbEntity
  8
0
  6
Continuous
 62
     7
370
    15
100
AcDbCircle
 10
146.7399908617
 20
220.6753027855
 30
0.0
 40
0.4952003486350135
100
AcDbArc
 50
6.0560147667
 51
31.2969780792
  0
LINE
  5
1B0
330
1F
100
AcDbEntity
  8
0
  6
Continuous
 62
     7
370
    15
100
AcDbLine
 10
147.4374273553
 20
208.6075472408
 30
0.0
 11
147.4374273553
 21
220.7275467687
 31
0.0
  0
LINE
  5
1B1
330
1F
100
AcDbEntity
  8
0
  6
Continuous
 62
     7
370
    15
100
AcDbLine
 10
147.4374273553
 20
208.6075472408
 30
0.0
 11
147.2324276105
 21
208.6075472408
 31
0.0
  0
LINE
  5
1B2
330
1F
100
AcDbEntity
  8
0
  6
Continuous
 62
     7
370
    15
100
AcDbLine
 10
147.2324276105
 20
220.7275467687
 30
0.0
 11
147.4374273553
 21
220.7275467687
 31
0.0
  0
LINE
  5
1B3
330
1F
100
AcDbEntity
  8
0
  6
Continuous
 62
     7
370
    15
100
AcDbLine
 10
129.3902105413
 20
218.2790967398
 30
0.0
 11
129.3769891135
 21
218.0642473274
 31
0.0
  0
LINE
  5
1B4
330
1F
100
AcDbEntity
  8
0
  6
Continuous
 62
     7
370
    15
100
AcDbLine
 10
129.2788202636
 20
218.2921397262
 30
0.0
 11
129.3769891135
 21
218.0642473274
 31
0.0
  0
LINE
  5
1B5
330
1F
100
AcDbEntity
  8
0
  6
Continuous
 62
     7
370
    15
100
AcDbLine
 10
128.857556241
 20
218.0968257361
 30
0.0
 11
129.2788202636
 21
218.2921397262
 31
0.0
  0
LINE
  5
1B6
330
1F
100
AcDbEntity
  8
0
  6
Continuous
 62
     7
370
    15
100
AcDbLine
 10
128.857556241
 20
218.0968257361
 30
0.0
 11
129.1702506825
 21
218.3948057466
 31
0.0
  0
LINE
  5
1B7
330
1F
100
AcDbEntity
  8
0
  6
Continuous
 62
     7
370
    15
100
AcDbLine
 10
129.1702506825
 20
218.3948057466
 30
0.0
 11
129.0270097315
 21
218.5422586971
 31
0.0
  0
LINE
  5
1B8
330
1F
100
AcDbEntity
  8
0
  6
Continuous
 62
     7
370
    15
100
AcDbLine
 10
129.210395249
 20
218.5193362408
 30
0.0
 11
129.0270097315
 21
218.5422586971
 31
0.0
  0
LINE
  5
1B9
330
1F
100
AcDbEntity
  8
0
  6
Continuous
 62
     7
370
    15
100
AcDbLine
 10
129.210395249
 20
218.5193362408
 30
0.0
 11
129.3262854911
 21
218.8901844197
 31
0.0
  0
LINE
  5
1BA
330
1F
100
AcDbEntity
  8
0
  6
Continuous
 62
     7
370
    15
100
AcDbLine
 10
129.5160047472
 20
218.5567396455
 30
0.0
 11
129.3262854911
 21
218.8901844197
 31
0.0
  0
LINE
  5
1BB
330
1F
100
AcDbEntity
  8
0
  6
Continuous
 62
     7
370
    15
100
AcDbLine
 10
129.5160047472
 20
218.5567396455
 30
0.0
 11
129.7636270285
 21
218.6363312178
 31
0.0
  0
LINE
  5
1BC
330
1F
100
AcDbEntity
  8
0
  6
Continuous
 62
     7
370
    15
100
AcDbLine
 10
129.7636270285
 20
218.6363312178
 30
0.0
 11
129.6011186898
 21
218.3970841341
 31
0.0
  0
LINE
  5
1BD
330
1F
100
AcDbEntity
  8
0
  6
Continuous
 62
     7
370
    15
100
AcDbLine
 10
129.7303540394
 20
218.2099151187
 30
0.0
 11
129.6011186898
 21
218.3970841341
 31
0.0
  0
LINE
  5
1BE
330
1F
100
AcDbEntity
  8
0
  6
Continuous
 62
     7
370
    15
100
AcDbLine
 10
129.3902105413
 20
218.2790967398
 30
0.0
 11
129.7303540394
 21
218.2099151187
 31
0.0
  0
ARC
  5
1BF
330
1F
100
AcDbEntity
  8
0
  6
Continuous
 62
     7
370
    15
100
AcDbCircle
 10
128.157427221
 20
211.3675467229
 30
0.0
 40
0.0999999999999943
100
AcDbArc
 50
0.0
 51
90.0
  0
LINE
  5
1C0
330
1F
100
AcDbEntity
  8
0
  6
Continuous
 62
     7
370
    15
100
AcDbLine
 10
128.2574272243
 20
211.3675462776
 30
0.0
 11
128.2574272243
 21
210.8675467544
 31
0.0
  0
ARC
  5
1C1
330
1F
100
AcDbEntity
  8
0
  6
Continuous
 62
     7
370
    15
100
AcDbCircle
 10
128.157427221
 20
210.8675467229
 30
0.0
 40
0.0999999999999943
100
AcDbArc
 50
270.0
 51
0.0
  0
LINE
  5
1C2
330
1F
100
AcDbEntity
  8
0
  6
Continuous
 62
     7
370
    15
100
AcDbLine
 10
127.9574272217
 20
210.7675465518
 30
0.0
 11
128.1574272196
 21
210.7675465518
 31
0.0
  0
ARC
  5
1C3
330
1F
100
AcDbEntity
  8
0
  6
Continuous
 62
     7
370
    15
100
AcDbCircle
 10
127.957427221
 20
210.8675467229
 30
0.0
 40
0.0999999999999801
100
AcDbArc
 50
180.0
 51
270.0
  0
LINE
  5
1C4
330
1F
100
AcDbEntity
  8
0
  6
Continuous
 62
     7
370
    15
100
AcDbLine
 10
127.857427217
 20
211.3675462776
 30
0.0
 11
127.857427217
 21
210.8675467544
 31
0.0
  0
ARC
  5
1C5
330
1F
100
AcDbEntity
  8
0
  6
Continuous
 62
     7
370
    15
100
AcDbCircle
 10
127.957427221
 20
211.3675467229
 30
0.0
 40
0.0999999999999943
100
AcDbArc
 50
90.0
 51
180.0
  0
LINE
  5
1C6
330
1F
100
AcDbEntity
  8
0
  6
Continuous
 62
     7
370
    15
100
AcDbLine
 10
127.9574272217
 20
211.4675464802
 30
0.0
 11
128.1574272196
 21
211.4675464802
 31
0.0
  0
LINE
  5
1C7
330
1F
100
AcDbEntity
  8
0
  6
Continuous
 62
     7
370
    15
100
AcDbLine
 10
139.8574271932
 20
210.8675467544
 30
0.0
 11
139.8574271932
 21
211.3675462776
 31
0.0
  0
ARC
  5
1C8
330
1F
100
AcDbEntity
  8
0
  6
Continuous
 62
     7
370
    15
100
AcDbCircle
 10
139.657427221
 20
211.3675467229
 30
0.0
 40
0.2000000000000171
100
AcDbArc
 50
0.0
 51
90.0
  0
LINE
  5
1C9
330
1F
100
AcDbEntity
  8
0
  6
Continuous
 62
     7
370
    15
100
AcDbLine
 10
139.657427533
 20
211.5675466829
 30
0.0
 11
139.4574271277
 21
211.5675466829
 31
0.0
  0
ARC
  5
1CA
330
1F
100
AcDbEntity
  8
0
  6
Continuous
 62
     7
370
    15
100
AcDbCircle
 10
139.457427221
 20
211.3675467229
 30
0.0
 40
0.2000000000000171
100
AcDbArc
 50
90.0
 51
180.0
  0
LINE
  5
1CB
330
1F
100
AcDbEntity
  8
0
  6
Continuous
 62
     7
370
    15
100
AcDbLine
 10
139.2574274674
 20
210.8675467544
 30
0.0
 11
139.2574274674
 21
211.3675462776
 31
0.0
  0
ARC
  5
1CC
330
1F
100
AcDbEntity
  8
0
  6
Continuous
 62
     7
370
    15
100
AcDbCircle
 10
139.457427221
 20
210.8675467229
 30
0.0
 40
0.2000000000000171
100
AcDbArc
 50
180.0
 51
270.0
  0
LINE
  5
1CD
330
1F
100
AcDbEntity
  8
0
  6
Continuous
 62
     7
370
    15
100
AcDbLine
 10
139.657427533
 20
210.6675463491
 30
0.0
 11
139.4574271277
 21
210.6675463491
 31
0.0
  0
ARC
  5
1CE
330
1F
100
AcDbEntity
  8
0
  6
Continuous
 62
     7
370
    15
100
AcDbCircle
 10
138.657427221
 20
210.5675467229
 30
0.0
 40
0.1000000000000227
100
AcDbArc
 50
180.0
 51
270.0
  0
LINE
  5
1CF
330
1F
100
AcDbEntity
  8
0
  6
Continuous
 62
     7
370
    15
100
AcDbLine
 10
138.5574275389
 20
211.6675468855
 30
0.0
 11
138.5574275389
 21
210.5675461464
 31
0.0
  0
ARC
  5
1D0
330
1F
100
AcDbEntity
  8
0
  6
Continuous
 62
     7
370
    15
100
AcDbCircle
 10
138.657427221
 20
211.6675467229
 30
0.0
 40
0.1000000000000227
100
AcDbArc
 50
90.0
 51
180.0
  0
LINE
  5
1D1
330
1F
100
AcDbEntity
  8
0
  6
Continuous
 62
     7
370
    15
100
AcDbLine
 10
138.6574269965
 20
211.7675470882
 30
0.0
 11
139.9574273959
 21
211.7675470882
 31
0.0
  0
ARC
  5
1D2
330
1F
100
AcDbEntity
  8
0
  6
Continuous
 62
     7
370
    15
100
AcDbCircle
 10
139.957427221
 20
211.6675467229
 30
0.0
 40
0.1000000000000227
100
AcDbArc
 50
0.0
 51
90.0
  0
LINE
  5
1D3
330
1F
100
AcDbEntity
  8
0
  6
Continuous
 62
     7
370
    15
100
AcDbLine
 10
140.0574268535
 20
210.5675461464
 30
0.0
 11
140.0574268535
 21
211.6675468855
 31
0.0
  0
LINE
  5
1D4
330
1F
100
AcDbEntity
  8
0
  6
Continuous
 62
     7
370
    15
100
AcDbLine
 10
138.6574269965
 20
210.4675459438
 30
0.0
 11
139.9574273959
 21
210.4675459438
 31
0.0
  0
ARC
  5
1D5
330
1F
100
AcDbEntity
  8
0
  6
Continuous
 62
     7
370
    15
100
AcDbCircle
 10
139.657427221
 20
210.8675467229
 30
0.0
 40
0.1999999999999886
100
AcDbArc
 50
270.0
 51
0.0
  0
ARC
  5
1D6
330
1F
100
AcDbEntity
  8
0
  6
Continuous
 62
     7
370
    15
100
AcDbCircle
 10
139.957427221
 20
210.5675467229
 30
0.0
 40
0.1000000000000227
100
AcDbArc
 50
270.0
 51
0.0
  0
ARC
  5
1D7
330
1F
100
AcDbEntity
  8
0
  6
Continuous
 62
     7
370
    15
100
AcDbCircle
 10
139.457427221
 20
210.8675467229
 30
0.0
 40
0.1000000000000227
100
AcDbArc
 50
180.0
 51
270.0
  0
LINE
  5
1D8
330
1F
100
AcDbEntity
  8
0
  6
Continuous
 62
     7
370
    15
100
AcDbLine
 10
139.357426925
 20
210.8675467544
 30
0.0
 11
139.357426925
 21
211.3675462776
 31
0.0
  0
ARC
  5
1D9
330
1F
100
AcDbEntity
  8
0
  6
Continuous
 62
     7
370
    15
100
AcDbCircle
 10
139.457427221
 20
211.3675467229
 30
0.0
 40
0.0999999999999943
100
AcDbArc
 50
90.0
 51
180.0
  0
LINE
  5
1DA
330
1F
100
AcDbEntity
  8
0
  6
Continuous
 62
     7
370
    15
100
AcDbLine
 10
139.657427533
 20
211.4675464802
 30
0.0
 11
139.4574271277
 21
211.4675464802
 31
0.0
  0
ARC
  5
1DB
330
1F
100
AcDbEntity
  8
0
  6
Continuous
 62
     7
370
    15
100
AcDbCircle
 10
139.657427221
 20
211.3675467229
 30
0.0
 40
0.0999999999999943
100
AcDbArc
 50
0.0
 51
90.0
  0
LINE
  5
1DC
330
1F
100
AcDbEntity
  8
0
  6
Continuous
 62
     7
370
    15
100
AcDbLine
 10
139.7574269906
 20
210.8675467544
 30
0.0
 11
139.7574269906
 21
211.3675462776
 31
0.0
  0
ARC
  5
1DD
330
1F
100
AcDbEntity
  8
0
  6
Continuous
 62
     7
370
    15
100
AcDbCircle
 10
139.657427221
 20
210.8675467229
 30
0.0
 40
0.0999999999999943
100
AcDbArc
 50
270.0
 51
0.0
  0
LINE
  5
1DE
330
1F
100
AcDbEntity
  8
0
  6
Continuous
 62
     7
370
    15
100
AcDbLine
 10
139.657427533
 20
210.7675465518
 30
0.0
 11
139.4574271277
 21
210.7675465518
 31
0.0
  0
LINE
  5
1DF
330
1F
100
AcDbEntity
  8
0
  6
Continuous
 62
     7
370
    15
100
AcDbLine
 10
127.7574272122
 20
211.3675462776
 30
0.0
 11
127.7574272122
 21
210.8675467544
 31
0.0
  0
ARC
  5
1E0
330
1F
100
AcDbEntity
  8
0
  6
Continuous
 62
     7
370
    15
100
AcDbCircle
 10
127.957427221
 20
210.8675467229
 30
0.0
 40
0.2000000000000028
100
AcDbArc
 50
180.0
 51
270.0
  0
LINE
  5
1E1
330
1F
100
AcDbEntity
  8
0
  6
Continuous
 62
     7
370
    15
100
AcDbLine
 10
127.9574272217
 20
210.6675463491
 30
0.0
 11
128.1574272196
 21
210.6675463491
 31
0.0
  0
ARC
  5
1E2
330
1F
100
AcDbEntity
  8
0
  6
Continuous
 62
     7
370
    15
100
AcDbCircle
 10
128.157427221
 20
210.8675467229
 30
0.0
 40
0.1999999999999886
100
AcDbArc
 50
270.0
 51
0.0
  0
LINE
  5
1E3
330
1F
100
AcDbEntity
  8
0
  6
Continuous
 62
     7
370
    15
100
AcDbLine
 10
128.3574272174
 20
211.3675462776
 30
0.0
 11
128.3574272174
 21
210.8675467544
 31
0.0
  0
ARC
  5
1E4
330
1F
100
AcDbEntity
  8
0
  6
Continuous
 62
     7
370
    15
100
AcDbCircle
 10
128.157427221
 20
211.3675467229
 30
0.0
 40
0.2000000000000171
100
AcDbArc
 50
0.0
 51
90.0
  0
LINE
  5
1E5
330
1F
100
AcDbEntity
  8
0
  6
Continuous
 62
     7
370
    15
100
AcDbLine
 10
128.9574271761
 20
211.7675470882
 30
0.0
 11
127.6574272191
 21
211.7675470882
 31
0.0
  0
ARC
  5
1E6
330
1F
100
AcDbEntity
  8
0
  6
Continuous
 62
     7
370
    15
100
AcDbCircle
 10
128.957427221
 20
211.6675467229
 30
0.0
 40
0.1000000000000227
100
AcDbArc
 50
0.0
 51
90.0
  0
LINE
  5
1E7
330
1F
100
AcDbEntity
  8
0
  6
Continuous
 62
     7
370
    15
100
AcDbLine
 10
129.0574271925
 20
210.5675461464
 30
0.0
 11
129.0574271925
 21
211.6675468855
 31
0.0
  0
ARC
  5
1E8
330
1F
100
AcDbEntity
  8
0
  6
Continuous
 62
     7
370
    15
100
AcDbCircle
 10
128.957427221
 20
210.5675467229
 30
0.0
 40
0.1000000000000227
100
AcDbArc
 50
270.0
 51
0.0
  0
LINE
  5
1E9
330
1F
100
AcDbEntity
  8
0
  6
Continuous
 62
     7
370
    15
100
AcDbLine
 10
128.9574271761
 20
210.4675459438
 30
0.0
 11
127.6574272191
 21
210.4675459438
 31
0.0
  0
ARC
  5
1EA
330
1F
100
AcDbEntity
  8
0
  6
Continuous
 62
     7
370
    15
100
AcDbCircle
 10
127.657427221
 20
210.5675467229
 30
0.0
 40
0.1000000000000227
100
AcDbArc
 50
180.0
 51
270.0
  0
LINE
  5
1EB
330
1F
100
AcDbEntity
  8
0
  6
Continuous
 62
     7
370
    15
100
AcDbLine
 10
127.557427226
 20
211.6675468855
 30
0.0
 11
127.557427226
 21
210.5675461464
 31
0.0
  0
ARC
  5
1EC
330
1F
100
AcDbEntity
  8
0
  6
Continuous
 62
     7
370
    15
100
AcDbCircle
 10
127.657427221
 20
211.6675467229
 30
0.0
 40
0.1000000000000227
100
AcDbArc
 50
90.0
 51
180.0
  0
LINE
  5
1ED
330
1F
100
AcDbEntity
  8
0
  6
Continuous
 62
     7
370
    15
100
AcDbLine
 10
127.9574272217
 20
211.5675466829
 30
0.0
 11
128.1574272196
 21
211.5675466829
 31
0.0
  0
ARC
  5
1EE
330
1F
100
AcDbEntity
  8
0
  6
Continuous
 62
     7
370
    15
100
AcDbCircle
 10
127.957427221
 20
211.3675467229
 30
0.0
 40
0.2000000000000171
100
AcDbArc
 50
90.0
 51
180.0
  0
LINE
  5
1EF
330
1F
100
AcDbEntity
  8
0
  6
Continuous
 62
     7
370
    15
100
AcDbLine
 10
118.2788202301
 20
218.2921397262
 30
0.0
 11
118.37698908
 21
218.0642473274
 31
0.0
  0
LINE
  5
1F0
330
1F
100
AcDbEntity
  8
0
  6
Continuous
 62
     7
370
    15
100
AcDbLine
 10
117.8575562075
 20
218.0968257361
 30
0.0
 11
118.2788202301
 21
218.2921397262
 31
0.0
  0
LINE
  5
1F1
330
1F
100
AcDbEntity
  8
0
  6
Continuous
 62
     7
370
    15
100
AcDbLine
 10
117.8575562075
 20
218.0968257361
 30
0.0
 11
118.1702503696
 21
218.3948057466
 31
0.0
  0
LINE
  5
1F2
330
1F
100
AcDbEntity
  8
0
  6
Continuous
 62
     7
370
    15
100
AcDbLine
 10
118.1702503696
 20
218.3948057466
 30
0.0
 11
118.0270099774
 21
218.5422586971
 31
0.0
  0
LINE
  5
1F3
330
1F
100
AcDbEntity
  8
0
  6
Continuous
 62
     7
370
    15
100
AcDbLine
 10
118.210395588
 20
218.5193362408
 30
0.0
 11
118.0270099774
 21
218.5422586971
 31
0.0
  0
LINE
  5
1F4
330
1F
100
AcDbEntity
  8
0
  6
Continuous
 62
     7
370
    15
100
AcDbLine
 10
118.210395588
 20
218.5193362408
 30
0.0
 11
118.3262856439
 21
218.8901844197
 31
0.0
  0
LINE
  5
1F5
330
1F
100
AcDbEntity
  8
0
  6
Continuous
 62
     7
370
    15
100
AcDbLine
 10
118.516004993
 20
218.5567396455
 30
0.0
 11
118.3262856439
 21
218.8901844197
 31
0.0
  0
LINE
  5
1F6
330
1F
100
AcDbEntity
  8
0
  6
Continuous
 62
     7
370
    15
100
AcDbLine
 10
118.516004993
 20
218.5567396455
 30
0.0
 11
118.7636272743
 21
218.6363312178
 31
0.0
  0
LINE
  5
1F7
330
1F
100
AcDbEntity
  8
0
  6
Continuous
 62
     7
370
    15
100
AcDbLine
 10
118.7636272743
 20
218.6363312178
 30
0.0
 11
118.6011189356
 21
218.3970841341
 31
0.0
  0
LINE
  5
1F8
330
1F
100
AcDbEntity
  8
0
  6
Continuous
 62
     7
370
    15
100
AcDbLine
 10
118.7303537264
 20
218.2099151187
 30
0.0
 11
118.6011189356
 21
218.3970841341
 31
0.0
  0
LINE
  5
1F9
330
1F
100
AcDbEntity
  8
0
  6
Continuous
 62
     7
370
    15
100
AcDbLine
 10
118.3902108803
 20
218.2790967398
 30
0.0
 11
118.37698908
 21
218.0642473274
 31
0.0
  0
LINE
  5
1FA
330
1F
100
AcDbEntity
  8
0
  6
Continuous
 62
     7
370
    15
100
AcDbLine
 10
118.3902108803
 20
218.2790967398
 30
0.0
 11
118.7303537264
 21
218.2099151187
 31
0.0
  0
ARC
  5
1FB
330
1F
100
AcDbEntity
  8
0
  6
Continuous
 62
     7
370
    15
100
AcDbCircle
 10
147.2324270957
 20
220.7275462539
 30
0.0
 40
0.1250003955960977
100
AcDbArc
 50
0.0002359681
 51
89.9997640318
  0
LINE
  5
1FC
330
1F
100
AcDbEntity
  8
0
  6
Continuous
 62
     7
370
    15
100
AcDbLine
 10
147.2324276105
 20
220.8525466495
 30
0.0
 11
147.2324276105
 21
220.9325465136
 31
0.0
  0
ARC
  5
1FD
330
1F
100
AcDbEntity
  8
0
  6
Continuous
 62
     7
370
    15
100
AcDbCircle
 10
147.2324284243
 20
220.7275475826
 30
0.0
 40
0.2049989310182481
100
AcDbArc
 50
359.9997725274
 51
90.0002274725
  0
ARC
  5
1FE
330
1F
100
AcDbEntity
  8
0
  6
Continuous
 62
     7
370
    15
100
AcDbCircle
 10
87.642429708
 20
208.6075492525
 30
0.0
 40
0.1250018925050127
100
AcDbArc
 50
180.0009220805
 51
269.9990779195
  0
LINE
  5
1FF
330
1F
100
AcDbEntity
  8
0
  6
Continuous
 62
     7
370
    15
100
AcDbLine
 10
87.6424276963
 20
208.48254736
 30
0.0
 11
87.6424276963
 21
208.4025460058
 31
0.0
  0
ARC
  5
200
330
1F
100
AcDbEntity
  8
0
  6
Continuous
 62
     7
370
    15
100
AcDbCircle
 10
87.6424253923
 20
208.6075449368
 30
0.0
 40
0.2049989310629465
100
AcDbArc
 50
179.9993560597
 51
270.0006439404
  0
LINE
  5
201
330
1F
100
AcDbEntity
  8
0
  6
Continuous
 62
     7
370
    15
100
AcDbLine
 10
87.6424276963
 20
220.8525466495
 30
0.0
 11
87.6424276963
 21
220.9325465136
 31
0.0
  0
ARC
  5
202
330
1F
100
AcDbEntity
  8
0
  6
Continuous
 62
     7
370
    15
100
AcDbCircle
 10
87.6424282111
 20
220.7275462539
 30
0.0
 40
0.1250003955961546
100
AcDbArc
 50
90.0002359682
 51
179.9997640318
  0
ARC
  5
203
330
1F
100
AcDbEntity
  8
0
  6
Continuous
 62
     7
370
    15
100
AcDbCircle
 10
87.6424253923
 20
220.7275475826
 30
0.0
 40
0.2049989310406159
100
AcDbArc
 50
89.9993560566
 51
180.0002274695
  0
LINE
  5
204
330
1F
100
AcDbEntity
  8
0
  6
Continuous
 62
     7
370
    15
100
AcDbLine
 10
147.2324276105
 20
208.48254736
 30
0.0
 11
147.2324276105
 21
208.4025460058
 31
0.0
  0
ARC
  5
205
330
1F
100
AcDbEntity
  8
0
  6
Continuous
 62
     7
370
    15
100
AcDbCircle
 10
147.2324255988
 20
208.6075492525
 30
0.0
 40
0.1250018925049843
100
AcDbArc
 50
270.0009220805
 51
359.9990779195
  0
ARC
  5
206
330
1F
100
AcDbEntity
  8
0
  6
Continuous
 62
     7
370
    15
100
AcDbCircle
 10
147.2324284243
 20
208.6075449368
 30
0.0
 40
0.2049989310405503
100
AcDbArc
 50
269.9997725305
 51
0.0006439434
  0
LINE
  5
207
330
1F
100
AcDbEntity
  8
0
  6
Continuous
 62
     7
370
    15
100
AcDbLine
 10
147.2029978171
 20
220.8525466495
 30
0.0
 11
147.2324276105
 21
220.8525466495
 31
0.0
  0
LINE
  5
208
330
1F
100
AcDbEntity
  8
0
  6
Continuous
 62
     7
370
    15
100
AcDbLine
 10
147.1631327406
 20
220.9325465136
 30
0.0
 11
147.2324276105
 21
220.9325465136
 31
0.0
  0
LINE
  5
209
330
1F
100
AcDbEntity
  8
0
  6
Continuous
 62
     7
370
    15
100
AcDbLine
 10
87.6424276963
 20
220.8525466495
 30
0.0
 11
87.6714998618
 21
220.8525466495
 31
0.0
  0
LINE
  5
20A
330
1F
100
AcDbEntity
  8
0
  6
Continuous
 62
     7
370
    15
100
AcDbLine
 10
87.6424276963
 20
220.9325465136
 30
0.0
 11
87.7117210761
 21
220.9325465136
 31
0.0
  0
LINE
  5
20B
330
1F
100
AcDbEntity
  8
0
  6
Continuous
 62
     7
370
    15
100
AcDbLine
 10
147.2324276105
 20
208.48254736
 30
0.0
 11
147.2133034602
 21
208.48254736
 31
0.0
  0
LINE
  5
20C
330
1F
100
AcDbEntity
  8
0
  6
Continuous
 62
     7
370
    15
100
AcDbLine
 10
147.2324276105
 20
208.4025460058
 30
0.0
 11
147.1874275938
 21
208.4025460058
 31
0.0
  0
LINE
  5
20D
330
1F
100
AcDbEntity
  8
0
  6
Continuous
 62
     7
370
    15
100
AcDbLine
 10
87.6615518466
 20
208.48254736
 30
0.0
 11
87.6424276963
 21
208.48254736
 31
0.0
  0
LINE
  5
20E
330
1F
100
AcDbEntity
  8
0
  6
Continuous
 62
     7
370
    15
100
AcDbLine
 10
87.6874262229
 20
208.4025460058
 30
0.0
 11
87.6424276963
 21
208.4025460058
 31
0.0
  0
LINE
  5
20F
330
1F
100
AcDbEntity
  8
0
  6
Continuous
 62
     7
370
    15
100
AcDbLine
 10
87.6424276963
 20
220.8518403345
 30
0.0
 11
87.6713240281
 21
220.8518403345
 31
0.0
  0
LINE
  5
210
330
1F
100
AcDbEntity
  8
0
  6
Continuous
 62
     7
370
    15
100
AcDbLine
 10
87.6424276963
 20
208.483253675
 30
0.0
 11
87.6614326373
 21
208.483253675
 31
0.0
  0
LINE
  5
211
330
1F
100
AcDbEntity
  8
0
  6
Continuous
 62
     7
370
    15
100
AcDbLine
 10
147.2324276105
 20
208.483253675
 30
0.0
 11
147.2134226695
 21
208.483253675
 31
0.0
  0
LINE
  5
212
330
1F
100
AcDbEntity
  8
0
  6
Continuous
 62
     7
370
    15
100
AcDbLine
 10
147.2324276105
 20
220.8518403345
 30
0.0
 11
147.2031989828
 21
220.8518403345
 31
0.0
  0
LWPOLYLINE
  5
213
330
1F
100
AcDbEntity
  8
0
  6
Continuous
 62
     7
370
    15
100
AcDbPolyline
 90
        9
 70
   128
 43
0.0
 10
147.0374265447
 20
238.9295796626
 10
147.0278197661
 20
238.9043329977
 10
146.9993674889
 20
238.880056771
 10
146.9531619683
 20
238.8576834225
 10
146.8909809127
 20
238.8380731218
 10
146.8152129784
 20
238.8219794952
 10
146.7287683621
 20
238.8100205683
 10
146.634973003
 20
238.802656787
 10
146.5374270216
 20
238.8001701557
  0
LINE
  5
214
330
1F
100
AcDbEntity
  8
0
  6
Continuous
 62
     7
370
    15
100
AcDbLine
 10
147.0374265447
 20
238.9295796626
 30
0.0
 11
147.0374265447
 21
238.8136683726
 31
0.0
  0
LWPOLYLINE
  5
215
330
1F
100
AcDbEntity
  8
0
  6
Continuous
 62
     7
370
    15
100
AcDbPolyline
 90
        8
 70
   128
 43
0.0
 10
147.0374265447
 20
238.8136683726
 10
147.0278197661
 20
238.7884220802
 10
146.9993674889
 20
238.7641454809
 10
146.9531619683
 20
238.741772505
 10
146.8909809127
 20
238.7221622043
 10
146.8152129784
 20
238.7060682052
 10
146.7287683621
 20
238.6941096508
 10
146.700265421
 20
238.6913141929
  0
LINE
  5
216
330
1F
100
AcDbEntity
  8
0
  6
Continuous
 62
     7
370
    15
100
AcDbLine
 10
146.5374270216
 20
238.8001701557
 30
0.0
 11
88.3374267951
 21
238.8001701557
 31
0.0
  0
LWPOLYLINE
  5
217
330
1F
100
AcDbEntity
  8
0
  6
Continuous
 62
     7
370
    15
100
AcDbPolyline
 90
        9
 70
   128
 43
0.0
 10
88.3374267951
 20
238.8001701557
 10
88.2398808137
 20
238.802656787
 10
88.1460869446
 20
238.8100205683
 10
88.0596423283
 20
238.8219794952
 10
87.9838729039
 20
238.8380731218
 10
87.9216933385
 20
238.8576834225
 10
87.8754878178
 20
238.880056771
 10
87.8470355406
 20
238.9043329977
 10
87.8374272719
 20
238.9295796626
  0
LINE
  5
218
330
1F
100
AcDbEntity
  8
0
  6
Continuous
 62
     7
370
    15
100
AcDbLine
 10
87.8374272719
 20
238.9295796626
 30
0.0
 11
87.8374272719
 21
239.0029660188
 31
0.0
  0
LINE
  5
219
330
1F
100
AcDbEntity
  8
0
  6
Continuous
 62
     7
370
    15
100
AcDbLine
 10
147.0374265447
 20
239.0029660188
 30
0.0
 11
87.8374272719
 21
239.0029660188
 31
0.0
  0
LINE
  5
21A
330
1F
100
AcDbEntity
  8
0
  6
Continuous
 62
     7
370
    15
100
AcDbLine
 10
147.0374265447
 20
239.0029660188
 30
0.0
 11
147.0374265447
 21
238.9295796626
 31
0.0
  0
LINE
  5
21B
330
1F
100
AcDbEntity
  8
0
  6
Continuous
 62
     7
370
    15
100
AcDbLine
 10
87.8374272719
 20
238.9295796626
 30
0.0
 11
87.8374272719
 21
238.8136683726
 31
0.0
  0
LWPOLYLINE
  5
21C
330
1F
100
AcDbEntity
  8
0
  6
Continuous
 62
     7
370
    15
100
AcDbPolyline
 90
        8
 70
   128
 43
0.0
 10
88.1745898858
 20
238.6913141929
 10
88.1460869446
 20
238.6941096508
 10
88.0596423283
 20
238.7060682052
 10
87.9838729039
 20
238.7221622043
 10
87.9216933385
 20
238.741772505
 10
87.8754878178
 20
238.7641454809
 10
87.8470355406
 20
238.7884220802
 10
87.8374272719
 20
238.8136683726
  0
LINE
  5
21D
330
1F
100
AcDbEntity
  8
0
  6
Continuous
 62
     7
370
    15
100
AcDbLine
 10
87.8374272719
 20
239.0029660188
 30
0.0
 11
87.8374272719
 21
239.0113140219
 31
0.0
  0
LINE
  5
21E
330
1F
100
AcDbEntity
  8
0
  6
Continuous
 62
     7
370
    15
100
AcDbLine
 10
87.8374272719
 20
239.0113140219
 30
0.0
 11
147.0374265447
 21
239.0113140219
 31
0.0
  0
LINE
  5
21F
330
1F
100
AcDbEntity
  8
0
  6
Continuous
 62
     7
370
    15
100
AcDbLine
 10
147.0374265447
 20
239.0113140219
 30
0.0
 11
147.0374265447
 21
239.0029660188
 31
0.0
  0
LINE
  5
220
330
1F
100
AcDbEntity
  8
0
  6
Continuous
 62
     7
370
    15
100
AcDbLine
 10
147.0374265447
 20
238.7663143449
 30
0.0
 11
147.0374265447
 21
238.8136683726
 31
0.0
  0
LINE
  5
221
330
1F
100
AcDbEntity
  8
0
  6
Continuous
 62
     7
370
    15
100
AcDbLine
 10
87.8374272719
 20
238.8136683726
 30
0.0
 11
87.8374272719
 21
238.7663143449
 31
0.0
  0
LINE
  5
222
330
1F
100
AcDbEntity
  8
0
  6
Continuous
 62
     7
370
    15
100
AcDbLine
 10
87.8374272719
 20
238.6913141929
 30
0.0
 11
87.8374272719
 21
238.7663143449
 31
0.0
  0
LINE
  5
223
330
1F
100
AcDbEntity
  8
0
  6
Continuous
 62
     7
370
    15
100
AcDbLine
 10
147.0374265447
 20
238.7663143449
 30
0.0
 11
147.0374265447
 21
238.6913141929
 31
0.0
  0
LINE
  5
224
330
1F
100
AcDbEntity
  8
0
  6
Continuous
 62
     7
370
    15
100
AcDbLine
 10
147.2324276105
 20
255.2529963427
 30
0.0
 11
147.4374273553
 21
255.2529963427
 31
0.0
  0
LINE
  5
225
330
1F
100
AcDbEntity
  8
0
  6
Continuous
 62
     7
370
    15
100
AcDbLine
 10
147.4374273553
 20
238.6613142439
 30
0.0
 11
147.4374273553
 21
255.2529963427
 31
0.0
  0
LWPOLYLINE
  5
226
330
1F
100
AcDbEntity
  8
0
  6
Continuous
 62
     7
370
    15
100
AcDbPolyline
 90
        3
 70
   128
 43
0.0
 10
105.9340098634
 20
257.7950852685
 10
105.9074515238
 20
257.7945324355
 10
105.8807397023
 20
257.7943476611
  0
LINE
  5
227
330
1F
100
AcDbEntity
  8
0
  6
Continuous
 62
     7
370
    15
100
AcDbLine
 10
107.9493188992
 20
257.7950852685
 30
0.0
 11
105.9340098634
 21
257.7950852685
 31
0.0
  0
LWPOLYLINE
  5
228
330
1F
100
AcDbEntity
  8
0
  6
Continuous
 62
     7
370
    15
100
AcDbPolyline
 90
        3
 70
   128
 43
0.0
 10
108.0025890604
 20
257.7943476611
 10
107.9759547248
 20
257.7945309453
 10
107.9493188992
 20
257.7950852685
  0
LINE
  5
229
330
1F
100
AcDbEntity
  8
0
  6
Continuous
 62
     7
370
    15
100
AcDbLine
 10
115.8807398513
 20
257.7943476611
 30
0.0
 11
108.0025890604
 21
257.7943476611
 31
0.0
  0
LWPOLYLINE
  5
22A
330
1F
100
AcDbEntity
  8
0
  6
Continuous
 62
     7
370
    15
100
AcDbPolyline
 90
        3
 70
   128
 43
0.0
 10
115.9340100124
 20
257.7950852685
 10
115.9074509278
 20
257.7945324355
 10
115.8807398513
 20
257.7943476611
  0
LINE
  5
22B
330
1F
100
AcDbEntity
  8
0
  6
Continuous
 62
     7
370
    15
100
AcDbLine
 10
117.9493190482
 20
257.7950852685
 30
0.0
 11
115.9340100124
 21
257.7950852685
 31
0.0
  0
LWPOLYLINE
  5
22C
330
1F
100
AcDbEntity
  8
0
  6
Continuous
 62
     7
370
    15
100
AcDbPolyline
 90
        3
 70
   128
 43
0.0
 10
118.0025892094
 20
257.7943476611
 10
117.9759541288
 20
257.7945309453
 10
117.9493190482
 20
257.7950852685
  0
LINE
  5
22D
330
1F
100
AcDbEntity
  8
0
  6
Continuous
 62
     7
370
    15
100
AcDbLine
 10
125.880739814
 20
257.7943476611
 30
0.0
 11
118.0025892094
 21
257.7943476611
 31
0.0
  0
LWPOLYLINE
  5
22E
330
1F
100
AcDbEntity
  8
0
  6
Continuous
 62
     7
370
    15
100
AcDbPolyline
 90
        3
 70
   128
 43
0.0
 10
125.9340101615
 20
257.7950852685
 10
125.9074508905
 20
257.7945324355
 10
125.880739814
 20
257.7943476611
  0
LINE
  5
22F
330
1F
100
AcDbEntity
  8
0
  6
Continuous
 62
     7
370
    15
100
AcDbLine
 10
127.9493188422
 20
257.7950852685
 30
0.0
 11
125.9340101615
 21
257.7950852685
 31
0.0
  0
LWPOLYLINE
  5
230
330
1F
100
AcDbEntity
  8
0
  6
Continuous
 62
     7
370
    15
100
AcDbPolyline
 90
        3
 70
   128
 43
0.0
 10
128.0025892798
 20
257.7943476611
 10
127.9759540624
 20
257.7945309453
 10
127.9493188422
 20
257.7950852685
  0
LINE
  5
231
330
1F
100
AcDbEntity
  8
0
  6
Continuous
 62
     7
370
    15
100
AcDbLine
 10
135.8807394043
 20
257.7943476611
 30
0.0
 11
128.0025892798
 21
257.7943476611
 31
0.0
  0
LWPOLYLINE
  5
232
330
1F
100
AcDbEntity
  8
0
  6
Continuous
 62
     7
370
    15
100
AcDbPolyline
 90
        3
 70
   128
 43
0.0
 10
135.9340103105
 20
257.7950852685
 10
135.9074512258
 20
257.7945324355
 10
135.8807394043
 20
257.7943476611
  0
LINE
  5
233
330
1F
100
AcDbEntity
  8
0
  6
Continuous
 62
     7
370
    15
100
AcDbLine
 10
137.9493186012
 20
257.7950852685
 30
0.0
 11
135.9340103105
 21
257.7950852685
 31
0.0
  0
LWPOLYLINE
  5
234
330
1F
100
AcDbEntity
  8
0
  6
Continuous
 62
     7
370
    15
100
AcDbPolyline
 90
        3
 70
   128
 43
0.0
 10
138.0025895074
 20
257.7943476611
 10
137.9759544268
 20
257.7945309453
 10
137.9493186012
 20
257.7950852685
  0
LINE
  5
235
330
1F
100
AcDbEntity
  8
0
  6
Continuous
 62
     7
370
    15
100
AcDbLine
 10
144.9374267593
 20
257.7943476611
 30
0.0
 11
138.0025895074
 21
257.7943476611
 31
0.0
  0
LWPOLYLINE
  5
236
330
1F
100
AcDbEntity
  8
0
  6
Continuous
 62
     7
370
    15
100
AcDbPolyline
 90
        3
 70
   128
 43
0.0
 10
144.9906969205
 20
257.7950852685
 10
144.9641385809
 20
257.7945324355
 10
144.9374267593
 20
257.7943476611
  0
LINE
  5
237
330
1F
100
AcDbEntity
  8
0
  6
Continuous
 62
     7
370
    15
100
AcDbLine
 10
147.3574274912
 20
257.7950852685
 30
0.0
 11
144.9906969205
 21
257.7950852685
 31
0.0
  0
LINE
  5
238
330
1F
100
AcDbEntity
  8
0
  6
Continuous
 62
     7
370
    15
100
AcDbLine
 10
89.8841554061
 20
257.7950852685
 30
0.0
 11
87.5174278155
 21
257.7950852685
 31
0.0
  0
LWPOLYLINE
  5
239
330
1F
100
AcDbEntity
  8
0
  6
Continuous
 62
     7
370
    15
100
AcDbPolyline
 90
        3
 70
   128
 43
0.0
 10
89.9374270573
 20
257.7943476611
 10
89.9107927218
 20
257.7945309453
 10
89.8841554061
 20
257.7950852685
  0
LINE
  5
23A
330
1F
100
AcDbEntity
  8
0
  6
Continuous
 62
     7
370
    15
100
AcDbLine
 10
95.8807402983
 20
257.7943476611
 30
0.0
 11
89.9374270573
 21
257.7943476611
 31
0.0
  0
LWPOLYLINE
  5
23B
330
1F
100
AcDbEntity
  8
0
  6
Continuous
 62
     7
370
    15
100
AcDbPolyline
 90
        3
 70
   128
 43
0.0
 10
95.9340089694
 20
257.7950852685
 10
95.9074521199
 20
257.7945324355
 10
95.8807402983
 20
257.7943476611
  0
LINE
  5
23C
330
1F
100
AcDbEntity
  8
0
  6
Continuous
 62
     7
370
    15
100
AcDbLine
 10
97.9493194953
 20
257.7950852685
 30
0.0
 11
95.9340089694
 21
257.7950852685
 31
0.0
  0
LWPOLYLINE
  5
23D
330
1F
100
AcDbEntity
  8
0
  6
Continuous
 62
     7
370
    15
100
AcDbPolyline
 90
        3
 70
   128
 43
0.0
 10
98.0025881663
 20
257.7943476611
 10
97.9759538308
 20
257.7945309453
 10
97.9493194953
 20
257.7950852685
  0
LINE
  5
23E
330
1F
100
AcDbEntity
  8
0
  6
Continuous
 62
     7
370
    15
100
AcDbLine
 10
105.8807397023
 20
257.7943476611
 30
0.0
 11
98.0025881663
 21
257.7943476611
 31
0.0
  0
LINE
  5
23F
330
1F
100
AcDbEntity
  8
0
  6
Continuous
 62
     7
370
    15
100
AcDbLine
 10
147.3574274912
 20
257.7950852685
 30
0.0
 11
147.3574274912
 21
255.3029971891
 31
0.0
  0
LINE
  5
240
330
1F
100
AcDbEntity
  8
0
  6
Continuous
 62
     7
370
    15
100
AcDbLine
 10
87.5174278155
 20
257.7950852685
 30
0.0
 11
87.5174278155
 21
255.3029971891
 31
0.0
  0
LINE
  5
241
330
1F
100
AcDbEntity
  8
0
  6
Continuous
 62
     7
370
    15
100
AcDbLine
 10
87.4374264613
 20
255.2529963427
 30
0.0
 11
87.4374264613
 21
238.6613142439
 31
0.0
  0
LINE
  5
242
330
1F
100
AcDbEntity
  8
0
  6
Continuous
 62
     7
370
    15
100
AcDbLine
 10
87.4374264613
 20
255.2529963427
 30
0.0
 11
87.6424276963
 21
255.2529963427
 31
0.0
  0
LINE
  5
243
330
1F
100
AcDbEntity
  8
0
  6
Continuous
 62
     7
370
    15
100
AcDbLine
 10
87.6824283734
 20
255.2929970198
 30
0.0
 11
87.5174278155
 21
255.2929970198
 31
0.0
  0
LINE
  5
244
330
1F
100
AcDbEntity
  8
0
  6
Continuous
 62
     7
370
    15
100
AcDbLine
 10
147.3574274912
 20
255.3029971891
 30
0.0
 11
147.3574274912
 21
255.2929970198
 31
0.0
  0
LINE
  5
245
330
1F
100
AcDbEntity
  8
0
  6
Continuous
 62
     7
370
    15
100
AcDbLine
 10
87.5174278155
 20
255.3029971891
 30
0.0
 11
87.5174278155
 21
255.2929970198
 31
0.0
  0
LINE
  5
246
330
1F
100
AcDbEntity
  8
0
  6
Continuous
 62
     7
370
    15
100
AcDbLine
 10
147.1924269333
 20
255.2529963427
 30
0.0
 11
147.2324276105
 21
255.2529963427
 31
0.0
  0
LINE
  5
247
330
1F
100
AcDbEntity
  8
0
  6
Continuous
 62
     7
370
    15
100
AcDbLine
 10
147.1924269333
 20
255.2929970198
 30
0.0
 11
147.1924269333
 21
255.2529963427
 31
0.0
  0
LINE
  5
248
330
1F
100
AcDbEntity
  8
0
  6
Continuous
 62
     7
370
    15
100
AcDbLine
 10
87.6424276963
 20
255.2529963427
 30
0.0
 11
87.6824283734
 21
255.2529963427
 31
0.0
  0
LINE
  5
249
330
1F
100
AcDbEntity
  8
0
  6
Continuous
 62
     7
370
    15
100
AcDbLine
 10
147.3574274912
 20
255.2929970198
 30
0.0
 11
147.1924269333
 21
255.2929970198
 31
0.0
  0
LINE
  5
24A
330
1F
100
AcDbEntity
  8
0
  6
Continuous
 62
     7
370
    15
100
AcDbLine
 10
87.6824283734
 20
255.2529963427
 30
0.0
 11
87.6824283734
 21
255.2929970198
 31
0.0
  0
LINE
  5
24B
330
1F
100
AcDbEntity
  8
0
  6
Continuous
 62
     7
370
    15
100
AcDbLine
 10
87.4374264613
 20
255.3029971891
 30
0.0
 11
87.5174278155
 21
255.3029971891
 31
0.0
  0
LINE
  5
24C
330
1F
100
AcDbEntity
  8
0
  6
Continuous
 62
     7
370
    15
100
AcDbLine
 10
87.4374264613
 20
257.7081518941
 30
0.0
 11
87.5174278155
 21
257.7081518941
 31
0.0
  0
LINE
  5
24D
330
1F
100
AcDbEntity
  8
0
  6
Continuous
 62
     7
370
    15
100
AcDbLine
 10
87.4374264613
 20
257.7081518941
 30
0.0
 11
87.4374264613
 21
255.3029971891
 31
0.0
  0
LINE
  5
24E
330
1F
100
AcDbEntity
  8
0
  6
Continuous
 62
     7
370
    15
100
AcDbLine
 10
147.4374273553
 20
257.7081518941
 30
0.0
 11
147.3574274912
 21
257.7081518941
 31
0.0
  0
LINE
  5
24F
330
1F
100
AcDbEntity
  8
0
  6
Continuous
 62
     7
370
    15
100
AcDbLine
 10
147.4374273553
 20
257.7081518941
 30
0.0
 11
147.4374273553
 21
255.3029971891
 31
0.0
  0
LINE
  5
250
330
1F
100
AcDbEntity
  8
0
  6
Continuous
 62
     7
370
    15
100
AcDbLine
 10
147.4374273553
 20
255.3029971891
 30
0.0
 11
147.3574274912
 21
255.3029971891
 31
0.0
  0
LINE
  5
251
330
1F
100
AcDbEntity
  8
0
  6
Continuous
 62
     7
370
    15
100
AcDbLine
 10
147.3574274912
 20
255.2929970198
 30
0.0
 11
147.3574274912
 21
255.2529963427
 31
0.0
  0
LINE
  5
252
330
1F
100
AcDbEntity
  8
0
  6
Continuous
 62
     7
370
    15
100
AcDbLine
 10
147.4374273553
 20
255.3029971891
 30
0.0
 11
147.4374273553
 21
255.2529963427
 31
0.0
  0
LINE
  5
253
330
1F
100
AcDbEntity
  8
0
  6
Continuous
 62
     7
370
    15
100
AcDbLine
 10
87.5174278155
 20
255.2929970198
 30
0.0
 11
87.5174278155
 21
255.2529963427
 31
0.0
  0
LINE
  5
254
330
1F
100
AcDbEntity
  8
0
  6
Continuous
 62
     7
370
    15
100
AcDbLine
 10
87.4374264613
 20
255.3029971891
 30
0.0
 11
87.4374264613
 21
255.2529963427
 31
0.0
  0
LWPOLYLINE
  5
255
330
1F
100
AcDbEntity
  8
0
  6
Continuous
 62
     7
370
    15
100
AcDbPolyline
 90
        9
 70
   128
 43
0.0
 10
144.9906969205
 20
257.7950852685
 10
145.0802841917
 20
257.7997433715
 10
145.165098621
 20
257.8085425072
 10
145.2423089877
 20
257.8211906128
 10
145.309337391
 20
257.8372644954
 10
145.3639456764
 20
257.856226223
 10
145.4043084517
 20
257.8774424963
 10
145.4290771618
 20
257.9002070003
 10
145.4374277726
 20
257.9237582856
  0
LWPOLYLINE
  5
256
330
1F
100
AcDbEntity
  8
0
  6
Continuous
 62
     7
370
    15
100
AcDbPolyline
 90
        9
 70
   128
 43
0.0
 10
89.4374275342
 20
257.9237582856
 10
89.4457781449
 20
257.9002070003
 10
89.470546855
 20
257.8774424963
 10
89.5109081402
 20
257.856226223
 10
89.5655179158
 20
257.8372644954
 10
89.6325463191
 20
257.8211906128
 10
89.7097551957
 20
257.8085425072
 10
89.794569625
 20
257.7997433715
 10
89.8841554061
 20
257.7950852685
  0
LWPOLYLINE
  5
257
330
1F
100
AcDbEntity
  8
0
  6
Continuous
 62
     7
370
    15
100
AcDbPolyline
 90
        9
 70
   128
 43
0.0
 10
127.5568966981
 20
257.9824122363
 10
127.5155966397
 20
257.9530837708
 10
127.5026329089
 20
257.9220491224
 10
127.5187597837
 20
257.8911128216
 10
127.5630389567
 20
257.8620764189
 10
127.6328939473
 20
257.836629706
 10
127.7242601611
 20
257.816252368
 10
127.8318213177
 20
257.8021305376
 10
127.9493188422
 20
257.7950852685
  0
LINE
  5
258
330
1F
100
AcDbEntity
  8
0
  6
Continuous
 62
     7
370
    15
100
AcDbLine
 10
127.5568966981
 20
257.9051392847
 30
0.0
 11
127.5568966981
 21
257.9824122363
 31
0.0
  0
LINE
  5
259
330
1F
100
AcDbEntity
  8
0
  6
Continuous
 62
     7
370
    15
100
AcDbLine
 10
127.5568966981
 20
257.9051392847
 30
0.0
 11
127.5253944792
 21
257.8851210647
 31
0.0
  0
LWPOLYLINE
  5
25A
330
1F
100
AcDbEntity
  8
0
  6
Continuous
 62
     7
370
    15
100
AcDbPolyline
 90
        9
 70
   128
 43
0.0
 10
97.5568974152
 20
257.9824122363
 10
97.5155973569
 20
257.9530837708
 10
97.5026333466
 20
257.9220491224
 10
97.5187593833
 20
257.8911128216
 10
97.5630396739
 20
257.8620764189
 10
97.6328933373
 20
257.836629706
 10
97.7242612973
 20
257.816252368
 10
97.831820859
 20
257.8021305376
 10
97.9493194953
 20
257.7950852685
  0
LINE
  5
25B
330
1F
100
AcDbEntity
  8
0
  6
Continuous
 62
     7
370
    15
100
AcDbLine
 10
97.5568974152
 20
257.9051392847
 30
0.0
 11
97.5568974152
 21
257.9824122363
 31
0.0
  0
LINE
  5
25C
330
1F
100
AcDbEntity
  8
0
  6
Continuous
 62
     7
370
    15
100
AcDbLine
 10
97.5568974152
 20
257.9051392847
 30
0.0
 11
97.5253933802
 21
257.8851210647
 31
0.0
  0
LWPOLYLINE
  5
25D
330
1F
100
AcDbEntity
  8
0
  6
Continuous
 62
     7
370
    15
100
AcDbPolyline
 90
        9
 70
   128
 43
0.0
 10
117.5568969682
 20
257.9824122363
 10
117.5155969098
 20
257.9530837708
 10
117.5026328996
 20
257.9220491224
 10
117.5187596813
 20
257.8911128216
 10
117.5630392268
 20
257.8620764189
 10
117.6328936353
 20
257.836629706
 10
117.7242601052
 20
257.816252368
 10
117.831821157
 20
257.8021305376
 10
117.9493190482
 20
257.7950852685
  0
LINE
  5
25E
330
1F
100
AcDbEntity
  8
0
  6
Continuous
 62
     7
370
    15
100
AcDbLine
 10
117.5568969682
 20
257.9051392847
 30
0.0
 11
117.5568969682
 21
257.9824122363
 31
0.0
  0
LINE
  5
25F
330
1F
100
AcDbEntity
  8
0
  6
Continuous
 62
     7
370
    15
100
AcDbLine
 10
117.5568969682
 20
257.9051392847
 30
0.0
 11
117.5253944233
 21
257.8851210647
 31
0.0
  0
LWPOLYLINE
  5
260
330
1F
100
AcDbEntity
  8
0
  6
Continuous
 62
     7
370
    15
100
AcDbPolyline
 90
        9
 70
   128
 43
0.0
 10
107.5568968192
 20
257.9824122363
 10
107.5155967608
 20
257.9530837708
 10
107.5026327506
 20
257.9220491224
 10
107.5187602773
 20
257.8911128216
 10
107.5630390778
 20
257.8620764189
 10
107.6328942314
 20
257.836629706
 10
107.7242607012
 20
257.816252368
 10
107.8318217531
 20
257.8021305376
 10
107.9493188992
 20
257.7950852685
  0
LINE
  5
261
330
1F
100
AcDbEntity
  8
0
  6
Continuous
 62
     7
370
    15
100
AcDbLine
 10
107.5568968192
 20
257.9051392847
 30
0.0
 11
107.5568968192
 21
257.9824122363
 31
0.0
  0
LINE
  5
262
330
1F
100
AcDbEntity
  8
0
  6
Continuous
 62
     7
370
    15
100
AcDbLine
 10
107.5568968192
 20
257.9051392847
 30
0.0
 11
107.5253942743
 21
257.8851210647
 31
0.0
  0
LWPOLYLINE
  5
263
330
1F
100
AcDbEntity
  8
0
  6
Continuous
 62
     7
370
    15
100
AcDbPolyline
 90
        9
 70
   128
 43
0.0
 10
137.5568965212
 20
257.9824122363
 10
137.5155964628
 20
257.9530837708
 10
137.5026331976
 20
257.9220491224
 10
137.5187599793
 20
257.8911128216
 10
137.5630387798
 20
257.8620764189
 10
137.6328939334
 20
257.836629706
 10
137.7242604032
 20
257.816252368
 10
137.8318214551
 20
257.8021305376
 10
137.9493186012
 20
257.7950852685
  0
LINE
  5
264
330
1F
100
AcDbEntity
  8
0
  6
Continuous
 62
     7
370
    15
100
AcDbLine
 10
137.5568965212
 20
257.9051392847
 30
0.0
 11
137.5568965212
 21
257.9824122363
 31
0.0
  0
LINE
  5
265
330
1F
100
AcDbEntity
  8
0
  6
Continuous
 62
     7
370
    15
100
AcDbLine
 10
137.5568965212
 20
257.9051392847
 30
0.0
 11
137.5253947213
 21
257.8851210647
 31
0.0
  0
LINE
  5
266
330
1F
100
AcDbEntity
  8
0
  6
Continuous
 62
     7
370
    15
100
AcDbLine
 10
96.3264310494
 20
257.8651043349
 30
0.0
 11
97.3179572955
 21
258.369800704
 31
0.0
  0
LWPOLYLINE
  5
267
330
1F
100
AcDbEntity
  8
0
  6
Continuous
 62
     7
370
    15
100
AcDbPolyline
 90
        9
 70
   128
 43
0.0
 10
97.3179572955
 20
258.369800704
 10
97.3607266083
 20
258.4008144908
 10
97.3718667164
 20
258.433616417
 10
97.3506593838
 20
258.4660860472
 10
97.2984755173
 20
258.4961178475
 10
97.2186947003
 20
258.5217687064
 10
97.1164846554
 20
258.5413786345
 10
96.9984614983
 20
258.5536750727
 10
96.8722665444
 20
258.5578652792
  0
LINE
  5
268
330
1F
100
AcDbEntity
  8
0
  6
Continuous
 62
     7
370
    15
100
AcDbLine
 10
96.8722665444
 20
258.5578652792
 30
0.0
 11
89.9374270573
 21
258.5578652792
 31
0.0
  0
LWPOLYLINE
  5
269
330
1F
100
AcDbEntity
  8
0
  6
Continuous
 62
     7
370
    15
100
AcDbPolyline
 90
        9
 70
   128
 43
0.0
 10
89.9374270573
 20
258.5578652792
 10
89.8398810759
 20
258.5553782754
 10
89.7460842267
 20
258.5480141216
 10
89.6596425906
 20
258.5360559397
 10
89.5838731661
 20
258.5199611955
 10
89.5216936007
 20
258.5003512674
 10
89.4754880801
 20
258.477978664
 10
89.4470358029
 20
258.4537016922
 10
89.4374275342
 20
258.4284561449
  0
LINE
  5
26A
330
1F
100
AcDbEntity
  8
0
  6
Continuous
 62
     7
370
    15
100
AcDbLine
 10
89.4374275342
 20
258.4284561449
 30
0.0
 11
89.4374275342
 21
257.9237582856
 31
0.0
  0
LINE
  5
26B
330
1F
100
AcDbEntity
  8
0
  6
Continuous
 62
     7
370
    15
100
AcDbLine
 10
147.3574274912
 20
258.6872744136
 30
0.0
 11
87.5174278155
 21
258.6872744136
 31
0.0
  0
LINE
  5
26C
330
1F
100
AcDbEntity
  8
0
  6
Continuous
 62
     7
370
    15
100
AcDbLine
 10
145.4374277726
 20
257.9237582856
 30
0.0
 11
145.4374277726
 21
258.4284561449
 31
0.0
  0
LWPOLYLINE
  5
26D
330
1F
100
AcDbEntity
  8
0
  6
Continuous
 62
     7
370
    15
100
AcDbPolyline
 90
        9
 70
   128
 43
0.0
 10
145.4374277726
 20
258.4284561449
 10
145.4278195038
 20
258.4537016922
 10
145.3993672267
 20
258.477978664
 10
145.353161706
 20
258.5003512674
 10
145.2909806505
 20
258.5199611955
 10
145.2152127162
 20
258.5360559397
 10
145.12876959
 20
258.5480141216
 10
145.0349727407
 20
258.5553782754
 10
144.9374267593
 20
258.5578652792
  0
LINE
  5
26E
330
1F
100
AcDbEntity
  8
0
  6
Continuous
 62
     7
370
    15
100
AcDbLine
 10
144.9374267593
 20
258.5578652792
 30
0.0
 11
138.9941150084
 21
258.5578652792
 31
0.0
  0
ARC
  5
26F
330
1F
100
AcDbEntity
  8
0
  6
Continuous
 62
     7
370
    15
100
AcDbCircle
 10
138.9440535531
 20
257.4340998768
 30
0.0
 40
1.124879917644341
100
AcDbArc
 50
87.4492763797
 51
110.5919428947
  0
LINE
  5
270
330
1F
100
AcDbEntity
  8
0
  6
Continuous
 62
     7
370
    15
100
AcDbLine
 10
138.5484220222
 20
258.4871100955
 30
0.0
 11
137.5568965212
 21
257.9824122363
 31
0.0
  0
LINE
  5
271
330
1F
100
AcDbEntity
  8
0
  6
Continuous
 62
     7
370
    15
100
AcDbLine
 10
136.3264323905
 20
257.8651043349
 30
0.0
 11
137.3179578915
 21
258.369800704
 31
0.0
  0
LWPOLYLINE
  5
272
330
1F
100
AcDbEntity
  8
0
  6
Continuous
 62
     7
370
    15
100
AcDbPolyline
 90
        9
 70
   128
 43
0.0
 10
137.3179578915
 20
258.369800704
 10
137.3607264593
 20
258.4008144908
 10
137.3718673125
 20
258.433616417
 10
137.3506592348
 20
258.4660860472
 10
137.2984761134
 20
258.4961178475
 10
137.2186960414
 20
258.5217687064
 10
137.1164845064
 20
258.5413786345
 10
136.9984606042
 20
258.5536750727
 10
136.8722649053
 20
258.5578652792
  0
LINE
  5
273
330
1F
100
AcDbEntity
  8
0
  6
Continuous
 62
     7
370
    15
100
AcDbLine
 10
136.8722649053
 20
258.5578652792
 30
0.0
 11
128.9941146731
 21
258.5578652792
 31
0.0
  0
ARC
  5
274
330
1F
100
AcDbEntity
  8
0
  6
Continuous
 62
     7
370
    15
100
AcDbCircle
 10
128.9440534115
 20
257.4341012606
 30
0.0
 40
1.124878526595483
100
AcDbArc
 50
87.4492830979
 51
110.591954716
  0
LINE
  5
275
330
1F
100
AcDbEntity
  8
0
  6
Continuous
 62
     7
370
    15
100
AcDbLine
 10
128.5484221525
 20
258.4871100955
 30
0.0
 11
127.5568966981
 21
257.9824122363
 31
0.0
  0
LINE
  5
276
330
1F
100
AcDbEntity
  8
0
  6
Continuous
 62
     7
370
    15
100
AcDbLine
 10
126.3264322415
 20
257.8651043349
 30
0.0
 11
127.3179577425
 21
258.369800704
 31
0.0
  0
LWPOLYLINE
  5
277
330
1F
100
AcDbEntity
  8
0
  6
Continuous
 62
     7
370
    15
100
AcDbPolyline
 90
        9
 70
   128
 43
0.0
 10
127.3179577425
 20
258.369800704
 10
127.3607262172
 20
258.4008144908
 10
127.3718673032
 20
258.433616417
 10
127.3506595515
 20
258.4660860472
 10
127.2984761972
 20
258.4961178475
 10
127.2186959855
 20
258.5217687064
 10
127.1164847299
 20
258.5413786345
 10
126.9984604552
 20
258.5536750727
 10
126.8722651288
 20
258.5578652792
  0
LINE
  5
278
330
1F
100
AcDbEntity
  8
0
  6
Continuous
 62
     7
370
    15
100
AcDbLine
 10
126.8722651288
 20
258.5578652792
 30
0.0
 11
118.9941147104
 21
258.5578652792
 31
0.0
  0
ARC
  5
279
330
1F
100
AcDbEntity
  8
0
  6
Continuous
 62
     7
370
    15
100
AcDbCircle
 10
118.9440527605
 20
257.4341071582
 30
0.0
 40
1.124872665455617
100
AcDbArc
 50
87.4492347075
 51
110.5920142302
  0
LINE
  5
27A
330
1F
100
AcDbEntity
  8
0
  6
Continuous
 62
     7
370
    15
100
AcDbLine
 10
118.5484224692
 20
258.4871100955
 30
0.0
 11
117.5568969682
 21
257.9824122363
 31
0.0
  0
LINE
  5
27B
330
1F
100
AcDbEntity
  8
0
  6
Continuous
 62
     7
370
    15
100
AcDbLine
 10
116.3264320925
 20
257.8651043349
 30
0.0
 11
117.3179575935
 21
258.369800704
 31
0.0
  0
LWPOLYLINE
  5
27C
330
1F
100
AcDbEntity
  8
0
  6
Continuous
 62
     7
370
    15
100
AcDbPolyline
 90
        9
 70
   128
 43
0.0
 10
117.3179575935
 20
258.369800704
 10
117.3607261613
 20
258.4008144908
 10
117.3718670145
 20
258.433616417
 10
117.3506596819
 20
258.4660860472
 10
117.2984758154
 20
258.4961178475
 10
117.2186957434
 20
258.5217687064
 10
117.1164849535
 20
258.5413786345
 10
116.9984603062
 20
258.5536750727
 10
116.8722653523
 20
258.5578652792
  0
LINE
  5
27D
330
1F
100
AcDbEntity
  8
0
  6
Continuous
 62
     7
370
    15
100
AcDbLine
 10
116.8722653523
 20
258.5578652792
 30
0.0
 11
108.9941153064
 21
258.5578652792
 31
0.0
  0
ARC
  5
27E
330
1F
100
AcDbEntity
  8
0
  6
Continuous
 62
     7
370
    15
100
AcDbCircle
 10
108.9440539384
 20
257.4340951612
 30
0.0
 40
1.124884624698286
100
AcDbArc
 50
87.4492915084
 51
110.5918981026
  0
LINE
  5
27F
330
1F
100
AcDbEntity
  8
0
  6
Continuous
 62
     7
370
    15
100
AcDbLine
 10
108.5484215751
 20
258.4871100955
 30
0.0
 11
107.5568968192
 21
257.9824122363
 31
0.0
  0
LINE
  5
280
330
1F
100
AcDbEntity
  8
0
  6
Continuous
 62
     7
370
    15
100
AcDbLine
 10
106.3264319435
 20
257.8651043349
 30
0.0
 11
107.3179581895
 21
258.369800704
 31
0.0
  0
LWPOLYLINE
  5
281
330
1F
100
AcDbEntity
  8
0
  6
Continuous
 62
     7
370
    15
100
AcDbPolyline
 90
        9
 70
   128
 43
0.0
 10
107.3179581895
 20
258.369800704
 10
107.3607260123
 20
258.4008144908
 10
107.3718676105
 20
258.433616417
 10
107.3506602779
 20
258.4660860472
 10
107.2984764114
 20
258.4961178475
 10
107.2186955944
 20
258.5217687064
 10
107.1164840594
 20
258.5413786345
 10
106.9984609023
 20
258.5536750727
 10
106.8722644582
 20
258.5578652792
  0
LINE
  5
282
330
1F
100
AcDbEntity
  8
0
  6
Continuous
 62
     7
370
    15
100
AcDbLine
 10
106.8722644582
 20
258.5578652792
 30
0.0
 11
98.9941144124
 21
258.5578652792
 31
0.0
  0
ARC
  5
283
330
1F
100
AcDbEntity
  8
0
  6
Continuous
 62
     7
370
    15
100
AcDbCircle
 10
98.9440551491
 20
257.434081903
 30
0.0
 40
1.124897776063873
100
AcDbArc
 50
87.4494286602
 51
110.5917609509
  0
LINE
  5
284
330
1F
100
AcDbEntity
  8
0
  6
Continuous
 62
     7
370
    15
100
AcDbLine
 10
98.5484206811
 20
258.4871100955
 30
0.0
 11
97.5568974152
 21
257.9824122363
 31
0.0
  0
LINE
  5
285
330
1F
100
AcDbEntity
  8
0
  6
Continuous
 62
     7
370
    15
100
AcDbLine
 10
147.3574274912
 20
258.6872744136
 30
0.0
 11
147.3574274912
 21
257.7950852685
 31
0.0
  0
LINE
  5
286
330
1F
100
AcDbEntity
  8
0
  6
Continuous
 62
     7
370
    15
100
AcDbLine
 10
87.5174278155
 20
258.6872744136
 30
0.0
 11
87.5174278155
 21
257.7950852685
 31
0.0
  0
ARC
  5
287
330
1F
100
AcDbEntity
  8
0
  6
Continuous
 62
     7
370
    15
100
AcDbCircle
 10
135.9509934403
 20
258.8345781947
 30
0.0
 40
1.039631651174184
100
AcDbArc
 50
269.0639906513
 51
291.169418643
  0
ARC
  5
288
330
1F
100
AcDbEntity
  8
0
  6
Continuous
 62
     7
370
    15
100
AcDbCircle
 10
95.9509970969
 20
258.8345501847
 30
0.0
 40
1.039603726602345
100
AcDbArc
 50
269.0636900283
 51
291.169719266
  0
ARC
  5
289
330
1F
100
AcDbEntity
  8
0
  6
Continuous
 62
     7
370
    15
100
AcDbCircle
 10
105.9509942706
 20
258.8345710358
 30
0.0
 40
1.039624514164362
100
AcDbArc
 50
269.0639138191
 51
291.1694954752
  0
ARC
  5
28A
330
1F
100
AcDbEntity
  8
0
  6
Continuous
 62
     7
370
    15
100
AcDbCircle
 10
125.9509939651
 20
258.8345744184
 30
0.0
 40
1.039627886426288
100
AcDbArc
 50
269.0639501227
 51
291.1694591716
  0
ARC
  5
28B
330
1F
100
AcDbEntity
  8
0
  6
Continuous
 62
     7
370
    15
100
AcDbCircle
 10
115.9509949198
 20
258.8345682325
 30
0.0
 40
1.039621719439302
100
AcDbArc
 50
269.0638837327
 51
291.1695255616
  0
LINE
  5
28C
330
1F
100
AcDbEntity
  8
0
  6
Continuous
 62
     7
370
    15
100
AcDbLine
 10
87.4374264613
 20
258.6003410392
 30
0.0
 11
87.5174278155
 21
258.6003410392
 31
0.0
  0
LINE
  5
28D
330
1F
100
AcDbEntity
  8
0
  6
Continuous
 62
     7
370
    15
100
AcDbLine
 10
87.4374264613
 20
258.6003410392
 30
0.0
 11
87.4374264613
 21
257.7081518941
 31
0.0
  0
LINE
  5
28E
330
1F
100
AcDbEntity
  8
0
  6
Continuous
 62
     7
370
    15
100
AcDbLine
 10
147.4374273553
 20
258.6003410392
 30
0.0
 11
147.3574274912
 21
258.6003410392
 31
0.0
  0
LINE
  5
28F
330
1F
100
AcDbEntity
  8
0
  6
Continuous
 62
     7
370
    15
100
AcDbLine
 10
147.4374273553
 20
258.6003410392
 30
0.0
 11
147.4374273553
 21
257.7081518941
 31
0.0
  0
LINE
  5
290
330
1F
100
AcDbEntity
  8
0
  6
Continuous
 62
     7
370
    15
100
AcDbLine
 10
138.5484220222
 20
258.4098356538
 30
0.0
 11
138.5484220222
 21
258.4871100955
 31
0.0
  0
LINE
  5
291
330
1F
100
AcDbEntity
  8
0
  6
Continuous
 62
     7
370
    15
100
AcDbLine
 10
138.5484220222
 20
258.4098356538
 30
0.0
 11
137.5568965212
 21
257.9051392847
 31
0.0
  0
LINE
  5
292
330
1F
100
AcDbEntity
  8
0
  6
Continuous
 62
     7
370
    15
100
AcDbLine
 10
108.5484215751
 20
258.4098356538
 30
0.0
 11
108.5484215751
 21
258.4871100955
 31
0.0
  0
LINE
  5
293
330
1F
100
AcDbEntity
  8
0
  6
Continuous
 62
     7
370
    15
100
AcDbLine
 10
108.5484215751
 20
258.4098356538
 30
0.0
 11
107.5568968192
 21
257.9051392847
 31
0.0
  0
LINE
  5
294
330
1F
100
AcDbEntity
  8
0
  6
Continuous
 62
     7
370
    15
100
AcDbLine
 10
98.5484206811
 20
258.4098356538
 30
0.0
 11
98.5484206811
 21
258.4871100955
 31
0.0
  0
LINE
  5
295
330
1F
100
AcDbEntity
  8
0
  6
Continuous
 62
     7
370
    15
100
AcDbLine
 10
98.5484206811
 20
258.4098356538
 30
0.0
 11
97.5568974152
 21
257.9051392847
 31
0.0
  0
LINE
  5
296
330
1F
100
AcDbEntity
  8
0
  6
Continuous
 62
     7
370
    15
100
AcDbLine
 10
118.5484224692
 20
258.4098356538
 30
0.0
 11
118.5484224692
 21
258.4871100955
 31
0.0
  0
LINE
  5
297
330
1F
100
AcDbEntity
  8
0
  6
Continuous
 62
     7
370
    15
100
AcDbLine
 10
118.5484224692
 20
258.4098356538
 30
0.0
 11
117.5568969682
 21
257.9051392847
 31
0.0
  0
LINE
  5
298
330
1F
100
AcDbEntity
  8
0
  6
Continuous
 62
     7
370
    15
100
AcDbLine
 10
128.5484221525
 20
258.4098356538
 30
0.0
 11
128.5484221525
 21
258.4871100955
 31
0.0
  0
LINE
  5
299
330
1F
100
AcDbEntity
  8
0
  6
Continuous
 62
     7
370
    15
100
AcDbLine
 10
128.5484221525
 20
258.4098356538
 30
0.0
 11
127.5568966981
 21
257.9051392847
 31
0.0
  0
LINE
  5
29A
330
1F
100
AcDbEntity
  8
0
  6
Continuous
 62
     7
370
    15
100
AcDbLine
 10
106.8722644582
 20
258.4805908375
 30
0.0
 11
106.8722644582
 21
258.5578652792
 31
0.0
  0
ARC
  5
29B
330
1F
100
AcDbEntity
  8
0
  6
Continuous
 62
     7
370
    15
100
AcDbCircle
 10
106.9393400103
 20
257.5335016443
 30
0.0
 40
0.9494614629203336
100
AcDbArc
 50
64.4086673159
 51
94.0510859567
  0
LINE
  5
29C
330
1F
100
AcDbEntity
  8
0
  6
Continuous
 62
     7
370
    15
100
AcDbLine
 10
96.8722665444
 20
258.4805908375
 30
0.0
 11
96.8722665444
 21
258.5578652792
 31
0.0
  0
ARC
  5
29D
330
1F
100
AcDbEntity
  8
0
  6
Continuous
 62
     7
370
    15
100
AcDbCircle
 10
96.9393380448
 20
257.5334803442
 30
0.0
 40
0.9494824235820483
100
AcDbArc
 50
64.4090020057
 51
94.0507512669
  0
LINE
  5
29E
330
1F
100
AcDbEntity
  8
0
  6
Continuous
 62
     7
370
    15
100
AcDbLine
 10
126.8722651288
 20
258.4805908375
 30
0.0
 11
126.8722651288
 21
258.5578652792
 31
0.0
  0
ARC
  5
29F
330
1F
100
AcDbEntity
  8
0
  6
Continuous
 62
     7
370
    15
100
AcDbCircle
 10
126.9393393881
 20
257.533494638
 30
0.0
 40
0.9494683604086503
100
AcDbArc
 50
64.408777052
 51
94.0509782734
  0
LINE
  5
2A0
330
1F
100
AcDbEntity
  8
0
  6
Continuous
 62
     7
370
    15
100
AcDbLine
 10
116.8722653523
 20
258.4805908375
 30
0.0
 11
116.8722653523
 21
258.5578652792
 31
0.0
  0
ARC
  5
2A1
330
1F
100
AcDbEntity
  8
0
  6
Continuous
 62
     7
370
    15
100
AcDbCircle
 10
116.9393389351
 20
257.5334912917
 30
0.0
 40
0.9494716505252195
100
AcDbArc
 50
64.4088299886
 51
94.050923284
  0
LINE
  5
2A2
330
1F
100
AcDbEntity
  8
0
  6
Continuous
 62
     7
370
    15
100
AcDbLine
 10
136.8722649053
 20
258.4805908375
 30
0.0
 11
136.8722649053
 21
258.5578652792
 31
0.0
  0
ARC
  5
2A3
330
1F
100
AcDbEntity
  8
0
  6
Continuous
 62
     7
370
    15
100
AcDbCircle
 10
136.9393394727
 20
257.5334964681
 30
0.0
 40
0.9494665566940363
100
AcDbArc
 50
64.4087486523
 51
94.0510046204
  0
LINE
  5
2A4
330
1F
100
AcDbEntity
  8
0
  6
Continuous
 62
     7
370
    15
100
AcDbLine
 10
89.9374270573
 20
258.4805908375
 30
0.0
 11
89.9374270573
 21
258.5578652792
 31
0.0
  0
LWPOLYLINE
  5
2A5
330
1F
100
AcDbEntity
  8
0
  6
Continuous
 62
     7
370
    15
100
AcDbPolyline
 90
        9
 70
   128
 43
0.0
 10
89.9374270573
 20
258.4805908375
 10
89.8398810759
 20
258.4781038337
 10
89.7460842267
 20
258.4707396799
 10
89.6596425906
 20
258.458781498
 10
89.5838731661
 20
258.4426882439
 10
89.5216936007
 20
258.4230768257
 10
89.4754880801
 20
258.4007042222
 10
89.4470358029
 20
258.3764272504
 10
89.4374275342
 20
258.3511817031
  0
LINE
  5
2A6
330
1F
100
AcDbEntity
  8
0
  6
Continuous
 62
     7
370
    15
100
AcDbLine
 10
144.9374267593
 20
258.4805908375
 30
0.0
 11
144.9374267593
 21
258.5578652792
 31
0.0
  0
LWPOLYLINE
  5
2A7
330
1F
100
AcDbEntity
  8
0
  6
Continuous
 62
     7
370
    15
100
AcDbPolyline
 90
        9
 70
   128
 43
0.0
 10
145.4374277726
 20
258.3511817031
 10
145.4278195038
 20
258.3764272504
 10
145.3993672267
 20
258.4007042222
 10
145.353161706
 20
258.4230768257
 10
145.2909806505
 20
258.4426882439
 10
145.2152127162
 20
258.458781498
 10
145.12876959
 20
258.4707396799
 10
145.0349727407
 20
258.4781038337
 10
144.9374267593
 20
258.4805908375
  0
LINE
  5
2A8
330
1F
100
AcDbEntity
  8
0
  6
Continuous
 62
     7
370
    15
100
AcDbLine
 10
98.9941144124
 20
258.4805908375
 30
0.0
 11
98.9941144124
 21
258.5578652792
 31
0.0
  0
ARC
  5
2A9
330
1F
100
AcDbEntity
  8
0
  6
Continuous
 62
     7
370
    15
100
AcDbCircle
 10
98.9440450882
 20
257.3568708353
 30
0.0
 40
1.124834912609492
100
AcDbArc
 50
87.4487730461
 51
110.592416565
  0
LINE
  5
2AA
330
1F
100
AcDbEntity
  8
0
  6
Continuous
 62
     7
370
    15
100
AcDbLine
 10
108.9941153064
 20
258.4805908375
 30
0.0
 11
108.9941153064
 21
258.5578652792
 31
0.0
  0
ARC
  5
2AB
330
1F
100
AcDbEntity
  8
0
  6
Continuous
 62
     7
370
    15
100
AcDbCircle
 10
108.9440438776
 20
257.3568840929
 30
0.0
 40
1.124821761844431
100
AcDbArc
 50
87.4486358849
 51
110.5925537261
  0
LINE
  5
2AC
330
1F
100
AcDbEntity
  8
0
  6
Continuous
 62
     7
370
    15
100
AcDbLine
 10
118.9941147104
 20
258.4805908375
 30
0.0
 11
118.9941147104
 21
258.5578652792
 31
0.0
  0
ARC
  5
2AD
330
1F
100
AcDbEntity
  8
0
  6
Continuous
 62
     7
370
    15
100
AcDbCircle
 10
118.9440426998
 20
257.3568960893
 30
0.0
 40
1.124809803191778
100
AcDbArc
 50
87.4485790781
 51
110.5926698596
  0
LINE
  5
2AE
330
1F
100
AcDbEntity
  8
0
  6
Continuous
 62
     7
370
    15
100
AcDbLine
 10
128.9941146731
 20
258.4805908375
 30
0.0
 11
128.9941146731
 21
258.5578652792
 31
0.0
  0
ARC
  5
2AF
330
1F
100
AcDbEntity
  8
0
  6
Continuous
 62
     7
370
    15
100
AcDbCircle
 10
128.9440433508
 20
257.3568901919
 30
0.0
 40
1.124815664167346
100
AcDbArc
 50
87.4486274734
 51
110.5926103405
  0
LINE
  5
2B0
330
1F
100
AcDbEntity
  8
0
  6
Continuous
 62
     7
370
    15
100
AcDbLine
 10
138.9941150084
 20
258.4805908375
 30
0.0
 11
138.9941150084
 21
258.5578652792
 31
0.0
  0
ARC
  5
2B1
330
1F
100
AcDbEntity
  8
0
  6
Continuous
 62
     7
370
    15
100
AcDbCircle
 10
138.9440434924
 20
257.356888808
 30
0.0
 40
1.124817055293987
100
AcDbArc
 50
87.4486207569
 51
110.5925985174
  0
LINE
  5
2B2
330
1F
100
AcDbEntity
  8
0
  6
Continuous
 62
     7
370
    15
100
AcDbLine
 10
96.8722665444
 20
258.4805908375
 30
0.0
 11
89.9374270573
 21
258.4805908375
 31
0.0
  0
LINE
  5
2B3
330
1F
100
AcDbEntity
  8
0
  6
Continuous
 62
     7
370
    15
100
AcDbLine
 10
116.8722653523
 20
258.4805908375
 30
0.0
 11
108.9941153064
 21
258.4805908375
 31
0.0
  0
LINE
  5
2B4
330
1F
100
AcDbEntity
  8
0
  6
Continuous
 62
     7
370
    15
100
AcDbLine
 10
106.8722644582
 20
258.4805908375
 30
0.0
 11
98.9941144124
 21
258.4805908375
 31
0.0
  0
LINE
  5
2B5
330
1F
100
AcDbEntity
  8
0
  6
Continuous
 62
     7
370
    15
100
AcDbLine
 10
126.8722651288
 20
258.4805908375
 30
0.0
 11
118.9941147104
 21
258.4805908375
 31
0.0
  0
LINE
  5
2B6
330
1F
100
AcDbEntity
  8
0
  6
Continuous
 62
     7
370
    15
100
AcDbLine
 10
136.8722649053
 20
258.4805908375
 30
0.0
 11
128.9941146731
 21
258.4805908375
 31
0.0
  0
LINE
  5
2B7
330
1F
100
AcDbEntity
  8
0
  6
Continuous
 62
     7
370
    15
100
AcDbLine
 10
144.9374267593
 20
258.4805908375
 30
0.0
 11
138.9941150084
 21
258.4805908375
 31
0.0
  0
LINE
  5
2B8
330
1F
100
AcDbEntity
  8
0
  6
Continuous
 62
     7
370
    15
100
AcDbLine
 10
147.3574274912
 20
258.694260078
 30
0.0
 11
147.3574274912
 21
258.6872744136
 31
0.0
  0
LINE
  5
2B9
330
1F
100
AcDbEntity
  8
0
  6
Continuous
 62
     7
370
    15
100
AcDbLine
 10
87.5174278155
 20
258.694260078
 30
0.0
 11
87.5174278155
 21
258.6872744136
 31
0.0
  0
LINE
  5
2BA
330
1F
100
AcDbEntity
  8
0
  6
Continuous
 62
     7
370
    15
100
AcDbLine
 10
87.4374264613
 20
258.6042600446
 30
0.0
 11
87.4374264613
 21
258.6003410392
 31
0.0
  0
LINE
  5
2BB
330
1F
100
AcDbEntity
  8
0
  6
Continuous
 62
     7
370
    15
100
AcDbLine
 10
147.4374273553
 20
258.6042600446
 30
0.0
 11
147.4374273553
 21
258.6003410392
 31
0.0
  0
LINE
  5
2BC
330
1F
100
AcDbEntity
  8
0
  6
Continuous
 62
     7
370
    15
100
AcDbLine
 10
147.3174268141
 20
238.6913141929
 30
0.0
 11
87.5574284926
 21
238.6913141929
 31
0.0
  0
LINE
  5
2BD
330
1F
100
AcDbEntity
  8
0
  6
Continuous
 62
     7
370
    15
100
AcDbLine
 10
147.3174268141
 20
234.2245641858
 30
0.0
 11
147.3174268141
 21
238.6913141929
 31
0.0
  0
LINE
  5
2BE
330
1F
100
AcDbEntity
  8
0
  6
Continuous
 62
     7
370
    15
100
AcDbLine
 10
147.3174268141
 20
234.2245641858
 30
0.0
 11
87.5574284926
 21
234.2245641858
 31
0.0
  0
LINE
  5
2BF
330
1F
100
AcDbEntity
  8
0
  6
Continuous
 62
     7
370
    15
100
AcDbLine
 10
87.5574284926
 20
234.2245641858
 30
0.0
 11
87.5574284926
 21
238.6913141929
 31
0.0
  0
LINE
  5
2C0
330
1F
100
AcDbEntity
  8
0
  6
Continuous
 62
     7
370
    15
100
AcDbLine
 10
147.3174268141
 20
233.2170559787
 30
0.0
 11
87.5574284926
 21
233.2170559787
 31
0.0
  0
LINE
  5
2C1
330
1F
100
AcDbEntity
  8
0
  6
Continuous
 62
     7
370
    15
100
AcDbLine
 10
90.0574261084
 20
233.4323805519
 30
0.0
 11
90.0574261084
 21
233.5599801265
 31
0.0
  0
LWPOLYLINE
  5
2C2
330
1F
100
AcDbEntity
  8
0
  6
Continuous
 62
     7
370
    15
100
AcDbPolyline
 90
       10
 70
   128
 43
0.0
 10
90.0574261084
 20
233.5599801265
 10
90.0381291047
 20
233.6036219024
 10
89.9825626746
 20
233.6419996568
 10
89.8974263802
 20
233.6704847165
 10
89.7929960623
 20
233.6856414326
 10
89.6818602219
 20
233.6856414326
 10
89.5774269238
 20
233.6704847165
 10
89.4922936097
 20
233.6419996568
 10
89.4367241994
 20
233.6036219024
 10
89.4174271956
 20
233.5599801265
  0
LINE
  5
2C3
330
1F
100
AcDbEntity
  8
0
  6
Continuous
 62
     7
370
    15
100
AcDbLine
 10
89.4174271956
 20
233.5599801265
 30
0.0
 11
89.4174271956
 21
233.4323805519
 31
0.0
  0
LWPOLYLINE
  5
2C4
330
1F
100
AcDbEntity
  8
0
  6
Continuous
 62
     7
370
    15
100
AcDbPolyline
 90
       10
 70
   128
 43
0.0
 10
89.4174271956
 20
233.4323805519
 10
89.4367241994
 20
233.3887387761
 10
89.4922936097
 20
233.3503610217
 10
89.5774269238
 20
233.3218759619
 10
89.6818602219
 20
233.3067192458
 10
89.7929960623
 20
233.3067192458
 10
89.8974263802
 20
233.3218759619
 10
89.9825626746
 20
233.3503610217
 10
90.0381291047
 20
233.3887387761
 10
90.0574261084
 20
233.4323805519
  0
LINE
  5
2C5
330
1F
100
AcDbEntity
  8
0
  6
Continuous
 62
     7
370
    15
100
AcDbLine
 10
145.457426621
 20
233.4323805519
 30
0.0
 11
145.457426621
 21
233.5599801265
 31
0.0
  0
LWPOLYLINE
  5
2C6
330
1F
100
AcDbEntity
  8
0
  6
Continuous
 62
     7
370
    15
100
AcDbPolyline
 90
       10
 70
   128
 43
0.0
 10
145.457426621
 20
233.5599801265
 10
145.4381281272
 20
233.6036219024
 10
145.3825616971
 20
233.6419996568
 10
145.2974268928
 20
233.6704847165
 10
145.1929950848
 20
233.6856414326
 10
145.0818592444
 20
233.6856414326
 10
144.9774274364
 20
233.6704847165
 10
144.8922926322
 20
233.6419996568
 10
144.8367262021
 20
233.6036219024
 10
144.8174277082
 20
233.5599801265
  0
LINE
  5
2C7
330
1F
100
AcDbEntity
  8
0
  6
Continuous
 62
     7
370
    15
100
AcDbLine
 10
144.8174277082
 20
233.5599801265
 30
0.0
 11
144.8174277082
 21
233.4323805519
 31
0.0
  0
LWPOLYLINE
  5
2C8
330
1F
100
AcDbEntity
  8
0
  6
Continuous
 62
     7
370
    15
100
AcDbPolyline
 90
       10
 70
   128
 43
0.0
 10
144.8174277082
 20
233.4323805519
 10
144.8367262021
 20
233.3887387761
 10
144.8922926322
 20
233.3503610217
 10
144.9774274364
 20
233.3218759619
 10
145.0818592444
 20
233.3067192458
 10
145.1929950848
 20
233.3067192458
 10
145.2974268928
 20
233.3218759619
 10
145.3825616971
 20
233.3503610217
 10
145.4381281272
 20
233.3887387761
 10
145.457426621
 20
233.4323805519
  0
LINE
  5
2C9
330
1F
100
AcDbEntity
  8
0
  6
Continuous
 62
     7
370
    15
100
AcDbLine
 10
87.5574284926
 20
233.2170559787
 30
0.0
 11
87.5574284926
 21
234.2245641858
 31
0.0
  0
LINE
  5
2CA
330
1F
100
AcDbEntity
  8
0
  6
Continuous
 62
     7
370
    15
100
AcDbLine
 10
147.3174268141
 20
233.2170559787
 30
0.0
 11
147.3174268141
 21
234.2245641858
 31
0.0
  0
LWPOLYLINE
  5
2CB
330
1F
100
AcDbEntity
  8
0
  6
Continuous
 62
     7
370
    15
100
AcDbPolyline
 90
       10
 70
   128
 43
0.0
 10
144.8174277082
 20
233.5424276762
 10
144.8367262021
 20
233.4987860867
 10
144.8922926322
 20
233.460408146
 10
144.9774274364
 20
233.4319230863
 10
145.0818592444
 20
233.4167665564
 10
145.1929950848
 20
233.4167665564
 10
145.2974268928
 20
233.4319230863
 10
145.3825616971
 20
233.460408146
 10
145.4381281272
 20
233.4987860867
 10
145.457426621
 20
233.5424276762
  0
LWPOLYLINE
  5
2CC
330
1F
100
AcDbEntity
  8
0
  6
Continuous
 62
     7
370
    15
100
AcDbPolyline
 90
       10
 70
   128
 43
0.0
 10
89.4174271956
 20
233.5424276762
 10
89.4367241994
 20
233.4987860867
 10
89.4922936097
 20
233.460408146
 10
89.5774269238
 20
233.4319230863
 10
89.6818602219
 20
233.4167665564
 10
89.7929960623
 20
233.4167665564
 10
89.8974263802
 20
233.4319230863
 10
89.9825626746
 20
233.460408146
 10
90.0381291047
 20
233.4987860867
 10
90.0574261084
 20
233.5424276762
  0
LINE
  5
2CD
330
1F
100
AcDbEntity
  8
0
  6
Continuous
 62
     7
370
    15
100
AcDbLine
 10
97.687428607
 20
149.741311627
 30
0.0
 11
92.3874282971
 21
149.741311627
 31
0.0
  0
LINE
  5
2CE
330
1F
100
AcDbEntity
  8
0
  6
Continuous
 62
     7
370
    15
100
AcDbLine
 10
97.8874260321
 20
150.3413158231
 30
0.0
 11
92.1874278918
 21
150.3413158231
 31
0.0
  0
LINE
  5
2CF
330
1F
100
AcDbEntity
  8
0
  6
Continuous
 62
     7
370
    15
100
AcDbLine
 10
142.4874270096
 20
149.741311627
 30
0.0
 11
137.1874274448
 21
149.741311627
 31
0.0
  0
LINE
  5
2D0
330
1F
100
AcDbEntity
  8
0
  6
Continuous
 62
     7
370
    15
100
AcDbLine
 10
142.687427415
 20
150.3413158231
 30
0.0
 11
136.9874270394
 21
150.3413158231
 31
0.0
  0
LINE
  5
2D1
330
1F
100
AcDbEntity
  8
0
  6
Continuous
 62
     7
370
    15
100
AcDbLine
 10
99.5374286309
 20
166.5413158708
 30
0.0
 11
99.5374286309
 21
166.7413132959
 31
0.0
  0
LINE
  5
2D2
330
1F
100
AcDbEntity
  8
0
  6
Continuous
 62
     7
370
    15
100
AcDbLine
 10
90.5374282733
 20
166.5413158708
 30
0.0
 11
99.5374286309
 21
166.5413158708
 31
0.0
  0
LINE
  5
2D3
330
1F
100
AcDbEntity
  8
0
  6
Continuous
 62
     7
370
    15
100
AcDbLine
 10
90.5374282733
 20
166.5413158708
 30
0.0
 11
90.5374282733
 21
166.7413132959
 31
0.0
  0
LINE
  5
2D4
330
1F
100
AcDbEntity
  8
0
  6
Continuous
 62
     7
370
    15
100
AcDbLine
 10
90.5374282733
 20
166.7413132959
 30
0.0
 11
99.5374286309
 21
166.7413132959
 31
0.0
  0
LINE
  5
2D5
330
1F
100
AcDbEntity
  8
0
  6
Continuous
 62
     7
370
    15
100
AcDbLine
 10
98.1333935395
 20
157.1413117223
 30
0.0
 11
91.9414633647
 21
157.1413117223
 31
0.0
  0
LINE
  5
2D6
330
1F
100
AcDbEntity
  8
0
  6
Continuous
 62
     7
370
    15
100
AcDbLine
 10
144.3374270335
 20
166.5413158708
 30
0.0
 11
144.3374270335
 21
166.7413132959
 31
0.0
  0
LINE
  5
2D7
330
1F
100
AcDbEntity
  8
0
  6
Continuous
 62
     7
370
    15
100
AcDbLine
 10
135.3374274209
 20
166.7413132959
 30
0.0
 11
144.3374270335
 21
166.7413132959
 31
0.0
  0
LINE
  5
2D8
330
1F
100
AcDbEntity
  8
0
  6
Continuous
 62
     7
370
    15
100
AcDbLine
 10
135.3374274209
 20
166.5413158708
 30
0.0
 11
135.3374274209
 21
166.7413132959
 31
0.0
  0
LINE
  5
2D9
330
1F
100
AcDbEntity
  8
0
  6
Continuous
 62
     7
370
    15
100
AcDbLine
 10
135.3374274209
 20
166.5413158708
 30
0.0
 11
144.3374270335
 21
166.5413158708
 31
0.0
  0
LINE
  5
2DA
330
1F
100
AcDbEntity
  8
0
  6
Continuous
 62
     7
370
    15
100
AcDbLine
 10
142.9333919421
 20
157.1413117223
 30
0.0
 11
136.7414625123
 21
157.1413117223
 31
0.0
  0
LINE
  5
2DB
330
1F
100
AcDbEntity
  8
0
  6
Continuous
 62
     7
370
    15
100
AcDbLine
 10
94.1975915566
 20
211.6575467163
 30
0.0
 11
90.5976587668
 21
211.6575467163
 31
0.0
  0
ARC
  5
2DC
330
1F
100
AcDbEntity
  8
0
  6
Continuous
 62
     7
370
    15
100
AcDbCircle
 10
94.1972325049
 20
211.8577422632
 30
0.0
 40
0.2001958688694705
100
AcDbArc
 50
270.1027601436
 51
359.8968126187
  0
LINE
  5
2DD
330
1F
100
AcDbEntity
  8
0
  6
Continuous
 62
     7
370
    15
100
AcDbLine
 10
94.3974280491
 20
217.4576717191
 30
0.0
 11
94.3974280491
 21
211.8573817187
 31
0.0
  0
ARC
  5
2DE
330
1F
100
AcDbEntity
  8
0
  6
Continuous
 62
     7
370
    15
100
AcDbCircle
 10
94.1972022647
 20
217.457321242
 30
0.0
 40
0.2002260911479007
100
AcDbArc
 50
0.1002909836
 51
89.8886019544
  0
LINE
  5
2DF
330
1F
100
AcDbEntity
  8
0
  6
Continuous
 62
     7
370
    15
100
AcDbLine
 10
90.5976587668
 20
217.6575469547
 30
0.0
 11
94.1975915566
 21
217.6575469547
 31
0.0
  0
ARC
  5
2E0
330
1F
100
AcDbEntity
  8
0
  6
Continuous
 62
     7
370
    15
100
AcDbCircle
 10
90.5976390633
 20
217.4573322918
 30
0.0
 40
0.2002146638838343
100
AcDbArc
 50
89.9943614163
 51
179.7779211907
  0
LINE
  5
2E1
330
1F
100
AcDbEntity
  8
0
  6
Continuous
 62
     7
370
    15
100
AcDbLine
 10
90.3974259034
 20
211.8569451147
 30
0.0
 11
90.3974259034
 21
217.4581083231
 31
0.0
  0
ARC
  5
2E2
330
1F
100
AcDbEntity
  8
0
  6
Continuous
 62
     7
370
    15
100
AcDbCircle
 10
90.597611602
 20
211.8577339636
 30
0.0
 40
0.2001872529213349
100
AcDbArc
 50
180.2257777792
 51
270.0134990706
  0
LINE
  5
2E3
330
1F
100
AcDbEntity
  8
0
  6
Continuous
 62
     7
370
    15
100
AcDbLine
 10
90.651198639
 20
211.9113179617
 30
0.0
 11
94.1436553136
 21
211.9113179617
 31
0.0
  0
LWPOLYLINE
  5
2E4
330
1F
100
AcDbEntity
  8
0
  6
Continuous
 62
     7
370
    15
100
AcDbPolyline
 90
        5
 70
   128
 43
0.0
 10
94.1436553136
 20
211.9113179617
 10
94.1595578328
 20
211.8364888006
 10
94.1744560137
 20
211.7664041691
 10
94.1879058018
 20
211.7030235701
 10
94.1975915566
 20
211.6575467163
  0
LWPOLYLINE
  5
2E5
330
1F
100
AcDbEntity
  8
0
  6
Continuous
 62
     7
370
    15
100
AcDbPolyline
 90
        5
 70
   128
 43
0.0
 10
90.651198639
 20
211.9113179617
 10
90.635415329
 20
211.8364888006
 10
90.6206244364
 20
211.7664041691
 10
90.6072759762
 20
211.7030250602
 10
90.5976587668
 20
211.6575467163
  0
LINE
  5
2E6
330
1F
100
AcDbEntity
  8
0
  6
Continuous
 62
     7
370
    15
100
AcDbLine
 10
90.651198639
 20
217.4037757092
 30
0.0
 11
90.651198639
 21
211.9113179617
 31
0.0
  0
LINE
  5
2E7
330
1F
100
AcDbEntity
  8
0
  6
Continuous
 62
     7
370
    15
100
AcDbLine
 10
94.1436553136
 20
217.4037757092
 30
0.0
 11
90.651198639
 21
217.4037757092
 31
0.0
  0
LINE
  5
2E8
330
1F
100
AcDbEntity
  8
0
  6
Continuous
 62
     7
370
    15
100
AcDbLine
 10
94.1436553136
 20
211.9113179617
 30
0.0
 11
94.1436553136
 21
217.4037757092
 31
0.0
  0
LWPOLYLINE
  5
2E9
330
1F
100
AcDbEntity
  8
0
  6
Continuous
 62
     7
370
    15
100
AcDbPolyline
 90
        5
 70
   128
 43
0.0
 10
90.3974259034
 20
217.4581083231
 10
90.4429042473
 20
217.4483510428
 10
90.5062848464
 20
217.4348014169
 10
90.5763679877
 20
217.4197944575
 10
90.651198639
 20
217.4037757092
  0
LWPOLYLINE
  5
2EA
330
1F
100
AcDbEntity
  8
0
  6
Continuous
 62
     7
370
    15
100
AcDbPolyline
 90
        5
 70
   128
 43
0.0
 10
90.3974259034
 20
211.8569451147
 10
90.4429042473
 20
211.8667098456
 10
90.5062848464
 20
211.8802684122
 10
90.5763679877
 20
211.8952872925
 10
90.651198639
 20
211.9113179617
  0
LWPOLYLINE
  5
2EB
330
1F
100
AcDbEntity
  8
0
  6
Continuous
 62
     7
370
    15
100
AcDbPolyline
 90
        5
 70
   128
 43
0.0
 10
94.1975915566
 20
217.6575469547
 10
94.1879058018
 20
217.6120686107
 10
94.1744560137
 20
217.5486895018
 10
94.1595578328
 20
217.4786048704
 10
94.1436553136
 20
217.4037757092
  0
LWPOLYLINE
  5
2EC
330
1F
100
AcDbEntity
  8
0
  6
Continuous
 62
     7
370
    15
100
AcDbPolyline
 90
        5
 70
   128
 43
0.0
 10
90.5976587668
 20
217.6575469547
 10
90.6072759762
 20
217.6120701008
 10
90.6206244364
 20
217.5486895018
 10
90.635415329
 20
217.4786048704
 10
90.651198639
 20
217.4037757092
  0
LWPOLYLINE
  5
2ED
330
1F
100
AcDbEntity
  8
0
  6
Continuous
 62
     7
370
    15
100
AcDbPolyline
 90
        5
 70
   128
 43
0.0
 10
94.1436553136
 20
217.4037757092
 10
94.2184859648
 20
217.4196648174
 10
94.2885691062
 20
217.4345525675
 10
94.3519497052
 20
217.4479919248
 10
94.3974280491
 20
217.4576717191
  0
LWPOLYLINE
  5
2EE
330
1F
100
AcDbEntity
  8
0
  6
Continuous
 62
     7
370
    15
100
AcDbPolyline
 90
        5
 70
   128
 43
0.0
 10
94.1436553136
 20
211.9113179617
 10
94.2184859648
 20
211.8954169326
 10
94.2885691062
 20
211.8805187517
 10
94.3519497052
 20
211.8670689636
 10
94.3974280491
 20
211.8573817187
  0
ARC
  5
2EF
330
1F
100
AcDbEntity
  8
0
  6
Continuous
 62
     7
370
    15
100
AcDbCircle
 10
94.1974871793
 20
211.8574875869
 30
0.0
 40
0.1999408978581457
100
AcDbArc
 50
270.0299107316
 51
359.9696620307
  0
ARC
  5
2F0
330
1F
100
AcDbEntity
  8
0
  6
Continuous
 62
     7
370
    15
100
AcDbCircle
 10
94.1974595947
 20
217.457578522
 30
0.0
 40
0.1999684762121744
100
AcDbArc
 50
0.026703216
 51
89.962189722
  0
ARC
  5
2F1
330
1F
100
AcDbEntity
  8
0
  6
Continuous
 62
     7
370
    15
100
AcDbCircle
 10
90.5973593095
 20
211.8574806153
 30
0.0
 40
0.1999341232716814
100
AcDbArc
 50
180.1534603556
 51
270.0858164942
  0
ARC
  5
2F2
330
1F
100
AcDbEntity
  8
0
  6
Continuous
 62
     7
370
    15
100
AcDbCircle
 10
90.5973876332
 20
217.4575847231
 30
0.0
 40
0.1999624153513606
100
AcDbArc
 50
89.9223113226
 51
179.8499712843
  0
ARC
  5
2F3
330
1F
100
AcDbEntity
  8
0
  6
Continuous
 62
     7
370
    15
100
AcDbCircle
 10
123.807427221
 20
214.8475467229
 30
0.0
 40
1.976533589520232
100
AcDbArc
 50
55.6616838633
 51
85.6476135288
  0
LWPOLYLINE
  5
2F4
330
1F
100
AcDbEntity
  8
0
  6
Continuous
 62
     7
370
    15
100
AcDbPolyline
 90
        9
 70
   128
 43
0.0
 10
124.9223470449
 20
216.4796131425
 10
124.9185083196
 20
216.4739924245
 10
124.9136909604
 20
216.4669411951
 10
124.9079944327
 20
216.4586025053
 10
124.9015353382
 20
216.4491477185
 10
124.8944468558
 20
216.4387705498
 10
124.8868744582
 20
216.427685576
 10
124.8789740488
 20
216.4161207848
 10
124.8709076777
 20
216.4043131047
  0
ARC
  5
2F5
330
1F
100
AcDbEntity
  8
0
  6
Continuous
 62
     7
370
    15
100
AcDbCircle
 10
123.807427221
 20
214.8475467229
 30
0.0
 40
1.885341439002717
100
AcDbArc
 50
55.6616838633
 51
85.4366568804
  0
LINE
  5
2F6
330
1F
100
AcDbEntity
  8
0
  6
Continuous
 62
     7
370
    15
100
AcDbLine
 10
123.957427381
 20
216.7269113236
 30
0.0
 11
123.957427381
 21
216.8183806115
 31
0.0
  0
ARC
  5
2F7
330
1F
100
AcDbEntity
  8
0
  6
Continuous
 62
     7
370
    15
100
AcDbCircle
 10
123.807427221
 20
214.8475467229
 30
0.0
 40
1.885341439002687
100
AcDbArc
 50
94.5633431196
 51
124.3383161367
  0
LWPOLYLINE
  5
2F8
330
1F
100
AcDbEntity
  8
0
  6
Continuous
 62
     7
370
    15
100
AcDbPolyline
 90
        9
 70
   128
 43
0.0
 10
122.7439468488
 20
216.4043131047
 10
122.7358804777
 20
216.4161207848
 10
122.7279798821
 20
216.427685576
 10
122.7204074845
 20
216.4387705498
 10
122.7133190021
 20
216.4491477185
 10
122.7068600938
 20
216.4586025053
 10
122.7011633798
 20
216.4669411951
 10
122.696346207
 20
216.4739924245
 10
122.6925072953
 20
216.4796131425
  0
ARC
  5
2F9
330
1F
100
AcDbEntity
  8
0
  6
Continuous
 62
     7
370
    15
100
AcDbCircle
 10
123.807427221
 20
214.8475467229
 30
0.0
 40
1.976533589520231
100
AcDbArc
 50
94.3523864712
 51
124.3383161367
  0
LINE
  5
2FA
330
1F
100
AcDbEntity
  8
0
  6
Continuous
 62
     7
370
    15
100
AcDbLine
 10
123.6574271455
 20
216.8183806115
 30
0.0
 11
123.6574271455
 21
216.7269113236
 31
0.0
  0
ARC
  5
2FB
330
1F
100
AcDbEntity
  8
0
  6
Continuous
 62
     7
370
    15
100
AcDbCircle
 10
130.9272047967
 20
214.8475467229
 30
0.0
 40
6.253179856168002
100
AcDbArc
 50
165.584259106
 51
194.415740894
  0
ARC
  5
2FC
330
1F
100
AcDbEntity
  8
0
  6
Continuous
 62
     7
370
    15
100
AcDbCircle
 10
123.807427221
 20
214.8475467229
 30
0.0
 40
1.885341439002717
100
AcDbArc
 50
235.6616838633
 51
304.3383161367
  0
ARC
  5
2FD
330
1F
100
AcDbEntity
  8
0
  6
Continuous
 62
     7
370
    15
100
AcDbCircle
 10
116.6876496453
 20
214.8475467229
 30
0.0
 40
6.253179856168002
100
AcDbArc
 50
345.584259106
 51
14.415740894
  0
ARC
  5
2FE
330
1F
100
AcDbEntity
  8
0
  6
Continuous
 62
     7
370
    15
100
AcDbCircle
 10
123.807427221
 20
213.1475467229
 30
0.0
 40
0.1500000000000057
100
AcDbArc
 50
180.0
 51
0.0
  0
LINE
  5
2FF
330
1F
100
AcDbEntity
  8
0
  6
Continuous
 62
     7
370
    15
100
AcDbLine
 10
123.6574271455
 20
216.7269113236
 30
0.0
 11
123.6574271455
 21
213.1475466066
 31
0.0
  0
LINE
  5
300
330
1F
100
AcDbEntity
  8
0
  6
Continuous
 62
     7
370
    15
100
AcDbLine
 10
123.957427381
 20
213.1475466066
 30
0.0
 11
123.957427381
 21
216.7269113236
 31
0.0
  0
LWPOLYLINE
  5
301
330
1F
100
AcDbEntity
  8
0
  6
Continuous
 62
     7
370
    15
100
AcDbPolyline
 90
        9
 70
   128
 43
0.0
 10
124.9677443638
 20
216.3794207149
 10
124.9655984104
 20
216.379973548
 10
124.9598938733
 20
216.3814398222
 10
124.9508449569
 20
216.3837658935
 10
124.9387915939
 20
216.3868638449
 10
124.9241871521
 20
216.3906174474
 10
124.9075801805
 20
216.3948866301
 10
124.8895950377
 20
216.3995089703
 10
124.8709076777
 20
216.4043131047
  0
ARC
  5
302
330
1F
100
AcDbEntity
  8
0
  6
Continuous
 62
     7
370
    15
100
AcDbCircle
 10
124.8770680702
 20
216.3987161745
 30
0.0
 40
0.0927065531163502
100
AcDbArc
 50
347.9869310656
 51
60.7637526617
  0
ARC
  5
303
330
1F
100
AcDbEntity
  8
0
  6
Continuous
 62
     7
370
    15
100
AcDbCircle
 10
130.9272047967
 20
214.8475467229
 30
0.0
 40
6.153195086652365
100
AcDbArc
 50
165.584259106
 51
194.415740894
  0
LWPOLYLINE
  5
304
330
1F
100
AcDbEntity
  8
0
  6
Continuous
 62
     7
370
    15
100
AcDbPolyline
 90
        9
 70
   128
 43
0.0
 10
124.9677443638
 20
213.315671938
 10
124.9655984104
 20
213.315120595
 10
124.9598938733
 20
213.3136543208
 10
124.9508449569
 20
213.3113282495
 10
124.9387915939
 20
213.3082302981
 10
124.9241871521
 20
213.3044752055
 10
124.9075801805
 20
213.3002075129
 10
124.8895950377
 20
213.2955836826
 10
124.8709076777
 20
213.2907795482
  0
ARC
  5
305
330
1F
100
AcDbEntity
  8
0
  6
Continuous
 62
     7
370
    15
100
AcDbCircle
 10
123.807427221
 20
214.8475467229
 30
0.0
 40
1.976533589520203
100
AcDbArc
 50
235.6616838633
 51
304.3383161367
  0
LWPOLYLINE
  5
306
330
1F
100
AcDbEntity
  8
0
  6
Continuous
 62
     7
370
    15
100
AcDbPolyline
 90
        9
 70
   128
 43
0.0
 10
122.6925072953
 20
213.2154810005
 10
122.696346207
 20
213.2211002284
 10
122.7011633798
 20
213.2281514578
 10
122.7068600938
 20
213.2364916378
 10
122.7133190021
 20
213.2459464245
 10
122.7204074845
 20
213.2563221031
 10
122.7279798821
 20
213.2674070769
 10
122.7358804777
 20
213.2789718681
 10
122.7439468488
 20
213.2907795482
  0
LWPOLYLINE
  5
307
330
1F
100
AcDbEntity
  8
0
  6
Continuous
 62
     7
370
    15
100
AcDbPolyline
 90
        9
 70
   128
 43
0.0
 10
124.9223470449
 20
213.2154810005
 10
124.9185083196
 20
213.2211002284
 10
124.9136909604
 20
213.2281514578
 10
124.9079944327
 20
213.2364916378
 10
124.9015353382
 20
213.2459464245
 10
124.8944468558
 20
213.2563221031
 10
124.8868744582
 20
213.2674070769
 10
124.8789740488
 20
213.2789718681
 10
124.8709076777
 20
213.2907795482
  0
ARC
  5
308
330
1F
100
AcDbEntity
  8
0
  6
Continuous
 62
     7
370
    15
100
AcDbCircle
 10
124.8770688971
 20
213.2963773069
 30
0.0
 40
0.0927055719334859
100
AcDbArc
 50
299.2360011228
 51
12.012674467
  0
LWPOLYLINE
  5
309
330
1F
100
AcDbEntity
  8
0
  6
Continuous
 62
     7
370
    15
100
AcDbPolyline
 90
        9
 70
   128
 43
0.0
 10
122.7439468488
 20
213.2907795482
 10
122.7252593026
 20
213.2955836826
 10
122.7072743461
 20
213.3002075129
 10
122.6906673744
 20
213.3044752055
 10
122.6760627463
 20
213.3082302981
 10
122.6640095696
 20
213.3113282495
 10
122.6549604669
 20
213.3136543208
 10
122.6492559299
 20
213.315120595
 10
122.6471101627
 20
213.315671938
  0
ARC
  5
30A
330
1F
100
AcDbEntity
  8
0
  6
Continuous
 62
     7
370
    15
100
AcDbCircle
 10
116.6876496453
 20
214.8475467229
 30
0.0
 40
6.153195086652365
100
AcDbArc
 50
345.584259106
 51
14.415740894
  0
LWPOLYLINE
  5
30B
330
1F
100
AcDbEntity
  8
0
  6
Continuous
 62
     7
370
    15
100
AcDbPolyline
 90
        9
 70
   128
 43
0.0
 10
122.7439468488
 20
216.4043131047
 10
122.7252593026
 20
216.3995089703
 10
122.7072743461
 20
216.3948866301
 10
122.6906673744
 20
216.3906174474
 10
122.6760627463
 20
216.3868638449
 10
122.6640095696
 20
216.3837658935
 10
122.6549604669
 20
216.3814398222
 10
122.6492559299
 20
216.379973548
 10
122.6471101627
 20
216.3794207149
  0
ARC
  5
30C
330
1F
100
AcDbEntity
  8
0
  6
Continuous
 62
     7
370
    15
100
AcDbCircle
 10
122.7377867825
 20
216.3987161109
 30
0.0
 40
0.09270685889958
100
AcDbArc
 50
119.2365044926
 51
192.0129885274
  0
ARC
  5
30D
330
1F
100
AcDbEntity
  8
0
  6
Continuous
 62
     7
370
    15
100
AcDbCircle
 10
122.7377859556
 20
213.2963773705
 30
0.0
 40
0.0927058777135053
100
AcDbArc
 50
167.9874059394
 51
240.7637417217
  0
ARC
  5
30E
330
1F
100
AcDbEntity
  8
0
  6
Continuous
 62
     7
370
    15
100
AcDbCircle
 10
123.807427221
 20
213.1475467229
 30
0.0
 40
0.0500000000000114
100
AcDbArc
 50
180.0
 51
0.0
  0
LINE
  5
30F
330
1F
100
AcDbEntity
  8
0
  6
Continuous
 62
     7
370
    15
100
AcDbLine
 10
123.957427381
 20
213.1475466066
 30
0.0
 11
123.8574271783
 21
213.1475466066
 31
0.0
  0
LINE
  5
310
330
1F
100
AcDbEntity
  8
0
  6
Continuous
 62
     7
370
    15
100
AcDbLine
 10
123.7574273482
 20
213.1475466066
 30
0.0
 11
123.6574271455
 21
213.1475466066
 31
0.0
  0
LINE
  5
311
330
1F
100
AcDbEntity
  8
0
  6
Continuous
 62
     7
370
    15
100
AcDbLine
 10
123.957427381
 20
216.6393491202
 30
0.0
 11
123.8574271783
 21
216.6393491202
 31
0.0
  0
LINE
  5
312
330
1F
100
AcDbEntity
  8
0
  6
Continuous
 62
     7
370
    15
100
AcDbLine
 10
123.8574271783
 20
216.7284297519
 30
0.0
 11
123.8574271783
 21
216.6393491202
 31
0.0
  0
LWPOLYLINE
  5
313
330
1F
100
AcDbEntity
  8
0
  6
Continuous
 62
     7
370
    15
100
AcDbPolyline
 90
        3
 70
   128
 43
0.0
 10
123.8574271783
 20
216.7284297519
 10
123.8578745857
 20
216.7286324077
 10
123.8606868073
 20
216.7299109273
  0
ARC
  5
314
330
1F
100
AcDbEntity
  8
0
  6
Continuous
 62
     7
370
    15
100
AcDbCircle
 10
123.8423305644
 20
216.8438627387
 30
0.0
 40
0.1154208255415432
100
AcDbArc
 50
279.151035414
 51
355.7058649481
  0
LINE
  5
315
330
1F
100
AcDbEntity
  8
0
  6
Continuous
 62
     7
370
    15
100
AcDbLine
 10
123.8574271783
 20
213.1475466066
 30
0.0
 11
123.8574271783
 21
216.6393491202
 31
0.0
  0
LINE
  5
316
330
1F
100
AcDbEntity
  8
0
  6
Continuous
 62
     7
370
    15
100
AcDbLine
 10
123.7574273482
 20
216.6393491202
 30
0.0
 11
123.7574273482
 21
216.7284297519
 31
0.0
  0
LINE
  5
317
330
1F
100
AcDbEntity
  8
0
  6
Continuous
 62
     7
370
    15
100
AcDbLine
 10
123.7574273482
 20
216.6393491202
 30
0.0
 11
123.6574271455
 21
216.6393491202
 31
0.0
  0
ARC
  5
318
330
1F
100
AcDbEntity
  8
0
  6
Continuous
 62
     7
370
    15
100
AcDbCircle
 10
123.7664845598
 20
216.8383147556
 30
0.0
 40
0.1091013040560056
100
AcDbArc
 50
181.6252464623
 51
263.5178531756
  0
LWPOLYLINE
  5
319
330
1F
100
AcDbEntity
  8
0
  6
Continuous
 62
     7
370
    15
100
AcDbPolyline
 90
        3
 70
   128
 43
0.0
 10
123.7541677192
 20
216.7299109273
 10
123.7569799408
 20
216.7286324077
 10
123.7574273482
 20
216.7284297519
  0
LINE
  5
31A
330
1F
100
AcDbEntity
  8
0
  6
Continuous
 62
     7
370
    15
100
AcDbLine
 10
123.7574273482
 20
216.6393491202
 30
0.0
 11
123.7574273482
 21
213.1475466066
 31
0.0
  0
ARC
  5
31B
330
1F
100
AcDbEntity
  8
0
  6
Continuous
 62
     7
370
    15
100
AcDbCircle
 10
125.3862827
 20
217.2098618406
 30
0.0
 40
0.0086842506211697
100
AcDbArc
 50
34.2431305685
 51
61.9301857187
  0
LWPOLYLINE
  5
31C
330
1F
100
AcDbEntity
  8
0
  6
Continuous
 62
     7
370
    15
100
AcDbPolyline
 90
        4
 70
   128
 43
0.0
 10
125.169719173
 20
217.1782987886
 10
125.2154225245
 20
217.2219055467
 10
125.3021057457
 20
217.2335955077
 10
125.3934615985
 20
217.214748519
  0
ARC
  5
31D
330
1F
100
AcDbEntity
  8
0
  6
Continuous
 62
     7
370
    15
100
AcDbCircle
 10
130.4202993879
 20
214.9261779512
 30
0.0
 40
5.713198828965242
100
AcDbArc
 50
156.7841521601
 51
164.2224695274
  0
LINE
  5
31E
330
1F
100
AcDbEntity
  8
0
  6
Continuous
 62
     7
370
    15
100
AcDbLine
 10
123.8339395955
 20
217.6673280769
 30
0.0
 11
123.957427381
 21
216.8792041712
 31
0.0
  0
LWPOLYLINE
  5
31F
330
1F
100
AcDbEntity
  8
0
  6
Continuous
 62
     7
370
    15
100
AcDbPolyline
 90
        6
 70
   128
 43
0.0
 10
123.8089916989
 20
217.6770287328
 10
123.8172666863
 20
217.6764356666
 10
123.8246088609
 20
217.6747369342
 10
123.8301900908
 20
217.6721307211
 10
123.8333819196
 20
217.6689225011
 10
123.8339395955
 20
217.6673280769
  0
ELLIPSE
  5
320
330
1F
100
AcDbEntity
  8
0
  6
Continuous
 62
     7
370
    15
100
AcDbEllipse
 10
123.807427221
 20
214.1290889704
 30
0.0
 11
0.0
 21
3.547939518662758
 31
0.0
210
0.0
220
0.0
230
1.0
 40
0.9792822627
 41
6.282735029799738
 42
6.283635584559455
  0
LWPOLYLINE
  5
321
330
1F
100
AcDbEntity
  8
0
  6
Continuous
 62
     7
370
    15
100
AcDbPolyline
 90
        6
 70
   128
 43
0.0
 10
123.780914931
 20
217.6673280769
 10
123.7828550622
 20
217.6706942492
 10
123.787389113
 20
217.6736223274
 10
123.7940063462
 20
217.6757755452
 10
123.801959841
 20
217.6768976026
 10
123.8058628276
 20
217.6770287328
  0
LINE
  5
322
330
1F
100
AcDbEntity
  8
0
  6
Continuous
 62
     7
370
    15
100
AcDbLine
 10
123.780914931
 20
217.6673280769
 30
0.0
 11
123.6574271455
 21
216.8792041712
 31
0.0
  0
ARC
  5
323
330
1F
100
AcDbEntity
  8
0
  6
Continuous
 62
     7
370
    15
100
AcDbCircle
 10
117.194449589
 20
214.9261420468
 30
0.0
 40
5.713309985218907
100
AcDbArc
 50
15.7775896723
 51
23.2157614938
  0
LWPOLYLINE
  5
324
330
1F
100
AcDbEntity
  8
0
  6
Continuous
 62
     7
370
    15
100
AcDbPolyline
 90
        4
 70
   128
 43
0.0
 10
122.2213929281
 20
217.214748519
 10
122.3127485946
 20
217.2335955077
 10
122.399432002
 20
217.2219055467
 10
122.4451353535
 20
217.1782987886
  0
ARC
  5
325
330
1F
100
AcDbEntity
  8
0
  6
Continuous
 62
     7
370
    15
100
AcDbCircle
 10
122.2283447768
 20
217.2101150322
 30
0.0
 40
0.0083544838803897
100
AcDbArc
 50
117.5140253624
 51
146.3160893826
  0
ARC
  5
326
330
1F
100
AcDbEntity
  8
0
  6
Continuous
 62
     7
370
    15
100
AcDbCircle
 10
123.807427221
 20
214.8475467229
 30
0.0
 40
2.850000000000025
100
AcDbArc
 50
56.2604749358
 51
123.7395250642
  0
LINE
  5
327
330
1F
100
AcDbEntity
  8
0
  6
Continuous
 62
     7
370
    15
100
AcDbLine
 10
123.6574271455
 20
216.8792041712
 30
0.0
 11
123.6574271455
 21
216.8183806115
 31
0.0
  0
LINE
  5
328
330
1F
100
AcDbEntity
  8
0
  6
Continuous
 62
     7
370
    15
100
AcDbLine
 10
123.957427381
 20
216.8183806115
 30
0.0
 11
123.957427381
 21
216.8792041712
 31
0.0
  0
ARC
  5
329
330
1F
100
AcDbEntity
  8
0
  6
Continuous
 62
     7
370
    15
100
AcDbCircle
 10
130.4203185534
 20
214.7689181742
 30
0.0
 40
5.713217811413681
100
AcDbArc
 50
195.7774973437
 51
203.2158040787
  0
ARC
  5
32A
330
1F
100
AcDbEntity
  8
0
  6
Continuous
 62
     7
370
    15
100
AcDbCircle
 10
130.7797134049
 20
215.0455822038
 30
0.0
 40
6.063956931060079
100
AcDbArc
 50
196.5754347582
 51
203.4576588695
  0
ARC
  5
32B
330
1F
100
AcDbEntity
  8
0
  6
Continuous
 62
     7
370
    15
100
AcDbCircle
 10
125.1266417448
 20
212.6016316912
 30
0.0
 40
0.0951478937751337
100
AcDbArc
 50
296.9197311954
 51
18.4191640149
  0
ARC
  5
32C
330
1F
100
AcDbEntity
  8
0
  6
Continuous
 62
     7
370
    15
100
AcDbCircle
 10
130.7795588813
 20
214.6495667416
 30
0.0
 40
6.06379276975052
100
AcDbArc
 50
156.5422478592
 51
163.4246585131
  0
ARC
  5
32D
330
1F
100
AcDbEntity
  8
0
  6
Continuous
 62
     7
370
    15
100
AcDbCircle
 10
125.1266424255
 20
217.0934612413
 30
0.0
 40
0.0951473363385774
100
AcDbArc
 50
341.5805467496
 51
63.08055804
  0
ARC
  5
32E
330
1F
100
AcDbEntity
  8
0
  6
Continuous
 62
     7
370
    15
100
AcDbCircle
 10
117.1945129419
 20
214.7689248627
 30
0.0
 40
5.713241614238599
100
AcDbArc
 50
336.7842253235
 51
344.2225004003
  0
LWPOLYLINE
  5
32F
330
1F
100
AcDbEntity
  8
0
  6
Continuous
 62
     7
370
    15
100
AcDbPolyline
 90
        4
 70
   128
 43
0.0
 10
125.3934615985
 20
212.4803441339
 10
125.3021057457
 20
212.4614986353
 10
125.2154225245
 20
212.4731871062
 10
125.169719173
 20
212.5167938643
  0
ARC
  5
330
330
1F
100
AcDbEntity
  8
0
  6
Continuous
 62
     7
370
    15
100
AcDbCircle
 10
125.3865238342
 20
212.4849661604
 30
0.0
 40
0.0083364082202243
100
AcDbArc
 50
297.4681554976
 51
326.3279446527
  0
ARC
  5
331
330
1F
100
AcDbEntity
  8
0
  6
Continuous
 62
     7
370
    15
100
AcDbCircle
 10
123.807427221
 20
214.8475467229
 30
0.0
 40
2.850000000000001
100
AcDbArc
 50
236.2604749358
 51
303.7395250642
  0
ARC
  5
332
330
1F
100
AcDbEntity
  8
0
  6
Continuous
 62
     7
370
    15
100
AcDbCircle
 10
122.2285731556
 20
212.4852361341
 30
0.0
 40
0.0086883447079782
100
AcDbArc
 50
214.2672105937
 51
241.9332584219
  0
LWPOLYLINE
  5
333
330
1F
100
AcDbEntity
  8
0
  6
Continuous
 62
     7
370
    15
100
AcDbPolyline
 90
        4
 70
   128
 43
0.0
 10
122.4451353535
 20
212.5167938643
 10
122.399432002
 20
212.4731871062
 10
122.3127485946
 20
212.4614986353
 10
122.2213929281
 20
212.4803441339
  0
ARC
  5
334
330
1F
100
AcDbEntity
  8
0
  6
Continuous
 62
     7
370
    15
100
AcDbCircle
 10
122.4882127817
 20
212.6016316912
 30
0.0
 40
0.095147893775069
100
AcDbArc
 50
161.580835985
 51
243.0802688046
  0
ARC
  5
335
330
1F
100
AcDbEntity
  8
0
  6
Continuous
 62
     7
370
    15
100
AcDbCircle
 10
116.8350288366
 20
215.0456231089
 30
0.0
 40
6.064076219385751
100
AcDbArc
 50
336.5424089032
 51
343.4244974692
  0
ARC
  5
336
330
1F
100
AcDbEntity
  8
0
  6
Continuous
 62
     7
370
    15
100
AcDbCircle
 10
116.8351674384
 20
214.6495200362
 30
0.0
 40
6.06392897289743
100
AcDbArc
 50
16.5754188736
 51
23.4576747541
  0
ARC
  5
337
330
1F
100
AcDbEntity
  8
0
  6
Continuous
 62
     7
370
    15
100
AcDbCircle
 10
122.488212101
 20
217.0934612413
 30
0.0
 40
0.0951473363385199
100
AcDbArc
 50
116.9194419599
 51
198.4194532504
  0
ARC
  5
338
330
1F
100
AcDbEntity
  8
0
  6
Continuous
 62
     7
370
    15
100
AcDbCircle
 10
130.9272047967
 20
214.8475467229
 30
0.0
 40
6.125145129612231
100
AcDbArc
 50
158.7914906199
 51
201.2085093801
  0
ARC
  5
339
330
1F
100
AcDbEntity
  8
0
  6
Continuous
 62
     7
370
    15
100
AcDbCircle
 10
116.6876496453
 20
214.8475467229
 30
0.0
 40
6.125145129612214
100
AcDbArc
 50
338.7914906199
 51
21.2085093801
  0
LINE
  5
33A
330
1F
100
AcDbEntity
  8
0
  6
Continuous
 62
     7
370
    15
100
AcDbLine
 10
123.8574271783
 20
216.6393491202
 30
0.0
 11
123.7574273482
 21
216.6393491202
 31
0.0
  0
LINE
  5
33B
330
1F
100
AcDbEntity
  8
0
  6
Continuous
 62
     7
370
    15
100
AcDbLine
 10
123.7574273482
 20
216.7284297519
 30
0.0
 11
123.8574271783
 21
216.7284297519
 31
0.0
  0
LWPOLYLINE
  5
33C
330
1F
100
AcDbEntity
  8
0
  6
Continuous
 62
     7
370
    15
100
AcDbPolyline
 90
        3
 70
   128
 43
0.0
 10
123.6574271455
 20
216.8431046181
 10
123.7265785918
 20
217.2918754392
 10
123.780914931
 20
217.6435756259
  0
ARC
  5
33D
330
1F
100
AcDbEntity
  8
0
  6
Continuous
 62
     7
370
    15
100
AcDbCircle
 10
123.8054590726
 20
217.6452089967
 30
0.0
 40
0.0245984306247344
100
AcDbArc
 50
183.8073224797
 51
271.0151206283
  0
LWPOLYLINE
  5
33E
330
1F
100
AcDbEntity
  8
0
  6
Continuous
 62
     7
370
    15
100
AcDbPolyline
 90
        4
 70
   128
 43
0.0
 10
123.8058948651
 20
217.6206144267
 10
123.7873254105
 20
217.3713373714
 10
123.7838076189
 20
217.1216192418
 10
123.7541677192
 20
216.7299109273
  0
LWPOLYLINE
  5
33F
330
1F
100
AcDbEntity
  8
0
  6
Continuous
 62
     7
370
    15
100
AcDbPolyline
 90
        3
 70
   128
 43
0.0
 10
123.8606868073
 20
216.7299109273
 10
123.8298998907
 20
217.2286513024
 10
123.8089596614
 20
217.6206144267
  0
ARC
  5
340
330
1F
100
AcDbEntity
  8
0
  6
Continuous
 62
     7
370
    15
100
AcDbCircle
 10
123.8093950735
 20
217.6452094105
 30
0.0
 40
0.0245988376163285
100
AcDbArc
 50
268.9857822253
 51
356.1917746667
  0
LWPOLYLINE
  5
341
330
1F
100
AcDbEntity
  8
0
  6
Continuous
 62
     7
370
    15
100
AcDbPolyline
 90
        4
 70
   128
 43
0.0
 10
123.8339395955
 20
217.6435756259
 10
123.8685009763
 20
217.4151929789
 10
123.9031092957
 20
217.2000798159
 10
123.957427381
 20
216.8431046181
  0
LINE
  5
342
330
1F
100
AcDbEntity
  8
0
  6
Continuous
 62
     7
370
    15
100
AcDbLine
 10
123.780914931
 20
217.6435756259
 30
0.0
 11
123.780914931
 21
217.6673280769
 31
0.0
  0
LINE
  5
343
330
1F
100
AcDbEntity
  8
0
  6
Continuous
 62
     7
370
    15
100
AcDbLine
 10
123.8339395955
 20
217.6673280769
 30
0.0
 11
123.8339395955
 21
217.6435756259
 31
0.0
  0
LINE
  5
344
330
1F
100
AcDbEntity
  8
0
  6
Continuous
 62
     7
370
    15
100
AcDbLine
 10
123.8089596614
 20
217.6206144267
 30
0.0
 11
123.8058948651
 21
217.6206144267
 31
0.0
  0
LWPOLYLINE
  5
345
330
1F
100
AcDbEntity
  8
0
  6
Continuous
 62
     7
370
    15
100
AcDbPolyline
 90
        5
 70
   128
 43
0.0
 10
125.2169152483
 20
212.6316952281
 10
125.255745998
 20
212.5862481766
 10
125.3231851146
 20
212.5670584612
 10
125.3861190513
 20
212.5746371918
 10
125.3908108681
 20
212.5759335928
  0
ARC
  5
346
330
1F
100
AcDbEntity
  8
0
  6
Continuous
 62
     7
370
    15
100
AcDbCircle
 10
125.2575344056
 20
212.5244063059
 30
0.0
 40
0.142890436247243
100
AcDbArc
 50
342.0393746433
 51
21.1374766477
  0
ARC
  5
347
330
1F
100
AcDbEntity
  8
0
  6
Continuous
 62
     7
370
    15
100
AcDbCircle
 10
125.3365518217
 20
216.9893400675
 30
0.0
 40
0.140703240329095
100
AcDbArc
 50
67.317294865
 51
148.2416897261
  0
ARC
  5
348
330
1F
100
AcDbEntity
  8
0
  6
Continuous
 62
     7
370
    15
100
AcDbCircle
 10
125.2622678965
 20
217.1705558867
 30
0.0
 40
0.1384369032771147
100
AcDbArc
 50
338.206987726
 51
18.6161114846
  0
LWPOLYLINE
  5
349
330
1F
100
AcDbEntity
  8
0
  6
Continuous
 62
     7
370
    15
100
AcDbPolyline
 90
        5
 70
   128
 43
0.0
 10
122.3979392782
 20
217.0633974247
 10
122.3591083422
 20
217.1088444763
 10
122.291669412
 20
217.1280356818
 10
122.2287354752
 20
217.1204554611
 10
122.2240434721
 20
217.1191605502
  0
ARC
  5
34A
330
1F
100
AcDbEntity
  8
0
  6
Continuous
 62
     7
370
    15
100
AcDbCircle
 10
122.352596067
 20
217.1705558979
 30
0.0
 40
0.1384458429069246
100
AcDbArc
 50
161.3851396316
 51
201.7915380341
  0
ARC
  5
34B
330
1F
100
AcDbEntity
  8
0
  6
Continuous
 62
     7
370
    15
100
AcDbCircle
 10
122.3526227784
 20
212.5245368155
 30
0.0
 40
0.1384711765650943
100
AcDbArc
 50
158.2120157433
 51
198.6113560859
  0
ARC
  5
34C
330
1F
100
AcDbEntity
  8
0
  6
Continuous
 62
     7
370
    15
100
AcDbCircle
 10
122.2783031416
 20
212.7057545114
 30
0.0
 40
0.1407038827210579
100
AcDbArc
 50
247.3171292447
 51
328.2409292743
  0
ARC
  5
34D
330
1F
100
AcDbEntity
  8
0
  6
Continuous
 62
     7
370
    15
100
AcDbCircle
 10
130.9272047967
 20
214.8475467229
 30
0.0
 40
5.82519082106531
100
AcDbArc
 50
157.9534745004
 51
202.0465254996
  0
ARC
  5
34E
330
1F
100
AcDbEntity
  8
0
  6
Continuous
 62
     7
370
    15
100
AcDbCircle
 10
125.2644206853
 20
212.9327635254
 30
0.0
 40
0.3785526107777576
100
AcDbArc
 50
289.504291115
 51
314.1200842344
  0
ARC
  5
34F
330
1F
100
AcDbEntity
  8
0
  6
Continuous
 62
     7
370
    15
100
AcDbCircle
 10
125.2642299482
 20
216.7620231362
 30
0.0
 40
0.3789061384078107
100
AcDbArc
 50
45.891578998
 51
70.4840456526
  0
ARC
  5
350
330
1F
100
AcDbEntity
  8
0
  6
Continuous
 62
     7
370
    15
100
AcDbCircle
 10
116.6876496453
 20
214.8475467229
 30
0.0
 40
5.825190821065287
100
AcDbArc
 50
337.9534745004
 51
22.0465254996
  0
ARC
  5
351
330
1F
100
AcDbEntity
  8
0
  6
Continuous
 62
     7
370
    15
100
AcDbCircle
 10
122.3504451045
 20
216.7623121602
 30
0.0
 40
0.3785738317783831
100
AcDbArc
 50
109.5049918463
 51
134.1193835031
  0
ARC
  5
352
330
1F
100
AcDbEntity
  8
0
  6
Continuous
 62
     7
370
    15
100
AcDbCircle
 10
122.3506021077
 20
212.9330350828
 30
0.0
 40
0.3788648339008898
100
AcDbArc
 50
225.8902174704
 51
250.4854071802
  0
LWPOLYLINE
  5
353
330
1F
100
AcDbEntity
  8
0
  6
Continuous
 62
     7
370
    15
100
AcDbPolyline
 90
        5
 70
   128
 43
0.0
 10
123.8339395955
 20
217.6435756259
 10
123.8315982506
 20
217.6472875052
 10
123.8260892913
 20
217.6503839665
 10
123.8181845978
 20
217.6524328762
 10
123.8089916989
 20
217.6531436615
  0
LINE
  5
354
330
1F
100
AcDbEntity
  8
0
  6
Continuous
 62
     7
370
    15
100
AcDbLine
 10
123.8089916989
 20
217.6531436615
 30
0.0
 11
123.8089916989
 21
217.6770287328
 31
0.0
  0
LINE
  5
355
330
1F
100
AcDbEntity
  8
0
  6
Continuous
 62
     7
370
    15
100
AcDbLine
 10
123.8058628276
 20
217.6770287328
 30
0.0
 11
123.8058628276
 21
217.6531436615
 31
0.0
  0
LWPOLYLINE
  5
356
330
1F
100
AcDbEntity
  8
0
  6
Continuous
 62
     7
370
    15
100
AcDbPolyline
 90
        5
 70
   128
 43
0.0
 10
123.8058628276
 20
217.6531436615
 10
123.7966699287
 20
217.6524328762
 10
123.7887648627
 20
217.6503839665
 10
123.7832559034
 20
217.6472875052
 10
123.780914931
 20
217.6435756259
  0
LWPOLYLINE
  5
357
330
1F
100
AcDbEntity
  8
0
  6
Continuous
 62
     7
370
    15
100
AcDbPolyline
 90
        3
 70
   128
 43
0.0
 10
125.585371232
 20
212.5880407863
 10
125.4842664808
 20
212.5203984552
 10
125.3903690487
 20
212.4775695377
  0
LWPOLYLINE
  5
358
330
1F
100
AcDbEntity
  8
0
  6
Continuous
 62
     7
370
    15
100
AcDbPolyline
 90
        9
 70
   128
 43
0.0
 10
125.585371232
 20
212.5880407863
 10
125.5813324586
 20
212.5931727462
 10
125.5761140719
 20
212.599803763
 10
125.5698317423
 20
212.6077878051
 10
125.5626240507
 20
212.616949039
 10
125.5546502531
 20
212.6270818286
 10
125.546086742
 20
212.6379656368
 10
125.5371223897
 20
212.6493575745
 10
125.5279555678
 20
212.6610073023
  0
LWPOLYLINE
  5
359
330
1F
100
AcDbEntity
  8
0
  6
Continuous
 62
     7
370
    15
100
AcDbPolyline
 90
        9
 70
   128
 43
0.0
 10
125.585371232
 20
217.1070533567
 10
125.5813324586
 20
217.1019213968
 10
125.5761140719
 20
217.0952888899
 10
125.5698317423
 20
217.0873048478
 10
125.5626240507
 20
217.078145104
 10
125.5546502531
 20
217.0680123144
 10
125.546086742
 20
217.0571285062
 10
125.5371223897
 20
217.0457365685
 10
125.5279555678
 20
217.0340868407
  0
LWPOLYLINE
  5
35A
330
1F
100
AcDbEntity
  8
0
  6
Continuous
 62
     7
370
    15
100
AcDbPolyline
 90
        3
 70
   128
 43
0.0
 10
125.3903690487
 20
217.2175246053
 10
125.4842664808
 20
217.1746956878
 10
125.585371232
 20
217.1070533567
  0
LWPOLYLINE
  5
35B
330
1F
100
AcDbEntity
  8
0
  6
Continuous
 62
     7
370
    15
100
AcDbPolyline
 90
        9
 70
   128
 43
0.0
 10
122.0868987724
 20
217.0340868407
 10
122.0777319506
 20
217.0457365685
 10
122.0687677845
 20
217.0571285062
 10
122.0602040872
 20
217.0680123144
 10
122.0522304758
 20
217.078145104
 10
122.0450227842
 20
217.0873048478
 10
122.0387404546
 20
217.0952888899
 10
122.033522068
 20
217.1019213968
 10
122.0294831082
 20
217.1070533567
  0
LWPOLYLINE
  5
35C
330
1F
100
AcDbEntity
  8
0
  6
Continuous
 62
     7
370
    15
100
AcDbPolyline
 90
        3
 70
   128
 43
0.0
 10
122.0294831082
 20
217.1070533567
 10
122.1305878595
 20
217.1746956878
 10
122.2244852915
 20
217.2175246053
  0
LWPOLYLINE
  5
35D
330
1F
100
AcDbEntity
  8
0
  6
Continuous
 62
     7
370
    15
100
AcDbPolyline
 90
        9
 70
   128
 43
0.0
 10
122.0868987724
 20
212.6610073023
 10
122.0777319506
 20
212.6493575745
 10
122.0687677845
 20
212.6379656368
 10
122.0602040872
 20
212.6270818286
 10
122.0522304758
 20
212.616949039
 10
122.0450227842
 20
212.6077878051
 10
122.0387404546
 20
212.599803763
 10
122.033522068
 20
212.5931727462
 10
122.0294831082
 20
212.5880407863
  0
LWPOLYLINE
  5
35E
330
1F
100
AcDbEntity
  8
0
  6
Continuous
 62
     7
370
    15
100
AcDbPolyline
 90
        3
 70
   128
 43
0.0
 10
122.2244852915
 20
212.4775695377
 10
122.1305878595
 20
212.5203984552
 10
122.0294831082
 20
212.5880407863
  0
LWPOLYLINE
  5
35F
330
1F
100
AcDbEntity
  8
0
  6
Continuous
 62
     7
370
    15
100
AcDbPolyline
 90
        5
 70
   128
 43
0.0
 10
123.8058628276
 20
217.6531436615
 10
123.8058706507
 20
217.6439436846
 10
123.8058788463
 20
217.6345917159
 10
123.8058866695
 20
217.6264258795
 10
123.8058948651
 20
217.6206144267
  0
LWPOLYLINE
  5
360
330
1F
100
AcDbEntity
  8
0
  6
Continuous
 62
     7
370
    15
100
AcDbPolyline
 90
        5
 70
   128
 43
0.0
 10
123.8089916989
 20
217.6531436615
 10
123.8089835033
 20
217.6439436846
 10
123.8089756802
 20
217.6345917159
 10
123.8089674845
 20
217.6264258795
 10
123.8089596614
 20
217.6206144267
  0
LINE
  5
361
330
1F
100
AcDbEntity
  8
0
  6
Continuous
 62
     7
370
    15
100
AcDbLine
 10
123.8058628276
 20
217.6531436615
 30
0.0
 11
123.8089916989
 21
217.6531436615
 31
0.0
  0
CIRCLE
  5
362
330
1F
100
AcDbEntity
  8
0
  6
Continuous
 62
     7
370
    15
100
AcDbCircle
 10
123.807427221
 20
214.8475467229
 30
0.0
 40
3.25
  0
ARC
  5
363
330
1F
100
AcDbEntity
  8
0
  6
Continuous
 62
     7
370
    15
100
AcDbCircle
 10
123.807427221
 20
214.8475467229
 30
0.0
 40
2.87514437294587
100
AcDbArc
 50
308.1982390097
 51
51.8017609903
  0
ARC
  5
364
330
1F
100
AcDbEntity
  8
0
  6
Continuous
 62
     7
370
    15
100
AcDbCircle
 10
123.807427221
 20
214.8475467229
 30
0.0
 40
2.875144372945852
100
AcDbArc
 50
128.1982390097
 51
231.8017609903
  0
LWPOLYLINE
  5
365
330
1F
100
AcDbEntity
  8
0
  6
Continuous
 62
     7
370
    15
100
AcDbPolyline
 90
        6
 70
   128
 43
0.0
 10
123.807427077
 20
217.8190040164
 10
123.9030735329
 20
217.824746924
 10
123.984113498
 20
217.8417074256
 10
124.0381927922
 20
217.8687262111
 10
124.0571861848
 20
217.9030480557
 10
124.055192782
 20
217.9069298082
  0
LWPOLYLINE
  5
366
330
1F
100
AcDbEntity
  8
0
  6
Continuous
 62
     7
370
    15
100
AcDbPolyline
 90
        6
 70
   128
 43
0.0
 10
123.5596084729
 20
217.9068225198
 10
123.5576776549
 20
217.9030659371
 10
123.5766565189
 20
217.8687455826
 10
123.6307007954
 20
217.8417223268
 10
123.7117105857
 20
217.8247722559
 10
123.807427077
 20
217.8190040164
  0
LINE
  5
367
330
1F
100
AcDbEntity
  8
0
  6
Continuous
 62
     7
370
    15
100
AcDbLine
 10
126.4761762455
 20
216.3803639584
 30
0.0
 11
126.5582967311
 21
216.2551345997
 31
0.0
  0
LINE
  5
368
330
1F
100
AcDbEntity
  8
0
  6
Continuous
 62
     7
370
    15
100
AcDbLine
 10
126.5247780591
 20
216.3709583455
 30
0.0
 11
126.5907481074
 21
216.377920168
 31
0.0
  0
LINE
  5
369
330
1F
100
AcDbEntity
  8
0
  6
Continuous
 62
     7
370
    15
100
AcDbLine
 10
126.4628326282
 20
216.5981399589
 30
0.0
 11
126.4295650408
 21
216.5400924855
 31
0.0
  0
LINE
  5
36A
330
1F
100
AcDbEntity
  8
0
  6
Continuous
 62
     7
370
    15
100
AcDbLine
 10
126.3242007926
 20
216.6720914417
 30
0.0
 11
126.3881113142
 21
216.5448414855
 31
0.0
  0
LINE
  5
36B
330
1F
100
AcDbEntity
  8
0
  6
Continuous
 62
     7
370
    15
100
AcDbLine
 10
126.2296767667
 20
216.5760281258
 30
0.0
 11
126.4199960738
 21
216.4295243793
 31
0.0
  0
LINE
  5
36C
330
1F
100
AcDbEntity
  8
0
  6
Continuous
 62
     7
370
    15
100
AcDbLine
 10
126.4199960738
 20
216.4295243793
 30
0.0
 11
126.4533865027
 21
216.2998053008
 31
0.0
  0
LINE
  5
36D
330
1F
100
AcDbEntity
  8
0
  6
Continuous
 62
     7
370
    15
100
AcDbLine
 10
121.6953145102
 20
212.5777664357
 30
0.0
 11
121.7356854811
 21
212.5407564216
 31
0.0
  0
LINE
  5
36E
330
1F
100
AcDbEntity
  8
0
  6
Continuous
 62
     7
370
    15
100
AcDbLine
 10
121.7498907581
 20
212.6868161135
 30
0.0
 11
121.7750755832
 21
212.6631292277
 31
0.0
  0
LINE
  5
36F
330
1F
100
AcDbEntity
  8
0
  6
Continuous
 62
     7
370
    15
100
AcDbLine
 10
123.1232469663
 20
211.8519636565
 30
0.0
 11
123.1559300557
 21
211.8445488387
 31
0.0
  0
LWPOLYLINE
  5
370
330
1F
100
AcDbEntity
  8
0
  6
Continuous
 62
     7
370
    15
100
AcDbPolyline
 90
        6
 70
   128
 43
0.0
 10
123.0367304519
 20
211.8405612879
 10
123.068243055
 20
211.8349763327
 10
123.0825783446
 20
211.8344488316
 10
123.0956019595
 20
211.8355530077
 10
123.114080517
 20
211.8419038826
 10
123.1232469663
 20
211.8519636565
  0
LWPOLYLINE
  5
371
330
1F
100
AcDbEntity
  8
0
  6
Continuous
 62
     7
370
    15
100
AcDbPolyline
 90
        5
 70
   128
 43
0.0
 10
122.9701408878
 20
211.8860619836
 10
122.9732000962
 20
211.8743198686
 10
122.9874444887
 20
211.861415463
 10
123.0096110836
 20
211.8495258265
 10
123.0367304519
 20
211.8405612879
  0
LINE
  5
372
330
1F
100
AcDbEntity
  8
0
  6
Continuous
 62
     7
370
    15
100
AcDbLine
 10
122.9559859022
 20
211.9878339344
 30
0.0
 11
123.18601401
 21
211.9292112761
 31
0.0
  0
LINE
  5
373
330
1F
100
AcDbEntity
  8
0
  6
Continuous
 62
     7
370
    15
100
AcDbLine
 10
123.0159746245
 20
211.9218366914
 30
0.0
 11
123.1088516995
 21
211.9341137581
 31
0.0
  0
LWPOLYLINE
  5
374
330
1F
100
AcDbEntity
  8
0
  6
Continuous
 62
     7
370
    15
100
AcDbPolyline
 90
        4
 70
   128
 43
0.0
 10
122.9373568431
 20
211.8950488739
 10
122.9462245241
 20
211.9065644913
 10
122.9653743789
 20
211.9137915545
 10
123.0159746245
 20
211.9218366914
  0
LINE
  5
375
330
1F
100
AcDbEntity
  8
0
  6
Continuous
 62
     7
370
    15
100
AcDbLine
 10
124.6427016094
 20
211.8795710378
 30
0.0
 11
124.677049531
 21
211.8892925554
 31
0.0
  0
ARC
  5
376
330
1F
100
AcDbEntity
  8
0
  6
Continuous
 62
     7
370
    15
100
AcDbCircle
 10
124.5684478713
 20
211.9317165962
 30
0.0
 40
0.0907346509330647
100
AcDbArc
 50
279.417654639
 51
324.9211007787
  0
LWPOLYLINE
  5
377
330
1F
100
AcDbEntity
  8
0
  6
Continuous
 62
     7
370
    15
100
AcDbPolyline
 90
        7
 70
   128
 43
0.0
 10
124.5158953354
 20
211.8469702774
 10
124.5182299748
 20
211.8430751138
 10
124.523153691
 20
211.8399712019
 10
124.5302842692
 20
211.8379416638
 10
124.5392510429
 20
211.8368613296
 10
124.5603194222
 20
211.8377047353
 10
124.5832947776
 20
211.842204886
  0
LWPOLYLINE
  5
378
330
1F
100
AcDbEntity
  8
0
  6
Continuous
 62
     7
370
    15
100
AcDbPolyline
 90
        8
 70
   128
 43
0.0
 10
124.4800435141
 20
211.9021760993
 10
124.4813998923
 20
211.8990781479
 10
124.4838433102
 20
211.8962916308
 10
124.4919920102
 20
211.8918868475
 10
124.5035288617
 20
211.8891033106
 10
124.5179844782
 20
211.8881943398
 10
124.5515824988
 20
211.8918138319
 10
124.5864419028
 20
211.8992957049
  0
ARC
  5
379
330
1F
100
AcDbEntity
  8
0
  6
Continuous
 62
     7
370
    15
100
AcDbCircle
 10
124.6061123154
 20
211.8467161955
 30
0.0
 40
0.1272656041024841
100
AcDbArc
 50
58.7454480037
 51
115.1094101382
  0
LWPOLYLINE
  5
37A
330
1F
100
AcDbEntity
  8
0
  6
Continuous
 62
     7
370
    15
100
AcDbPolyline
 90
        6
 70
   128
 43
0.0
 10
124.4466749713
 20
211.8935215049
 10
124.4518568501
 20
211.9115995937
 10
124.4737652823
 20
211.9307907992
 10
124.4899334148
 20
211.9398283535
 10
124.5092643186
 20
211.9483056241
 10
124.5521073923
 20
211.9619550877
  0
LWPOLYLINE
  5
37B
330
1F
100
AcDbEntity
  8
0
  6
Continuous
 62
     7
370
    15
100
AcDbPolyline
 90
        6
 70
   128
 43
0.0
 10
124.4804443553
 20
211.8387805992
 10
124.4800911978
 20
211.8429201417
 10
124.4813373074
 20
211.8473413163
 10
124.4885260001
 20
211.8566485816
 10
124.5012910798
 20
211.865957337
 10
124.5176469669
 20
211.874786275
  0
LINE
  5
37C
330
1F
100
AcDbEntity
  8
0
  6
Continuous
 62
     7
370
    15
100
AcDbLine
 10
125.9684130311
 20
212.7468722635
 30
0.0
 11
126.0811416194
 21
212.8689500266
 31
0.0
  0
LINE
  5
37D
330
1F
100
AcDbEntity
  8
0
  6
Continuous
 62
     7
370
    15
100
AcDbLine
 10
125.9465967998
 20
212.7675088816
 30
0.0
 11
125.9684130311
 21
212.7468722635
 31
0.0
  0
LINE
  5
37E
330
1F
100
AcDbEntity
  8
0
  6
Continuous
 62
     7
370
    15
100
AcDbLine
 10
125.9223073483
 20
212.7426611953
 30
0.0
 11
125.9465967998
 21
212.7675088816
 31
0.0
  0
LINE
  5
37F
330
1F
100
AcDbEntity
  8
0
  6
Continuous
 62
     7
370
    15
100
AcDbLine
 10
125.9143762052
 20
212.6922818594
 30
0.0
 11
125.9441276774
 21
212.7220201068
 31
0.0
  0
LINE
  5
380
330
1F
100
AcDbEntity
  8
0
  6
Continuous
 62
     7
370
    15
100
AcDbLine
 10
121.3971758023
 20
213.1418558531
 30
0.0
 11
121.2872111931
 21
213.3088725381
 31
0.0
  0
LINE
  5
381
330
1F
100
AcDbEntity
  8
0
  6
Continuous
 62
     7
370
    15
100
AcDbLine
 10
122.3545117065
 20
212.065774458
 30
0.0
 11
122.4404161558
 21
212.2306066328
 31
0.0
  0
LINE
  5
382
330
1F
100
AcDbEntity
  8
0
  6
Continuous
 62
     7
370
    15
100
AcDbLine
 10
122.4404161558
 20
212.2306066328
 30
0.0
 11
122.2764970496
 21
212.3229685002
 31
0.0
  0
LINE
  5
383
330
1F
100
AcDbEntity
  8
0
  6
Continuous
 62
     7
370
    15
100
AcDbLine
 10
125.2478217468
 20
212.2702571326
 30
0.0
 11
125.338339223
 21
212.1079119616
 31
0.0
  0
LINE
  5
384
330
1F
100
AcDbEntity
  8
0
  6
Continuous
 62
     7
370
    15
100
AcDbLine
 10
125.4090673983
 20
212.3672100478
 30
0.0
 11
125.2478217468
 21
212.2702571326
 31
0.0
  0
LINE
  5
385
330
1F
100
AcDbEntity
  8
0
  6
Continuous
 62
     7
370
    15
100
AcDbLine
 10
126.6055134818
 20
213.4254443222
 30
0.0
 11
126.4386996388
 21
213.5074752145
 31
0.0
  0
LINE
  5
386
330
1F
100
AcDbEntity
  8
0
  6
Continuous
 62
     7
370
    15
100
AcDbLine
 10
126.4386996388
 20
213.5074752145
 30
0.0
 11
126.3419171557
 21
213.3324849182
 31
0.0
  0
LINE
  5
387
330
1F
100
AcDbEntity
  8
0
  6
Continuous
 62
     7
370
    15
100
AcDbLine
 10
123.9074108884
 20
211.8968608552
 30
0.0
 11
123.7074440107
 21
211.8968608552
 31
0.0
  0
ARC
  5
388
330
1F
100
AcDbEntity
  8
0
  6
Continuous
 62
     7
370
    15
100
AcDbCircle
 10
123.807427221
 20
214.8475467229
 30
0.0
 40
2.782296703857342
100
AcDbArc
 50
308.1982390097
 51
51.8017609903
  0
ARC
  5
389
330
1F
100
AcDbEntity
  8
0
  6
Continuous
 62
     7
370
    15
100
AcDbCircle
 10
123.807427221
 20
214.8475467229
 30
0.0
 40
2.78229670385732
100
AcDbArc
 50
128.1982390097
 51
231.8017609903
  0
LINE
  5
38A
330
1F
100
AcDbEntity
  8
0
  6
Continuous
 62
     7
370
    15
100
AcDbLine
 10
122.4399862573
 20
212.2297840887
 30
0.0
 11
122.2760153696
 21
212.3221742683
 31
0.0
  0
LINE
  5
38B
330
1F
100
AcDbEntity
  8
0
  6
Continuous
 62
     7
370
    15
100
AcDbLine
 10
122.2764970496
 20
212.3229685002
 30
0.0
 11
122.2760153696
 21
212.3221742683
 31
0.0
  0
LINE
  5
38C
330
1F
100
AcDbEntity
  8
0
  6
Continuous
 62
     7
370
    15
100
AcDbLine
 10
122.4404161558
 20
212.2306066328
 30
0.0
 11
122.4399862573
 21
212.2297840887
 31
0.0
  0
LINE
  5
38D
330
1F
100
AcDbEntity
  8
0
  6
Continuous
 62
     7
370
    15
100
AcDbLine
 10
122.3540821806
 20
212.0649519139
 30
0.0
 11
122.4399862573
 21
212.2297840887
 31
0.0
  0
LINE
  5
38E
330
1F
100
AcDbEntity
  8
0
  6
Continuous
 62
     7
370
    15
100
AcDbLine
 10
122.1798067674
 20
212.163135665
 30
0.0
 11
122.3540821806
 21
212.0649519139
 31
0.0
  0
LINE
  5
38F
330
1F
100
AcDbEntity
  8
0
  6
Continuous
 62
     7
370
    15
100
AcDbLine
 10
122.2760153696
 20
212.3221742683
 30
0.0
 11
122.1798067674
 21
212.163135665
 31
0.0
  0
LINE
  5
390
330
1F
100
AcDbEntity
  8
0
  6
Continuous
 62
     7
370
    15
100
AcDbLine
 10
122.3545117065
 20
212.065774458
 30
0.0
 11
122.3540821806
 21
212.0649519139
 31
0.0
  0
LINE
  5
391
330
1F
100
AcDbEntity
  8
0
  6
Continuous
 62
     7
370
    15
100
AcDbLine
 10
123.9074425533
 20
211.8959325128
 30
0.0
 11
123.7074123457
 21
211.8959325128
 31
0.0
  0
LINE
  5
392
330
1F
100
AcDbEntity
  8
0
  6
Continuous
 62
     7
370
    15
100
AcDbLine
 10
123.7074440107
 20
211.8968608552
 30
0.0
 11
123.7074123457
 21
211.8959325128
 31
0.0
  0
LINE
  5
393
330
1F
100
AcDbEntity
  8
0
  6
Continuous
 62
     7
370
    15
100
AcDbLine
 10
123.9074108884
 20
211.8968608552
 30
0.0
 11
123.9074425533
 21
211.8959325128
 31
0.0
  0
LINE
  5
394
330
1F
100
AcDbEntity
  8
0
  6
Continuous
 62
     7
370
    15
100
AcDbLine
 10
123.7074123457
 20
211.8959325128
 30
0.0
 11
123.7074123457
 21
211.7099585705
 31
0.0
  0
LINE
  5
395
330
1F
100
AcDbEntity
  8
0
  6
Continuous
 62
     7
370
    15
100
AcDbLine
 10
123.9074425533
 20
211.7099585705
 30
0.0
 11
123.9074425533
 21
211.8959325128
 31
0.0
  0
LINE
  5
396
330
1F
100
AcDbEntity
  8
0
  6
Continuous
 62
     7
370
    15
100
AcDbLine
 10
123.7074123457
 20
211.7099585705
 30
0.0
 11
123.9074425533
 21
211.7099585705
 31
0.0
  0
LINE
  5
397
330
1F
100
AcDbEntity
  8
0
  6
Continuous
 62
     7
370
    15
100
AcDbLine
 10
125.2482747421
 20
212.2694465094
 30
0.0
 11
125.3387922183
 21
212.1071013384
 31
0.0
  0
LINE
  5
398
330
1F
100
AcDbEntity
  8
0
  6
Continuous
 62
     7
370
    15
100
AcDbLine
 10
125.4095710576
 20
212.366430717
 30
0.0
 11
125.2482747421
 21
212.2694465094
 31
0.0
  0
LINE
  5
399
330
1F
100
AcDbEntity
  8
0
  6
Continuous
 62
     7
370
    15
100
AcDbLine
 10
125.5102256075
 20
212.2101667099
 30
0.0
 11
125.4095710576
 21
212.366430717
 31
0.0
  0
LINE
  5
39A
330
1F
100
AcDbEntity
  8
0
  6
Continuous
 62
     7
370
    15
100
AcDbLine
 10
125.3387922183
 20
212.1071013384
 30
0.0
 11
125.5102256075
 21
212.2101667099
 31
0.0
  0
LINE
  5
39B
330
1F
100
AcDbEntity
  8
0
  6
Continuous
 62
     7
370
    15
100
AcDbLine
 10
125.338339223
 20
212.1079119616
 30
0.0
 11
125.3387922183
 21
212.1071013384
 31
0.0
  0
LINE
  5
39C
330
1F
100
AcDbEntity
  8
0
  6
Continuous
 62
     7
370
    15
100
AcDbLine
 10
125.2478217468
 20
212.2702571326
 30
0.0
 11
125.2482747421
 21
212.2694465094
 31
0.0
  0
LINE
  5
39D
330
1F
100
AcDbEntity
  8
0
  6
Continuous
 62
     7
370
    15
100
AcDbLine
 10
125.4090673983
 20
212.3672100478
 30
0.0
 11
125.4095710576
 21
212.366430717
 31
0.0
  0
LINE
  5
39E
330
1F
100
AcDbEntity
  8
0
  6
Continuous
 62
     7
370
    15
100
AcDbLine
 10
121.3964180782
 20
213.1413194113
 30
0.0
 11
121.2864191964
 21
213.3083897405
 31
0.0
  0
LINE
  5
39F
330
1F
100
AcDbEntity
  8
0
  6
Continuous
 62
     7
370
    15
100
AcDbLine
 10
121.2872111931
 20
213.3088725381
 30
0.0
 11
121.2864191964
 21
213.3083897405
 31
0.0
  0
LINE
  5
3A0
330
1F
100
AcDbEntity
  8
0
  6
Continuous
 62
     7
370
    15
100
AcDbLine
 10
121.3971758023
 20
213.1418558531
 30
0.0
 11
121.3964180782
 21
213.1413194113
 31
0.0
  0
LINE
  5
3A1
330
1F
100
AcDbEntity
  8
0
  6
Continuous
 62
     7
370
    15
100
AcDbLine
 10
121.2412649527
 20
213.0387979322
 30
0.0
 11
121.3964180782
 21
213.1413194113
 31
0.0
  0
LINE
  5
3A2
330
1F
100
AcDbEntity
  8
0
  6
Continuous
 62
     7
370
    15
100
AcDbLine
 10
121.1312496796
 20
213.2058563405
 30
0.0
 11
121.2412649527
 21
213.0387979322
 31
0.0
  0
LINE
  5
3A3
330
1F
100
AcDbEntity
  8
0
  6
Continuous
 62
     7
370
    15
100
AcDbLine
 10
121.2864191964
 20
213.3083897405
 30
0.0
 11
121.1312496796
 21
213.2058563405
 31
0.0
  0
LINE
  5
3A4
330
1F
100
AcDbEntity
  8
0
  6
Continuous
 62
     7
370
    15
100
AcDbLine
 10
126.4395270258
 20
213.5070535117
 30
0.0
 11
126.3427139953
 21
213.3320095711
 31
0.0
  0
LINE
  5
3A5
330
1F
100
AcDbEntity
  8
0
  6
Continuous
 62
     7
370
    15
100
AcDbLine
 10
126.6063412413
 20
213.4250241094
 30
0.0
 11
126.4395270258
 21
213.5070535117
 31
0.0
  0
LINE
  5
3A6
330
1F
100
AcDbEntity
  8
0
  6
Continuous
 62
     7
370
    15
100
AcDbLine
 10
126.5100299142
 20
213.2497059875
 30
0.0
 11
126.6063412413
 21
213.4250241094
 31
0.0
  0
LINE
  5
3A7
330
1F
100
AcDbEntity
  8
0
  6
Continuous
 62
     7
370
    15
100
AcDbLine
 10
126.3427139953
 20
213.3320095711
 30
0.0
 11
126.5100299142
 21
213.2497059875
 31
0.0
  0
LINE
  5
3A8
330
1F
100
AcDbEntity
  8
0
  6
Continuous
 62
     7
370
    15
100
AcDbLine
 10
126.4386996388
 20
213.5074752145
 30
0.0
 11
126.4395270258
 21
213.5070535117
 31
0.0
  0
LINE
  5
3A9
330
1F
100
AcDbEntity
  8
0
  6
Continuous
 62
     7
370
    15
100
AcDbLine
 10
126.3419171557
 20
213.3324849182
 30
0.0
 11
126.3427139953
 21
213.3320095711
 31
0.0
  0
LINE
  5
3AA
330
1F
100
AcDbEntity
  8
0
  6
Continuous
 62
     7
370
    15
100
AcDbLine
 10
126.6055134818
 20
213.4254443222
 30
0.0
 11
126.6063412413
 21
213.4250241094
 31
0.0
  0
LWPOLYLINE
  5
3AB
330
1F
100
AcDbEntity
  8
0
  6
Continuous
 62
     7
370
    15
100
AcDbPolyline
 90
       17
 70
   128
 43
0.0
 10
123.807427077
 20
217.8199323588
 10
123.9031294122
 20
217.8256782465
 10
123.984196572
 20
217.8426432186
 10
124.0382930025
 20
217.8696754151
 10
124.0572618082
 20
217.9040181213
 10
124.038247554
 20
217.9409253173
 10
123.9841026947
 20
217.974157887
 10
123.903004615
 20
217.9973247223
 10
123.8072929665
 20
218.0056246691
 10
123.7116032973
 20
217.9972785287
 10
123.6305666849
 20
217.9740774208
 10
123.5765123501
 20
217.9408269697
 10
123.5576020315
 20
217.9039182835
 10
123.576677753
 20
217.8695934587
 10
123.6308423564
 20
217.842585104
 10
123.712029843
 20
217.8256558948
 10
123.807427077
 20
217.8199323588
  0
LINE
  5
3AC
330
1F
100
AcDbEntity
  8
0
  6
Continuous
 62
     7
370
    15
100
AcDbLine
 10
126.2304326281
 20
216.5765675478
 30
0.0
 11
126.4207901195
 21
216.4300056868
 31
0.0
  0
LINE
  5
3AD
330
1F
100
AcDbEntity
  8
0
  6
Continuous
 62
     7
370
    15
100
AcDbLine
 10
126.4199960738
 20
216.4295243793
 30
0.0
 11
126.4207903057
 21
216.4300056868
 31
0.0
  0
LINE
  5
3AE
330
1F
100
AcDbEntity
  8
0
  6
Continuous
 62
     7
370
    15
100
AcDbLine
 10
126.2296767667
 20
216.5760281258
 30
0.0
 11
126.2304326281
 21
216.5765675478
 31
0.0
  0
LINE
  5
3AF
330
1F
100
AcDbEntity
  8
0
  6
Continuous
 62
     7
370
    15
100
AcDbLine
 10
126.3249525562
 20
216.6726368242
 30
0.0
 11
126.3888871059
 21
216.5453525954
 31
0.0
  0
LINE
  5
3B0
330
1F
100
AcDbEntity
  8
0
  6
Continuous
 62
     7
370
    15
100
AcDbLine
 10
126.4303451166
 20
216.5405961447
 30
0.0
 11
126.3249525562
 21
216.6726368242
 31
0.0
  0
LINE
  5
3B1
330
1F
100
AcDbEntity
  8
0
  6
Continuous
 62
     7
370
    15
100
AcDbLine
 10
126.463607768
 20
216.5986510687
 30
0.0
 11
126.4303451166
 21
216.5405961447
 31
0.0
  0
LINE
  5
3B2
330
1F
100
AcDbEntity
  8
0
  6
Continuous
 62
     7
370
    15
100
AcDbLine
 10
126.5049002826
 20
216.4537700587
 30
0.0
 11
126.463607768
 21
216.5986510687
 31
0.0
  0
LINE
  5
3B3
330
1F
100
AcDbEntity
  8
0
  6
Continuous
 62
     7
370
    15
100
AcDbLine
 10
126.5915617108
 20
216.3783672028
 30
0.0
 11
126.5049002826
 21
216.4537700587
 31
0.0
  0
LINE
  5
3B4
330
1F
100
AcDbEntity
  8
0
  6
Continuous
 62
     7
370
    15
100
AcDbLine
 10
126.5255879372
 20
216.3714128309
 30
0.0
 11
126.5915617108
 21
216.3783672028
 31
0.0
  0
LINE
  5
3B5
330
1F
100
AcDbEntity
  8
0
  6
Continuous
 62
     7
370
    15
100
AcDbLine
 10
126.5591232799
 20
216.2555563026
 30
0.0
 11
126.5255879372
 21
216.3714128309
 31
0.0
  0
LINE
  5
3B6
330
1F
100
AcDbEntity
  8
0
  6
Continuous
 62
     7
370
    15
100
AcDbLine
 10
126.4769813739
 20
216.3808258944
 30
0.0
 11
126.5591232799
 21
216.2555563026
 31
0.0
  0
LINE
  5
3B7
330
1F
100
AcDbEntity
  8
0
  6
Continuous
 62
     7
370
    15
100
AcDbLine
 10
126.4542004786
 20
216.3002523356
 30
0.0
 11
126.4769813739
 21
216.3808258944
 31
0.0
  0
LINE
  5
3B8
330
1F
100
AcDbEntity
  8
0
  6
Continuous
 62
     7
370
    15
100
AcDbLine
 10
126.4207903057
 20
216.4300056868
 30
0.0
 11
126.4542004786
 21
216.3002523356
 31
0.0
  0
LINE
  5
3B9
330
1F
100
AcDbEntity
  8
0
  6
Continuous
 62
     7
370
    15
100
AcDbLine
 10
126.3888871059
 20
216.5453525954
 30
0.0
 11
126.2304326281
 21
216.5765675478
 31
0.0
  0
LWPOLYLINE
  5
3BA
330
1F
100
AcDbEntity
  8
0
  6
Continuous
 62
     7
370
    15
100
AcDbPolyline
 90
        3
 70
   128
 43
0.0
 10
124.6724089369
 20
211.9546222263
 10
124.6722759441
 20
211.955067771
 10
124.6721429512
 20
211.9555118256
  0
ARC
  5
3BB
330
1F
100
AcDbEntity
  8
0
  6
Continuous
 62
     7
370
    15
100
AcDbCircle
 10
124.6063682618
 20
211.8457637558
 30
0.0
 40
0.1273245355991185
100
AcDbArc
 50
58.7562578264
 51
115.1088403281
  0
LINE
  5
3BC
330
1F
100
AcDbEntity
  8
0
  6
Continuous
 62
     7
370
    15
100
AcDbLine
 10
124.5523394778
 20
211.9610565477
 30
0.0
 11
124.5521073923
 21
211.9619550877
 31
0.0
  0
LINE
  5
3BD
330
1F
100
AcDbEntity
  8
0
  6
Continuous
 62
     7
370
    15
100
AcDbLine
 10
124.6429534391
 20
211.8786769681
 30
0.0
 11
124.6773114189
 21
211.8884014659
 31
0.0
  0
ARC
  5
3BE
330
1F
100
AcDbEntity
  8
0
  6
Continuous
 62
     7
370
    15
100
AcDbCircle
 10
124.5729585558
 20
211.9489196188
 30
0.0
 40
0.1206315334808841
100
AcDbArc
 50
276.5188535704
 51
329.888940612
  0
LWPOLYLINE
  5
3BF
330
1F
100
AcDbEntity
  8
0
  6
Continuous
 62
     7
370
    15
100
AcDbPolyline
 90
        8
 70
   128
 43
0.0
 10
124.5866538718
 20
211.8290680223
 10
124.5503792301
 20
211.8223043852
 10
124.5171824232
 20
211.8213402801
 10
124.5033425972
 20
211.8232327276
 10
124.4922579959
 20
211.8267389708
 10
124.4844680414
 20
211.8316652947
 10
124.4820216432
 20
211.8346216851
 10
124.4806470111
 20
211.8378746086
  0
LWPOLYLINE
  5
3C0
330
1F
100
AcDbEntity
  8
0
  6
Continuous
 62
     7
370
    15
100
AcDbPolyline
 90
        5
 70
   128
 43
0.0
 10
124.4806470111
 20
211.8378746086
 10
124.4815407082
 20
211.8464353257
 10
124.4887320086
 20
211.855742591
 10
124.5015015587
 20
211.8650528365
 10
124.5178626612
 20
211.8738832646
  0
ARC
  5
3C1
330
1F
100
AcDbEntity
  8
0
  6
Continuous
 62
     7
370
    15
100
AcDbCircle
 10
124.5008942546
 20
212.0220228694
 30
0.0
 40
0.149108247006246
100
AcDbArc
 50
259.9348069434
 51
276.5343724508
  0
LWPOLYLINE
  5
3C2
330
1F
100
AcDbEntity
  8
0
  6
Continuous
 62
     7
370
    15
100
AcDbPolyline
 90
        3
 70
   128
 43
0.0
 10
124.4748344406
 20
211.8752094679
 10
124.4556559011
 20
211.881959694
 10
124.4468712941
 20
211.8926140242
  0
LWPOLYLINE
  5
3C3
330
1F
100
AcDbEntity
  8
0
  6
Continuous
 62
     7
370
    15
100
AcDbPolyline
 90
        6
 70
   128
 43
0.0
 10
124.4468712941
 20
211.8926140242
 10
124.4520326838
 20
211.9106563502
 10
124.4739720359
 20
211.9298848086
 10
124.4901442662
 20
211.938923853
 10
124.5094826207
 20
211.9474041038
 10
124.5523394778
 20
211.9610565477
  0
LINE
  5
3C4
330
1F
100
AcDbEntity
  8
0
  6
Continuous
 62
     7
370
    15
100
AcDbLine
 10
124.6724089369
 20
211.9546222263
 30
0.0
 11
124.6395123884
 21
211.9451674395
 31
0.0
  0
LWPOLYLINE
  5
3C5
330
1F
100
AcDbEntity
  8
0
  6
Continuous
 62
     7
370
    15
100
AcDbPolyline
 90
        3
 70
   128
 43
0.0
 10
124.6395123884
 20
211.9451674395
 10
124.6279170498
 20
211.9521352225
 10
124.6100252256
 20
211.9559409791
  0
LWPOLYLINE
  5
3C6
330
1F
100
AcDbEntity
  8
0
  6
Continuous
 62
     7
370
    15
100
AcDbPolyline
 90
        3
 70
   128
 43
0.0
 10
124.6100244805
 20
211.9559409791
 10
124.5838613942
 20
211.9545745426
 10
124.5549885318
 20
211.9487124258
  0
LWPOLYLINE
  5
3C7
330
1F
100
AcDbEntity
  8
0
  6
Continuous
 62
     7
370
    15
100
AcDbPolyline
 90
        8
 70
   128
 43
0.0
 10
124.5549885318
 20
211.9487124258
 10
124.5251202717
 20
211.9393992
 10
124.5115754887
 20
211.9335698658
 10
124.5000624791
 20
211.9272756153
 10
124.4839416578
 20
211.913849669
 10
124.4804059848
 20
211.9073065691
 10
124.4798986003
 20
211.9042071276
 10
124.4802502677
 20
211.9012701087
  0
LWPOLYLINE
  5
3C8
330
1F
100
AcDbEntity
  8
0
  6
Continuous
 62
     7
370
    15
100
AcDbPolyline
 90
        7
 70
   128
 43
0.0
 10
124.4802502677
 20
211.9012701087
 10
124.4840508088
 20
211.8953871303
 10
124.4922013715
 20
211.8909823471
 10
124.5037400857
 20
211.8881988101
 10
124.5182012901
 20
211.8872928195
 10
124.5518089965
 20
211.8909138017
 10
124.5866792038
 20
211.898398655
  0
LINE
  5
3C9
330
1F
100
AcDbEntity
  8
0
  6
Continuous
 62
     7
370
    15
100
AcDbLine
 10
124.5866792038
 20
211.898398655
 30
0.0
 11
124.5895979688
 21
211.8868636661
 31
0.0
  0
LWPOLYLINE
  5
3CA
330
1F
100
AcDbEntity
  8
0
  6
Continuous
 62
     7
370
    15
100
AcDbPolyline
 90
        8
 70
   128
 43
0.0
 10
124.5895979688
 20
211.8868636661
 10
124.5631424472
 20
211.8788229995
 10
124.5390107617
 20
211.8688779645
 10
124.5283206686
 20
211.8629875355
 10
124.5210630581
 20
211.8573459559
 10
124.5166824892
 20
211.851457017
 10
124.515941529
 20
211.8486779504
 10
124.5161087945
 20
211.846067267
  0
LWPOLYLINE
  5
3CB
330
1F
100
AcDbEntity
  8
0
  6
Continuous
 62
     7
370
    15
100
AcDbPolyline
 90
        7
 70
   128
 43
0.0
 10
124.5161087945
 20
211.846067267
 10
124.5184438065
 20
211.8421706133
 10
124.5233686402
 20
211.8390681916
 10
124.530501081
 20
211.8370401435
 10
124.5394704625
 20
211.8359583192
 10
124.5605448022
 20
211.8368047052
 10
124.5835272357
 20
211.841306346
  0
ARC
  5
3CC
330
1F
100
AcDbEntity
  8
0
  6
Continuous
 62
     7
370
    15
100
AcDbCircle
 10
124.5701437543
 20
211.9285229308
 30
0.0
 40
0.0882375780898567
100
AcDbArc
 50
278.7245278931
 51
325.6042159852
  0
LWPOLYLINE
  5
3CD
330
1F
100
AcDbEntity
  8
0
  6
Continuous
 62
     7
370
    15
100
AcDbPolyline
 90
        3
 70
   128
 43
0.0
 10
124.4468712941
 20
211.8926140242
 10
124.4467733189
 20
211.8930670195
 10
124.4466749713
 20
211.8935215049
  0
LINE
  5
3CE
330
1F
100
AcDbEntity
  8
0
  6
Continuous
 62
     7
370
    15
100
AcDbLine
 10
123.1858206674
 20
211.9283037954
 30
0.0
 11
123.18601401
 21
211.9292112761
 31
0.0
  0
LINE
  5
3CF
330
1F
100
AcDbEntity
  8
0
  6
Continuous
 62
     7
370
    15
100
AcDbLine
 10
122.9557210341
 20
211.986944335
 30
0.0
 11
123.1858206674
 21
211.9283037954
 31
0.0
  0
LINE
  5
3D0
330
1F
100
AcDbEntity
  8
0
  6
Continuous
 62
     7
370
    15
100
AcDbLine
 10
122.9557210341
 20
211.986944335
 30
0.0
 11
122.9559859022
 21
211.9878339344
 31
0.0
  0
LINE
  5
3D1
330
1F
100
AcDbEntity
  8
0
  6
Continuous
 62
     7
370
    15
100
AcDbLine
 10
123.1230402127
 20
211.8510576659
 30
0.0
 11
123.1557333603
 21
211.8436413579
 31
0.0
  0
LWPOLYLINE
  5
3D2
330
1F
100
AcDbEntity
  8
0
  6
Continuous
 62
     7
370
    15
100
AcDbPolyline
 90
        6
 70
   128
 43
0.0
 10
123.1557333603
 20
211.8436413579
 10
123.1432223454
 20
211.8292170339
 10
123.1154655799
 20
211.82082619
 10
123.096731095
 20
211.8194552832
 10
123.0762345478
 20
211.8202167325
 10
123.0316010997
 20
211.8281352096
  0
LWPOLYLINE
  5
3D3
330
1F
100
AcDbEntity
  8
0
  6
Continuous
 62
     7
370
    15
100
AcDbPolyline
 90
        6
 70
   128
 43
0.0
 10
123.0316003546
 20
211.8281352096
 10
122.9923913017
 20
211.8410694175
 10
122.9751394823
 20
211.8493365818
 10
122.9605948314
 20
211.8584113889
 10
122.9410892114
 20
211.8772077137
 10
122.9370945826
 20
211.8941592746
  0
LWPOLYLINE
  5
3D4
330
1F
100
AcDbEntity
  8
0
  6
Continuous
 62
     7
370
    15
100
AcDbPolyline
 90
        4
 70
   128
 43
0.0
 10
122.9370945826
 20
211.8941592746
 10
122.9459637538
 20
211.9056734019
 10
122.9651180789
 20
211.9128989749
 10
123.0157321081
 20
211.9209396415
  0
LINE
  5
3D5
330
1F
100
AcDbEntity
  8
0
  6
Continuous
 62
     7
370
    15
100
AcDbLine
 10
123.0157321081
 20
211.9209396415
 30
0.0
 11
123.1086352602
 21
211.9332107478
 31
0.0
  0
LINE
  5
3D6
330
1F
100
AcDbEntity
  8
0
  6
Continuous
 62
     7
370
    15
100
AcDbLine
 10
123.1086352602
 20
211.9332107478
 30
0.0
 11
122.9526603356
 21
211.9747894578
 31
0.0
  0
LINE
  5
3D7
330
1F
100
AcDbEntity
  8
0
  6
Continuous
 62
     7
370
    15
100
AcDbLine
 10
122.9526603356
 20
211.9747894578
 30
0.0
 11
122.9557210341
 21
211.986944335
 31
0.0
  0
LINE
  5
3D8
330
1F
100
AcDbEntity
  8
0
  6
Continuous
 62
     7
370
    15
100
AcDbLine
 10
123.1858206674
 20
211.9283037954
 30
0.0
 11
123.0426711723
 21
211.9074183279
 31
0.0
  0
ARC
  5
3D9
330
1F
100
AcDbEntity
  8
0
  6
Continuous
 62
     7
370
    15
100
AcDbCircle
 10
123.0280310987
 20
211.8251386991
 30
0.0
 40
0.0835719394050868
100
AcDbArc
 50
79.9109077609
 51
134.0847303681
  0
LWPOLYLINE
  5
3DA
330
1F
100
AcDbEntity
  8
0
  6
Continuous
 62
     7
370
    15
100
AcDbPolyline
 90
        6
 70
   128
 43
0.0
 10
122.9698883131
 20
211.8851694041
 10
122.9699464276
 20
211.8795844489
 10
122.9729493842
 20
211.8734257989
 10
122.9871986195
 20
211.8605199032
 10
123.0093722925
 20
211.8486287766
 10
123.0364998564
 20
211.8396627479
  0
LWPOLYLINE
  5
3DB
330
1F
100
AcDbEntity
  8
0
  6
Continuous
 62
     7
370
    15
100
AcDbPolyline
 90
        6
 70
   128
 43
0.0
 10
123.0364998564
 20
211.8396627479
 10
123.0680221453
 20
211.8340733223
 10
123.0823596701
 20
211.8335458212
 10
123.0953885004
 20
211.8346499973
 10
123.1138719007
 20
211.8409993821
 10
123.1230402127
 20
211.8510576659
  0
LINE
  5
3DC
330
1F
100
AcDbEntity
  8
0
  6
Continuous
 62
     7
370
    15
100
AcDbLine
 10
121.710916771
 20
212.544867652
 30
0.0
 11
121.6607840493
 21
212.5915514999
 31
0.0
  0
LINE
  5
3DD
330
1F
100
AcDbEntity
  8
0
  6
Continuous
 62
     7
370
    15
100
AcDbLine
 10
121.6607840493
 20
212.5915514999
 30
0.0
 11
121.7492500082
 21
212.6861440711
 31
0.0
  0
LINE
  5
3DE
330
1F
100
AcDbEntity
  8
0
  6
Continuous
 62
     7
370
    15
100
AcDbLine
 10
121.7492500082
 20
212.6861440711
 30
0.0
 11
121.7744430289
 21
212.6624497347
 31
0.0
  0
LINE
  5
3DF
330
1F
100
AcDbEntity
  8
0
  6
Continuous
 62
     7
370
    15
100
AcDbLine
 10
121.7744430289
 20
212.6624497347
 30
0.0
 11
121.6946819559
 21
212.5770869427
 31
0.0
  0
LINE
  5
3E0
330
1F
100
AcDbEntity
  8
0
  6
Continuous
 62
     7
370
    15
100
AcDbLine
 10
121.6946819559
 20
212.5770869427
 30
0.0
 11
121.7350648478
 21
212.5400650077
 31
0.0
  0
LINE
  5
3E1
330
1F
100
AcDbEntity
  8
0
  6
Continuous
 62
     7
370
    15
100
AcDbLine
 10
121.7350648478
 20
212.5400650077
 30
0.0
 11
121.710916771
 21
212.544867652
 31
0.0
  0
LINE
  5
3E2
330
1F
100
AcDbEntity
  8
0
  6
Continuous
 62
     7
370
    15
100
AcDbLine
 10
121.7492500082
 20
212.6861440711
 30
0.0
 11
121.7498907581
 21
212.6868161135
 31
0.0
  0
LINE
  5
3E3
330
1F
100
AcDbEntity
  8
0
  6
Continuous
 62
     7
370
    15
100
AcDbLine
 10
121.7744430289
 20
212.6624497347
 30
0.0
 11
121.7750755832
 21
212.6631292277
 31
0.0
  0
LINE
  5
3E4
330
1F
100
AcDbEntity
  8
0
  6
Continuous
 62
     7
370
    15
100
AcDbLine
 10
125.9472625092
 20
212.7668621712
 30
0.0
 11
125.9465967998
 21
212.7675088816
 31
0.0
  0
LINE
  5
3E5
330
1F
100
AcDbEntity
  8
0
  6
Continuous
 62
     7
370
    15
100
AcDbLine
 10
125.9229654208
 20
212.7420070343
 30
0.0
 11
125.9472625092
 21
212.7668621712
 31
0.0
  0
LINE
  5
3E6
330
1F
100
AcDbEntity
  8
0
  6
Continuous
 62
     7
370
    15
100
AcDbLine
 10
125.9229654208
 20
212.7420070343
 30
0.0
 11
125.9223073483
 21
212.7426611953
 31
0.0
  0
LINE
  5
3E7
330
1F
100
AcDbEntity
  8
0
  6
Continuous
 62
     7
370
    15
100
AcDbLine
 10
125.9690787405
 20
212.7462255531
 30
0.0
 11
125.9684130311
 21
212.7468722635
 31
0.0
  0
LINE
  5
3E8
330
1F
100
AcDbEntity
  8
0
  6
Continuous
 62
     7
370
    15
100
AcDbLine
 10
125.9472625092
 20
212.7668621712
 30
0.0
 11
125.9690787405
 21
212.7462255531
 31
0.0
  0
LINE
  5
3E9
330
1F
100
AcDbEntity
  8
0
  6
Continuous
 62
     7
370
    15
100
AcDbLine
 10
126.0241547361
 20
212.6560705476
 30
0.0
 11
126.0192079231
 21
212.6510428958
 31
0.0
  0
LINE
  5
3EA
330
1F
100
AcDbEntity
  8
0
  6
Continuous
 62
     7
370
    15
100
AcDbLine
 10
126.0192079231
 20
212.6510428958
 30
0.0
 11
125.9538132459
 21
212.7128782444
 31
0.0
  0
LINE
  5
3EB
330
1F
100
AcDbEntity
  8
0
  6
Continuous
 62
     7
370
    15
100
AcDbLine
 10
125.9538132459
 20
212.7128782444
 30
0.0
 11
125.924056372
 21
212.6831280761
 31
0.0
  0
LINE
  5
3EC
330
1F
100
AcDbEntity
  8
0
  6
Continuous
 62
     7
370
    15
100
AcDbLine
 10
125.924056372
 20
212.6831280761
 30
0.0
 11
125.9150251508
 21
212.6916187578
 31
0.0
  0
LINE
  5
3ED
330
1F
100
AcDbEntity
  8
0
  6
Continuous
 62
     7
370
    15
100
AcDbLine
 10
125.9150251508
 20
212.6916187578
 30
0.0
 11
125.9447859362
 21
212.7213659459
 31
0.0
  0
LINE
  5
3EE
330
1F
100
AcDbEntity
  8
0
  6
Continuous
 62
     7
370
    15
100
AcDbLine
 10
125.9447859362
 20
212.7213659459
 30
0.0
 11
125.9229654208
 21
212.7420070343
 31
0.0
  0
LINE
  5
3EF
330
1F
100
AcDbEntity
  8
0
  6
Continuous
 62
     7
370
    15
100
AcDbLine
 10
125.9690787405
 20
212.7462255531
 30
0.0
 11
126.081841974
 21
212.8683405691
 31
0.0
  0
LINE
  5
3F0
330
1F
100
AcDbEntity
  8
0
  6
Continuous
 62
     7
370
    15
100
AcDbLine
 10
126.081841974
 20
212.8683405691
 30
0.0
 11
126.0241549224
 21
212.6560705476
 31
0.0
  0
LINE
  5
3F1
330
1F
100
AcDbEntity
  8
0
  6
Continuous
 62
     7
370
    15
100
AcDbLine
 10
126.0482562467
 20
212.8123226338
 30
0.0
 11
125.9781041875
 21
212.7377393418
 31
0.0
  0
LINE
  5
3F2
330
1F
100
AcDbEntity
  8
0
  6
Continuous
 62
     7
370
    15
100
AcDbLine
 10
125.9781041875
 20
212.7377393418
 30
0.0
 11
126.0171647876
 21
212.7007308178
 31
0.0
  0
LINE
  5
3F3
330
1F
100
AcDbEntity
  8
0
  6
Continuous
 62
     7
370
    15
100
AcDbLine
 10
126.0171647876
 20
212.7007308178
 30
0.0
 11
126.0482562467
 21
212.8123226338
 31
0.0
  0
LWPOLYLINE
  5
3F4
330
1F
100
AcDbEntity
  8
0
  6
Continuous
 62
     7
370
    15
100
AcDbPolyline
 90
        3
 70
   128
 43
0.0
 10
123.0157321081
 20
211.9209396415
 10
123.0158535525
 20
211.9213881665
 10
123.0159746245
 20
211.9218366914
  0
LINE
  5
3F5
330
1F
100
AcDbEntity
  8
0
  6
Continuous
 62
     7
370
    15
100
AcDbLine
 10
126.081841974
 20
212.8683405691
 30
0.0
 11
126.0811416194
 21
212.8689500266
 31
0.0
  0
LINE
  5
3F6
330
1F
100
AcDbEntity
  8
0
  6
Continuous
 62
     7
370
    15
100
AcDbLine
 10
125.9150251508
 20
212.6916187578
 30
0.0
 11
125.9143762052
 21
212.6922818594
 31
0.0
  0
LINE
  5
3F7
330
1F
100
AcDbEntity
  8
0
  6
Continuous
 62
     7
370
    15
100
AcDbLine
 10
126.4533865027
 20
216.2998053008
 30
0.0
 11
126.4542004786
 21
216.3002523356
 31
0.0
  0
LWPOLYLINE
  5
3F8
330
1F
100
AcDbEntity
  8
0
  6
Continuous
 62
     7
370
    15
100
AcDbPolyline
 90
        3
 70
   128
 43
0.0
 10
124.5866792038
 20
211.898398655
 10
124.5865607396
 20
211.8988471799
 10
124.5864419028
 20
211.8992957049
  0
LWPOLYLINE
  5
3F9
330
1F
100
AcDbEntity
  8
0
  6
Continuous
 62
     7
370
    15
100
AcDbPolyline
 90
        3
 70
   128
 43
0.0
 10
124.4802502677
 20
211.9012701087
 10
124.4801467046
 20
211.901723104
 10
124.4800435141
 20
211.9021760993
  0
LINE
  5
3FA
330
1F
100
AcDbEntity
  8
0
  6
Continuous
 62
     7
370
    15
100
AcDbLine
 10
126.0164987057
 20
212.7013775282
 30
0.0
 11
126.0171647876
 21
212.7007308178
 31
0.0
  0
LINE
  5
3FB
330
1F
100
AcDbEntity
  8
0
  6
Continuous
 62
     7
370
    15
100
AcDbLine
 10
125.9774384782
 20
212.7383860522
 30
0.0
 11
126.0164987057
 21
212.7013775282
 31
0.0
  0
LINE
  5
3FC
330
1F
100
AcDbEntity
  8
0
  6
Continuous
 62
     7
370
    15
100
AcDbLine
 10
126.0164987057
 20
212.7013775282
 30
0.0
 11
126.0475689307
 21
212.8129455023
 31
0.0
  0
LWPOLYLINE
  5
3FD
330
1F
100
AcDbEntity
  8
0
  6
Continuous
 62
     7
370
    15
100
AcDbPolyline
 90
        3
 70
   128
 43
0.0
 10
122.9370945826
 20
211.8941592746
 10
122.9372257128
 20
211.8946048193
 10
122.9373568431
 20
211.8950488739
  0
LINE
  5
3FE
330
1F
100
AcDbEntity
  8
0
  6
Continuous
 62
     7
370
    15
100
AcDbLine
 10
124.4806470111
 20
211.8378746086
 30
0.0
 11
124.4804443553
 21
211.8387805992
 31
0.0
  0
LWPOLYLINE
  5
3FF
330
1F
100
AcDbEntity
  8
0
  6
Continuous
 62
     7
370
    15
100
AcDbPolyline
 90
        3
 70
   128
 43
0.0
 10
123.1230402127
 20
211.8510576659
 10
123.1231434032
 20
211.8515106612
 10
123.1232469663
 20
211.8519636565
  0
LINE
  5
400
330
1F
100
AcDbEntity
  8
0
  6
Continuous
 62
     7
370
    15
100
AcDbLine
 10
123.1557333603
 20
211.8436413579
 30
0.0
 11
123.1559300557
 21
211.8445488387
 31
0.0
  0
LINE
  5
401
330
1F
100
AcDbEntity
  8
0
  6
Continuous
 62
     7
370
    15
100
AcDbLine
 10
123.0364998564
 20
211.8396627479
 30
0.0
 11
123.0367304519
 21
211.8405612879
 31
0.0
  0
LWPOLYLINE
  5
402
330
1F
100
AcDbEntity
  8
0
  6
Continuous
 62
     7
370
    15
100
AcDbPolyline
 90
        3
 70
   128
 43
0.0
 10
122.9698883131
 20
211.8851694041
 10
122.9700146005
 20
211.8856149488
 10
122.9701408878
 20
211.8860619836
  0
LINE
  5
403
330
1F
100
AcDbEntity
  8
0
  6
Continuous
 62
     7
370
    15
100
AcDbLine
 10
126.5582967311
 20
216.2551345997
 30
0.0
 11
126.559123373
 21
216.2555563026
 31
0.0
  0
LWPOLYLINE
  5
404
330
1F
100
AcDbEntity
  8
0
  6
Continuous
 62
     7
370
    15
100
AcDbPolyline
 90
        3
 70
   128
 43
0.0
 10
124.5835272357
 20
211.841306346
 10
124.5834110066
 20
211.8417563611
 10
124.5832947776
 20
211.842204886
  0
LWPOLYLINE
  5
405
330
1F
100
AcDbEntity
  8
0
  6
Continuous
 62
     7
370
    15
100
AcDbPolyline
 90
        3
 70
   128
 43
0.0
 10
124.5161087945
 20
211.846067267
 10
124.5160018787
 20
211.8465187722
 10
124.5158953354
 20
211.8469702774
  0
LINE
  5
406
330
1F
100
AcDbEntity
  8
0
  6
Continuous
 62
     7
370
    15
100
AcDbLine
 10
124.6429534391
 20
211.8786769681
 30
0.0
 11
124.6427016094
 21
211.8795710378
 31
0.0
  0
LINE
  5
407
330
1F
100
AcDbEntity
  8
0
  6
Continuous
 62
     7
370
    15
100
AcDbLine
 10
124.6773114189
 20
211.8884014659
 30
0.0
 11
124.677049531
 21
211.8892925554
 31
0.0
  0
LINE
  5
408
330
1F
100
AcDbEntity
  8
0
  6
Continuous
 62
     7
370
    15
100
AcDbLine
 10
126.3242007926
 20
216.6720914417
 30
0.0
 11
126.3249523699
 21
216.6726368242
 31
0.0
  0
LINE
  5
409
330
1F
100
AcDbEntity
  8
0
  6
Continuous
 62
     7
370
    15
100
AcDbLine
 10
121.7350648478
 20
212.5400650077
 30
0.0
 11
121.7356854811
 21
212.5407564216
 31
0.0
  0
LINE
  5
40A
330
1F
100
AcDbEntity
  8
0
  6
Continuous
 62
     7
370
    15
100
AcDbLine
 10
126.5907481074
 20
216.377920168
 30
0.0
 11
126.5915617108
 21
216.3783672028
 31
0.0
  0
LINE
  5
40B
330
1F
100
AcDbEntity
  8
0
  6
Continuous
 62
     7
370
    15
100
AcDbLine
 10
126.4628326282
 20
216.5981399589
 30
0.0
 11
126.463607768
 21
216.5986510687
 31
0.0
  0
ARC
  5
40C
330
1F
100
AcDbEntity
  8
0
  6
Continuous
 62
     7
370
    15
100
AcDbCircle
 10
134.807427221
 20
214.8475467229
 30
0.0
 40
1.976533589520232
100
AcDbArc
 50
55.6616838633
 51
85.6476135288
  0
LWPOLYLINE
  5
40D
330
1F
100
AcDbEntity
  8
0
  6
Continuous
 62
     7
370
    15
100
AcDbPolyline
 90
        9
 70
   128
 43
0.0
 10
135.9223471716
 20
216.4796131425
 10
135.9185078874
 20
216.4739924245
 10
135.9136910871
 20
216.4669411951
 10
135.9079943731
 20
216.4586025053
 10
135.9015354648
 20
216.4491477185
 10
135.8944469824
 20
216.4387705498
 10
135.8868742123
 20
216.427685576
 10
135.8789736167
 20
216.4161207848
 10
135.8709076181
 20
216.4043131047
  0
ARC
  5
40E
330
1F
100
AcDbEntity
  8
0
  6
Continuous
 62
     7
370
    15
100
AcDbCircle
 10
134.807427221
 20
214.8475467229
 30
0.0
 40
1.885341439002693
100
AcDbArc
 50
55.6616838633
 51
85.4366568804
  0
LINE
  5
40F
330
1F
100
AcDbEntity
  8
0
  6
Continuous
 62
     7
370
    15
100
AcDbLine
 10
134.9574269488
 20
216.7269113236
 30
0.0
 11
134.9574269488
 21
216.8183806115
 31
0.0
  0
ARC
  5
410
330
1F
100
AcDbEntity
  8
0
  6
Continuous
 62
     7
370
    15
100
AcDbCircle
 10
134.807427221
 20
214.8475467229
 30
0.0
 40
1.885341439002693
100
AcDbArc
 50
94.5633431196
 51
124.3383161367
  0
LWPOLYLINE
  5
411
330
1F
100
AcDbEntity
  8
0
  6
Continuous
 62
     7
370
    15
100
AcDbPolyline
 90
        9
 70
   128
 43
0.0
 10
133.7439467892
 20
216.4043131047
 10
133.7358804181
 20
216.4161207848
 10
133.7279798225
 20
216.427685576
 10
133.7204074249
 20
216.4387705498
 10
133.7133189425
 20
216.4491477185
 10
133.7068600342
 20
216.4586025053
 10
133.7011633202
 20
216.4669411951
 10
133.6963461474
 20
216.4739924245
 10
133.6925072357
 20
216.4796131425
  0
ARC
  5
412
330
1F
100
AcDbEntity
  8
0
  6
Continuous
 62
     7
370
    15
100
AcDbCircle
 10
134.807427221
 20
214.8475467229
 30
0.0
 40
1.976533589520202
100
AcDbArc
 50
94.3523864712
 51
124.3383161367
  0
LINE
  5
413
330
1F
100
AcDbEntity
  8
0
  6
Continuous
 62
     7
370
    15
100
AcDbLine
 10
134.6574270859
 20
216.8183806115
 30
0.0
 11
134.6574270859
 21
216.7269113236
 31
0.0
  0
ARC
  5
414
330
1F
100
AcDbEntity
  8
0
  6
Continuous
 62
     7
370
    15
100
AcDbCircle
 10
134.807427221
 20
213.1475467229
 30
0.0
 40
0.1500000000000057
100
AcDbArc
 50
180.0
 51
0.0
  0
ARC
  5
415
330
1F
100
AcDbEntity
  8
0
  6
Continuous
 62
     7
370
    15
100
AcDbCircle
 10
141.9272047967
 20
214.8475467229
 30
0.0
 40
6.253179856168002
100
AcDbArc
 50
165.584259106
 51
194.415740894
  0
ARC
  5
416
330
1F
100
AcDbEntity
  8
0
  6
Continuous
 62
     7
370
    15
100
AcDbCircle
 10
134.807427221
 20
214.8475467229
 30
0.0
 40
1.885341439002717
100
AcDbArc
 50
235.6616838633
 51
304.3383161367
  0
ARC
  5
417
330
1F
100
AcDbEntity
  8
0
  6
Continuous
 62
     7
370
    15
100
AcDbCircle
 10
127.6876496453
 20
214.8475467229
 30
0.0
 40
6.253179856167987
100
AcDbArc
 50
345.584259106
 51
14.415740894
  0
LINE
  5
418
330
1F
100
AcDbEntity
  8
0
  6
Continuous
 62
     7
370
    15
100
AcDbLine
 10
134.6574270859
 20
216.7269113236
 30
0.0
 11
134.6574270859
 21
213.1475466066
 31
0.0
  0
LINE
  5
419
330
1F
100
AcDbEntity
  8
0
  6
Continuous
 62
     7
370
    15
100
AcDbLine
 10
134.9574269488
 20
213.1475466066
 30
0.0
 11
134.9574269488
 21
216.7269113236
 31
0.0
  0
LWPOLYLINE
  5
41A
330
1F
100
AcDbEntity
  8
0
  6
Continuous
 62
     7
370
    15
100
AcDbPolyline
 90
        9
 70
   128
 43
0.0
 10
135.9677443042
 20
216.3794207149
 10
135.965598537
 20
216.379973548
 10
135.9598936275
 20
216.3814398222
 10
135.9508448973
 20
216.3837658935
 10
135.938791348
 20
216.3868638449
 10
135.924187465
 20
216.3906174474
 10
135.9075801209
 20
216.3948866301
 10
135.8895951644
 20
216.3995089703
 10
135.8709076181
 20
216.4043131047
  0
ARC
  5
41B
330
1F
100
AcDbEntity
  8
0
  6
Continuous
 62
     7
370
    15
100
AcDbCircle
 10
135.877066926
 20
216.3987157673
 30
0.0
 40
0.0927075291997101
100
AcDbArc
 50
347.9873167624
 51
60.7631902176
  0
ARC
  5
41C
330
1F
100
AcDbEntity
  8
0
  6
Continuous
 62
     7
370
    15
100
AcDbCircle
 10
141.9272047967
 20
214.8475467229
 30
0.0
 40
6.153195086652379
100
AcDbArc
 50
165.584259106
 51
194.415740894
  0
LWPOLYLINE
  5
41D
330
1F
100
AcDbEntity
  8
0
  6
Continuous
 62
     7
370
    15
100
AcDbPolyline
 90
        9
 70
   128
 43
0.0
 10
135.9677443042
 20
213.315671938
 10
135.965598537
 20
213.315120595
 10
135.9598936275
 20
213.3136543208
 10
135.9508448973
 20
213.3113282495
 10
135.938791348
 20
213.3082302981
 10
135.924187465
 20
213.3044752055
 10
135.9075801209
 20
213.3002075129
 10
135.8895951644
 20
213.2955836826
 10
135.8709076181
 20
213.2907795482
  0
ARC
  5
41E
330
1F
100
AcDbEntity
  8
0
  6
Continuous
 62
     7
370
    15
100
AcDbCircle
 10
134.807427221
 20
214.8475467229
 30
0.0
 40
1.976533589520211
100
AcDbArc
 50
235.6616838633
 51
304.3383161367
  0
LWPOLYLINE
  5
41F
330
1F
100
AcDbEntity
  8
0
  6
Continuous
 62
     7
370
    15
100
AcDbPolyline
 90
        9
 70
   128
 43
0.0
 10
133.6925072357
 20
213.2154810005
 10
133.6963461474
 20
213.2211002284
 10
133.7011633202
 20
213.2281514578
 10
133.7068600342
 20
213.2364916378
 10
133.7133189425
 20
213.2459464245
 10
133.7204074249
 20
213.2563221031
 10
133.7279798225
 20
213.2674070769
 10
133.7358804181
 20
213.2789718681
 10
133.7439467892
 20
213.2907795482
  0
LWPOLYLINE
  5
420
330
1F
100
AcDbEntity
  8
0
  6
Continuous
 62
     7
370
    15
100
AcDbPolyline
 90
        9
 70
   128
 43
0.0
 10
135.9223471716
 20
213.2154810005
 10
135.9185078874
 20
213.2211002284
 10
135.9136910871
 20
213.2281514578
 10
135.9079943731
 20
213.2364916378
 10
135.9015354648
 20
213.2459464245
 10
135.8944469824
 20
213.2563221031
 10
135.8868742123
 20
213.2674070769
 10
135.8789736167
 20
213.2789718681
 10
135.8709076181
 20
213.2907795482
  0
ARC
  5
421
330
1F
100
AcDbEntity
  8
0
  6
Continuous
 62
     7
370
    15
100
AcDbCircle
 10
135.8770677528
 20
213.2963777141
 30
0.0
 40
0.0927065480269969
100
AcDbArc
 50
299.2365635765
 51
12.0122887624
  0
LWPOLYLINE
  5
422
330
1F
100
AcDbEntity
  8
0
  6
Continuous
 62
     7
370
    15
100
AcDbPolyline
 90
        9
 70
   128
 43
0.0
 10
133.7439467892
 20
213.2907795482
 10
133.725259243
 20
213.2955836826
 10
133.7072742864
 20
213.3002075129
 10
133.6906673148
 20
213.3044752055
 10
133.6760626867
 20
213.3082302981
 10
133.66400951
 20
213.3113282495
 10
133.6549607798
 20
213.3136543208
 10
133.6492558703
 20
213.315120595
 10
133.6471101031
 20
213.315671938
  0
ARC
  5
423
330
1F
100
AcDbEntity
  8
0
  6
Continuous
 62
     7
370
    15
100
AcDbCircle
 10
127.6876496453
 20
214.8475467229
 30
0.0
 40
6.153195086652365
100
AcDbArc
 50
345.584259106
 51
14.415740894
  0
LWPOLYLINE
  5
424
330
1F
100
AcDbEntity
  8
0
  6
Continuous
 62
     7
370
    15
100
AcDbPolyline
 90
        9
 70
   128
 43
0.0
 10
133.7439467892
 20
216.4043131047
 10
133.725259243
 20
216.3995089703
 10
133.7072742864
 20
216.3948866301
 10
133.6906673148
 20
216.3906174474
 10
133.6760626867
 20
216.3868638449
 10
133.66400951
 20
216.3837658935
 10
133.6549607798
 20
216.3814398222
 10
133.6492558703
 20
216.379973548
 10
133.6471101031
 20
216.3794207149
  0
ARC
  5
425
330
1F
100
AcDbEntity
  8
0
  6
Continuous
 62
     7
370
    15
100
AcDbCircle
 10
133.7377864286
 20
213.2963776118
 30
0.0
 40
0.0927063484212096
100
AcDbArc
 50
167.9876203266
 51
240.7635273345
  0
ARC
  5
426
330
1F
100
AcDbEntity
  8
0
  6
Continuous
 62
     7
370
    15
100
AcDbCircle
 10
133.7377872555
 20
216.3987158696
 30
0.0
 40
0.0927073296021496
100
AcDbArc
 50
119.2367188758
 51
192.0127741442
  0
ARC
  5
427
330
1F
100
AcDbEntity
  8
0
  6
Continuous
 62
     7
370
    15
100
AcDbCircle
 10
134.807427221
 20
213.1475467229
 30
0.0
 40
0.0500000000000114
100
AcDbArc
 50
180.0
 51
0.0
  0
LINE
  5
428
330
1F
100
AcDbEntity
  8
0
  6
Continuous
 62
     7
370
    15
100
AcDbLine
 10
134.9574269488
 20
213.1475466066
 30
0.0
 11
134.8574274912
 21
213.1475466066
 31
0.0
  0
LINE
  5
429
330
1F
100
AcDbEntity
  8
0
  6
Continuous
 62
     7
370
    15
100
AcDbLine
 10
134.7574272886
 20
213.1475466066
 30
0.0
 11
134.6574270859
 21
213.1475466066
 31
0.0
  0
LINE
  5
42A
330
1F
100
AcDbEntity
  8
0
  6
Continuous
 62
     7
370
    15
100
AcDbLine
 10
134.7574272886
 20
216.6393491202
 30
0.0
 11
134.7574272886
 21
213.1475466066
 31
0.0
  0
LINE
  5
42B
330
1F
100
AcDbEntity
  8
0
  6
Continuous
 62
     7
370
    15
100
AcDbLine
 10
134.7574272886
 20
216.6393491202
 30
0.0
 11
134.6574270859
 21
216.6393491202
 31
0.0
  0
LINE
  5
42C
330
1F
100
AcDbEntity
  8
0
  6
Continuous
 62
     7
370
    15
100
AcDbLine
 10
134.8574274912
 20
213.1475466066
 30
0.0
 11
134.8574274912
 21
216.6393491202
 31
0.0
  0
LINE
  5
42D
330
1F
100
AcDbEntity
  8
0
  6
Continuous
 62
     7
370
    15
100
AcDbLine
 10
134.9574269488
 20
216.6393491202
 30
0.0
 11
134.8574274912
 21
216.6393491202
 31
0.0
  0
LINE
  5
42E
330
1F
100
AcDbEntity
  8
0
  6
Continuous
 62
     7
370
    15
100
AcDbLine
 10
134.7574272886
 20
216.6393491202
 30
0.0
 11
134.7574272886
 21
216.7284297519
 31
0.0
  0
ARC
  5
42F
330
1F
100
AcDbEntity
  8
0
  6
Continuous
 62
     7
370
    15
100
AcDbCircle
 10
134.7664842292
 20
216.8383145067
 30
0.0
 40
0.1091010261150072
100
AcDbArc
 50
181.6251198174
 51
263.5179798205
  0
LWPOLYLINE
  5
430
330
1F
100
AcDbEntity
  8
0
  6
Continuous
 62
     7
370
    15
100
AcDbPolyline
 90
        3
 70
   128
 43
0.0
 10
134.7541676596
 20
216.7299109273
 10
134.7569802538
 20
216.7286324077
 10
134.7574272886
 20
216.7284297519
  0
LINE
  5
431
330
1F
100
AcDbEntity
  8
0
  6
Continuous
 62
     7
370
    15
100
AcDbLine
 10
134.8574274912
 20
216.7284297519
 30
0.0
 11
134.8574274912
 21
216.6393491202
 31
0.0
  0
LWPOLYLINE
  5
432
330
1F
100
AcDbEntity
  8
0
  6
Continuous
 62
     7
370
    15
100
AcDbPolyline
 90
        3
 70
   128
 43
0.0
 10
134.8574274912
 20
216.7284297519
 10
134.8578745261
 20
216.7286324077
 10
134.8606871203
 20
216.7299109273
  0
ARC
  5
433
330
1F
100
AcDbEntity
  8
0
  6
Continuous
 62
     7
370
    15
100
AcDbCircle
 10
134.8423308595
 20
216.8438619408
 30
0.0
 40
0.1154200406528075
100
AcDbArc
 50
279.1511071627
 51
355.7062328861
  0
ARC
  5
434
330
1F
100
AcDbEntity
  8
0
  6
Continuous
 62
     7
370
    15
100
AcDbCircle
 10
136.3862818102
 20
217.2098606416
 30
0.0
 40
0.0086856116370698
100
AcDbArc
 50
34.2465875727
 51
61.9301595179
  0
LWPOLYLINE
  5
435
330
1F
100
AcDbEntity
  8
0
  6
Continuous
 62
     7
370
    15
100
AcDbPolyline
 90
        4
 70
   128
 43
0.0
 10
136.1697191134
 20
217.1782987886
 10
136.2154224649
 20
217.2219055467
 10
136.3021054998
 20
217.2335955077
 10
136.3934615389
 20
217.214748519
  0
ARC
  5
436
330
1F
100
AcDbEntity
  8
0
  6
Continuous
 62
     7
370
    15
100
AcDbCircle
 10
141.4203385545
 20
214.9261655288
 30
0.0
 40
5.713239775684699
100
AcDbArc
 50
156.7841927384
 51
164.2224560955
  0
LINE
  5
437
330
1F
100
AcDbEntity
  8
0
  6
Continuous
 62
     7
370
    15
100
AcDbLine
 10
134.8339395359
 20
217.6673280769
 30
0.0
 11
134.9574269488
 21
216.8792041712
 31
0.0
  0
LWPOLYLINE
  5
438
330
1F
100
AcDbEntity
  8
0
  6
Continuous
 62
     7
370
    15
100
AcDbPolyline
 90
        6
 70
   128
 43
0.0
 10
134.8089920118
 20
217.6770287328
 10
134.8172666267
 20
217.6764356666
 10
134.8246084288
 20
217.6747369342
 10
134.8301904038
 20
217.6721307211
 10
134.8333814874
 20
217.6689225011
 10
134.8339395359
 20
217.6673280769
  0
ELLIPSE
  5
439
330
1F
100
AcDbEntity
  8
0
  6
Continuous
 62
     7
370
    15
100
AcDbEllipse
 10
134.807427221
 20
214.1290889704
 30
0.0
 11
0.0
 21
3.54793951866273
 31
0.0
210
0.0
220
0.0
230
1.0
 40
0.9792822627
 41
6.282735029799738
 42
6.283635584559455
  0
LWPOLYLINE
  5
43A
330
1F
100
AcDbEntity
  8
0
  6
Continuous
 62
     7
370
    15
100
AcDbPolyline
 90
        6
 70
   128
 43
0.0
 10
134.7809152439
 20
217.6673280769
 10
134.7828553751
 20
217.6706942492
 10
134.7873890534
 20
217.6736223274
 10
134.794005914
 20
217.6757755452
 10
134.8019601539
 20
217.6768976026
 10
134.805862768
 20
217.6770287328
  0
LINE
  5
43B
330
1F
100
AcDbEntity
  8
0
  6
Continuous
 62
     7
370
    15
100
AcDbLine
 10
134.7809152439
 20
217.6673280769
 30
0.0
 11
134.6574270859
 21
216.8792041712
 31
0.0
  0
ARC
  5
43C
330
1F
100
AcDbEntity
  8
0
  6
Continuous
 62
     7
370
    15
100
AcDbCircle
 10
128.1945019442
 20
214.9261606044
 30
0.0
 40
5.713254499291469
100
AcDbArc
 50
15.7775535025
 51
23.2157976636
  0
LWPOLYLINE
  5
43D
330
1F
100
AcDbEntity
  8
0
  6
Continuous
 62
     7
370
    15
100
AcDbPolyline
 90
        4
 70
   128
 43
0.0
 10
133.2213928685
 20
217.214748519
 10
133.312748535
 20
217.2335955077
 10
133.3994319424
 20
217.2219055467
 10
133.4451352939
 20
217.1782987886
  0
ARC
  5
43E
330
1F
100
AcDbEntity
  8
0
  6
Continuous
 62
     7
370
    15
100
AcDbCircle
 10
133.2283473475
 20
217.2101121021
 30
0.0
 40
0.0083582976968608
100
AcDbArc
 50
117.5207382867
 51
146.3093764585
  0
ARC
  5
43F
330
1F
100
AcDbEntity
  8
0
  6
Continuous
 62
     7
370
    15
100
AcDbCircle
 10
134.807427221
 20
214.8475467229
 30
0.0
 40
2.850000000000025
100
AcDbArc
 50
56.2604749358
 51
123.7395250642
  0
LINE
  5
440
330
1F
100
AcDbEntity
  8
0
  6
Continuous
 62
     7
370
    15
100
AcDbLine
 10
134.6574270859
 20
216.8792041712
 30
0.0
 11
134.6574270859
 21
216.8183806115
 31
0.0
  0
LINE
  5
441
330
1F
100
AcDbEntity
  8
0
  6
Continuous
 62
     7
370
    15
100
AcDbLine
 10
134.9574269488
 20
216.8183806115
 30
0.0
 11
134.9574269488
 21
216.8792041712
 31
0.0
  0
ARC
  5
442
330
1F
100
AcDbEntity
  8
0
  6
Continuous
 62
     7
370
    15
100
AcDbCircle
 10
141.7794984236
 20
214.6495857148
 30
0.0
 40
6.063729468840571
100
AcDbArc
 50
156.5421837388
 51
163.4246675336
  0
ARC
  5
443
330
1F
100
AcDbEntity
  8
0
  6
Continuous
 62
     7
370
    15
100
AcDbCircle
 10
136.1266414432
 20
217.0934605696
 30
0.0
 40
0.0951483529398539
100
AcDbArc
 50
341.5811769178
 51
63.0802457621
  0
ARC
  5
444
330
1F
100
AcDbEntity
  8
0
  6
Continuous
 62
     7
370
    15
100
AcDbCircle
 10
128.1945128823
 20
214.7689248627
 30
0.0
 40
5.713241614238599
100
AcDbArc
 50
336.7842253235
 51
344.2225004003
  0
ARC
  5
445
330
1F
100
AcDbEntity
  8
0
  6
Continuous
 62
     7
370
    15
100
AcDbCircle
 10
141.4203135629
 20
214.7689149626
 30
0.0
 40
5.713212013766566
100
AcDbArc
 50
195.7774803035
 51
203.2157939726
  0
LWPOLYLINE
  5
446
330
1F
100
AcDbEntity
  8
0
  6
Continuous
 62
     7
370
    15
100
AcDbPolyline
 90
        4
 70
   128
 43
0.0
 10
136.3934615389
 20
212.4803441339
 10
136.3021054998
 20
212.4614986353
 10
136.2154224649
 20
212.4731871062
 10
136.1697191134
 20
212.5167938643
  0
ARC
  5
447
330
1F
100
AcDbEntity
  8
0
  6
Continuous
 62
     7
370
    15
100
AcDbCircle
 10
136.3865256719
 20
212.4849643036
 30
0.0
 40
0.0083337997252829
100
AcDbArc
 50
297.4613334494
 51
326.3313360968
  0
ARC
  5
448
330
1F
100
AcDbEntity
  8
0
  6
Continuous
 62
     7
370
    15
100
AcDbCircle
 10
134.807427221
 20
214.8475467229
 30
0.0
 40
2.850000000000001
100
AcDbArc
 50
236.2604749358
 51
303.7395250642
  0
ARC
  5
449
330
1F
100
AcDbEntity
  8
0
  6
Continuous
 62
     7
370
    15
100
AcDbCircle
 10
133.228573096
 20
212.4852361341
 30
0.0
 40
0.0086883447079818
100
AcDbArc
 50
214.2672105937
 51
241.9332584218
  0
LWPOLYLINE
  5
44A
330
1F
100
AcDbEntity
  8
0
  6
Continuous
 62
     7
370
    15
100
AcDbPolyline
 90
        4
 70
   128
 43
0.0
 10
133.4451352939
 20
212.5167938643
 10
133.3994319424
 20
212.4731871062
 10
133.312748535
 20
212.4614986353
 10
133.2213928685
 20
212.4803441339
  0
ARC
  5
44B
330
1F
100
AcDbEntity
  8
0
  6
Continuous
 62
     7
370
    15
100
AcDbCircle
 10
141.7796025316
 20
215.0455448644
 30
0.0
 40
6.063840070186872
100
AcDbArc
 50
196.5753953085
 51
203.4577534191
  0
ARC
  5
44C
330
1F
100
AcDbEntity
  8
0
  6
Continuous
 62
     7
370
    15
100
AcDbCircle
 10
136.1266407626
 20
212.6016323628
 30
0.0
 40
0.0951489103762275
100
AcDbArc
 50
296.9200434653
 51
18.4185338547
  0
ARC
  5
44D
330
1F
100
AcDbEntity
  8
0
  6
Continuous
 62
     7
370
    15
100
AcDbCircle
 10
127.8352483724
 20
214.649549542
 30
0.0
 40
6.063842927654337
100
AcDbArc
 50
16.5753699856
 51
23.4577236421
  0
ARC
  5
44E
330
1F
100
AcDbEntity
  8
0
  6
Continuous
 62
     7
370
    15
100
AcDbCircle
 10
133.4882120414
 20
217.0934612413
 30
0.0
 40
0.0951473363385263
100
AcDbArc
 50
116.9194419599
 51
198.4194532504
  0
ARC
  5
44F
330
1F
100
AcDbEntity
  8
0
  6
Continuous
 62
     7
370
    15
100
AcDbCircle
 10
133.4882127221
 20
212.6016316912
 30
0.0
 40
0.0951478937750825
100
AcDbArc
 50
161.580835985
 51
243.0802688046
  0
ARC
  5
450
330
1F
100
AcDbEntity
  8
0
  6
Continuous
 62
     7
370
    15
100
AcDbCircle
 10
127.835028777
 20
215.0456231089
 30
0.0
 40
6.064076219385738
100
AcDbArc
 50
336.5424089032
 51
343.4244974692
  0
ARC
  5
451
330
1F
100
AcDbEntity
  8
0
  6
Continuous
 62
     7
370
    15
100
AcDbCircle
 10
141.9272047967
 20
214.8475467229
 30
0.0
 40
6.125145129612231
100
AcDbArc
 50
158.7914906199
 51
201.2085093801
  0
ARC
  5
452
330
1F
100
AcDbEntity
  8
0
  6
Continuous
 62
     7
370
    15
100
AcDbCircle
 10
127.6876496453
 20
214.8475467229
 30
0.0
 40
6.125145129612227
100
AcDbArc
 50
338.7914906199
 51
21.2085093801
  0
LINE
  5
453
330
1F
100
AcDbEntity
  8
0
  6
Continuous
 62
     7
370
    15
100
AcDbLine
 10
134.8574274912
 20
216.6393491202
 30
0.0
 11
134.7574272886
 21
216.6393491202
 31
0.0
  0
LINE
  5
454
330
1F
100
AcDbEntity
  8
0
  6
Continuous
 62
     7
370
    15
100
AcDbLine
 10
134.7574272886
 20
216.7284297519
 30
0.0
 11
134.8574274912
 21
216.7284297519
 31
0.0
  0
LWPOLYLINE
  5
455
330
1F
100
AcDbEntity
  8
0
  6
Continuous
 62
     7
370
    15
100
AcDbPolyline
 90
        3
 70
   128
 43
0.0
 10
134.6574270859
 20
216.8431046181
 10
134.7265781596
 20
217.2918754392
 10
134.7809152439
 20
217.6435756259
  0
ARC
  5
456
330
1F
100
AcDbEntity
  8
0
  6
Continuous
 62
     7
370
    15
100
AcDbCircle
 10
134.8054592157
 20
217.645208819
 30
0.0
 40
0.0245982493586275
100
AcDbArc
 50
183.8069357428
 51
271.0146559236
  0
LWPOLYLINE
  5
457
330
1F
100
AcDbEntity
  8
0
  6
Continuous
 62
     7
370
    15
100
AcDbPolyline
 90
        4
 70
   128
 43
0.0
 10
134.8058948055
 20
217.6206144267
 10
134.7873257235
 20
217.3713373714
 10
134.7838075593
 20
217.1216192418
 10
134.7541676596
 20
216.7299109273
  0
LWPOLYLINE
  5
458
330
1F
100
AcDbEntity
  8
0
  6
Continuous
 62
     7
370
    15
100
AcDbPolyline
 90
        3
 70
   128
 43
0.0
 10
134.8606871203
 20
216.7299109273
 10
134.8298998311
 20
217.2286513024
 10
134.8089599743
 20
217.6206144267
  0
ARC
  5
459
330
1F
100
AcDbEntity
  8
0
  6
Continuous
 62
     7
370
    15
100
AcDbCircle
 10
134.809395237
 20
217.6452091748
 30
0.0
 40
0.0245985993617695
100
AcDbArc
 50
268.9861205165
 51
356.1922878171
  0
LWPOLYLINE
  5
45A
330
1F
100
AcDbEntity
  8
0
  6
Continuous
 62
     7
370
    15
100
AcDbPolyline
 90
        4
 70
   128
 43
0.0
 10
134.8339395359
 20
217.6435756259
 10
134.8685012892
 20
217.4151929789
 10
134.9031092361
 20
217.2000798159
 10
134.9574269488
 20
216.8431046181
  0
LINE
  5
45B
330
1F
100
AcDbEntity
  8
0
  6
Continuous
 62
     7
370
    15
100
AcDbLine
 10
134.7809152439
 20
217.6435756259
 30
0.0
 11
134.7809152439
 21
217.6673280769
 31
0.0
  0
LINE
  5
45C
330
1F
100
AcDbEntity
  8
0
  6
Continuous
 62
     7
370
    15
100
AcDbLine
 10
134.8339395359
 20
217.6673280769
 30
0.0
 11
134.8339395359
 21
217.6435756259
 31
0.0
  0
LINE
  5
45D
330
1F
100
AcDbEntity
  8
0
  6
Continuous
 62
     7
370
    15
100
AcDbLine
 10
134.8089599743
 20
217.6206144267
 30
0.0
 11
134.8058948055
 21
217.6206144267
 31
0.0
  0
LWPOLYLINE
  5
45E
330
1F
100
AcDbEntity
  8
0
  6
Continuous
 62
     7
370
    15
100
AcDbPolyline
 90
        5
 70
   128
 43
0.0
 10
136.2169155613
 20
212.6316952281
 10
136.2557457522
 20
212.5862481766
 10
136.3231854275
 20
212.5670584612
 10
136.3861189917
 20
212.5746371918
 10
136.3908106223
 20
212.5759335928
  0
ARC
  5
45F
330
1F
100
AcDbEntity
  8
0
  6
Continuous
 62
     7
370
    15
100
AcDbCircle
 10
136.2575461336
 20
212.5244063731
 30
0.0
 40
0.1428792437814743
100
AcDbArc
 50
342.0378913905
 51
21.1391830207
  0
ARC
  5
460
330
1F
100
AcDbEntity
  8
0
  6
Continuous
 62
     7
370
    15
100
AcDbCircle
 10
136.336551653
 20
216.9893410256
 30
0.0
 40
0.1407023265454421
100
AcDbArc
 50
67.3171734131
 51
148.2419182478
  0
ARC
  5
461
330
1F
100
AcDbEntity
  8
0
  6
Continuous
 62
     7
370
    15
100
AcDbCircle
 10
136.2622772707
 20
217.1705558756
 30
0.0
 40
0.1384279666527437
100
AcDbArc
 50
338.2055137558
 51
18.6173623311
  0
LWPOLYLINE
  5
462
330
1F
100
AcDbEntity
  8
0
  6
Continuous
 62
     7
370
    15
100
AcDbPolyline
 90
        5
 70
   128
 43
0.0
 10
133.3979392186
 20
217.0633974247
 10
133.3591082826
 20
217.1088444763
 10
133.2916693524
 20
217.1280356818
 10
133.2287354156
 20
217.1204554611
 10
133.2240434125
 20
217.1191605502
  0
ARC
  5
463
330
1F
100
AcDbEntity
  8
0
  6
Continuous
 62
     7
370
    15
100
AcDbCircle
 10
133.3525960074
 20
217.1705558979
 30
0.0
 40
0.138445842906885
100
AcDbArc
 50
161.3851396316
 51
201.7915380341
  0
ARC
  5
464
330
1F
100
AcDbEntity
  8
0
  6
Continuous
 62
     7
370
    15
100
AcDbCircle
 10
133.3526227188
 20
212.5245368155
 30
0.0
 40
0.1384711765650539
100
AcDbArc
 50
158.2120157433
 51
198.6113560859
  0
ARC
  5
465
330
1F
100
AcDbEntity
  8
0
  6
Continuous
 62
     7
370
    15
100
AcDbCircle
 10
133.278303082
 20
212.7057545114
 30
0.0
 40
0.1407038827210471
100
AcDbArc
 50
247.3171292447
 51
328.2409292743
  0
ARC
  5
466
330
1F
100
AcDbEntity
  8
0
  6
Continuous
 62
     7
370
    15
100
AcDbCircle
 10
141.9272047967
 20
214.8475467229
 30
0.0
 40
5.825190821065287
100
AcDbArc
 50
157.9534745004
 51
202.0465254996
  0
ARC
  5
467
330
1F
100
AcDbEntity
  8
0
  6
Continuous
 62
     7
370
    15
100
AcDbCircle
 10
136.264420591
 20
212.932764435
 30
0.0
 40
0.3785534175437968
100
AcDbArc
 50
289.5042235198
 51
314.1200123975
  0
ARC
  5
468
330
1F
100
AcDbEntity
  8
0
  6
Continuous
 62
     7
370
    15
100
AcDbCircle
 10
136.2642297731
 20
216.7620220954
 30
0.0
 40
0.3789070957677694
100
AcDbArc
 50
45.8916557715
 51
70.4841083113
  0
ARC
  5
469
330
1F
100
AcDbEntity
  8
0
  6
Continuous
 62
     7
370
    15
100
AcDbCircle
 10
127.6876496453
 20
214.8475467229
 30
0.0
 40
5.8251908210653
100
AcDbArc
 50
337.9534745004
 51
22.0465254996
  0
ARC
  5
46A
330
1F
100
AcDbEntity
  8
0
  6
Continuous
 62
     7
370
    15
100
AcDbCircle
 10
133.3504473342
 20
216.7623084696
 30
0.0
 40
0.3785780749068588
100
AcDbArc
 50
109.5051319475
 51
134.1192434018
  0
ARC
  5
46B
330
1F
100
AcDbEntity
  8
0
  6
Continuous
 62
     7
370
    15
100
AcDbCircle
 10
133.350602048
 20
212.9330350828
 30
0.0
 40
0.378864833900885
100
AcDbArc
 50
225.8902174704
 51
250.4854071802
  0
LWPOLYLINE
  5
46C
330
1F
100
AcDbEntity
  8
0
  6
Continuous
 62
     7
370
    15
100
AcDbPolyline
 90
        5
 70
   128
 43
0.0
 10
134.8339395359
 20
217.6435756259
 10
134.8315985635
 20
217.6472875052
 10
134.8260896042
 20
217.6503839665
 10
134.8181845382
 20
217.6524328762
 10
134.8089920118
 20
217.6531436615
  0
LINE
  5
46D
330
1F
100
AcDbEntity
  8
0
  6
Continuous
 62
     7
370
    15
100
AcDbLine
 10
134.8089920118
 20
217.6531436615
 30
0.0
 11
134.8089920118
 21
217.6770287328
 31
0.0
  0
LINE
  5
46E
330
1F
100
AcDbEntity
  8
0
  6
Continuous
 62
     7
370
    15
100
AcDbLine
 10
134.805862768
 20
217.6770287328
 30
0.0
 11
134.805862768
 21
217.6531436615
 31
0.0
  0
LWPOLYLINE
  5
46F
330
1F
100
AcDbEntity
  8
0
  6
Continuous
 62
     7
370
    15
100
AcDbPolyline
 90
        5
 70
   128
 43
0.0
 10
134.805862768
 20
217.6531436615
 10
134.7966694966
 20
217.6524328762
 10
134.7887651756
 20
217.6503839665
 10
134.7832562163
 20
217.6472875052
 10
134.7809152439
 20
217.6435756259
  0
LWPOLYLINE
  5
470
330
1F
100
AcDbEntity
  8
0
  6
Continuous
 62
     7
370
    15
100
AcDbPolyline
 90
        3
 70
   128
 43
0.0
 10
136.5853713587
 20
212.5880407863
 10
136.4842662349
 20
212.5203984552
 10
136.3903688028
 20
212.4775695377
  0
LWPOLYLINE
  5
471
330
1F
100
AcDbEntity
  8
0
  6
Continuous
 62
     7
370
    15
100
AcDbPolyline
 90
        9
 70
   128
 43
0.0
 10
136.5853713587
 20
212.5880407863
 10
136.581332399
 20
212.5931727462
 10
136.5761140123
 20
212.599803763
 10
136.5698316827
 20
212.6077878051
 10
136.5626239911
 20
212.616949039
 10
136.5546503797
 20
212.6270818286
 10
136.5460866824
 20
212.6379656368
 10
136.5371221438
 20
212.6493575745
 10
136.5279556945
 20
212.6610073023
  0
LWPOLYLINE
  5
472
330
1F
100
AcDbEntity
  8
0
  6
Continuous
 62
     7
370
    15
100
AcDbPolyline
 90
        9
 70
   128
 43
0.0
 10
136.5853713587
 20
217.1070533567
 10
136.581332399
 20
217.1019213968
 10
136.5761140123
 20
217.0952888899
 10
136.5698316827
 20
217.0873048478
 10
136.5626239911
 20
217.078145104
 10
136.5546503797
 20
217.0680123144
 10
136.5460866824
 20
217.0571285062
 10
136.5371221438
 20
217.0457365685
 10
136.5279556945
 20
217.0340868407
  0
LWPOLYLINE
  5
473
330
1F
100
AcDbEntity
  8
0
  6
Continuous
 62
     7
370
    15
100
AcDbPolyline
 90
        3
 70
   128
 43
0.0
 10
136.3903688028
 20
217.2175246053
 10
136.4842662349
 20
217.1746956878
 10
136.5853713587
 20
217.1070533567
  0
LWPOLYLINE
  5
474
330
1F
100
AcDbEntity
  8
0
  6
Continuous
 62
     7
370
    15
100
AcDbPolyline
 90
        9
 70
   128
 43
0.0
 10
133.0868987128
 20
217.0340868407
 10
133.077731891
 20
217.0457365685
 10
133.0687677249
 20
217.0571285062
 10
133.0602040276
 20
217.0680123144
 10
133.0522304162
 20
217.078145104
 10
133.0450227246
 20
217.0873048478
 10
133.038740395
 20
217.0952888899
 10
133.0335220084
 20
217.1019213968
 10
133.0294834211
 20
217.1070533567
  0
LWPOLYLINE
  5
475
330
1F
100
AcDbEntity
  8
0
  6
Continuous
 62
     7
370
    15
100
AcDbPolyline
 90
        3
 70
   128
 43
0.0
 10
133.0294834211
 20
217.1070533567
 10
133.1305881724
 20
217.1746956878
 10
133.2244852319
 20
217.2175246053
  0
LWPOLYLINE
  5
476
330
1F
100
AcDbEntity
  8
0
  6
Continuous
 62
     7
370
    15
100
AcDbPolyline
 90
        9
 70
   128
 43
0.0
 10
133.0868987128
 20
212.6610073023
 10
133.077731891
 20
212.6493575745
 10
133.0687677249
 20
212.6379656368
 10
133.0602040276
 20
212.6270818286
 10
133.0522304162
 20
212.616949039
 10
133.0450227246
 20
212.6077878051
 10
133.038740395
 20
212.599803763
 10
133.0335220084
 20
212.5931727462
 10
133.0294834211
 20
212.5880407863
  0
LWPOLYLINE
  5
477
330
1F
100
AcDbEntity
  8
0
  6
Continuous
 62
     7
370
    15
100
AcDbPolyline
 90
        3
 70
   128
 43
0.0
 10
133.2244852319
 20
212.4775695377
 10
133.1305881724
 20
212.5203984552
 10
133.0294834211
 20
212.5880407863
  0
LWPOLYLINE
  5
478
330
1F
100
AcDbEntity
  8
0
  6
Continuous
 62
     7
370
    15
100
AcDbPolyline
 90
        5
 70
   128
 43
0.0
 10
134.8089920118
 20
217.6531436615
 10
134.8089838162
 20
217.6439436846
 10
134.8089756206
 20
217.6345917159
 10
134.8089674249
 20
217.6264258795
 10
134.8089599743
 20
217.6206144267
  0
LINE
  5
479
330
1F
100
AcDbEntity
  8
0
  6
Continuous
 62
     7
370
    15
100
AcDbLine
 10
134.805862768
 20
217.6531436615
 30
0.0
 11
134.8058948055
 21
217.6206144267
 31
0.0
  0
LINE
  5
47A
330
1F
100
AcDbEntity
  8
0
  6
Continuous
 62
     7
370
    15
100
AcDbLine
 10
134.805862768
 20
217.6531436615
 30
0.0
 11
134.8089920118
 21
217.6531436615
 31
0.0
  0
CIRCLE
  5
47B
330
1F
100
AcDbEntity
  8
0
  6
Continuous
 62
     7
370
    15
100
AcDbCircle
 10
134.807427221
 20
214.8475467229
 30
0.0
 40
3.25
  0
ARC
  5
47C
330
1F
100
AcDbEntity
  8
0
  6
Continuous
 62
     7
370
    15
100
AcDbCircle
 10
134.807427221
 20
214.8475467229
 30
0.0
 40
2.875144372945856
100
AcDbArc
 50
308.1982390097
 51
51.8017609903
  0
ARC
  5
47D
330
1F
100
AcDbEntity
  8
0
  6
Continuous
 62
     7
370
    15
100
AcDbCircle
 10
134.807427221
 20
214.8475467229
 30
0.0
 40
2.875144372945838
100
AcDbArc
 50
128.1982390097
 51
231.8017609903
  0
LWPOLYLINE
  5
47E
330
1F
100
AcDbEntity
  8
0
  6
Continuous
 62
     7
370
    15
100
AcDbPolyline
 90
        6
 70
   128
 43
0.0
 10
134.8074273899
 20
217.8190040164
 10
134.9030734733
 20
217.824746924
 10
134.9841134384
 20
217.8417074256
 10
135.0381927326
 20
217.8687262111
 10
135.0571864977
 20
217.9030480557
 10
135.0551927224
 20
217.9069298082
  0
LWPOLYLINE
  5
47F
330
1F
100
AcDbEntity
  8
0
  6
Continuous
 62
     7
370
    15
100
AcDbPolyline
 90
        6
 70
   128
 43
0.0
 10
134.5596084133
 20
217.9068225198
 10
134.5576772228
 20
217.9030659371
 10
134.5766568318
 20
217.8687455826
 10
134.6307011083
 20
217.8417223268
 10
134.711710526
 20
217.8247722559
 10
134.8074273899
 20
217.8190040164
  0
LINE
  5
480
330
1F
100
AcDbEntity
  8
0
  6
Continuous
 62
     7
370
    15
100
AcDbLine
 10
137.4761761859
 20
216.3803639584
 30
0.0
 11
137.5582964852
 21
216.2551345997
 31
0.0
  0
LINE
  5
481
330
1F
100
AcDbEntity
  8
0
  6
Continuous
 62
     7
370
    15
100
AcDbLine
 10
137.5247778133
 20
216.3709583455
 30
0.0
 11
137.5907482341
 21
216.377920168
 31
0.0
  0
LINE
  5
482
330
1F
100
AcDbEntity
  8
0
  6
Continuous
 62
     7
370
    15
100
AcDbLine
 10
137.4628329411
 20
216.5981399589
 30
0.0
 11
137.4295653537
 21
216.5400924855
 31
0.0
  0
LINE
  5
483
330
1F
100
AcDbEntity
  8
0
  6
Continuous
 62
     7
370
    15
100
AcDbLine
 10
137.324200733
 20
216.6720914417
 30
0.0
 11
137.3881110683
 21
216.5448414855
 31
0.0
  0
LINE
  5
484
330
1F
100
AcDbEntity
  8
0
  6
Continuous
 62
     7
370
    15
100
AcDbLine
 10
137.2296767071
 20
216.5760281258
 30
0.0
 11
137.419995828
 21
216.4295243793
 31
0.0
  0
LINE
  5
485
330
1F
100
AcDbEntity
  8
0
  6
Continuous
 62
     7
370
    15
100
AcDbLine
 10
137.419995828
 20
216.4295243793
 30
0.0
 11
137.45338635
 21
216.2998053008
 31
0.0
  0
LINE
  5
486
330
1F
100
AcDbEntity
  8
0
  6
Continuous
 62
     7
370
    15
100
AcDbLine
 10
132.6953144506
 20
212.5777664357
 30
0.0
 11
132.7356854215
 21
212.5407564216
 31
0.0
  0
LINE
  5
487
330
1F
100
AcDbEntity
  8
0
  6
Continuous
 62
     7
370
    15
100
AcDbLine
 10
132.7498906985
 20
212.6868161135
 30
0.0
 11
132.7750755236
 21
212.6631292277
 31
0.0
  0
LINE
  5
488
330
1F
100
AcDbEntity
  8
0
  6
Continuous
 62
     7
370
    15
100
AcDbLine
 10
134.1232469067
 20
211.8519636565
 30
0.0
 11
134.1559299961
 21
211.8445488387
 31
0.0
  0
LWPOLYLINE
  5
489
330
1F
100
AcDbEntity
  8
0
  6
Continuous
 62
     7
370
    15
100
AcDbPolyline
 90
        6
 70
   128
 43
0.0
 10
134.0367303923
 20
211.8405612879
 10
134.068243368
 20
211.8349763327
 10
134.082578285
 20
211.8344488316
 10
134.0956022725
 20
211.8355530077
 10
134.1140804574
 20
211.8419038826
 10
134.1232469067
 20
211.8519636565
  0
LWPOLYLINE
  5
48A
330
1F
100
AcDbEntity
  8
0
  6
Continuous
 62
     7
370
    15
100
AcDbPolyline
 90
        5
 70
   128
 43
0.0
 10
133.9701408282
 20
211.8860619836
 10
133.9732000366
 20
211.8743198686
 10
133.9874444291
 20
211.861415463
 10
134.009611024
 20
211.8495258265
 10
134.0367303923
 20
211.8405612879
  0
LINE
  5
48B
330
1F
100
AcDbEntity
  8
0
  6
Continuous
 62
     7
370
    15
100
AcDbLine
 10
133.9559858426
 20
211.9878339344
 30
0.0
 11
134.1860139504
 21
211.9292112761
 31
0.0
  0
LINE
  5
48C
330
1F
100
AcDbEntity
  8
0
  6
Continuous
 62
     7
370
    15
100
AcDbLine
 10
134.0159745648
 20
211.9218366914
 30
0.0
 11
134.1088516399
 21
211.9341137581
 31
0.0
  0
LWPOLYLINE
  5
48D
330
1F
100
AcDbEntity
  8
0
  6
Continuous
 62
     7
370
    15
100
AcDbPolyline
 90
        4
 70
   128
 43
0.0
 10
133.9373567834
 20
211.8950488739
 10
133.9462244645
 20
211.9065644913
 10
133.9653743193
 20
211.9137915545
 10
134.0159745648
 20
211.9218366914
  0
LINE
  5
48E
330
1F
100
AcDbEntity
  8
0
  6
Continuous
 62
     7
370
    15
100
AcDbLine
 10
135.6427015498
 20
211.8795710378
 30
0.0
 11
135.6770494714
 21
211.8892925554
 31
0.0
  0
ARC
  5
48F
330
1F
100
AcDbEntity
  8
0
  6
Continuous
 62
     7
370
    15
100
AcDbCircle
 10
135.5684488391
 20
211.9317148147
 30
0.0
 40
0.0907327862825011
100
AcDbArc
 50
279.4174307289
 51
324.9216485446
  0
LWPOLYLINE
  5
490
330
1F
100
AcDbEntity
  8
0
  6
Continuous
 62
     7
370
    15
100
AcDbPolyline
 90
        7
 70
   128
 43
0.0
 10
135.5158949032
 20
211.8469702774
 10
135.5182299152
 20
211.8430751138
 10
135.5231540039
 20
211.8399712019
 10
135.5302842095
 20
211.8379416638
 10
135.5392509833
 20
211.8368613296
 10
135.5603189901
 20
211.8377047353
 10
135.5832950905
 20
211.842204886
  0
LWPOLYLINE
  5
491
330
1F
100
AcDbEntity
  8
0
  6
Continuous
 62
     7
370
    15
100
AcDbPolyline
 90
        8
 70
   128
 43
0.0
 10
135.4800434545
 20
211.9021760993
 10
135.4814002052
 20
211.8990781479
 10
135.4838432506
 20
211.8962916308
 10
135.4919919506
 20
211.8918868475
 10
135.5035284296
 20
211.8891033106
 10
135.517984046
 20
211.8881943398
 10
135.5515824392
 20
211.8918138319
 10
135.5864422157
 20
211.8992957049
  0
ARC
  5
492
330
1F
100
AcDbEntity
  8
0
  6
Continuous
 62
     7
370
    15
100
AcDbCircle
 10
135.6061123641
 20
211.8467189082
 30
0.0
 40
0.1272630356910806
100
AcDbArc
 50
58.7449994143
 51
115.1098206577
  0
LWPOLYLINE
  5
493
330
1F
100
AcDbEntity
  8
0
  6
Continuous
 62
     7
370
    15
100
AcDbPolyline
 90
        6
 70
   128
 43
0.0
 10
135.4466752842
 20
211.8935215049
 10
135.451857163
 20
211.9115995937
 10
135.4737655953
 20
211.9307907992
 10
135.4899333552
 20
211.9398283535
 10
135.5092638865
 20
211.9483056241
 10
135.5521077052
 20
211.9619550877
  0
LWPOLYLINE
  5
494
330
1F
100
AcDbEntity
  8
0
  6
Continuous
 62
     7
370
    15
100
AcDbPolyline
 90
        6
 70
   128
 43
0.0
 10
135.4804442957
 20
211.8387805992
 10
135.4800911382
 20
211.8429201417
 10
135.4813376203
 20
211.8473413163
 10
135.4885259405
 20
211.8566485816
 10
135.5012910202
 20
211.865957337
 10
135.5176472798
 20
211.874786275
  0
LINE
  5
495
330
1F
100
AcDbEntity
  8
0
  6
Continuous
 62
     7
370
    15
100
AcDbLine
 10
136.9684131578
 20
212.7468722635
 30
0.0
 11
137.0811419323
 21
212.8689500266
 31
0.0
  0
LINE
  5
496
330
1F
100
AcDbEntity
  8
0
  6
Continuous
 62
     7
370
    15
100
AcDbLine
 10
136.9465971127
 20
212.7675088816
 30
0.0
 11
136.9684131578
 21
212.7468722635
 31
0.0
  0
LINE
  5
497
330
1F
100
AcDbEntity
  8
0
  6
Continuous
 62
     7
370
    15
100
AcDbLine
 10
136.9223074749
 20
212.7426611953
 30
0.0
 11
136.9465971127
 21
212.7675088816
 31
0.0
  0
LINE
  5
498
330
1F
100
AcDbEntity
  8
0
  6
Continuous
 62
     7
370
    15
100
AcDbLine
 10
136.9143763319
 20
212.6922818594
 30
0.0
 11
136.9441279903
 21
212.7220201068
 31
0.0
  0
LINE
  5
499
330
1F
100
AcDbEntity
  8
0
  6
Continuous
 62
     7
370
    15
100
AcDbLine
 10
132.3971757427
 20
213.1418558531
 30
0.0
 11
132.2872115061
 21
213.3088725381
 31
0.0
  0
LINE
  5
49A
330
1F
100
AcDbEntity
  8
0
  6
Continuous
 62
     7
370
    15
100
AcDbLine
 10
133.3545120195
 20
212.065774458
 30
0.0
 11
133.4404164687
 21
212.2306066328
 31
0.0
  0
LINE
  5
49B
330
1F
100
AcDbEntity
  8
0
  6
Continuous
 62
     7
370
    15
100
AcDbLine
 10
133.4404164687
 20
212.2306066328
 30
0.0
 11
133.27649699
 21
212.3229685002
 31
0.0
  0
LINE
  5
49C
330
1F
100
AcDbEntity
  8
0
  6
Continuous
 62
     7
370
    15
100
AcDbLine
 10
136.2478220597
 20
212.2702571326
 30
0.0
 11
136.3383391634
 21
212.1079119616
 31
0.0
  0
LINE
  5
49D
330
1F
100
AcDbEntity
  8
0
  6
Continuous
 62
     7
370
    15
100
AcDbLine
 10
136.409067525
 20
212.3672100478
 30
0.0
 11
136.2478220597
 21
212.2702571326
 31
0.0
  0
LINE
  5
49E
330
1F
100
AcDbEntity
  8
0
  6
Continuous
 62
     7
370
    15
100
AcDbLine
 10
137.6055137947
 20
213.4254443222
 30
0.0
 11
137.4386997655
 21
213.5074752145
 31
0.0
  0
LINE
  5
49F
330
1F
100
AcDbEntity
  8
0
  6
Continuous
 62
     7
370
    15
100
AcDbLine
 10
137.4386997655
 20
213.5074752145
 30
0.0
 11
137.3419174686
 21
213.3324849182
 31
0.0
  0
LINE
  5
4A0
330
1F
100
AcDbEntity
  8
0
  6
Continuous
 62
     7
370
    15
100
AcDbLine
 10
134.9074112013
 20
211.8968608552
 30
0.0
 11
134.7074435785
 21
211.8968608552
 31
0.0
  0
ARC
  5
4A1
330
1F
100
AcDbEntity
  8
0
  6
Continuous
 62
     7
370
    15
100
AcDbCircle
 10
134.807427221
 20
214.8475467229
 30
0.0
 40
2.782296703857328
100
AcDbArc
 50
308.1982390097
 51
51.8017609903
  0
ARC
  5
4A2
330
1F
100
AcDbEntity
  8
0
  6
Continuous
 62
     7
370
    15
100
AcDbCircle
 10
134.807427221
 20
214.8475467229
 30
0.0
 40
2.78229670385731
100
AcDbArc
 50
128.1982390097
 51
231.8017609903
  0
LINE
  5
4A3
330
1F
100
AcDbEntity
  8
0
  6
Continuous
 62
     7
370
    15
100
AcDbLine
 10
133.354082121
 20
212.0649519139
 30
0.0
 11
133.4399865702
 21
212.2297840887
 31
0.0
  0
LINE
  5
4A4
330
1F
100
AcDbEntity
  8
0
  6
Continuous
 62
     7
370
    15
100
AcDbLine
 10
133.1798067078
 20
212.163135665
 30
0.0
 11
133.354082121
 21
212.0649519139
 31
0.0
  0
LINE
  5
4A5
330
1F
100
AcDbEntity
  8
0
  6
Continuous
 62
     7
370
    15
100
AcDbLine
 10
133.2760156825
 20
212.3221742683
 30
0.0
 11
133.1798067078
 21
212.163135665
 31
0.0
  0
LINE
  5
4A6
330
1F
100
AcDbEntity
  8
0
  6
Continuous
 62
     7
370
    15
100
AcDbLine
 10
133.4399865702
 20
212.2297840887
 30
0.0
 11
133.2760156825
 21
212.3221742683
 31
0.0
  0
LINE
  5
4A7
330
1F
100
AcDbEntity
  8
0
  6
Continuous
 62
     7
370
    15
100
AcDbLine
 10
133.27649699
 20
212.3229685002
 30
0.0
 11
133.2760156825
 21
212.3221742683
 31
0.0
  0
LINE
  5
4A8
330
1F
100
AcDbEntity
  8
0
  6
Continuous
 62
     7
370
    15
100
AcDbLine
 10
133.4404164687
 20
212.2306066328
 30
0.0
 11
133.4399865702
 21
212.2297840887
 31
0.0
  0
LINE
  5
4A9
330
1F
100
AcDbEntity
  8
0
  6
Continuous
 62
     7
370
    15
100
AcDbLine
 10
133.3545120195
 20
212.065774458
 30
0.0
 11
133.354082121
 21
212.0649519139
 31
0.0
  0
LINE
  5
4AA
330
1F
100
AcDbEntity
  8
0
  6
Continuous
 62
     7
370
    15
100
AcDbLine
 10
134.9074424937
 20
211.8959325128
 30
0.0
 11
134.7074122861
 21
211.8959325128
 31
0.0
  0
LINE
  5
4AB
330
1F
100
AcDbEntity
  8
0
  6
Continuous
 62
     7
370
    15
100
AcDbLine
 10
134.9074112013
 20
211.8968608552
 30
0.0
 11
134.9074424937
 21
211.8959325128
 31
0.0
  0
LINE
  5
4AC
330
1F
100
AcDbEntity
  8
0
  6
Continuous
 62
     7
370
    15
100
AcDbLine
 10
134.7074435785
 20
211.8968608552
 30
0.0
 11
134.7074122861
 21
211.8959325128
 31
0.0
  0
LINE
  5
4AD
330
1F
100
AcDbEntity
  8
0
  6
Continuous
 62
     7
370
    15
100
AcDbLine
 10
134.9074424937
 20
211.7099585705
 30
0.0
 11
134.9074424937
 21
211.8959325128
 31
0.0
  0
LINE
  5
4AE
330
1F
100
AcDbEntity
  8
0
  6
Continuous
 62
     7
370
    15
100
AcDbLine
 10
134.7074122861
 20
211.7099585705
 30
0.0
 11
134.9074424937
 21
211.7099585705
 31
0.0
  0
LINE
  5
4AF
330
1F
100
AcDbEntity
  8
0
  6
Continuous
 62
     7
370
    15
100
AcDbLine
 10
134.7074122861
 20
211.8959325128
 30
0.0
 11
134.7074122861
 21
211.7099585705
 31
0.0
  0
LINE
  5
4B0
330
1F
100
AcDbEntity
  8
0
  6
Continuous
 62
     7
370
    15
100
AcDbLine
 10
136.4095711842
 20
212.366430717
 30
0.0
 11
136.248275055
 21
212.2694465094
 31
0.0
  0
LINE
  5
4B1
330
1F
100
AcDbEntity
  8
0
  6
Continuous
 62
     7
370
    15
100
AcDbLine
 10
136.2478220597
 20
212.2702571326
 30
0.0
 11
136.248275055
 21
212.2694465094
 31
0.0
  0
LINE
  5
4B2
330
1F
100
AcDbEntity
  8
0
  6
Continuous
 62
     7
370
    15
100
AcDbLine
 10
136.409067525
 20
212.3672100478
 30
0.0
 11
136.4095711842
 21
212.366430717
 31
0.0
  0
LINE
  5
4B3
330
1F
100
AcDbEntity
  8
0
  6
Continuous
 62
     7
370
    15
100
AcDbLine
 10
136.248275055
 20
212.2694465094
 30
0.0
 11
136.3387921587
 21
212.1071013384
 31
0.0
  0
LINE
  5
4B4
330
1F
100
AcDbEntity
  8
0
  6
Continuous
 62
     7
370
    15
100
AcDbLine
 10
136.3383391634
 20
212.1079119616
 30
0.0
 11
136.3387921587
 21
212.1071013384
 31
0.0
  0
LINE
  5
4B5
330
1F
100
AcDbEntity
  8
0
  6
Continuous
 62
     7
370
    15
100
AcDbLine
 10
136.5102255478
 20
212.2101667099
 30
0.0
 11
136.4095711842
 21
212.366430717
 31
0.0
  0
LINE
  5
4B6
330
1F
100
AcDbEntity
  8
0
  6
Continuous
 62
     7
370
    15
100
AcDbLine
 10
136.3387921587
 20
212.1071013384
 30
0.0
 11
136.5102255478
 21
212.2101667099
 31
0.0
  0
LINE
  5
4B7
330
1F
100
AcDbEntity
  8
0
  6
Continuous
 62
     7
370
    15
100
AcDbLine
 10
132.3964180186
 20
213.1413194113
 30
0.0
 11
132.2864191368
 21
213.3083897405
 31
0.0
  0
LINE
  5
4B8
330
1F
100
AcDbEntity
  8
0
  6
Continuous
 62
     7
370
    15
100
AcDbLine
 10
132.2872115061
 20
213.3088725381
 30
0.0
 11
132.2864191368
 21
213.3083897405
 31
0.0
  0
LINE
  5
4B9
330
1F
100
AcDbEntity
  8
0
  6
Continuous
 62
     7
370
    15
100
AcDbLine
 10
132.3971757427
 20
213.1418558531
 30
0.0
 11
132.3964180186
 21
213.1413194113
 31
0.0
  0
LINE
  5
4BA
330
1F
100
AcDbEntity
  8
0
  6
Continuous
 62
     7
370
    15
100
AcDbLine
 10
132.13124962
 20
213.2058563405
 30
0.0
 11
132.2412648931
 21
213.0387979322
 31
0.0
  0
LINE
  5
4BB
330
1F
100
AcDbEntity
  8
0
  6
Continuous
 62
     7
370
    15
100
AcDbLine
 10
132.2864191368
 20
213.3083897405
 30
0.0
 11
132.13124962
 21
213.2058563405
 31
0.0
  0
LINE
  5
4BC
330
1F
100
AcDbEntity
  8
0
  6
Continuous
 62
     7
370
    15
100
AcDbLine
 10
132.2412648931
 20
213.0387979322
 30
0.0
 11
132.3964180186
 21
213.1413194113
 31
0.0
  0
LINE
  5
4BD
330
1F
100
AcDbEntity
  8
0
  6
Continuous
 62
     7
370
    15
100
AcDbLine
 10
137.4395267799
 20
213.5070535117
 30
0.0
 11
137.3427139357
 21
213.3320095711
 31
0.0
  0
LINE
  5
4BE
330
1F
100
AcDbEntity
  8
0
  6
Continuous
 62
     7
370
    15
100
AcDbLine
 10
137.6063415542
 20
213.4250241094
 30
0.0
 11
137.4395267799
 21
213.5070535117
 31
0.0
  0
LINE
  5
4BF
330
1F
100
AcDbEntity
  8
0
  6
Continuous
 62
     7
370
    15
100
AcDbLine
 10
137.510030134
 20
213.2497059875
 30
0.0
 11
137.6063415542
 21
213.4250241094
 31
0.0
  0
LINE
  5
4C0
330
1F
100
AcDbEntity
  8
0
  6
Continuous
 62
     7
370
    15
100
AcDbLine
 10
137.3427139357
 20
213.3320095711
 30
0.0
 11
137.510030134
 21
213.2497059875
 31
0.0
  0
LINE
  5
4C1
330
1F
100
AcDbEntity
  8
0
  6
Continuous
 62
     7
370
    15
100
AcDbLine
 10
137.4386997655
 20
213.5074752145
 30
0.0
 11
137.4395267799
 21
213.5070535117
 31
0.0
  0
LINE
  5
4C2
330
1F
100
AcDbEntity
  8
0
  6
Continuous
 62
     7
370
    15
100
AcDbLine
 10
137.3419174686
 20
213.3324849182
 30
0.0
 11
137.3427139357
 21
213.3320095711
 31
0.0
  0
LINE
  5
4C3
330
1F
100
AcDbEntity
  8
0
  6
Continuous
 62
     7
370
    15
100
AcDbLine
 10
137.6055137947
 20
213.4254443222
 30
0.0
 11
137.6063415542
 21
213.4250241094
 31
0.0
  0
LWPOLYLINE
  5
4C4
330
1F
100
AcDbEntity
  8
0
  6
Continuous
 62
     7
370
    15
100
AcDbPolyline
 90
       17
 70
   128
 43
0.0
 10
134.8074273899
 20
217.8199323588
 10
134.9031293526
 20
217.8256782465
 10
134.9841968849
 20
217.8426432186
 10
135.0382933155
 20
217.8696754151
 10
135.0572617486
 20
217.9040181213
 10
135.0382471219
 20
217.9409253173
 10
134.9841022626
 20
217.974157887
 10
134.9030041829
 20
217.9973247223
 10
134.8072932795
 20
218.0056246691
 10
134.7116032377
 20
217.9972785287
 10
134.6305669978
 20
217.9740774208
 10
134.5765122905
 20
217.9408269697
 10
134.5576019719
 20
217.9039182835
 10
134.5766776934
 20
217.8695934587
 10
134.6308426693
 20
217.842585104
 10
134.712030156
 20
217.8256558948
 10
134.8074273899
 20
217.8199323588
  0
LINE
  5
4C5
330
1F
100
AcDbEntity
  8
0
  6
Continuous
 62
     7
370
    15
100
AcDbLine
 10
137.230432941
 20
216.5765675478
 30
0.0
 11
137.4207900599
 21
216.4300056868
 31
0.0
  0
LINE
  5
4C6
330
1F
100
AcDbEntity
  8
0
  6
Continuous
 62
     7
370
    15
100
AcDbLine
 10
137.419995828
 20
216.4295243793
 30
0.0
 11
137.4207900599
 21
216.4300056868
 31
0.0
  0
LINE
  5
4C7
330
1F
100
AcDbEntity
  8
0
  6
Continuous
 62
     7
370
    15
100
AcDbLine
 10
137.2296767071
 20
216.5760281258
 30
0.0
 11
137.230432941
 21
216.5765675478
 31
0.0
  0
LINE
  5
4C8
330
1F
100
AcDbEntity
  8
0
  6
Continuous
 62
     7
370
    15
100
AcDbLine
 10
137.3249524966
 20
216.6726368242
 30
0.0
 11
137.3888874188
 21
216.5453525954
 31
0.0
  0
LINE
  5
4C9
330
1F
100
AcDbEntity
  8
0
  6
Continuous
 62
     7
370
    15
100
AcDbLine
 10
137.4303454295
 20
216.5405961447
 30
0.0
 11
137.3249524966
 21
216.6726368242
 31
0.0
  0
LINE
  5
4CA
330
1F
100
AcDbEntity
  8
0
  6
Continuous
 62
     7
370
    15
100
AcDbLine
 10
137.4636078015
 20
216.5986510687
 30
0.0
 11
137.4303454295
 21
216.5405961447
 31
0.0
  0
LINE
  5
4CB
330
1F
100
AcDbEntity
  8
0
  6
Continuous
 62
     7
370
    15
100
AcDbLine
 10
137.5049004093
 20
216.4537700587
 30
0.0
 11
137.4636078015
 21
216.5986510687
 31
0.0
  0
LINE
  5
4CC
330
1F
100
AcDbEntity
  8
0
  6
Continuous
 62
     7
370
    15
100
AcDbLine
 10
137.5915618375
 20
216.3783672028
 30
0.0
 11
137.5049004093
 21
216.4537700587
 31
0.0
  0
LINE
  5
4CD
330
1F
100
AcDbEntity
  8
0
  6
Continuous
 62
     7
370
    15
100
AcDbLine
 10
137.5255876914
 20
216.3714128309
 30
0.0
 11
137.5915618375
 21
216.3783672028
 31
0.0
  0
LINE
  5
4CE
330
1F
100
AcDbEntity
  8
0
  6
Continuous
 62
     7
370
    15
100
AcDbLine
 10
137.5591234997
 20
216.2555563026
 30
0.0
 11
137.5255876914
 21
216.3714128309
 31
0.0
  0
LINE
  5
4CF
330
1F
100
AcDbEntity
  8
0
  6
Continuous
 62
     7
370
    15
100
AcDbLine
 10
137.4769815937
 20
216.3808258944
 30
0.0
 11
137.5591234997
 21
216.2555563026
 31
0.0
  0
LINE
  5
4D0
330
1F
100
AcDbEntity
  8
0
  6
Continuous
 62
     7
370
    15
100
AcDbLine
 10
137.4542006984
 20
216.3002523356
 30
0.0
 11
137.4769815937
 21
216.3808258944
 31
0.0
  0
LINE
  5
4D1
330
1F
100
AcDbEntity
  8
0
  6
Continuous
 62
     7
370
    15
100
AcDbLine
 10
137.4207900599
 20
216.4300056868
 30
0.0
 11
137.4542006984
 21
216.3002523356
 31
0.0
  0
LINE
  5
4D2
330
1F
100
AcDbEntity
  8
0
  6
Continuous
 62
     7
370
    15
100
AcDbLine
 10
137.3888874188
 20
216.5453525954
 30
0.0
 11
137.230432941
 21
216.5765675478
 31
0.0
  0
LINE
  5
4D3
330
1F
100
AcDbEntity
  8
0
  6
Continuous
 62
     7
370
    15
100
AcDbLine
 10
135.6429533795
 20
211.8786769681
 30
0.0
 11
135.6773117319
 21
211.8884014659
 31
0.0
  0
ARC
  5
4D4
330
1F
100
AcDbEntity
  8
0
  6
Continuous
 62
     7
370
    15
100
AcDbCircle
 10
135.5729586169
 20
211.9489200897
 30
0.0
 40
0.120631987588837
100
AcDbArc
 50
276.5187712494
 51
329.8888071731
  0
LWPOLYLINE
  5
4D5
330
1F
100
AcDbEntity
  8
0
  6
Continuous
 62
     7
370
    15
100
AcDbPolyline
 90
        8
 70
   128
 43
0.0
 10
135.5866538122
 20
211.8290680223
 10
135.5503791705
 20
211.8223043852
 10
135.5171823636
 20
211.8213402801
 10
135.5033429101
 20
211.8232327276
 10
135.4922579363
 20
211.8267389708
 10
135.4844683543
 20
211.8316652947
 10
135.4820215836
 20
211.8346216851
 10
135.4806469515
 20
211.8378746086
  0
LWPOLYLINE
  5
4D6
330
1F
100
AcDbEntity
  8
0
  6
Continuous
 62
     7
370
    15
100
AcDbPolyline
 90
        5
 70
   128
 43
0.0
 10
135.4806469515
 20
211.8378746086
 10
135.4815410212
 20
211.8464353257
 10
135.4887323216
 20
211.855742591
 10
135.5015011266
 20
211.8650528365
 10
135.5178626016
 20
211.8738832646
  0
ARC
  5
4D7
330
1F
100
AcDbEntity
  8
0
  6
Continuous
 62
     7
370
    15
100
AcDbCircle
 10
135.500894195
 20
212.0220228694
 30
0.0
 40
0.1491082470062444
100
AcDbArc
 50
259.9348069434
 51
276.5343724508
  0
LWPOLYLINE
  5
4D8
330
1F
100
AcDbEntity
  8
0
  6
Continuous
 62
     7
370
    15
100
AcDbPolyline
 90
        3
 70
   128
 43
0.0
 10
135.4748340085
 20
211.8752094679
 10
135.4556562141
 20
211.881959694
 10
135.4468712345
 20
211.8926140242
  0
LWPOLYLINE
  5
4D9
330
1F
100
AcDbEntity
  8
0
  6
Continuous
 62
     7
370
    15
100
AcDbPolyline
 90
        6
 70
   128
 43
0.0
 10
135.4468712345
 20
211.8926140242
 10
135.4520322517
 20
211.9106563502
 10
135.4739719763
 20
211.9298848086
 10
135.4901442066
 20
211.938923853
 10
135.5094829336
 20
211.9474041038
 10
135.5523394182
 20
211.9610565477
  0
ARC
  5
4DA
330
1F
100
AcDbEntity
  8
0
  6
Continuous
 62
     7
370
    15
100
AcDbCircle
 10
135.6063680721
 20
211.8457651518
 30
0.0
 40
0.1273232162815588
100
AcDbArc
 50
58.7560252575
 51
115.1090538991
  0
LINE
  5
4DB
330
1F
100
AcDbEntity
  8
0
  6
Continuous
 62
     7
370
    15
100
AcDbLine
 10
135.6724085048
 20
211.9546222263
 30
0.0
 11
135.6395127013
 21
211.9451674395
 31
0.0
  0
LWPOLYLINE
  5
4DC
330
1F
100
AcDbEntity
  8
0
  6
Continuous
 62
     7
370
    15
100
AcDbPolyline
 90
        3
 70
   128
 43
0.0
 10
135.6395127013
 20
211.9451674395
 10
135.6279166177
 20
211.9521352225
 10
135.6100247934
 20
211.9559409791
  0
LWPOLYLINE
  5
4DD
330
1F
100
AcDbEntity
  8
0
  6
Continuous
 62
     7
370
    15
100
AcDbPolyline
 90
        3
 70
   128
 43
0.0
 10
135.6100247934
 20
211.9559409791
 10
135.5838613346
 20
211.9545745426
 10
135.5549888447
 20
211.9487124258
  0
LWPOLYLINE
  5
4DE
330
1F
100
AcDbEntity
  8
0
  6
Continuous
 62
     7
370
    15
100
AcDbPolyline
 90
        8
 70
   128
 43
0.0
 10
135.5549888447
 20
211.9487124258
 10
135.5251202121
 20
211.9393992
 10
135.5115758017
 20
211.9335698658
 10
135.5000624195
 20
211.9272756153
 10
135.4839415982
 20
211.913849669
 10
135.4804055527
 20
211.9073065691
 10
135.4798989132
 20
211.9042071276
 10
135.4802498355
 20
211.9012701087
  0
LWPOLYLINE
  5
4DF
330
1F
100
AcDbEntity
  8
0
  6
Continuous
 62
     7
370
    15
100
AcDbPolyline
 90
        7
 70
   128
 43
0.0
 10
135.4802498355
 20
211.9012701087
 10
135.4840511218
 20
211.8953871303
 10
135.4922013119
 20
211.8909823471
 10
135.5037400261
 20
211.8881988101
 10
135.5182008579
 20
211.8872928195
 10
135.5518089369
 20
211.8909138017
 10
135.5866791442
 20
211.898398655
  0
LINE
  5
4E0
330
1F
100
AcDbEntity
  8
0
  6
Continuous
 62
     7
370
    15
100
AcDbLine
 10
135.5866791442
 20
211.898398655
 30
0.0
 11
135.5895982817
 21
211.8868636661
 31
0.0
  0
LWPOLYLINE
  5
4E1
330
1F
100
AcDbEntity
  8
0
  6
Continuous
 62
     7
370
    15
100
AcDbPolyline
 90
        8
 70
   128
 43
0.0
 10
135.5895982817
 20
211.8868636661
 10
135.563142015
 20
211.8788229995
 10
135.5390103295
 20
211.8688779645
 10
135.5283209816
 20
211.8629875355
 10
135.521063371
 20
211.8573459559
 10
135.5166824296
 20
211.851457017
 10
135.5159410968
 20
211.8486779504
 10
135.5161087349
 20
211.846067267
  0
LWPOLYLINE
  5
4E2
330
1F
100
AcDbEntity
  8
0
  6
Continuous
 62
     7
370
    15
100
AcDbPolyline
 90
        7
 70
   128
 43
0.0
 10
135.5161087349
 20
211.846067267
 10
135.5184437469
 20
211.8421706133
 10
135.5233685806
 20
211.8390681916
 10
135.5305010214
 20
211.8370401435
 10
135.5394700304
 20
211.8359583192
 10
135.5605447426
 20
211.8368047052
 10
135.5835268036
 20
211.841306346
  0
ARC
  5
4E3
330
1F
100
AcDbEntity
  8
0
  6
Continuous
 62
     7
370
    15
100
AcDbCircle
 10
135.5701434987
 20
211.928523376
 30
0.0
 40
0.0882379913266261
100
AcDbArc
 50
278.7243707745
 51
325.6040493798
  0
LWPOLYLINE
  5
4E4
330
1F
100
AcDbEntity
  8
0
  6
Continuous
 62
     7
370
    15
100
AcDbPolyline
 90
        3
 70
   128
 43
0.0
 10
135.6724085048
 20
211.9546222263
 10
135.6722758844
 20
211.955067771
 10
135.6721425191
 20
211.9555118256
  0
LWPOLYLINE
  5
4E5
330
1F
100
AcDbEntity
  8
0
  6
Continuous
 62
     7
370
    15
100
AcDbPolyline
 90
        3
 70
   128
 43
0.0
 10
135.5523394182
 20
211.9610565477
 10
135.5522231892
 20
211.9615050726
 10
135.5521077052
 20
211.9619550877
  0
LWPOLYLINE
  5
4E6
330
1F
100
AcDbEntity
  8
0
  6
Continuous
 62
     7
370
    15
100
AcDbPolyline
 90
        3
 70
   128
 43
0.0
 10
135.4468712345
 20
211.8926140242
 10
135.4467728868
 20
211.8930670195
 10
135.4466752842
 20
211.8935215049
  0
LINE
  5
4E7
330
1F
100
AcDbEntity
  8
0
  6
Continuous
 62
     7
370
    15
100
AcDbLine
 10
134.1858206078
 20
211.9283037954
 30
0.0
 11
134.1860139504
 21
211.9292112761
 31
0.0
  0
LINE
  5
4E8
330
1F
100
AcDbEntity
  8
0
  6
Continuous
 62
     7
370
    15
100
AcDbLine
 10
133.9557209745
 20
211.986944335
 30
0.0
 11
134.1858206078
 21
211.9283037954
 31
0.0
  0
LINE
  5
4E9
330
1F
100
AcDbEntity
  8
0
  6
Continuous
 62
     7
370
    15
100
AcDbLine
 10
133.9557209745
 20
211.986944335
 30
0.0
 11
133.9559858426
 21
211.9878339344
 31
0.0
  0
LINE
  5
4EA
330
1F
100
AcDbEntity
  8
0
  6
Continuous
 62
     7
370
    15
100
AcDbLine
 10
134.1230401531
 20
211.8510576659
 30
0.0
 11
134.1557333007
 21
211.8436413579
 31
0.0
  0
LWPOLYLINE
  5
4EB
330
1F
100
AcDbEntity
  8
0
  6
Continuous
 62
     7
370
    15
100
AcDbPolyline
 90
        6
 70
   128
 43
0.0
 10
134.1557333007
 20
211.8436413579
 10
134.1432226583
 20
211.8292170339
 10
134.1154658929
 20
211.82082619
 10
134.0967310354
 20
211.8194552832
 10
134.0762344882
 20
211.8202167325
 10
134.0316014126
 20
211.8281352096
  0
LWPOLYLINE
  5
4EC
330
1F
100
AcDbEntity
  8
0
  6
Continuous
 62
     7
370
    15
100
AcDbPolyline
 90
        6
 70
   128
 43
0.0
 10
134.031600295
 20
211.8281352096
 10
133.9923912421
 20
211.8410694175
 10
133.9751394227
 20
211.8493365818
 10
133.9605947718
 20
211.8584113889
 10
133.9410891518
 20
211.8772077137
 10
133.937094523
 20
211.8941592746
  0
LWPOLYLINE
  5
4ED
330
1F
100
AcDbEntity
  8
0
  6
Continuous
 62
     7
370
    15
100
AcDbPolyline
 90
        4
 70
   128
 43
0.0
 10
133.937094523
 20
211.8941592746
 10
133.9459636942
 20
211.9056734019
 10
133.9651180193
 20
211.9128989749
 10
134.0157320485
 20
211.9209396415
  0
LINE
  5
4EE
330
1F
100
AcDbEntity
  8
0
  6
Continuous
 62
     7
370
    15
100
AcDbLine
 10
134.0157320485
 20
211.9209396415
 30
0.0
 11
134.1086352006
 21
211.9332107478
 31
0.0
  0
LINE
  5
4EF
330
1F
100
AcDbEntity
  8
0
  6
Continuous
 62
     7
370
    15
100
AcDbLine
 10
134.1086352006
 20
211.9332107478
 30
0.0
 11
133.952660276
 21
211.9747894578
 31
0.0
  0
LINE
  5
4F0
330
1F
100
AcDbEntity
  8
0
  6
Continuous
 62
     7
370
    15
100
AcDbLine
 10
133.952660276
 20
211.9747894578
 30
0.0
 11
133.9557209745
 21
211.986944335
 31
0.0
  0
LINE
  5
4F1
330
1F
100
AcDbEntity
  8
0
  6
Continuous
 62
     7
370
    15
100
AcDbLine
 10
134.1858206078
 20
211.9283037954
 30
0.0
 11
134.0426711127
 21
211.9074183279
 31
0.0
  0
ARC
  5
4F2
330
1F
100
AcDbEntity
  8
0
  6
Continuous
 62
     7
370
    15
100
AcDbCircle
 10
134.0280310391
 20
211.8251386991
 30
0.0
 40
0.0835719394051164
100
AcDbArc
 50
79.9109077609
 51
134.0847303682
  0
LWPOLYLINE
  5
4F3
330
1F
100
AcDbEntity
  8
0
  6
Continuous
 62
     7
370
    15
100
AcDbPolyline
 90
        6
 70
   128
 43
0.0
 10
133.9698882535
 20
211.8851694041
 10
133.969946368
 20
211.8795844489
 10
133.9729493245
 20
211.8734257989
 10
133.9871985599
 20
211.8605199032
 10
134.0093722329
 20
211.8486287766
 10
134.0364997968
 20
211.8396627479
  0
LWPOLYLINE
  5
4F4
330
1F
100
AcDbEntity
  8
0
  6
Continuous
 62
     7
370
    15
100
AcDbPolyline
 90
        6
 70
   128
 43
0.0
 10
134.0364997968
 20
211.8396627479
 10
134.0680220857
 20
211.8340733223
 10
134.0823596105
 20
211.8335458212
 10
134.0953884408
 20
211.8346499973
 10
134.1138718411
 20
211.8409993821
 10
134.1230401531
 20
211.8510576659
  0
LINE
  5
4F5
330
1F
100
AcDbEntity
  8
0
  6
Continuous
 62
     7
370
    15
100
AcDbLine
 10
132.7109163389
 20
212.544867652
 30
0.0
 11
132.6607843623
 21
212.5915514999
 31
0.0
  0
LINE
  5
4F6
330
1F
100
AcDbEntity
  8
0
  6
Continuous
 62
     7
370
    15
100
AcDbLine
 10
132.6607843623
 20
212.5915514999
 30
0.0
 11
132.7492503211
 21
212.6861440711
 31
0.0
  0
LINE
  5
4F7
330
1F
100
AcDbEntity
  8
0
  6
Continuous
 62
     7
370
    15
100
AcDbLine
 10
132.7492503211
 20
212.6861440711
 30
0.0
 11
132.7744429693
 21
212.6624497347
 31
0.0
  0
LINE
  5
4F8
330
1F
100
AcDbEntity
  8
0
  6
Continuous
 62
     7
370
    15
100
AcDbLine
 10
132.7744429693
 20
212.6624497347
 30
0.0
 11
132.6946818963
 21
212.5770869427
 31
0.0
  0
LINE
  5
4F9
330
1F
100
AcDbEntity
  8
0
  6
Continuous
 62
     7
370
    15
100
AcDbLine
 10
132.6946818963
 20
212.5770869427
 30
0.0
 11
132.7350647882
 21
212.5400650077
 31
0.0
  0
LINE
  5
4FA
330
1F
100
AcDbEntity
  8
0
  6
Continuous
 62
     7
370
    15
100
AcDbLine
 10
132.7350647882
 20
212.5400650077
 30
0.0
 11
132.7109163389
 21
212.544867652
 31
0.0
  0
LINE
  5
4FB
330
1F
100
AcDbEntity
  8
0
  6
Continuous
 62
     7
370
    15
100
AcDbLine
 10
132.7744429693
 20
212.6624497347
 30
0.0
 11
132.7750755236
 21
212.6631292277
 31
0.0
  0
LINE
  5
4FC
330
1F
100
AcDbEntity
  8
0
  6
Continuous
 62
     7
370
    15
100
AcDbLine
 10
132.7492503211
 20
212.6861440711
 30
0.0
 11
132.7498906985
 21
212.6868161135
 31
0.0
  0
LINE
  5
4FD
330
1F
100
AcDbEntity
  8
0
  6
Continuous
 62
     7
370
    15
100
AcDbLine
 10
136.9472624496
 20
212.7668621712
 30
0.0
 11
136.9465971127
 21
212.7675088816
 31
0.0
  0
LINE
  5
4FE
330
1F
100
AcDbEntity
  8
0
  6
Continuous
 62
     7
370
    15
100
AcDbLine
 10
136.9229653612
 20
212.7420070343
 30
0.0
 11
136.9472624496
 21
212.7668621712
 31
0.0
  0
LINE
  5
4FF
330
1F
100
AcDbEntity
  8
0
  6
Continuous
 62
     7
370
    15
100
AcDbLine
 10
136.9229653612
 20
212.7420070343
 30
0.0
 11
136.9223074749
 21
212.7426611953
 31
0.0
  0
LINE
  5
500
330
1F
100
AcDbEntity
  8
0
  6
Continuous
 62
     7
370
    15
100
AcDbLine
 10
136.9690784946
 20
212.7462255531
 30
0.0
 11
136.9684131578
 21
212.7468722635
 31
0.0
  0
LINE
  5
501
330
1F
100
AcDbEntity
  8
0
  6
Continuous
 62
     7
370
    15
100
AcDbLine
 10
136.9472624496
 20
212.7668621712
 30
0.0
 11
136.9690784946
 21
212.7462255531
 31
0.0
  0
LINE
  5
502
330
1F
100
AcDbEntity
  8
0
  6
Continuous
 62
     7
370
    15
100
AcDbLine
 10
137.0241546765
 20
212.6560705476
 30
0.0
 11
137.019207491
 21
212.6510428958
 31
0.0
  0
LINE
  5
503
330
1F
100
AcDbEntity
  8
0
  6
Continuous
 62
     7
370
    15
100
AcDbLine
 10
137.019207491
 20
212.6510428958
 30
0.0
 11
136.953813
 21
212.7128782444
 31
0.0
  0
LINE
  5
504
330
1F
100
AcDbEntity
  8
0
  6
Continuous
 62
     7
370
    15
100
AcDbLine
 10
136.953813
 20
212.7128782444
 30
0.0
 11
136.9240561262
 21
212.6831280761
 31
0.0
  0
LINE
  5
505
330
1F
100
AcDbEntity
  8
0
  6
Continuous
 62
     7
370
    15
100
AcDbLine
 10
136.9240561262
 20
212.6831280761
 30
0.0
 11
136.9150252774
 21
212.6916187578
 31
0.0
  0
LINE
  5
506
330
1F
100
AcDbEntity
  8
0
  6
Continuous
 62
     7
370
    15
100
AcDbLine
 10
136.9150252774
 20
212.6916187578
 30
0.0
 11
136.9447858766
 21
212.7213659459
 31
0.0
  0
LINE
  5
507
330
1F
100
AcDbEntity
  8
0
  6
Continuous
 62
     7
370
    15
100
AcDbLine
 10
136.9447858766
 20
212.7213659459
 30
0.0
 11
136.9229653612
 21
212.7420070343
 31
0.0
  0
LINE
  5
508
330
1F
100
AcDbEntity
  8
0
  6
Continuous
 62
     7
370
    15
100
AcDbLine
 10
136.9690784946
 20
212.7462255531
 30
0.0
 11
137.0818422869
 21
212.8683405691
 31
0.0
  0
LINE
  5
509
330
1F
100
AcDbEntity
  8
0
  6
Continuous
 62
     7
370
    15
100
AcDbLine
 10
137.0818422869
 20
212.8683405691
 30
0.0
 11
137.0241546765
 21
212.6560705476
 31
0.0
  0
LINE
  5
50A
330
1F
100
AcDbEntity
  8
0
  6
Continuous
 62
     7
370
    15
100
AcDbLine
 10
137.0482565597
 20
212.8123226338
 30
0.0
 11
136.9781041279
 21
212.7377393418
 31
0.0
  0
LINE
  5
50B
330
1F
100
AcDbEntity
  8
0
  6
Continuous
 62
     7
370
    15
100
AcDbLine
 10
136.9781041279
 20
212.7377393418
 30
0.0
 11
137.0171645418
 21
212.7007308178
 31
0.0
  0
LINE
  5
50C
330
1F
100
AcDbEntity
  8
0
  6
Continuous
 62
     7
370
    15
100
AcDbLine
 10
137.0171645418
 20
212.7007308178
 30
0.0
 11
137.0482565597
 21
212.8123226338
 31
0.0
  0
LWPOLYLINE
  5
50D
330
1F
100
AcDbEntity
  8
0
  6
Continuous
 62
     7
370
    15
100
AcDbPolyline
 90
        3
 70
   128
 43
0.0
 10
134.0157320485
 20
211.9209396415
 10
134.0158534929
 20
211.9213881665
 10
134.0159745648
 20
211.9218366914
  0
LINE
  5
50E
330
1F
100
AcDbEntity
  8
0
  6
Continuous
 62
     7
370
    15
100
AcDbLine
 10
137.0818422869
 20
212.8683405691
 30
0.0
 11
137.0811419323
 21
212.8689500266
 31
0.0
  0
LINE
  5
50F
330
1F
100
AcDbEntity
  8
0
  6
Continuous
 62
     7
370
    15
100
AcDbLine
 10
136.9150252774
 20
212.6916187578
 30
0.0
 11
136.9143763319
 21
212.6922818594
 31
0.0
  0
LINE
  5
510
330
1F
100
AcDbEntity
  8
0
  6
Continuous
 62
     7
370
    15
100
AcDbLine
 10
137.45338635
 20
216.2998053008
 30
0.0
 11
137.4542006984
 21
216.3002523356
 31
0.0
  0
LINE
  5
511
330
1F
100
AcDbEntity
  8
0
  6
Continuous
 62
     7
370
    15
100
AcDbLine
 10
135.5866791442
 20
211.898398655
 30
0.0
 11
135.5864422157
 21
211.8992957049
 31
0.0
  0
LWPOLYLINE
  5
512
330
1F
100
AcDbEntity
  8
0
  6
Continuous
 62
     7
370
    15
100
AcDbPolyline
 90
        3
 70
   128
 43
0.0
 10
135.4802498355
 20
211.9012701087
 10
135.4801470175
 20
211.901723104
 10
135.4800434545
 20
211.9021760993
  0
LINE
  5
513
330
1F
100
AcDbEntity
  8
0
  6
Continuous
 62
     7
370
    15
100
AcDbLine
 10
137.0164984599
 20
212.7013775282
 30
0.0
 11
137.0171645418
 21
212.7007308178
 31
0.0
  0
LINE
  5
514
330
1F
100
AcDbEntity
  8
0
  6
Continuous
 62
     7
370
    15
100
AcDbLine
 10
136.977438046
 20
212.7383860522
 30
0.0
 11
137.0164984599
 21
212.7013775282
 31
0.0
  0
LINE
  5
515
330
1F
100
AcDbEntity
  8
0
  6
Continuous
 62
     7
370
    15
100
AcDbLine
 10
137.0164984599
 20
212.7013775282
 30
0.0
 11
137.0475688711
 21
212.8129455023
 31
0.0
  0
LWPOLYLINE
  5
516
330
1F
100
AcDbEntity
  8
0
  6
Continuous
 62
     7
370
    15
100
AcDbPolyline
 90
        3
 70
   128
 43
0.0
 10
133.937094523
 20
211.8941592746
 10
133.9372256532
 20
211.8946048193
 10
133.9373567834
 20
211.8950488739
  0
LINE
  5
517
330
1F
100
AcDbEntity
  8
0
  6
Continuous
 62
     7
370
    15
100
AcDbLine
 10
135.4806469515
 20
211.8378746086
 30
0.0
 11
135.4804442957
 21
211.8387805992
 31
0.0
  0
LWPOLYLINE
  5
518
330
1F
100
AcDbEntity
  8
0
  6
Continuous
 62
     7
370
    15
100
AcDbPolyline
 90
        3
 70
   128
 43
0.0
 10
134.1230401531
 20
211.8510576659
 10
134.1231433436
 20
211.8515106612
 10
134.1232469067
 20
211.8519636565
  0
LINE
  5
519
330
1F
100
AcDbEntity
  8
0
  6
Continuous
 62
     7
370
    15
100
AcDbLine
 10
134.1557333007
 20
211.8436413579
 30
0.0
 11
134.1559299961
 21
211.8445488387
 31
0.0
  0
LINE
  5
51A
330
1F
100
AcDbEntity
  8
0
  6
Continuous
 62
     7
370
    15
100
AcDbLine
 10
134.0364997968
 20
211.8396627479
 30
0.0
 11
134.0367303923
 21
211.8405612879
 31
0.0
  0
LWPOLYLINE
  5
51B
330
1F
100
AcDbEntity
  8
0
  6
Continuous
 62
     7
370
    15
100
AcDbPolyline
 90
        3
 70
   128
 43
0.0
 10
133.9698882535
 20
211.8851694041
 10
133.9700145409
 20
211.8856149488
 10
133.9701408282
 20
211.8860619836
  0
LINE
  5
51C
330
1F
100
AcDbEntity
  8
0
  6
Continuous
 62
     7
370
    15
100
AcDbLine
 10
137.5582964852
 20
216.2551345997
 30
0.0
 11
137.5591234997
 21
216.2555563026
 31
0.0
  0
LWPOLYLINE
  5
51D
330
1F
100
AcDbEntity
  8
0
  6
Continuous
 62
     7
370
    15
100
AcDbPolyline
 90
        3
 70
   128
 43
0.0
 10
135.5835268036
 20
211.841306346
 10
135.5834113196
 20
211.8417563611
 10
135.5832950905
 20
211.842204886
  0
LWPOLYLINE
  5
51E
330
1F
100
AcDbEntity
  8
0
  6
Continuous
 62
     7
370
    15
100
AcDbPolyline
 90
        3
 70
   128
 43
0.0
 10
135.5161087349
 20
211.846067267
 10
135.5160021916
 20
211.8465187722
 10
135.5158949032
 20
211.8469702774
  0
LINE
  5
51F
330
1F
100
AcDbEntity
  8
0
  6
Continuous
 62
     7
370
    15
100
AcDbLine
 10
135.6429533795
 20
211.8786769681
 30
0.0
 11
135.6427015498
 21
211.8795710378
 31
0.0
  0
LINE
  5
520
330
1F
100
AcDbEntity
  8
0
  6
Continuous
 62
     7
370
    15
100
AcDbLine
 10
135.6773117319
 20
211.8884014659
 30
0.0
 11
135.6770494714
 21
211.8892925554
 31
0.0
  0
LINE
  5
521
330
1F
100
AcDbEntity
  8
0
  6
Continuous
 62
     7
370
    15
100
AcDbLine
 10
137.324200733
 20
216.6720914417
 30
0.0
 11
137.3249524966
 21
216.6726368242
 31
0.0
  0
LINE
  5
522
330
1F
100
AcDbEntity
  8
0
  6
Continuous
 62
     7
370
    15
100
AcDbLine
 10
132.7350647882
 20
212.5400650077
 30
0.0
 11
132.7356854215
 21
212.5407564216
 31
0.0
  0
LINE
  5
523
330
1F
100
AcDbEntity
  8
0
  6
Continuous
 62
     7
370
    15
100
AcDbLine
 10
137.5907482341
 20
216.377920168
 30
0.0
 11
137.5915618375
 21
216.3783672028
 31
0.0
  0
LINE
  5
524
330
1F
100
AcDbEntity
  8
0
  6
Continuous
 62
     7
370
    15
100
AcDbLine
 10
137.4628329411
 20
216.5981399589
 30
0.0
 11
137.4636078015
 21
216.5986510687
 31
0.0
  0
CIRCLE
  5
525
330
1F
100
AcDbEntity
  8
0
  6
Continuous
 62
     7
370
    15
100
AcDbCircle
 10
118.3074275729
 20
214.8475470536
 30
0.0
 40
0.4900001925437752
  0
CIRCLE
  5
526
330
1F
100
AcDbEntity
  8
0
  6
Continuous
 62
     7
370
    15
100
AcDbCircle
 10
118.307427221
 20
214.8475467229
 30
0.0
 40
0.5400000000000205
  0
CIRCLE
  5
527
330
1F
100
AcDbEntity
  8
0
  6
Continuous
 62
     7
370
    15
100
AcDbCircle
 10
118.307427221
 20
214.8475467229
 30
0.0
 40
1.142914367524568
  0
CIRCLE
  5
528
330
1F
100
AcDbEntity
  8
0
  6
Continuous
 62
     7
370
    15
100
AcDbCircle
 10
118.307427221
 20
214.8475467229
 30
0.0
 40
1.310000000000016
  0
CIRCLE
  5
529
330
1F
100
AcDbEntity
  8
0
  6
Continuous
 62
     7
370
    15
100
AcDbCircle
 10
129.3074273426
 20
214.8475468035
 30
0.0
 40
0.490000114933212
  0
CIRCLE
  5
52A
330
1F
100
AcDbEntity
  8
0
  6
Continuous
 62
     7
370
    15
100
AcDbCircle
 10
129.307427221
 20
214.8475467229
 30
0.0
 40
0.5400000000000205
  0
CIRCLE
  5
52B
330
1F
100
AcDbEntity
  8
0
  6
Continuous
 62
     7
370
    15
100
AcDbCircle
 10
129.307427221
 20
214.8475467229
 30
0.0
 40
1.142914367524554
  0
CIRCLE
  5
52C
330
1F
100
AcDbEntity
  8
0
  6
Continuous
 62
     7
370
    15
100
AcDbCircle
 10
129.307427221
 20
214.8475467229
 30
0.0
 40
1.310000000000002
  0
LINE
  5
52D
330
1F
100
AcDbEntity
  8
0
  6
Continuous
 62
     7
370
    15
100
AcDbLine
 10
144.0274277464
 20
220.9325465136
 30
0.0
 11
144.0274277464
 21
220.98254736
 31
0.0
  0
LINE
  5
52E
330
1F
100
AcDbEntity
  8
0
  6
Continuous
 62
     7
370
    15
100
AcDbLine
 10
144.0274277464
 20
233.2113141888
 30
0.0
 11
144.0274277464
 21
233.2170559787
 31
0.0
  0
LINE
  5
52F
330
1F
100
AcDbEntity
  8
0
  6
Continuous
 62
     7
370
    15
100
AcDbLine
 10
144.1474267974
 20
220.9325465136
 30
0.0
 11
144.1474267974
 21
220.98254736
 31
0.0
  0
LINE
  5
530
330
1F
100
AcDbEntity
  8
0
  6
Continuous
 62
     7
370
    15
100
AcDbLine
 10
144.1474267974
 20
233.2113141888
 30
0.0
 11
144.1474267974
 21
233.2170559787
 31
0.0
  0
LINE
  5
531
330
1F
100
AcDbEntity
  8
0
  6
Continuous
 62
     7
370
    15
100
AcDbLine
 10
141.9974276558
 20
220.9325465136
 30
0.0
 11
141.9974276558
 21
220.98254736
 31
0.0
  0
LINE
  5
532
330
1F
100
AcDbEntity
  8
0
  6
Continuous
 62
     7
370
    15
100
AcDbLine
 10
141.9974276558
 20
233.2113141888
 30
0.0
 11
141.9974276558
 21
233.2170559787
 31
0.0
  0
LINE
  5
533
330
1F
100
AcDbEntity
  8
0
  6
Continuous
 62
     7
370
    15
100
AcDbLine
 10
90.8274257317
 20
220.9325465136
 30
0.0
 11
90.8274257317
 21
220.98254736
 31
0.0
  0
LINE
  5
534
330
1F
100
AcDbEntity
  8
0
  6
Continuous
 62
     7
370
    15
100
AcDbLine
 10
90.8274257317
 20
233.2113141888
 30
0.0
 11
90.8274257317
 21
233.2170559787
 31
0.0
  0
LINE
  5
535
330
1F
100
AcDbEntity
  8
0
  6
Continuous
 62
     7
370
    15
100
AcDbLine
 10
90.7074266806
 20
220.9325465136
 30
0.0
 11
90.7074266806
 21
220.98254736
 31
0.0
  0
LINE
  5
536
330
1F
100
AcDbEntity
  8
0
  6
Continuous
 62
     7
370
    15
100
AcDbLine
 10
90.7074266806
 20
233.2113141888
 30
0.0
 11
90.7074266806
 21
233.2170559787
 31
0.0
  0
LINE
  5
537
330
1F
100
AcDbEntity
  8
0
  6
Continuous
 62
     7
370
    15
100
AcDbLine
 10
92.8574258223
 20
233.2170559787
 30
0.0
 11
92.8574258223
 21
233.2113141888
 31
0.0
  0
LINE
  5
538
330
1F
100
AcDbEntity
  8
0
  6
Continuous
 62
     7
370
    15
100
AcDbLine
 10
92.8574258223
 20
220.98254736
 30
0.0
 11
92.8574258223
 21
220.9325465136
 31
0.0
  0
LINE
  5
539
330
1F
100
AcDbEntity
  8
0
  6
Continuous
 62
     7
370
    15
100
AcDbLine
 10
91.3324260846
 20
230.760934087
 30
0.0
 11
91.3324260846
 21
230.8072867566
 31
0.0
  0
ARC
  5
53A
330
1F
100
AcDbEntity
  8
0
  6
Continuous
 62
     7
370
    15
100
AcDbCircle
 10
92.3085540263
 20
230.8323889526
 30
0.0
 40
0.976450653589257
100
AcDbArc
 50
181.473098868
 51
271.4010135763
  0
LINE
  5
53B
330
1F
100
AcDbEntity
  8
0
  6
Continuous
 62
     7
370
    15
100
AcDbLine
 10
92.3324281111
 20
229.8562302016
 30
0.0
 11
92.3324281111
 21
229.8098775321
 31
0.0
  0
ARC
  5
53C
330
1F
100
AcDbEntity
  8
0
  6
Continuous
 62
     7
370
    15
100
AcDbCircle
 10
92.3085540263
 20
230.786036283
 30
0.0
 40
0.9764506535893395
100
AcDbArc
 50
181.473098868
 51
271.4010135763
  0
LINE
  5
53D
330
1F
100
AcDbEntity
  8
0
  6
Continuous
 62
     7
370
    15
100
AcDbLine
 10
108.3324277535
 20
231.4730263077
 30
0.0
 11
91.3324260846
 21
231.4730263077
 31
0.0
  0
LINE
  5
53E
330
1F
100
AcDbEntity
  8
0
  6
Continuous
 62
     7
370
    15
100
AcDbLine
 10
108.3324277535
 20
231.4730263077
 30
0.0
 11
108.3324277535
 21
230.8072867566
 31
0.0
  0
ARC
  5
53F
330
1F
100
AcDbEntity
  8
0
  6
Continuous
 62
     7
370
    15
100
AcDbCircle
 10
107.3562998712
 20
230.8323889274
 30
0.0
 40
0.9764505935098293
100
AcDbArc
 50
268.5990703105
 51
358.5269025151
  0
LINE
  5
540
330
1F
100
AcDbEntity
  8
0
  6
Continuous
 62
     7
370
    15
100
AcDbLine
 10
107.3324272171
 20
229.8562302016
 30
0.0
 11
92.3324281111
 21
229.8562302016
 31
0.0
  0
LINE
  5
541
330
1F
100
AcDbEntity
  8
0
  6
Continuous
 62
     7
370
    15
100
AcDbLine
 10
91.3324260846
 20
231.4730263077
 30
0.0
 11
91.3324260846
 21
230.8072867566
 31
0.0
  0
LINE
  5
542
330
1F
100
AcDbEntity
  8
0
  6
Continuous
 62
     7
370
    15
100
AcDbLine
 10
107.3324272171
 20
229.8098775321
 30
0.0
 11
107.3324272171
 21
229.8562302016
 31
0.0
  0
LINE
  5
543
330
1F
100
AcDbEntity
  8
0
  6
Continuous
 62
     7
370
    15
100
AcDbLine
 10
107.3324272171
 20
229.8098775321
 30
0.0
 11
92.3324281111
 21
229.8098775321
 31
0.0
  0
LINE
  5
544
330
1F
100
AcDbEntity
  8
0
  6
Continuous
 62
     7
370
    15
100
AcDbLine
 10
108.3324277535
 20
230.8072867566
 30
0.0
 11
108.3324277535
 21
230.760934087
 31
0.0
  0
ARC
  5
545
330
1F
100
AcDbEntity
  8
0
  6
Continuous
 62
     7
370
    15
100
AcDbCircle
 10
107.3562998712
 20
230.7860362578
 30
0.0
 40
0.9764505935098962
100
AcDbArc
 50
268.5990703105
 51
358.5269025151
  0
LINE
  5
546
330
1F
100
AcDbEntity
  8
0
  6
Continuous
 62
     7
370
    15
100
AcDbLine
 10
108.3324277535
 20
233.165934565
 30
0.0
 11
108.3324277535
 21
231.4730263077
 31
0.0
  0
LINE
  5
547
330
1F
100
AcDbEntity
  8
0
  6
Continuous
 62
     7
370
    15
100
AcDbLine
 10
91.3324260846
 20
233.165934565
 30
0.0
 11
91.3324260846
 21
231.4730263077
 31
0.0
  0
LINE
  5
548
330
1F
100
AcDbEntity
  8
0
  6
Continuous
 62
     7
370
    15
100
AcDbLine
 10
108.3324277535
 20
226.5360872024
 30
0.0
 11
108.3324277535
 21
230.760934087
 31
0.0
  0
ARC
  5
549
330
1F
100
AcDbEntity
  8
0
  6
Continuous
 62
     7
370
    15
100
AcDbCircle
 10
107.8443625122
 20
226.5486390626
 30
0.0
 40
0.4882266163661438
100
AcDbArc
 50
268.5991392567
 51
358.5268155425
  0
LINE
  5
54A
330
1F
100
AcDbEntity
  8
0
  6
Continuous
 62
     7
370
    15
100
AcDbLine
 10
107.8324267402
 20
226.0605583661
 30
0.0
 11
91.832428588
 21
226.0605583661
 31
0.0
  0
ARC
  5
54B
330
1F
100
AcDbEntity
  8
0
  6
Continuous
 62
     7
370
    15
100
AcDbCircle
 10
91.8204928069
 20
226.5486405825
 30
0.0
 40
0.4882281360044696
100
AcDbArc
 50
181.4733582938
 51
271.4008574463
  0
LINE
  5
54C
330
1F
100
AcDbEntity
  8
0
  6
Continuous
 62
     7
370
    15
100
AcDbLine
 10
91.3324260846
 20
226.5360872024
 30
0.0
 11
91.3324260846
 21
230.760934087
 31
0.0
  0
LINE
  5
54D
330
1F
100
AcDbEntity
  8
0
  6
Continuous
 62
     7
370
    15
100
AcDbLine
 10
91.3324260846
 20
226.4897341602
 30
0.0
 11
91.3324260846
 21
226.5360872024
 31
0.0
  0
LINE
  5
54E
330
1F
100
AcDbEntity
  8
0
  6
Continuous
 62
     7
370
    15
100
AcDbLine
 10
91.832428588
 20
226.0605583661
 30
0.0
 11
91.832428588
 21
226.014206069
 31
0.0
  0
ARC
  5
54F
330
1F
100
AcDbEntity
  8
0
  6
Continuous
 62
     7
370
    15
100
AcDbCircle
 10
91.8204913538
 20
226.5022867772
 30
0.0
 40
0.4882266638130134
100
AcDbArc
 50
181.4732731533
 51
271.4010322449
  0
LINE
  5
550
330
1F
100
AcDbEntity
  8
0
  6
Continuous
 62
     7
370
    15
100
AcDbLine
 10
107.8324267402
 20
226.014206069
 30
0.0
 11
107.8324267402
 21
226.0605583661
 31
0.0
  0
LINE
  5
551
330
1F
100
AcDbEntity
  8
0
  6
Continuous
 62
     7
370
    15
100
AcDbLine
 10
107.8324267402
 20
226.014206069
 30
0.0
 11
91.832428588
 21
226.014206069
 31
0.0
  0
LINE
  5
552
330
1F
100
AcDbEntity
  8
0
  6
Continuous
 62
     7
370
    15
100
AcDbLine
 10
108.3324277535
 20
226.5360872024
 30
0.0
 11
108.3324277535
 21
226.4897341602
 31
0.0
  0
ARC
  5
553
330
1F
100
AcDbEntity
  8
0
  6
Continuous
 62
     7
370
    15
100
AcDbCircle
 10
107.8443639653
 20
226.5022852574
 30
0.0
 40
0.4882251441825554
100
AcDbArc
 50
268.5989644583
 51
358.5269006829
  0
ARC
  5
554
330
1F
100
AcDbEntity
  8
0
  6
Continuous
 62
     7
370
    15
100
AcDbCircle
 10
145.179452737
 20
233.9683448387
 30
0.0
 40
0.497968307173611
100
AcDbArc
 50
265.1588175346
 51
303.9325128588
  0
ARC
  5
555
330
1F
100
AcDbEntity
  8
0
  6
Continuous
 62
     7
370
    15
100
AcDbCircle
 10
145.0954038669
 20
233.9683536055
 30
0.0
 40
0.4979768507222744
100
AcDbArc
 50
236.0678330547
 51
274.8408365518
  0
LWPOLYLINE
  5
556
330
1F
100
AcDbEntity
  8
0
  6
Continuous
 62
     7
370
    15
100
AcDbPolyline
 90
        6
 70
   128
 43
0.0
 10
145.1374271646
 20
233.5100342282
 10
145.235011889
 20
233.5177740776
 10
145.3177401558
 20
233.5398158752
 10
145.3730160132
 20
233.5728035071
 10
145.3924277559
 20
233.6117150956
 10
145.3803891078
 20
233.6425880664
  0
LWPOLYLINE
  5
557
330
1F
100
AcDbEntity
  8
0
  6
Continuous
 62
     7
370
    15
100
AcDbPolyline
 90
        6
 70
   128
 43
0.0
 10
144.8950255051
 20
233.6432813429
 10
144.8824265733
 20
233.6117150956
 10
144.901838316
 20
233.5728035071
 10
144.9571156636
 20
233.5398158752
 10
145.0398424402
 20
233.5177740776
 10
145.1374271646
 20
233.5100342282
  0
ARC
  5
558
330
1F
100
AcDbEntity
  8
0
  6
Continuous
 62
     7
370
    15
100
AcDbCircle
 10
145.1544304979
 20
234.084052839
 30
0.0
 40
0.4551186744002961
100
AcDbArc
 50
267.8589188571
 51
292.2551711574
  0
ARC
  5
559
330
1F
100
AcDbEntity
  8
0
  6
Continuous
 62
     7
370
    15
100
AcDbCircle
 10
145.1204332205
 20
234.0841057792
 30
0.0
 40
0.4551712270335548
100
AcDbArc
 50
247.7462588669
 51
272.1396511186
  0
ARC
  5
55A
330
1F
100
AcDbEntity
  8
0
  6
Continuous
 62
     7
370
    15
100
AcDbCircle
 10
145.1507902345
 20
234.031737135
 30
0.0
 40
0.3857698488768317
100
AcDbArc
 50
268.014876712
 51
291.2011258484
  0
ARC
  5
55B
330
1F
100
AcDbEntity
  8
0
  6
Continuous
 62
     7
370
    15
100
AcDbCircle
 10
145.1240640947
 20
234.031737135
 30
0.0
 40
0.3857698488770014
100
AcDbArc
 50
248.7988741516
 51
271.985123288
  0
ARC
  5
55C
330
1F
100
AcDbEntity
  8
0
  6
Continuous
 62
     7
370
    15
100
AcDbCircle
 10
89.7794508002
 20
233.9683503276
 30
0.0
 40
0.4979736563462437
100
AcDbArc
 50
265.1590341149
 51
303.9322962786
  0
ARC
  5
55D
330
1F
100
AcDbEntity
  8
0
  6
Continuous
 62
     7
370
    15
100
AcDbCircle
 10
89.6954042048
 20
233.9683568834
 30
0.0
 40
0.4979800451667384
100
AcDbArc
 50
236.0679623891
 51
274.8407072175
  0
LWPOLYLINE
  5
55E
330
1F
100
AcDbEntity
  8
0
  6
Continuous
 62
     7
370
    15
100
AcDbPolyline
 90
        6
 70
   128
 43
0.0
 10
89.737426652
 20
233.5100342282
 10
89.8350113764
 20
233.5177740776
 10
89.9177396432
 20
233.5398158752
 10
89.9730169907
 20
233.5728035071
 10
89.9924272433
 20
233.6117150956
 10
89.9803900853
 20
233.6425880664
  0
LWPOLYLINE
  5
55F
330
1F
100
AcDbEntity
  8
0
  6
Continuous
 62
     7
370
    15
100
AcDbPolyline
 90
        6
 70
   128
 43
0.0
 10
89.4950264826
 20
233.6432813429
 10
89.4824260607
 20
233.6117150956
 10
89.5018392935
 20
233.5728035071
 10
89.5571136609
 20
233.5398158752
 10
89.6398419276
 20
233.5177740776
 10
89.737426652
 20
233.5100342282
  0
ARC
  5
560
330
1F
100
AcDbEntity
  8
0
  6
Continuous
 62
     7
370
    15
100
AcDbCircle
 10
89.754420605
 20
234.0841133777
 30
0.0
 40
0.4551788204987968
100
AcDbArc
 50
267.8603834853
 51
292.2535514887
  0
ARC
  5
561
330
1F
100
AcDbEntity
  8
0
  6
Continuous
 62
     7
370
    15
100
AcDbCircle
 10
89.7204139403
 20
234.0839923124
 30
0.0
 40
0.4550585405240358
100
AcDbArc
 50
247.7432090886
 51
272.1425458539
  0
ARC
  5
562
330
1F
100
AcDbEntity
  8
0
  6
Continuous
 62
     7
370
    15
100
AcDbCircle
 10
89.7507909916
 20
234.0317296345
 30
0.0
 40
0.3857623968631022
100
AcDbArc
 50
268.0146496532
 51
291.2013529073
  0
ARC
  5
563
330
1F
100
AcDbEntity
  8
0
  6
Continuous
 62
     7
370
    15
100
AcDbCircle
 10
89.7240648519
 20
234.0317446359
 30
0.0
 40
0.3857773012598726
100
AcDbArc
 50
248.7991012128
 51
271.9848962268
  0
LINE
  5
564
330
1F
100
AcDbEntity
  8
0
  6
Continuous
 62
     7
370
    15
100
AcDbLine
 10
147.4374273553
 20
220.98254736
 30
0.0
 11
147.4374273553
 21
220.7275467687
 31
0.0
  0
LINE
  5
565
330
1F
100
AcDbEntity
  8
0
  6
Continuous
 62
     7
370
    15
100
AcDbLine
 10
147.4374273553
 20
208.6075472408
 30
0.0
 11
147.4374273553
 21
208.5963147455
 31
0.0
  0
LINE
  5
566
330
1F
100
AcDbEntity
  8
0
  6
Continuous
 62
     7
370
    15
100
AcDbLine
 10
147.2324276105
 20
208.4720211797
 30
0.0
 11
147.2755068675
 21
208.4890859895
 31
0.0
  0
LINE
  5
567
330
1F
100
AcDbEntity
  8
0
  6
Continuous
 62
     7
370
    15
100
AcDbLine
 10
147.4310675398
 20
208.5836487585
 30
0.0
 11
147.4374273553
 21
208.5963147455
 31
0.0
  0
LINE
  5
568
330
1F
100
AcDbEntity
  8
0
  6
Continuous
 62
     7
370
    15
100
AcDbLine
 10
146.3574269548
 20
220.9325465136
 30
0.0
 11
146.3574269548
 21
220.98254736
 31
0.0
  0
LINE
  5
569
330
1F
100
AcDbEntity
  8
0
  6
Continuous
 62
     7
370
    15
100
AcDbLine
 10
146.3574269548
 20
233.2113141888
 30
0.0
 11
146.3574269548
 21
233.2170559787
 31
0.0
  0
ARC
  5
56A
330
1F
100
AcDbEntity
  8
0
  6
Continuous
 62
     7
370
    15
100
AcDbCircle
 10
147.2324253346
 20
208.5963155312
 30
0.0
 40
0.2050020207568929
100
AcDbArc
 50
270.0006360784
 51
359.9997803955
  0
LINE
  5
56B
330
1F
100
AcDbEntity
  8
0
  6
Continuous
 62
     7
370
    15
100
AcDbLine
 10
147.2324276105
 20
208.3913135105
 30
0.0
 11
146.3574269548
 21
208.3913135105
 31
0.0
  0
LINE
  5
56C
330
1F
100
AcDbEntity
  8
0
  6
Continuous
 62
     7
370
    15
100
AcDbLine
 10
145.8574274316
 20
208.3913135105
 30
0.0
 11
145.8574274316
 21
208.4025460058
 31
0.0
  0
LINE
  5
56D
330
1F
100
AcDbEntity
  8
0
  6
Continuous
 62
     7
370
    15
100
AcDbLine
 10
146.3574269548
 20
208.3913135105
 30
0.0
 11
145.8574274316
 21
208.3913135105
 31
0.0
  0
LINE
  5
56E
330
1F
100
AcDbEntity
  8
0
  6
Continuous
 62
     7
370
    15
100
AcDbLine
 10
88.5174268618
 20
233.2113141888
 30
0.0
 11
88.5174268618
 21
233.2170559787
 31
0.0
  0
LINE
  5
56F
330
1F
100
AcDbEntity
  8
0
  6
Continuous
 62
     7
370
    15
100
AcDbLine
 10
88.5174268618
 20
220.9325465136
 30
0.0
 11
88.5174268618
 21
220.98254736
 31
0.0
  0
LINE
  5
570
330
1F
100
AcDbEntity
  8
0
  6
Continuous
 62
     7
370
    15
100
AcDbLine
 10
87.6424276963
 20
208.4720211797
 30
0.0
 11
87.5982874766
 21
208.4895062023
 31
0.0
  0
LINE
  5
571
330
1F
100
AcDbEntity
  8
0
  6
Continuous
 62
     7
370
    15
100
AcDbLine
 10
87.4448949233
 20
208.5814404064
 30
0.0
 11
87.4374264613
 21
208.5963147455
 31
0.0
  0
LINE
  5
572
330
1F
100
AcDbEntity
  8
0
  6
Continuous
 62
     7
370
    15
100
AcDbLine
 10
87.4374264613
 20
208.5963147455
 30
0.0
 11
87.4374264613
 21
208.6075472408
 31
0.0
  0
LINE
  5
573
330
1F
100
AcDbEntity
  8
0
  6
Continuous
 62
     7
370
    15
100
AcDbLine
 10
87.4374264613
 20
220.7275467687
 30
0.0
 11
87.4374264613
 21
220.98254736
 31
0.0
  0
ARC
  5
574
330
1F
100
AcDbEntity
  8
0
  6
Continuous
 62
     7
370
    15
100
AcDbCircle
 10
87.6424299398
 20
208.596316989
 30
0.0
 40
0.2050034785015078
100
AcDbArc
 50
180.0006270235
 51
269.9993729765
  0
LINE
  5
575
330
1F
100
AcDbEntity
  8
0
  6
Continuous
 62
     7
370
    15
100
AcDbLine
 10
87.6424276963
 20
208.3913135105
 30
0.0
 11
88.5174268618
 21
208.3913135105
 31
0.0
  0
LINE
  5
576
330
1F
100
AcDbEntity
  8
0
  6
Continuous
 62
     7
370
    15
100
AcDbLine
 10
89.017426385
 20
208.4025460058
 30
0.0
 11
89.017426385
 21
208.3913135105
 31
0.0
  0
LINE
  5
577
330
1F
100
AcDbEntity
  8
0
  6
Continuous
 62
     7
370
    15
100
AcDbLine
 10
89.017426385
 20
208.3913135105
 30
0.0
 11
88.5174268618
 21
208.3913135105
 31
0.0
  0
LINE
  5
578
330
1F
100
AcDbEntity
  8
0
  6
Continuous
 62
     7
370
    15
100
AcDbLine
 10
147.4374273553
 20
238.6613142439
 30
0.0
 11
147.3174268141
 21
238.6613142439
 31
0.0
  0
LINE
  5
579
330
1F
100
AcDbEntity
  8
0
  6
Continuous
 62
     7
370
    15
100
AcDbLine
 10
147.4374273553
 20
234.3613011525
 30
0.0
 11
147.3174268141
 21
234.3613011525
 31
0.0
  0
LINE
  5
57A
330
1F
100
AcDbEntity
  8
0
  6
Continuous
 62
     7
370
    15
100
AcDbLine
 10
147.4374273553
 20
234.3613011525
 30
0.0
 11
147.4374273553
 21
238.6613142439
 31
0.0
  0
LINE
  5
57B
330
1F
100
AcDbEntity
  8
0
  6
Continuous
 62
     7
370
    15
100
AcDbLine
 10
147.4374273553
 20
233.2113141888
 30
0.0
 11
147.3174268141
 21
233.2113141888
 31
0.0
  0
LINE
  5
57C
330
1F
100
AcDbEntity
  8
0
  6
Continuous
 62
     7
370
    15
100
AcDbLine
 10
147.3174268141
 20
233.2113141888
 30
0.0
 11
147.3174268141
 21
233.2170559787
 31
0.0
  0
LINE
  5
57D
330
1F
100
AcDbEntity
  8
0
  6
Continuous
 62
     7
370
    15
100
AcDbLine
 10
147.4374273553
 20
233.2113141888
 30
0.0
 11
147.4374273553
 21
234.3613011525
 31
0.0
  0
LINE
  5
57E
330
1F
100
AcDbEntity
  8
0
  6
Continuous
 62
     7
370
    15
100
AcDbLine
 10
87.5574284926
 20
238.6613142439
 30
0.0
 11
87.4374264613
 21
238.6613142439
 31
0.0
  0
LINE
  5
57F
330
1F
100
AcDbEntity
  8
0
  6
Continuous
 62
     7
370
    15
100
AcDbLine
 10
87.5574284926
 20
234.3613011525
 30
0.0
 11
87.4374264613
 21
234.3613011525
 31
0.0
  0
LINE
  5
580
330
1F
100
AcDbEntity
  8
0
  6
Continuous
 62
     7
370
    15
100
AcDbLine
 10
87.4374264613
 20
234.3613011525
 30
0.0
 11
87.4374264613
 21
238.6613142439
 31
0.0
  0
LINE
  5
581
330
1F
100
AcDbEntity
  8
0
  6
Continuous
 62
     7
370
    15
100
AcDbLine
 10
87.5574284926
 20
233.2113141888
 30
0.0
 11
87.4374264613
 21
233.2113141888
 31
0.0
  0
LINE
  5
582
330
1F
100
AcDbEntity
  8
0
  6
Continuous
 62
     7
370
    15
100
AcDbLine
 10
87.5574284926
 20
233.2113141888
 30
0.0
 11
87.5574284926
 21
233.2170559787
 31
0.0
  0
LINE
  5
583
330
1F
100
AcDbEntity
  8
0
  6
Continuous
 62
     7
370
    15
100
AcDbLine
 10
87.4374264613
 20
233.2113141888
 30
0.0
 11
87.4374264613
 21
234.3613011525
 31
0.0
  0
LINE
  5
584
330
1F
100
AcDbEntity
  8
0
  6
Continuous
 62
     7
370
    15
100
AcDbLine
 10
145.1874265209
 20
208.1713127666
 30
0.0
 11
145.1874265209
 21
170.8713131719
 31
0.0
  0
LINE
  5
585
330
1F
100
AcDbEntity
  8
0
  6
Continuous
 62
     7
370
    15
100
AcDbLine
 10
145.3374275699
 20
208.1713127666
 30
0.0
 11
145.3374275699
 21
170.8713131719
 31
0.0
  0
LINE
  5
586
330
1F
100
AcDbEntity
  8
0
  6
Continuous
 62
     7
370
    15
100
AcDbLine
 10
145.2374273673
 20
208.1713127666
 30
0.0
 11
145.3374275699
 21
208.1713127666
 31
0.0
  0
LINE
  5
587
330
1F
100
AcDbEntity
  8
0
  6
Continuous
 62
     7
370
    15
100
AcDbLine
 10
141.4874279633
 20
208.1713127666
 30
0.0
 11
141.4874279633
 21
170.8713131719
 31
0.0
  0
LINE
  5
588
330
1F
100
AcDbEntity
  8
0
  6
Continuous
 62
     7
370
    15
100
AcDbLine
 10
141.3374269143
 20
208.1713127666
 30
0.0
 11
141.3374269143
 21
170.8713131719
 31
0.0
  0
LINE
  5
589
330
1F
100
AcDbEntity
  8
0
  6
Continuous
 62
     7
370
    15
100
AcDbLine
 10
141.3374269143
 20
208.1713127666
 30
0.0
 11
141.4374271169
 21
208.1713127666
 31
0.0
  0
LINE
  5
58A
330
1F
100
AcDbEntity
  8
0
  6
Continuous
 62
     7
370
    15
100
AcDbLine
 10
93.3874273434
 20
208.1713127666
 30
0.0
 11
93.3874273434
 21
170.8713131719
 31
0.0
  0
LINE
  5
58B
330
1F
100
AcDbEntity
  8
0
  6
Continuous
 62
     7
370
    15
100
AcDbLine
 10
93.4374266997
 20
208.1713127666
 30
0.0
 11
93.5374283925
 21
208.1713127666
 31
0.0
  0
LINE
  5
58C
330
1F
100
AcDbEntity
  8
0
  6
Continuous
 62
     7
370
    15
100
AcDbLine
 10
93.5374283925
 20
208.1713127666
 30
0.0
 11
93.5374283925
 21
170.8713131719
 31
0.0
  0
LINE
  5
58D
330
1F
100
AcDbEntity
  8
0
  6
Continuous
 62
     7
370
    15
100
AcDbLine
 10
89.6874272957
 20
208.1713127666
 30
0.0
 11
89.6874272957
 21
170.8713131719
 31
0.0
  0
LINE
  5
58E
330
1F
100
AcDbEntity
  8
0
  6
Continuous
 62
     7
370
    15
100
AcDbLine
 10
89.5374262467
 20
208.1713127666
 30
0.0
 11
89.5374262467
 21
170.8713131719
 31
0.0
  0
LINE
  5
58F
330
1F
100
AcDbEntity
  8
0
  6
Continuous
 62
     7
370
    15
100
AcDbLine
 10
89.5374262467
 20
208.1713127666
 30
0.0
 11
89.6374279395
 21
208.1713127666
 31
0.0
  0
LINE
  5
590
330
1F
100
AcDbEntity
  8
0
  6
Continuous
 62
     7
370
    15
100
AcDbLine
 10
141.287427558
 20
173.3513134294
 30
0.0
 11
141.287427558
 21
174.3913131528
 31
0.0
  0
LINE
  5
591
330
1F
100
AcDbEntity
  8
0
  6
Continuous
 62
     7
370
    15
100
AcDbLine
 10
93.5874277487
 20
174.3913131528
 30
0.0
 11
93.5874277487
 21
173.3513134294
 31
0.0
  0
LINE
  5
592
330
1F
100
AcDbEntity
  8
0
  6
Continuous
 62
     7
370
    15
100
AcDbLine
 10
89.8874277011
 20
208.1713127666
 30
0.0
 11
93.1874269381
 21
208.1713127666
 31
0.0
  0
LINE
  5
593
330
1F
100
AcDbEntity
  8
0
  6
Continuous
 62
     7
370
    15
100
AcDbLine
 10
89.6374279395
 20
208.1713127666
 30
0.0
 11
89.6374279395
 21
208.4025460058
 31
0.0
  0
LINE
  5
594
330
1F
100
AcDbEntity
  8
0
  6
Continuous
 62
     7
370
    15
100
AcDbLine
 10
89.6374279395
 20
208.1713127666
 30
0.0
 11
89.8874277011
 21
208.1713127666
 31
0.0
  0
LINE
  5
595
330
1F
100
AcDbEntity
  8
0
  6
Continuous
 62
     7
370
    15
100
AcDbLine
 10
93.4374266997
 20
208.1713127666
 30
0.0
 11
93.4374266997
 21
208.4025460058
 31
0.0
  0
LINE
  5
596
330
1F
100
AcDbEntity
  8
0
  6
Continuous
 62
     7
370
    15
100
AcDbLine
 10
93.1874269381
 20
208.1713127666
 30
0.0
 11
93.4374266997
 21
208.1713127666
 31
0.0
  0
LINE
  5
597
330
1F
100
AcDbEntity
  8
0
  6
Continuous
 62
     7
370
    15
100
AcDbLine
 10
141.4374271169
 20
208.1713127666
 30
0.0
 11
141.4374271169
 21
208.4025460058
 31
0.0
  0
LINE
  5
598
330
1F
100
AcDbEntity
  8
0
  6
Continuous
 62
     7
370
    15
100
AcDbLine
 10
141.4374271169
 20
208.1713127666
 30
0.0
 11
141.6874268785
 21
208.1713127666
 31
0.0
  0
LINE
  5
599
330
1F
100
AcDbEntity
  8
0
  6
Continuous
 62
     7
370
    15
100
AcDbLine
 10
141.6874268785
 20
208.1713127666
 30
0.0
 11
144.9874276057
 21
208.1713127666
 31
0.0
  0
LINE
  5
59A
330
1F
100
AcDbEntity
  8
0
  6
Continuous
 62
     7
370
    15
100
AcDbLine
 10
145.2374273673
 20
208.1713127666
 30
0.0
 11
145.2374273673
 21
208.4025460058
 31
0.0
  0
LINE
  5
59B
330
1F
100
AcDbEntity
  8
0
  6
Continuous
 62
     7
370
    15
100
AcDbLine
 10
144.9874276057
 20
208.1713127666
 30
0.0
 11
145.2374273673
 21
208.1713127666
 31
0.0
  0
LINE
  5
59C
330
1F
100
AcDbEntity
  8
0
  6
Continuous
 62
     7
370
    15
100
AcDbLine
 10
100.7574284211
 20
198.2713150554
 30
0.0
 11
99.7174286976
 21
198.2713150554
 31
0.0
  0
LINE
  5
59D
330
1F
100
AcDbEntity
  8
0
  6
Continuous
 62
     7
370
    15
100
AcDbLine
 10
135.1574273542
 20
198.2713150554
 30
0.0
 11
134.1174272582
 21
198.2713150554
 31
0.0
  0
LINE
  5
59E
330
1F
100
AcDbEntity
  8
0
  6
Continuous
 62
     8
370
    15
100
AcDbLine
 10
136.437427415
 20
208.3513128334
 30
0.0
 11
136.437427415
 21
208.4025460058
 31
0.0
  0
LINE
  5
59F
330
1F
100
AcDbEntity
  8
0
  6
Continuous
 62
     8
370
    15
100
AcDbLine
 10
98.4374278918
 20
208.3513128334
 30
0.0
 11
98.4374278918
 21
208.4025460058
 31
0.0
  0
LINE
  5
5A0
330
1F
100
AcDbEntity
  8
0
  6
Continuous
 62
     8
370
    15
100
AcDbLine
 10
95.9374272957
 20
208.3513128334
 30
0.0
 11
95.9374272957
 21
208.4025460058
 31
0.0
  0
LINE
  5
5A1
330
1F
100
AcDbEntity
  8
0
  6
Continuous
 62
     8
370
    15
100
AcDbLine
 10
138.9374272659
 20
208.3513128334
 30
0.0
 11
138.9374272659
 21
208.4025460058
 31
0.0
  0
LINE
  5
5A2
330
1F
100
AcDbEntity
  8
0
  6
Continuous
 62
     8
370
    15
100
AcDbLine
 10
144.3374270335
 20
233.0696626329
 30
0.0
 11
108.3324277535
 21
233.0696626329
 31
0.0
  0
LINE
  5
5A3
330
1F
100
AcDbEntity
  8
0
  6
Continuous
 62
     8
370
    15
100
AcDbLine
 10
91.3324260846
 20
233.0696626329
 30
0.0
 11
90.5374282733
 21
233.0696626329
 31
0.0
  0
LINE
  5
5A4
330
1F
100
AcDbEntity
  8
0
  6
Continuous
 62
     8
370
    15
100
AcDbLine
 10
126.9324272633
 20
227.4950931542
 30
0.0
 11
126.9324272633
 21
227.6367443376
 31
0.0
  0
LINE
  5
5A5
330
1F
100
AcDbEntity
  8
0
  6
Continuous
 62
     8
370
    15
100
AcDbLine
 10
122.5324271008
 20
227.6367443376
 30
0.0
 11
122.5324271008
 21
227.4950931542
 31
0.0
  0
LINE
  5
5A6
330
1F
100
AcDbEntity
  8
0
  6
Continuous
 62
     8
370
    15
100
AcDbLine
 10
111.0324272647
 20
227.6367443376
 30
0.0
 11
111.0324272647
 21
227.4950931542
 31
0.0
  0
LINE
  5
5A7
330
1F
100
AcDbEntity
  8
0
  6
Continuous
 62
     8
370
    15
100
AcDbLine
 10
115.4324272409
 20
227.4950931542
 30
0.0
 11
115.4324272409
 21
227.6367443376
 31
0.0
  0
LINE
  5
5A8
330
1F
100
AcDbEntity
  8
0
  6
Continuous
 62
     8
370
    15
100
AcDbLine
 10
87.8874266282
 20
239.4313140535
 30
0.0
 11
87.8874266282
 21
254.5713144117
 31
0.0
  0
LINE
  5
5A9
330
1F
100
AcDbEntity
  8
0
  6
Continuous
 62
     8
370
    15
100
AcDbLine
 10
146.9874271885
 20
254.5713144117
 30
0.0
 11
146.9874271885
 21
239.4313140535
 31
0.0
  0
LINE
  5
5AA
330
1F
100
AcDbEntity
  8
0
  6
Continuous
 62
     8
370
    15
100
AcDbLine
 10
87.6424276963
 20
208.483253675
 30
0.0
 11
87.6424276963
 21
208.6075472408
 31
0.0
  0
LINE
  5
5AB
330
1F
100
AcDbEntity
  8
0
  6
Continuous
 62
     8
370
    15
100
AcDbLine
 10
87.6424276963
 20
220.7275467687
 30
0.0
 11
87.6424276963
 21
220.8518403345
 31
0.0
  0
LINE
  5
5AC
330
1F
100
AcDbEntity
  8
0
  6
Continuous
 62
     8
370
    15
100
AcDbLine
 10
147.2324276105
 20
220.8518403345
 30
0.0
 11
147.2324276105
 21
220.7275467687
 31
0.0
  0
LINE
  5
5AD
330
1F
100
AcDbEntity
  8
0
  6
Continuous
 62
     8
370
    15
100
AcDbLine
 10
147.2324276105
 20
208.6075472408
 30
0.0
 11
147.2324276105
 21
208.483253675
 31
0.0
  0
LINE
  5
5AE
330
1F
100
AcDbEntity
  8
0
  6
Continuous
 62
     8
370
    15
100
AcDbLine
 10
146.5374270216
 20
238.8001701557
 30
0.0
 11
146.5374270216
 21
238.6913141929
 31
0.0
  0
LINE
  5
5AF
330
1F
100
AcDbEntity
  8
0
  6
Continuous
 62
     8
370
    15
100
AcDbLine
 10
88.3374267951
 20
238.8001701557
 30
0.0
 11
88.3374267951
 21
238.6913141929
 31
0.0
  0
LINE
  5
5B0
330
1F
100
AcDbEntity
  8
0
  6
Continuous
 62
     8
370
    15
100
AcDbLine
 10
87.8374272719
 20
238.7663143449
 30
0.0
 11
87.8721052542
 21
238.7663143449
 31
0.0
  0
LINE
  5
5B1
330
1F
100
AcDbEntity
  8
0
  6
Continuous
 62
     8
370
    15
100
AcDbLine
 10
147.0027485624
 20
238.7663143449
 30
0.0
 11
147.0374265447
 21
238.7663143449
 31
0.0
  0
LINE
  5
5B2
330
1F
100
AcDbEntity
  8
0
  6
Continuous
 62
     8
370
    15
100
AcDbLine
 10
147.2324276105
 20
254.5528727346
 30
0.0
 11
147.2324276105
 21
255.2529963427
 31
0.0
  0
LINE
  5
5B3
330
1F
100
AcDbEntity
  8
0
  6
Continuous
 62
     8
370
    15
100
AcDbLine
 10
147.3574274912
 20
255.3029971891
 30
0.0
 11
146.9874271885
 21
255.3029971891
 31
0.0
  0
LINE
  5
5B4
330
1F
100
AcDbEntity
  8
0
  6
Continuous
 62
     8
370
    15
100
AcDbLine
 10
87.8874266282
 20
255.3029971891
 30
0.0
 11
87.5174278155
 21
255.3029971891
 31
0.0
  0
LINE
  5
5B5
330
1F
100
AcDbEntity
  8
0
  6
Continuous
 62
     8
370
    15
100
AcDbLine
 10
87.6424276963
 20
255.2529963427
 30
0.0
 11
87.6424276963
 21
254.5528727346
 31
0.0
  0
LINE
  5
5B6
330
1F
100
AcDbEntity
  8
0
  6
Continuous
 62
     8
370
    15
100
AcDbLine
 10
87.6424276963
 20
255.2529963427
 30
0.0
 11
87.6424276963
 21
255.2929970198
 31
0.0
  0
LINE
  5
5B7
330
1F
100
AcDbEntity
  8
0
  6
Continuous
 62
     8
370
    15
100
AcDbLine
 10
147.2324276105
 20
255.2929970198
 30
0.0
 11
147.2324276105
 21
255.2529963427
 31
0.0
  0
LINE
  5
5B8
330
1F
100
AcDbEntity
  8
0
  6
Continuous
 62
     8
370
    15
100
AcDbLine
 10
97.8874260321
 20
149.9413150125
 30
0.0
 11
92.1874278918
 21
149.9413150125
 31
0.0
  0
LINE
  5
5B9
330
1F
100
AcDbEntity
  8
0
  6
Continuous
 62
     8
370
    15
100
AcDbLine
 10
142.687427415
 20
149.9413150125
 30
0.0
 11
136.9874270394
 21
149.9413150125
 31
0.0
  0
LINE
  5
5BA
330
1F
100
AcDbEntity
  8
0
  6
Continuous
 62
     8
370
    15
100
AcDbLine
 10
98.2274258271
 20
166.3913148218
 30
0.0
 11
91.8474280968
 21
166.3913148218
 31
0.0
  0
LINE
  5
5BB
330
1F
100
AcDbEntity
  8
0
  6
Continuous
 62
     8
370
    15
100
AcDbLine
 10
98.2210362092
 20
157.6673227125
 30
0.0
 11
91.8538177147
 21
157.6673227125
 31
0.0
  0
LINE
  5
5BC
330
1F
100
AcDbEntity
  8
0
  6
Continuous
 62
     8
370
    15
100
AcDbLine
 10
98.2274258271
 20
157.7445703321
 30
0.0
 11
91.8474280968
 21
157.7445703321
 31
0.0
  0
LINE
  5
5BD
330
1F
100
AcDbEntity
  8
0
  6
Continuous
 62
     8
370
    15
100
AcDbLine
 10
143.0274272099
 20
166.3913148218
 30
0.0
 11
136.6474272445
 21
166.3913148218
 31
0.0
  0
LINE
  5
5BE
330
1F
100
AcDbEntity
  8
0
  6
Continuous
 62
     8
370
    15
100
AcDbLine
 10
143.0210361019
 20
157.6673227125
 30
0.0
 11
136.6538183525
 21
157.6673227125
 31
0.0
  0
LINE
  5
5BF
330
1F
100
AcDbEntity
  8
0
  6
Continuous
 62
     8
370
    15
100
AcDbLine
 10
143.0274272099
 20
157.7445703321
 30
0.0
 11
136.6474272445
 21
157.7445703321
 31
0.0
  0
LINE
  5
5C0
330
1F
100
AcDbEntity
  8
0
  6
Continuous
 62
     8
370
    15
100
AcDbLine
 10
144.2724266782
 20
220.9325465136
 30
0.0
 11
144.2724266782
 21
220.98254736
 31
0.0
  0
LINE
  5
5C1
330
1F
100
AcDbEntity
  8
0
  6
Continuous
 62
     8
370
    15
100
AcDbLine
 10
144.2724266782
 20
233.2113141888
 30
0.0
 11
144.2724266782
 21
233.2170559787
 31
0.0
  0
LINE
  5
5C2
330
1F
100
AcDbEntity
  8
0
  6
Continuous
 62
     8
370
    15
100
AcDbLine
 10
90.5824267998
 20
233.2170559787
 30
0.0
 11
90.5824267998
 21
233.2113141888
 31
0.0
  0
LINE
  5
5C3
330
1F
100
AcDbEntity
  8
0
  6
Continuous
 62
     8
370
    15
100
AcDbLine
 10
90.5824267998
 20
220.98254736
 30
0.0
 11
90.5824267998
 21
220.9325465136
 31
0.0
  0
LINE
  5
5C4
330
1F
100
AcDbEntity
  8
0
  6
Continuous
 62
     8
370
    15
100
AcDbLine
 10
147.2324276105
 20
208.48254736
 30
0.0
 11
147.2324276105
 21
208.483253675
 31
0.0
  0
LINE
  5
5C5
330
1F
100
AcDbEntity
  8
0
  6
Continuous
 62
     8
370
    15
100
AcDbLine
 10
147.2324276105
 20
220.8518403345
 30
0.0
 11
147.2324276105
 21
220.8525466495
 31
0.0
  0
LINE
  5
5C6
330
1F
100
AcDbEntity
  8
0
  6
Continuous
 62
     8
370
    15
100
AcDbLine
 10
147.2324276105
 20
220.9325465136
 30
0.0
 11
147.2324276105
 21
220.98254736
 31
0.0
  0
LINE
  5
5C7
330
1F
100
AcDbEntity
  8
0
  6
Continuous
 62
     8
370
    15
100
AcDbLine
 10
147.2324276105
 20
233.2113141888
 30
0.0
 11
147.2324276105
 21
233.2170559787
 31
0.0
  0
LINE
  5
5C8
330
1F
100
AcDbEntity
  8
0
  6
Continuous
 62
     8
370
    15
100
AcDbLine
 10
146.3574269548
 20
208.4025460058
 30
0.0
 11
146.3574269548
 21
208.3913135105
 31
0.0
  0
LINE
  5
5C9
330
1F
100
AcDbEntity
  8
0
  6
Continuous
 62
     8
370
    15
100
AcDbLine
 10
87.6424276963
 20
208.48254736
 30
0.0
 11
87.6424276963
 21
208.483253675
 31
0.0
  0
LINE
  5
5CA
330
1F
100
AcDbEntity
  8
0
  6
Continuous
 62
     8
370
    15
100
AcDbLine
 10
87.6424276963
 20
220.8518403345
 30
0.0
 11
87.6424276963
 21
220.8525466495
 31
0.0
  0
LINE
  5
5CB
330
1F
100
AcDbEntity
  8
0
  6
Continuous
 62
     8
370
    15
100
AcDbLine
 10
87.6424276963
 20
220.9325465136
 30
0.0
 11
87.6424276963
 21
220.98254736
 31
0.0
  0
LINE
  5
5CC
330
1F
100
AcDbEntity
  8
0
  6
Continuous
 62
     8
370
    15
100
AcDbLine
 10
87.6424276963
 20
233.2113141888
 30
0.0
 11
87.6424276963
 21
233.2170559787
 31
0.0
  0
LINE
  5
5CD
330
1F
100
AcDbEntity
  8
0
  6
Continuous
 62
     8
370
    15
100
AcDbLine
 10
88.5174268618
 20
208.3913135105
 30
0.0
 11
88.5174268618
 21
208.4025460058
 31
0.0
  0
LINE
  5
5CE
330
1F
100
AcDbEntity
  8
0
  6
Continuous
 62
     8
370
    15
100
AcDbLine
 10
93.1874269381
 20
208.1713127666
 30
0.0
 11
93.1874269381
 21
208.4025460058
 31
0.0
  0
LINE
  5
5CF
330
1F
100
AcDbEntity
  8
0
  6
Continuous
 62
     8
370
    15
100
AcDbLine
 10
89.8874277011
 20
208.1713127666
 30
0.0
 11
89.8874277011
 21
208.4025460058
 31
0.0
  0
LINE
  5
5D0
330
1F
100
AcDbEntity
  8
0
  6
Continuous
 62
     8
370
    15
100
AcDbLine
 10
141.6874268785
 20
208.1713127666
 30
0.0
 11
141.6874268785
 21
208.4025460058
 31
0.0
  0
LINE
  5
5D1
330
1F
100
AcDbEntity
  8
0
  6
Continuous
 62
     8
370
    15
100
AcDbLine
 10
144.9874276057
 20
208.1713127666
 30
0.0
 11
144.9874276057
 21
208.4025460058
 31
0.0
  0
LINE
  5
5D2
330
1F
100
AcDbEntity
  8
0
  6
CENTERX2
 62
     7
370
     0
100
AcDbLine
 10
95.037427221
 20
163.2413141756
 30
0.0
 11
95.037427221
 21
148.3413141756
 31
0.0
  0
LINE
  5
5D3
330
1F
100
AcDbEntity
  8
0
  6
CENTERX2
 62
     7
370
     0
100
AcDbLine
 10
139.837427221
 20
163.2413141756
 30
0.0
 11
139.837427221
 21
148.3413141756
 31
0.0
  0
ENDSEC
  0
SECTION
  2
OBJECTS
  0
DICTIONARY
  5
C
330
0
100
AcDbDictionary
281
     1
  3
ACAD_GROUP
350
D
  3
ACAD_LAYOUT
350
1A
  3
ACAD_MLINESTYLE
350
17
  3
ACAD_PLOTSETTINGS
350
19
  3
ACAD_PLOTSTYLENAME
350
E
  0
DICTIONARY
  5
D
102
{ACAD_REACTORS
330
C
102
}
330
C
100
AcDbDictionary
281
     1
  0
DICTIONARY
  5
1A
102
{ACAD_REACTORS
330
C
102
}
330
C
100
AcDbDictionary
281
     1
  3
Layout1
350
1E
  3
Layout2
350
26
  3
Model
350
22
  0
DICTIONARY
  5
17
102
{ACAD_REACTORS
330
C
102
}
330
C
100
AcDbDictionary
281
     1
  3
Standard
350
18
  0
DICTIONARY
  5
19
102
{ACAD_REACTORS
330
C
102
}
330
C
100
AcDbDictionary
281
     1
  0
ACDBDICTIONARYWDFLT
  5
E
102
{ACAD_REACTORS
330
C
102
}
330
C
100
AcDbDictionary
281
     1
  3
Normal
350
F
100
AcDbDictionaryWithDefault
340
F
  0
LAYOUT
  5
1E
102
{ACAD_REACTORS
330
1A
102
}
330
1A
100
AcDbPlotSettings
  1

  2
none_device
  4

  6

 40
0.0
 41
0.0
 42
0.0
 43
0.0
 44
0.0
 45
0.0
 46
0.0
 47
0.0
 48
0.0
 49
0.0
140
0.0
141
0.0
142
1.0
143
1.0
 70
   688
 72
     0
 73
     0
 74
     5
  7

 75
    16
147
1.0
148
0.0
149
0.0
100
AcDbLayout
  1
Layout1
 70
     1
 71
     1
 10
0.0
 20
0.0
 11
420.0
 21
297.0
 12
0.0
 22
0.0
 32
0.0
 14
1.0000000000E+20
 24
1.0000000000E+20
 34
1.0000000000E+20
 15
-1.0000000000E+20
 25
-1.0000000000E+20
 35
-1.0000000000E+20
146
0.0
 13
0.0
 23
0.0
 33
0.0
 16
1.0
 26
0.0
 36
0.0
 17
0.0
 27
1.0
 37
0.0
 76
     0
330
1B
  0
LAYOUT
  5
26
102
{ACAD_REACTORS
330
1A
102
}
330
1A
100
AcDbPlotSettings
  1

  2
none_device
  4

  6

 40
0.0
 41
0.0
 42
0.0
 43
0.0
 44
0.0
 45
0.0
 46
0.0
 47
0.0
 48
0.0
 49
0.0
140
0.0
141
0.0
142
1.0
143
1.0
 70
   688
 72
     0
 73
     0
 74
     5
  7

 75
    16
147
1.0
148
0.0
149
0.0
100
AcDbLayout
  1
Layout2
 70
     1
 71
     2
 10
0.0
 20
0.0
 11
0.0
 21
0.0
 12
0.0
 22
0.0
 32
0.0
 14
0.0
 24
0.0
 34
0.0
 15
0.0
 25
0.0
 35
0.0
146
0.0
 13
0.0
 23
0.0
 33
0.0
 16
1.0
 26
0.0
 36
0.0
 17
0.0
 27
1.0
 37
0.0
 76
     0
330
23
  0
LAYOUT
  5
22
102
{ACAD_REACTORS
330
1A
102
}
330
1A
100
AcDbPlotSettings
  1

  2
none_device
  4

  6

 40
0.0
 41
0.0
 42
0.0
 43
0.0
 44
0.0
 45
0.0
 46
0.0
 47
0.0
 48
0.0
 49
0.0
140
0.0
141
0.0
142
1.0
143
1.0
 70
  1712
 72
     0
 73
     0
 74
     0
  7

 75
     0
147
1.0
148
0.0
149
0.0
100
AcDbLayout
  1
Model
 70
     1
 71
     0
 10
0.0
 20
0.0
 11
420.0
 21
297.0
 12
0.0
 22
0.0
 32
0.0
 14
0.0
 24
0.0
 34
0.0
 15
420.0
 25
297.0
 35
0.0
146
0.0
 13
0.0
 23
0.0
 33
0.0
 16
1.0
 26
0.0
 36
0.0
 17
0.0
 27
1.0
 37
0.0
 76
     0
330
1F
331
29
  0
MLINESTYLE
  5
18
102
{ACAD_REACTORS
330
17
102
}
330
17
100
AcDbMlineStyle
  2
Standard
 70
     0
  3

 62
   256
 51
90.0
 52
90.0
 71
     2
 49
0.5
 62
   256
  6
BYLAYER
 49
-0.5
 62
   256
  6
BYLAYER
  0
ACDBPLACEHOLDER
  5
F
102
{ACAD_REACTORS
330
E
102
}
330
E
  0
ENDSEC
  0
EOF
