  0
SECTION
  2
HEADER
  9
$ACADVER
  1
AC1021
  9
$ACADMAINTVER
 70
    25
  9
$DWGCODEPAGE
  3
ANSI_1252
  9
$INSBASE
 10
0.0
 20
0.0
 30
0.0
  9
$EXTMIN
 10
0.0
 20
0.0
 30
0.0
  9
$EXTMAX
 10
420.0
 20
297.0
 30
0.0
  9
$LIMMIN
 10
0.0
 20
0.0
  9
$LIMMAX
 10
420.0
 20
297.0
  9
$ORTHOMODE
 70
     0
  9
$REGENMODE
 70
     1
  9
$FILLMODE
 70
     1
  9
$QTEXTMODE
 70
     0
  9
$MIRRTEXT
 70
     1
  9
$LTSCALE
 40
1.0
  9
$ATTMODE
 70
     1
  9
$TEXTSIZE
 40
3.5
  9
$TRACEWID
 40
1.0
  9
$TEXTSTYLE
  7
Standard
  9
$CLAYER
  8
0
  9
$CELTYPE
  6
ByLayer
  9
$CECOLOR
 62
   256
  9
$CELTSCALE
 40
1.0
  9
$DISPSILH
 70
     0
  9
$DIMSCALE
 40
1.0
  9
$DIMASZ
 40
3.302
  9
$DIMEXO
 40
1.0
  9
$DIMDLI
 40
3.75
  9
$DIMRND
 40
0.0
  9
$DIMDLE
 40
0.0
  9
$DIMEXE
 40
1.0
  9
$DIMTP
 40
0.0
  9
$DIMTM
 40
0.0
  9
$DIMTXT
 40
3.5
  9
$DIMCEN
 40
2.5
  9
$DIMTSZ
 40
0.0
  9
$DIMTOL
 70
     0
  9
$DIMLIM
 70
     0
  9
$DIMTIH
 70
     1
  9
$DIMTOH
 70
     1
  9
$DIMSE1
 70
     0
  9
$DIMSE2
 70
     0
  9
$DIMTAD
 70
     1
  9
$DIMZIN
 70
     0
  9
$DIMBLK
  1

  9
$DIMASO
 70
     1
  9
$DIMSHO
 70
     1
  9
$DIMPOST
  1

  9
$DIMAPOST
  1

  9
$DIMALT
 70
     0
  9
$DIMALTD
 70
     3
  9
$DIMALTF
 40
0.0393700787
  9
$DIMLFAC
 40
1.0
  9
$DIMTOFL
 70
     1
  9
$DIMTVP
 40
0.0
  9
$DIMTIX
 70
     0
  9
$DIMSOXD
 70
     0
  9
$DIMSAH
 70
     0
  9
$DIMBLK1
  1

  9
$DIMBLK2
  1

  9
$DIMSTYLE
  2
ISO-25
  9
$DIMCLRD
 70
     0
  9
$DIMCLRE
 70
     0
  9
$DIMCLRT
 70
     0
  9
$DIMTFAC
 40
1.0
  9
$DIMGAP
 40
1.524
  9
$DIMJUST
 70
     0
  9
$DIMSD1
 70
     0
  9
$DIMSD2
 70
     0
  9
$DIMTOLJ
 70
     0
  9
$DIMTZIN
 70
     0
  9
$DIMALTZ
 70
     0
  9
$DIMALTTZ
 70
     0
  9
$DIMUPT
 70
     0
  9
$DIMDEC
 70
     1
  9
$DIMTDEC
 70
     1
  9
$DIMALTU
 70
     2
  9
$DIMALTTD
 70
     3
  9
$DIMTXSTY
  7
Standard
  9
$DIMAUNIT
 70
     0
  9
$DIMADEC
 70
     1
  9
$DIMALTRND
 40
0.0
  9
$DIMAZIN
 70
     0
  9
$DIMDSEP
 70
    44
  9
$DIMATFIT
 70
     3
  9
$DIMFRAC
 70
     0
  9
$DIMLDRBLK
  1

  9
$DIMLUNIT
 70
     2
  9
$DIMLWD
 70
    -2
  9
$DIMLWE
 70
    -2
  9
$DIMTMOVE
 70
     0
  9
$DIMFXL
 40
1.0
  9
$DIMFXLON
 70
     0
  9
$DIMJOGANG
 40
0.7853981634
  9
$DIMTFILL
 70
     0
  9
$DIMTFILLCLR
 70
     0
  9
$DIMARCSYM
 70
     0
  9
$DIMLTYPE
  6

  9
$DIMLTEX1
  6

  9
$DIMLTEX2
  6

  9
$LUNITS
 70
     2
  9
$LUPREC
 70
     1
  9
$SKETCHINC
 40
1.0
  9
$FILLETRAD
 40
10.0
  9
$AUNITS
 70
     0
  9
$AUPREC
 70
     1
  9
$MENU
  1
.
  9
$ELEVATION
 40
0.0
  9
$PELEVATION
 40
0.0
  9
$THICKNESS
 40
0.0
  9
$LIMCHECK
 70
     0
  9
$CHAMFERA
 40
10.0
  9
$CHAMFERB
 40
10.0
  9
$CHAMFERC
 40
20.0
  9
$CHAMFERD
 40
0.0
  9
$SKPOLY
 70
     0
  9
$TDCREATE
 40
2455747.568780509
  9
$TDUCREATE
 40
2455747.527113843
  9
$TDUPDATE
 40
2455747.568780521
  9
$TDUUPDATE
 40
2455747.527113854
  9
$TDINDWG
 40
0.0000000116
  9
$TDUSRTIMER
 40
0.0000000116
  9
$USRTIMER
 70
     1
  9
$ANGBASE
 50
0.0
  9
$ANGDIR
 70
     0
  9
$PDMODE
 70
     0
  9
$PDSIZE
 40
-1.0
  9
$PLINEWID
 40
0.0
  9
$SPLFRAME
 70
     0
  9
$SPLINETYPE
 70
     6
  9
$SPLINESEGS
 70
     8
  9
$HANDSEED
  5
3EE
  9
$SURFTAB1
 70
     6
  9
$SURFTAB2
 70
     6
  9
$SURFTYPE
 70
     6
  9
$SURFU
 70
     6
  9
$SURFV
 70
     6
  9
$UCSBASE
  2

  9
$UCSNAME
  2

  9
$UCSORG
 10
0.0
 20
0.0
 30
0.0
  9
$UCSXDIR
 10
1.0
 20
0.0
 30
0.0
  9
$UCSYDIR
 10
0.0
 20
1.0
 30
0.0
  9
$UCSORTHOREF
  2

  9
$UCSORTHOVIEW
 70
     0
  9
$UCSORGTOP
 10
0.0
 20
0.0
 30
0.0
  9
$UCSORGBOTTOM
 10
0.0
 20
0.0
 30
0.0
  9
$UCSORGLEFT
 10
0.0
 20
0.0
 30
0.0
  9
$UCSORGRIGHT
 10
0.0
 20
0.0
 30
0.0
  9
$UCSORGFRONT
 10
0.0
 20
0.0
 30
0.0
  9
$UCSORGBACK
 10
0.0
 20
0.0
 30
0.0
  9
$PUCSBASE
  2

  9
$PUCSNAME
  2

  9
$PUCSORG
 10
0.0
 20
0.0
 30
0.0
  9
$PUCSXDIR
 10
1.0
 20
0.0
 30
0.0
  9
$PUCSYDIR
 10
0.0
 20
1.0
 30
0.0
  9
$PUCSORTHOREF
  2

  9
$PUCSORTHOVIEW
 70
     0
  9
$PUCSORGTOP
 10
0.0
 20
0.0
 30
0.0
  9
$PUCSORGBOTTOM
 10
0.0
 20
0.0
 30
0.0
  9
$PUCSORGLEFT
 10
0.0
 20
0.0
 30
0.0
  9
$PUCSORGRIGHT
 10
0.0
 20
0.0
 30
0.0
  9
$PUCSORGFRONT
 10
0.0
 20
0.0
 30
0.0
  9
$PUCSORGBACK
 10
0.0
 20
0.0
 30
0.0
  9
$USERI1
 70
     0
  9
$USERI2
 70
     0
  9
$USERI3
 70
     0
  9
$USERI4
 70
     0
  9
$USERI5
 70
     0
  9
$USERR1
 40
0.0
  9
$USERR2
 40
0.0
  9
$USERR3
 40
0.0
  9
$USERR4
 40
0.0
  9
$USERR5
 40
0.0
  9
$WORLDVIEW
 70
     1
  9
$SHADEDGE
 70
     3
  9
$SHADEDIF
 70
    70
  9
$TILEMODE
 70
     1
  9
$MAXACTVP
 70
    64
  9
$PINSBASE
 10
0.0
 20
0.0
 30
0.0
  9
$PLIMCHECK
 70
     0
  9
$PEXTMIN
 10
1.0000000000E+20
 20
1.0000000000E+20
 30
1.0000000000E+20
  9
$PEXTMAX
 10
-1.0000000000E+20
 20
-1.0000000000E+20
 30
-1.0000000000E+20
  9
$PLIMMIN
 10
0.0
 20
0.0
  9
$PLIMMAX
 10
420.0
 20
297.0
  9
$UNITMODE
 70
     0
  9
$VISRETAIN
 70
     1
  9
$PLINEGEN
 70
     0
  9
$PSLTSCALE
 70
     1
  9
$TREEDEPTH
 70
  3020
  9
$CMLSTYLE
  2
Standard
  9
$CMLJUST
 70
     0
  9
$CMLSCALE
 40
20.0
  9
$PROXYGRAPHICS
 70
     1
  9
$MEASUREMENT
 70
     1
  9
$CELWEIGHT
370
    -1
  9
$ENDCAPS
280
     0
  9
$JOINSTYLE
280
     0
  9
$LWDISPLAY
290
     1
  9
$INSUNITS
 70
     4
  9
$HYPERLINKBASE
  1

  9
$STYLESHEET
  1

  9
$XEDIT
290
     1
  9
$CEPSNTYPE
380
     0
  9
$PSTYLEMODE
290
     1
  9
$FINGERPRINTGUID
  2
{0988FBB2-6631-4151-BAAE-ED9CF38D38FC}
  9
$VERSIONGUID
  2
{FAEB1C32-E019-11D5-929B-00C0DF256EC4}
  9
$EXTNAMES
290
     1
  9
$PSVPSCALE
 40
0.0
  9
$OLESTARTUP
290
     0
  9
$SORTENTS
280
   127
  9
$INDEXCTL
280
     0
  9
$HIDETEXT
280
     1
  9
$XCLIPFRAME
290
     0
  9
$HALOGAP
280
     0
  9
$OBSCOLOR
 70
   257
  9
$OBSLTYPE
280
     0
  9
$INTERSECTIONDISPLAY
280
     0
  9
$INTERSECTIONCOLOR
 70
   257
  9
$DIMASSOC
280
     2
  9
$PROJECTNAME
  1

  9
$CAMERADISPLAY
290
     0
  9
$LENSLENGTH
 40
50.0
  9
$CAMERAHEIGHT
 40
0.0
  9
$STEPSPERSEC
 40
2.0
  9
$STEPSIZE
 40
6.0
  9
$3DDWFPREC
 40
2.0
  9
$PSOLWIDTH
 40
5.0
  9
$PSOLHEIGHT
 40
80.0
  9
$LOFTANG1
 40
1.5707963268
  9
$LOFTANG2
 40
1.5707963268
  9
$LOFTMAG1
 40
0.0
  9
$LOFTMAG2
 40
0.0
  9
$LOFTPARAM
 70
     7
  9
$LOFTNORMALS
280
     1
  9
$LATITUDE
 40
37.795
  9
$LONGITUDE
 40
-122.394
  9
$NORTHDIRECTION
 40
0.0
  9
$TIMEZONE
 70
 -8000
  9
$LIGHTGLYPHDISPLAY
280
     1
  9
$TILEMODELIGHTSYNCH
280
     1
  9
$SOLIDHIST
280
     1
  9
$SHOWHIST
280
     1
  9
$DWFFRAME
280
     2
  9
$DGNFRAME
280
     2
  9
$REALWORLDSCALE
290
     1
  9
$INTERFERECOLOR
 62
   256
  9
$CSHADOW
280
     0
  9
$SHADOWPLANELOCATION
 40
0.0
  0
ENDSEC
  0
SECTION
  2
CLASSES
  0
CLASS
  1
ACDBDICTIONARYWDFLT
  2
AcDbDictionaryWithDefault
  3
ObjectDBX Classes
 90
        0
 91
        4
280
     0
281
     0
  0
CLASS
  1
VISUALSTYLE
  2
AcDbVisualStyle
  3
ObjectDBX Classes
 90
     4095
 91
        4
280
     0
281
     0
  0
CLASS
  1
MATERIAL
  2
AcDbMaterial
  3
ObjectDBX Classes
 90
     1153
 91
        4
280
     0
281
     0
  0
ENDSEC
  0
SECTION
  2
TABLES
  0
TABLE
  2
VPORT
  5
8
330
0
100
AcDbSymbolTable
 70
     1
  0
VPORT
  5
29
330
8
100
AcDbSymbolTableRecord
100
AcDbViewportTableRecord
  2
*Active
 70
     0
 10
0.0
 20
0.0
 11
1.0
 21
1.0
 12
210.0
 22
148.5
 13
0.0
 23
0.0
 14
10.0
 24
10.0
 15
10.0
 25
10.0
 16
0.0
 26
0.0
 36
1.0
 17
0.0
 27
0.0
 37
0.0
 40
297.0
 41
1.4141414141
 42
50.0
 43
0.0
 44
0.0
 50
0.0
 51
0.0
 71
     0
 72
  2000
 73
     1
 74
     3
 75
     0
 76
     0
 77
     0
 78
     0
281
     0
 65
     1
110
0.0
120
0.0
130
0.0
111
1.0
121
0.0
131
0.0
112
0.0
122
1.0
132
0.0
 79
     0
146
0.0
 60
     3
 61
     5
292
     1
282
     1
141
0.0
142
0.0
 63
   250
  0
ENDTAB
  0
TABLE
  2
LTYPE
  5
5
330
0
100
AcDbSymbolTable
 70
     6
  0
LTYPE
  5
14
330
5
100
AcDbSymbolTableRecord
100
AcDbLinetypeTableRecord
  2
ByBlock
 70
     0
  3

 72
    65
 73
     0
 40
0.0
  0
LTYPE
  5
15
330
5
100
AcDbSymbolTableRecord
100
AcDbLinetypeTableRecord
  2
ByLayer
 70
     0
  3

 72
    65
 73
     0
 40
0.0
  0
LTYPE
  5
16
330
5
100
AcDbSymbolTableRecord
100
AcDbLinetypeTableRecord
  2
Continuous
 70
     0
  3
Solid line
 72
    65
 73
     0
 40
0.0
  0
LTYPE
  5
3F
330
5
100
AcDbSymbolTableRecord
100
AcDbLinetypeTableRecord
  2
HIDDEN
 70
     0
  3
Hidden __ __ __ __ __ __ __ __ __ __ __ __ __ __
 72
    65
 73
     2
 40
1.905
 49
1.27
 74
     0
 49
-0.635
 74
     0
  0
LTYPE
  5
40
330
5
100
AcDbSymbolTableRecord
100
AcDbLinetypeTableRecord
  2
PHANTOM
 70
     0
  3
Phantom ______  __  __  ______  __  __  ______
 72
    65
 73
     6
 40
12.7
 49
6.35
 74
     0
 49
-1.27
 74
     0
 49
1.27
 74
     0
 49
-1.27
 74
     0
 49
1.27
 74
     0
 49
-1.27
 74
     0
  0
LTYPE
  5
41
330
5
100
AcDbSymbolTableRecord
100
AcDbLinetypeTableRecord
  2
CENTER
 70
     0
  3
Center ____ _ ____ _ ____ _ ____ _ ____ _ ____
 72
    65
 73
     4
 40
10.16
 49
6.35
 74
     0
 49
-1.27
 74
     0
 49
1.27
 74
     0
 49
-1.27
 74
     0
  0
LTYPE
  5
42
330
5
100
AcDbSymbolTableRecord
100
AcDbLinetypeTableRecord
  2
CENTERX2
 70
     0
  3
Center (2x) ________  __  ________  __  _____
 72
    65
 73
     4
 40
20.32
 49
12.7
 74
     0
 49
-2.54
 74
     0
 49
2.54
 74
     0
 49
-2.54
 74
     0
  0
LTYPE
  5
43
330
5
100
AcDbSymbolTableRecord
100
AcDbLinetypeTableRecord
  2
DOT2
 70
     0
  3
Dot (.5x) ........................................
 72
    65
 73
     2
 40
0.635
 49
0.0
 74
     0
 49
-0.635
 74
     0
  0
ENDTAB
  0
TABLE
  2
LAYER
  5
2
330
0
100
AcDbSymbolTable
 70
     1
  0
LAYER
  5
10
330
2
100
AcDbSymbolTableRecord
100
AcDbLayerTableRecord
  2
0
 70
     0
 62
     7
  6
Continuous
370
    -3
390
F
347
3E
  0
ENDTAB
  0
TABLE
  2
STYLE
  5
3
330
0
100
AcDbSymbolTable
 70
     1
  0
STYLE
  5
11
330
3
100
AcDbSymbolTableRecord
100
AcDbTextStyleTableRecord
  2
Standard
 70
     0
 40
0.0
 41
1.0
 50
0.0
 71
     0
 42
2.5
  3
txt
  4

  0
ENDTAB
  0
TABLE
  2
VIEW
  5
6
330
0
100
AcDbSymbolTable
 70
     0
  0
ENDTAB
  0
TABLE
  2
UCS
  5
7
330
0
100
AcDbSymbolTable
 70
     0
  0
ENDTAB
  0
TABLE
  2
APPID
  5
9
330
0
100
AcDbSymbolTable
 70
     1
  0
APPID
  5
12
330
9
100
AcDbSymbolTableRecord
100
AcDbRegAppTableRecord
  2
ACAD
 70
     0
  0
ENDTAB
  0
TABLE
  2
DIMSTYLE
  5
A
330
0
100
AcDbSymbolTable
 70
     1
100
AcDbDimStyleTable
  0
DIMSTYLE
105
27
330
A
100
AcDbSymbolTableRecord
100
AcDbDimStyleTableRecord
  2
ISO-25
 70
     0
 41
2.5
 42
0.625
 43
3.75
 44
1.25
 73
     0
 74
     0
 77
     1
 78
     8
140
2.5
141
2.5
143
0.0393700787
147
0.625
171
     3
172
     1
271
     2
272
     2
274
     3
278
    44
283
     0
284
     8
340
11
  0
ENDTAB
  0
TABLE
  2
BLOCK_RECORD
  5
1
330
0
100
AcDbSymbolTable
 70
     1
  0
BLOCK_RECORD
  5
1F
330
1
100
AcDbSymbolTableRecord
100
AcDbBlockTableRecord
  2
*Model_Space
340
22
 70
     0
280
     1
281
     0
  0
BLOCK_RECORD
  5
1B
330
1
100
AcDbSymbolTableRecord
100
AcDbBlockTableRecord
  2
*Paper_Space
340
1E
 70
     0
280
     1
281
     0
  0
BLOCK_RECORD
  5
23
330
1
100
AcDbSymbolTableRecord
100
AcDbBlockTableRecord
  2
*Paper_Space0
340
26
 70
     0
280
     1
281
     0
  0
ENDTAB
  0
ENDSEC
  0
SECTION
  2
BLOCKS
  0
BLOCK
  5
20
330
1F
100
AcDbEntity
  8
0
100
AcDbBlockBegin
  2
*Model_Space
 70
     0
 10
0.0
 20
0.0
 30
0.0
  3
*Model_Space
  1

  0
ENDBLK
  5
21
330
1F
100
AcDbEntity
  8
0
100
AcDbBlockEnd
  0
BLOCK
  5
1C
330
1B
100
AcDbEntity
 67
     1
  8
0
100
AcDbBlockBegin
  2
*Paper_Space
 70
     0
 10
0.0
 20
0.0
 30
0.0
  3
*Paper_Space
  1

  0
ENDBLK
  5
1D
330
1B
100
AcDbEntity
 67
     1
  8
0
100
AcDbBlockEnd
  0
BLOCK
  5
24
330
23
100
AcDbEntity
  8
0
100
AcDbBlockBegin
  2
*Paper_Space0
 70
     0
 10
0.0
 20
0.0
 30
0.0
  3
*Paper_Space0
  1

  0
ENDBLK
  5
25
330
23
100
AcDbEntity
  8
0
100
AcDbBlockEnd
  0
ENDSEC
  0
SECTION
  2
ENTITIES
  0
LINE
  5
44
330
1F
100
AcDbEntity
  8
0
  6
Continuous
 62
     7
370
    15
100
AcDbLine
 10
-94.8343434032
 20
-325.8102024305
 30
0.0
 11
505.1656655375
 21
-325.8102024305
 31
0.0
  0
LINE
  5
45
330
1F
100
AcDbEntity
  8
0
  6
Continuous
 62
     7
370
    15
100
AcDbLine
 10
457.6656661335
 20
479.5493697416
 30
0.0
 11
459.6656701866
 21
477.5493954908
 31
0.0
  0
LINE
  5
46
330
1F
100
AcDbEntity
  8
0
  6
Continuous
 62
     7
370
    15
100
AcDbLine
 10
477.6656619612
 20
477.5493954908
 30
0.0
 11
479.6656660143
 21
479.5493697416
 31
0.0
  0
LINE
  5
47
330
1F
100
AcDbEntity
  8
0
  6
Continuous
 62
     7
370
    15
100
AcDbLine
 10
479.6656660143
 20
479.5493697416
 30
0.0
 11
477.6656619612
 21
481.5493737947
 31
0.0
  0
LINE
  5
48
330
1F
100
AcDbEntity
  8
0
  6
Continuous
 62
     7
370
    15
100
AcDbLine
 10
459.6656701866
 20
481.5493737947
 30
0.0
 11
457.6656661335
 21
479.5493697416
 31
0.0
  0
LINE
  5
49
330
1F
100
AcDbEntity
  8
0
  6
Continuous
 62
     7
370
    15
100
AcDbLine
 10
457.6656661335
 20
483.5493778479
 30
0.0
 11
459.6656701866
 21
481.5493737947
 31
0.0
  0
LINE
  5
4A
330
1F
100
AcDbEntity
  8
0
  6
Continuous
 62
     7
370
    15
100
AcDbLine
 10
477.6656619612
 20
481.5493737947
 30
0.0
 11
479.6656660143
 21
483.5493778479
 31
0.0
  0
LINE
  5
4B
330
1F
100
AcDbEntity
  8
0
  6
Continuous
 62
     7
370
    15
100
AcDbLine
 10
479.6656660143
 20
483.5493778479
 30
0.0
 11
477.6656619612
 21
485.549381901
 31
0.0
  0
LINE
  5
4C
330
1F
100
AcDbEntity
  8
0
  6
Continuous
 62
     7
370
    15
100
AcDbLine
 10
459.6656701866
 20
485.549381901
 30
0.0
 11
457.6656661335
 21
483.5493778479
 31
0.0
  0
LINE
  5
4D
330
1F
100
AcDbEntity
  8
0
  6
Continuous
 62
     7
370
    15
100
AcDbLine
 10
479.6656660143
 20
487.5493859541
 30
0.0
 11
477.6656619612
 21
489.5493900072
 31
0.0
  0
LINE
  5
4E
330
1F
100
AcDbEntity
  8
0
  6
Continuous
 62
     7
370
    15
100
AcDbLine
 10
459.6656701866
 20
489.5493900072
 30
0.0
 11
457.6656661335
 21
487.5493859541
 31
0.0
  0
LINE
  5
4F
330
1F
100
AcDbEntity
  8
0
  6
Continuous
 62
     7
370
    15
100
AcDbLine
 10
457.6656661335
 20
487.5493859541
 30
0.0
 11
459.6656701866
 21
485.549381901
 31
0.0
  0
LINE
  5
50
330
1F
100
AcDbEntity
  8
0
  6
Continuous
 62
     7
370
    15
100
AcDbLine
 10
477.6656619612
 20
485.549381901
 30
0.0
 11
479.6656660143
 21
487.5493859541
 31
0.0
  0
LINE
  5
51
330
1F
100
AcDbEntity
  8
0
  6
Continuous
 62
     7
370
    15
100
AcDbLine
 10
479.6656660143
 20
491.5493940603
 30
0.0
 11
477.6656619612
 21
493.5493683111
 31
0.0
  0
LINE
  5
52
330
1F
100
AcDbEntity
  8
0
  6
Continuous
 62
     7
370
    15
100
AcDbLine
 10
459.6656701866
 20
493.5493683111
 30
0.0
 11
457.6656661335
 21
491.5493940603
 31
0.0
  0
LINE
  5
53
330
1F
100
AcDbEntity
  8
0
  6
Continuous
 62
     7
370
    15
100
AcDbLine
 10
457.6656661335
 20
491.5493940603
 30
0.0
 11
459.6656701866
 21
489.5493900072
 31
0.0
  0
LINE
  5
54
330
1F
100
AcDbEntity
  8
0
  6
Continuous
 62
     7
370
    15
100
AcDbLine
 10
477.6656619612
 20
489.5493900072
 30
0.0
 11
479.6656660143
 21
491.5493940603
 31
0.0
  0
SPLINE
  5
55
330
1F
100
AcDbEntity
  8
0
  6
Continuous
 62
     7
370
    15
100
AcDbSpline
210
0.0
220
0.0
230
1.0
 70
     8
 71
     3
 72
    11
 73
     7
 74
     0
 42
0.00000001
 43
0.00000001
 40
0.0
 40
0.0
 40
0.0
 40
0.0
 40
0.0650069908134346
 40
0.480306529018904
 40
0.8387011009664912
 40
1.0
 40
1.0
 40
1.0
 40
1.0
 10
393.019250721081
 20
-327.9570425260661
 30
0.0
 10
393.0262549538471
 20
-327.9087405049656
 30
0.0
 10
393.0780059837939
 20
-327.5518592555945
 30
0.0
 10
393.3322379483414
 20
-326.9066372356549
 30
0.0
 10
393.7423880657718
 20
-326.2092972807705
 30
0.0
 10
394.0661864976049
 20
-325.9047314778389
 30
0.0
 10
394.1666848364908
 20
-325.8102024305461
 30
0.0
  0
SPLINE
  5
56
330
1F
100
AcDbEntity
  8
0
  6
Continuous
 62
     7
370
    15
100
AcDbSpline
210
0.0
220
0.0
230
1.0
 70
     8
 71
     3
 72
    10
 73
     6
 74
     0
 42
0.00000001
 43
0.00000001
 40
0.0
 40
0.0
 40
0.0
 40
0.0
 40
0.3050911246915923
 40
0.6905837237872874
 40
1.0
 40
1.0
 40
1.0
 40
1.0
 10
363.6568739417631
 20
-325.8908773172495
 30
0.0
 10
363.8203759951113
 20
-326.0794499510348
 30
0.0
 10
364.1904682321837
 20
-326.506290265631
 30
0.0
 10
364.5574460419636
 20
-327.2372876504511
 30
0.0
 10
364.6481810805585
 20
-327.7341223519924
 30
0.0
 10
364.6885819140513
 20
-327.95534379369
 30
0.0
  0
LINE
  5
57
330
1F
100
AcDbEntity
  8
0
  6
Continuous
 62
     7
370
    15
100
AcDbLine
 10
366.9742561284
 20
-342.23274238
 30
0.0
 11
367.2082453374
 21
-343.9774895418
 31
0.0
  0
SPLINE
  5
58
330
1F
100
AcDbEntity
  8
0
  6
Continuous
 62
     7
370
    15
100
AcDbSpline
210
0.0
220
0.0
230
1.0
 70
     8
 71
     3
 72
    10
 73
     6
 74
     0
 42
0.00000001
 43
0.00000001
 40
0.0
 40
0.0
 40
0.0
 40
0.0
 40
0.1237905186138876
 40
0.8061782043653107
 40
1.0
 40
1.0
 40
1.0
 40
1.0
 10
364.7101550701697
 20
-327.9576683748362
 30
0.0
 10
364.818484425432
 20
-328.5483473398911
 30
0.0
 10
365.5239727462124
 20
-332.3951080832529
 30
0.0
 10
366.3070966989688
 20
-337.1671927879934
 30
0.0
 10
366.8534091575204
 20
-341.3151861001825
 30
0.0
 10
366.9742561284144
 20
-342.2327423799632
 30
0.0
  0
SPLINE
  5
59
330
1F
100
AcDbEntity
  8
0
  6
Continuous
 62
     7
370
    15
100
AcDbSpline
210
0.0
220
0.0
230
1.0
 70
     8
 71
     3
 72
     9
 73
     5
 74
     0
 42
0.00000001
 43
0.00000001
 40
0.0
 40
0.0
 40
0.0
 40
0.0
 40
0.5175659812057901
 40
1.0
 40
1.0
 40
1.0
 40
1.0
 10
390.4928631487925
 20
-343.9837778318522
 30
0.0
 10
390.8779504013847
 20
-341.2267676798296
 30
0.0
 10
391.621985493674
 20
-335.8998910068315
 30
0.0
 10
392.5699614822409
 20
-330.5418328475106
 30
0.0
 10
393.0272973481257
 20
-327.9569233167765
 30
0.0
  0
ARC
  5
5A
330
1F
100
AcDbEntity
  8
0
  6
Continuous
 62
     7
370
    15
100
AcDbCircle
 10
389.5004674545
 20
-343.8506173288
 30
0.0
 40
1.0
100
AcDbArc
 50
270.0
 51
352.3401380017
  0
ARC
  5
5B
330
1F
100
AcDbEntity
  8
0
  6
Continuous
 62
     7
370
    15
100
AcDbCircle
 10
368.2308609336
 20
-343.8506173288
 30
0.0
 40
1.000000000000021
100
AcDbArc
 50
187.6598619983
 51
270.0
  0
LINE
  5
5C
330
1F
100
AcDbEntity
  8
0
  6
Continuous
 62
     7
370
    15
100
AcDbLine
 10
-93.63432309
 20
-307.3171163309
 30
0.0
 11
503.9656601254
 21
-307.3171163309
 31
0.0
  0
LINE
  5
5D
330
1F
100
AcDbEntity
  8
0
  6
Continuous
 62
     7
370
    15
100
AcDbLine
 10
457.6656661335
 20
477.5493954908
 30
0.0
 11
457.6656661335
 21
459.5496868383
 31
0.0
  0
LINE
  5
5E
330
1F
100
AcDbEntity
  8
0
  6
Continuous
 62
     7
370
    15
100
AcDbLine
 10
457.6656661335
 20
452.1394585859
 30
0.0
 11
457.6656661335
 21
423.8791977655
 31
0.0
  0
LINE
  5
5F
330
1F
100
AcDbEntity
  8
0
  6
Continuous
 62
     7
370
    15
100
AcDbLine
 10
479.6656660143
 20
423.8791977655
 30
0.0
 11
479.6656660143
 21
452.1394585859
 31
0.0
  0
LINE
  5
60
330
1F
100
AcDbEntity
  8
0
  6
Continuous
 62
     7
370
    15
100
AcDbLine
 10
479.6656660143
 20
459.5496868383
 30
0.0
 11
479.6656660143
 21
477.5493954908
 31
0.0
  0
ARC
  5
61
330
1F
100
AcDbEntity
  8
0
  6
Continuous
 62
     7
370
    15
100
AcDbCircle
 10
318.9656641941
 20
-325.5506173288
 30
0.0
 40
0.5000000000000189
100
AcDbArc
 50
211.2768225583
 51
270.0
  0
ARC
  5
62
330
1F
100
AcDbEntity
  8
0
  6
Continuous
 62
     7
370
    15
100
AcDbCircle
 10
328.7656641941
 20
-325.5506173288
 30
0.0
 40
0.5
100
AcDbArc
 50
270.0
 51
328.7231774416
  0
LINE
  5
63
330
1F
100
AcDbEntity
  8
0
  6
Continuous
 62
     7
370
    15
100
AcDbLine
 10
503.9656601254
 20
-306.5503323782
 30
0.0
 11
505.1656655375
 21
-306.5503323782
 31
0.0
  0
SPLINE
  5
64
330
1F
100
AcDbEntity
  8
0
  6
Continuous
 62
     7
370
    15
100
AcDbSpline
210
0.0
220
0.0
230
1.0
 70
     8
 71
     3
 72
    11
 73
     7
 74
     0
 42
0.00000001
 43
0.00000001
 40
0.0
 40
0.0
 40
0.0
 40
0.0
 40
0.0650071162303985
 40
0.4803068256816263
 40
0.838701545410621
 40
1.0
 40
1.0
 40
1.0
 40
1.0
 10
283.0192494544823
 20
-327.9570425260661
 30
0.0
 10
283.0262543546348
 20
-327.9087405117778
 30
0.0
 10
283.0780102477055
 20
-327.5518597808339
 30
0.0
 10
283.3322369528769
 20
-326.9066368324971
 30
0.0
 10
283.7423891300335
 20
-326.2092982418369
 30
0.0
 10
284.0661859506339
 20
-325.9047315478826
 30
0.0
 10
284.1666835698921
 20
-325.810202430546
 30
0.0
  0
SPLINE
  5
65
330
1F
100
AcDbEntity
  8
0
  6
Continuous
 62
     7
370
    15
100
AcDbSpline
210
0.0
220
0.0
230
1.0
 70
     8
 71
     3
 72
    10
 73
     6
 74
     0
 42
0.00000001
 43
0.00000001
 40
0.0
 40
0.0
 40
0.0
 40
0.0
 40
0.3050911246915923
 40
0.6905837237872874
 40
1.0
 40
1.0
 40
1.0
 40
1.0
 10
253.6568745378096
 20
-325.8908773172495
 30
0.0
 10
253.8203765911578
 20
-326.0794499510348
 30
0.0
 10
254.1904688282302
 20
-326.506290265631
 30
0.0
 10
254.55744663801
 20
-327.2372876504511
 30
0.0
 10
254.6481816766048
 20
-327.7341223519924
 30
0.0
 10
254.6885825100977
 20
-327.95534379369
 30
0.0
  0
LINE
  5
66
330
1F
100
AcDbEntity
  8
0
  6
Continuous
 62
     7
370
    15
100
AcDbLine
 10
256.9742529992
 20
-342.23274238
 30
0.0
 11
257.2082459334
 21
-343.9774895418
 31
0.0
  0
SPLINE
  5
67
330
1F
100
AcDbEntity
  8
0
  6
Continuous
 62
     7
370
    15
100
AcDbSpline
210
0.0
220
0.0
230
1.0
 70
     8
 71
     3
 72
    10
 73
     6
 74
     0
 42
0.00000001
 43
0.00000001
 40
0.0
 40
0.0
 40
0.0
 40
0.0
 40
0.1237905221698362
 40
0.8061782275232088
 40
1.0
 40
1.0
 40
1.0
 40
1.0
 10
254.7101556662161
 20
-327.9576683748362
 30
0.0
 10
254.818484993491
 20
-328.5483473429982
 30
0.0
 10
255.5239731320044
 20
-332.395108106595
 30
0.0
 10
256.3071012533255
 20
-337.1671922089735
 30
0.0
 10
256.8534074314794
 20
-341.3151860820236
 30
0.0
 10
256.9742529991705
 20
-342.2327423799632
 30
0.0
  0
SPLINE
  5
68
330
1F
100
AcDbEntity
  8
0
  6
Continuous
 62
     7
370
    15
100
AcDbSpline
210
0.0
220
0.0
230
1.0
 70
     8
 71
     3
 72
     9
 73
     5
 74
     0
 42
0.00000001
 43
0.00000001
 40
0.0
 40
0.0
 40
0.0
 40
0.0
 40
0.5175659812057901
 40
1.0
 40
1.0
 40
1.0
 40
1.0
 10
280.4928656074841
 20
-343.9837778318522
 30
0.0
 10
280.8779528600763
 20
-341.2267676798296
 30
0.0
 10
281.6219879523656
 20
-335.8998910068315
 30
0.0
 10
282.5699639409326
 20
-330.5418328475106
 30
0.0
 10
283.0272998068173
 20
-327.9569233167765
 30
0.0
  0
ARC
  5
69
330
1F
100
AcDbEntity
  8
0
  6
Continuous
 62
     7
370
    15
100
AcDbCircle
 10
279.5004674545
 20
-343.8506173288
 30
0.0
 40
1.000000000000021
100
AcDbArc
 50
270.0
 51
352.3401380017
  0
ARC
  5
6A
330
1F
100
AcDbEntity
  8
0
  6
Continuous
 62
     7
370
    15
100
AcDbCircle
 10
258.2308609336
 20
-343.8506173288
 30
0.0
 40
1.0
100
AcDbArc
 50
187.6598619983
 51
270.0
  0
LINE
  5
6B
330
1F
100
AcDbEntity
  8
0
  6
Continuous
 62
     7
370
    15
100
AcDbLine
 10
-94.8343434032
 20
-306.5503323782
 30
0.0
 11
-93.63432309
 21
-306.5503323782
 31
0.0
  0
ARC
  5
6C
330
1F
100
AcDbEntity
  8
0
  6
Continuous
 62
     7
370
    15
100
AcDbCircle
 10
208.9656641941
 20
-325.5506173288
 30
0.0
 40
0.5000000000000189
100
AcDbArc
 50
211.2768225583
 51
270.0
  0
ARC
  5
6D
330
1F
100
AcDbEntity
  8
0
  6
Continuous
 62
     7
370
    15
100
AcDbCircle
 10
218.7656641941
 20
-325.5506173288
 30
0.0
 40
0.5
100
AcDbArc
 50
270.0
 51
328.7231774416
  0
LINE
  5
6E
330
1F
100
AcDbEntity
  8
0
  6
Continuous
 62
     7
370
    15
100
AcDbLine
 10
114.1156695191
 20
-307.3171163309
 30
0.0
 11
114.1156695191
 21
-307.6737309206
 31
0.0
  0
LINE
  5
6F
330
1F
100
AcDbEntity
  8
0
  6
Continuous
 62
     7
370
    15
100
AcDbLine
 10
114.1156695191
 20
-307.6737309206
 30
0.0
 11
-55.8843471702
 21
-307.6737309206
 31
0.0
  0
LINE
  5
70
330
1F
100
AcDbEntity
  8
0
  6
Continuous
 62
     7
370
    15
100
AcDbLine
 10
-55.8843471702
 20
-307.3171163309
 30
0.0
 11
-55.8843471702
 21
-307.6737309206
 31
0.0
  0
LINE
  5
71
330
1F
100
AcDbEntity
  8
0
  6
Continuous
 62
     7
370
    15
100
AcDbLine
 10
114.1156695191
 20
-307.6737309206
 30
0.0
 11
114.1156695191
 21
-309.8368430842
 31
0.0
  0
LWPOLYLINE
  5
72
330
1F
100
AcDbEntity
  8
0
  6
Continuous
 62
     7
370
    15
100
AcDbPolyline
 90
        9
 70
   128
 43
0.0
 10
104.1156641546
 20
-312.9270160902
 10
106.0665688816
 20
-312.867649864
 10
107.9425058666
 20
-312.6917863596
 10
109.6713683907
 20
-312.4062205065
 10
111.1867270771
 20
-312.0219195593
 10
112.4303630892
 20
-311.5536654699
 10
113.3544586006
 20
-311.0193992365
 10
113.9235190455
 20
-310.4397142637
 10
114.1156695191
 20
-309.8368430842
  0
LINE
  5
73
330
1F
100
AcDbEntity
  8
0
  6
Continuous
 62
     7
370
    15
100
AcDbLine
 10
104.1156641546
 20
-312.9270160902
 30
0.0
 11
-45.8843269047
 21
-312.9270160902
 31
0.0
  0
LWPOLYLINE
  5
74
330
1F
100
AcDbEntity
  8
0
  6
Continuous
 62
     7
370
    15
100
AcDbPolyline
 90
        9
 70
   128
 43
0.0
 10
-55.8843471702
 20
-309.8368430842
 10
-55.6921817955
 20
-310.4397142637
 10
-55.1231362518
 20
-311.0193992365
 10
-54.1990258392
 20
-311.5536654699
 10
-52.9554047283
 20
-312.0219195593
 10
-51.4400460419
 20
-312.4062205065
 10
-49.7111835178
 20
-312.6917863596
 10
-47.8352465328
 20
-312.867649864
 10
-45.8843269047
 20
-312.9270160902
  0
LINE
  5
75
330
1F
100
AcDbEntity
  8
0
  6
Continuous
 62
     7
370
    15
100
AcDbLine
 10
-55.8843471702
 20
-307.6737309206
 30
0.0
 11
-55.8843471702
 21
-309.8368430842
 31
0.0
  0
LINE
  5
76
330
1F
100
AcDbEntity
  8
0
  6
Continuous
 62
     7
370
    15
100
AcDbLine
 10
505.1656655375
 20
-318.7040174711
 30
0.0
 11
-94.8343434032
 21
-318.7040174711
 31
0.0
  0
LINE
  5
77
330
1F
100
AcDbEntity
  8
0
  6
Continuous
 62
     7
370
    15
100
AcDbLine
 10
505.1656655375
 20
-318.7040174711
 30
0.0
 11
505.1656655375
 21
-306.5503323782
 31
0.0
  0
LINE
  5
78
330
1F
100
AcDbEntity
  8
0
  6
Continuous
 62
     7
370
    15
100
AcDbLine
 10
-94.8343434032
 20
-318.7040174711
 30
0.0
 11
-94.8343434032
 21
-306.5503323782
 31
0.0
  0
LINE
  5
79
330
1F
100
AcDbEntity
  8
0
  6
Continuous
 62
     7
370
    15
100
AcDbLine
 10
-94.8343434032
 20
-325.8102024305
 30
0.0
 11
-94.8343434032
 21
-318.7040174711
 31
0.0
  0
LINE
  5
7A
330
1F
100
AcDbEntity
  8
0
  6
Continuous
 62
     7
370
    15
100
AcDbLine
 10
505.1656655375
 20
-325.8102024305
 30
0.0
 11
505.1656655375
 21
-318.7040174711
 31
0.0
  0
LINE
  5
7B
330
1F
100
AcDbEntity
  8
0
  6
Continuous
 62
     7
370
    15
100
AcDbLine
 10
468.6656586233
 20
479.5493697416
 30
0.0
 11
479.6656660143
 21
479.5493697416
 31
0.0
  0
LINE
  5
7C
330
1F
100
AcDbEntity
  8
0
  6
Continuous
 62
     7
370
    15
100
AcDbLine
 10
457.6656661335
 20
479.5493697416
 30
0.0
 11
468.6656586233
 21
479.5493697416
 31
0.0
  0
LINE
  5
7D
330
1F
100
AcDbEntity
  8
0
  6
Continuous
 62
     7
370
    15
100
AcDbLine
 10
468.6656586233
 20
481.5493737947
 30
0.0
 11
477.6656619612
 21
481.5493737947
 31
0.0
  0
LINE
  5
7E
330
1F
100
AcDbEntity
  8
0
  6
Continuous
 62
     7
370
    15
100
AcDbLine
 10
459.6656701866
 20
481.5493737947
 30
0.0
 11
468.6656586233
 21
481.5493737947
 31
0.0
  0
LINE
  5
7F
330
1F
100
AcDbEntity
  8
0
  6
Continuous
 62
     7
370
    15
100
AcDbLine
 10
468.6656586233
 20
483.5493778479
 30
0.0
 11
479.6656660143
 21
483.5493778479
 31
0.0
  0
LINE
  5
80
330
1F
100
AcDbEntity
  8
0
  6
Continuous
 62
     7
370
    15
100
AcDbLine
 10
457.6656661335
 20
483.5493778479
 30
0.0
 11
468.6656586233
 21
483.5493778479
 31
0.0
  0
LINE
  5
81
330
1F
100
AcDbEntity
  8
0
  6
Continuous
 62
     7
370
    15
100
AcDbLine
 10
468.6656586233
 20
485.549381901
 30
0.0
 11
477.6656619612
 21
485.549381901
 31
0.0
  0
LINE
  5
82
330
1F
100
AcDbEntity
  8
0
  6
Continuous
 62
     7
370
    15
100
AcDbLine
 10
459.6656701866
 20
485.549381901
 30
0.0
 11
468.6656586233
 21
485.549381901
 31
0.0
  0
LINE
  5
83
330
1F
100
AcDbEntity
  8
0
  6
Continuous
 62
     7
370
    15
100
AcDbLine
 10
505.1656655375
 20
-190.5003274191
 30
0.0
 11
505.1656655375
 21
-190.5503357161
 31
0.0
  0
LINE
  5
84
330
1F
100
AcDbEntity
  8
0
  6
Continuous
 62
     7
370
    15
100
AcDbLine
 10
468.6656586233
 20
487.5493859541
 30
0.0
 11
479.6656660143
 21
487.5493859541
 31
0.0
  0
LINE
  5
85
330
1F
100
AcDbEntity
  8
0
  6
Continuous
 62
     7
370
    15
100
AcDbLine
 10
457.6656661335
 20
487.5493859541
 30
0.0
 11
468.6656586233
 21
487.5493859541
 31
0.0
  0
LINE
  5
86
330
1F
100
AcDbEntity
  8
0
  6
Continuous
 62
     7
370
    15
100
AcDbLine
 10
468.6656586233
 20
489.5493900072
 30
0.0
 11
477.6656619612
 21
489.5493900072
 31
0.0
  0
LINE
  5
87
330
1F
100
AcDbEntity
  8
0
  6
Continuous
 62
     7
370
    15
100
AcDbLine
 10
459.6656701866
 20
489.5493900072
 30
0.0
 11
468.6656586233
 21
489.5493900072
 31
0.0
  0
LINE
  5
88
330
1F
100
AcDbEntity
  8
0
  6
Continuous
 62
     7
370
    15
100
AcDbLine
 10
468.6656586233
 20
491.5493940603
 30
0.0
 11
479.6656660143
 21
491.5493940603
 31
0.0
  0
LINE
  5
89
330
1F
100
AcDbEntity
  8
0
  6
Continuous
 62
     7
370
    15
100
AcDbLine
 10
457.6656661335
 20
491.5493940603
 30
0.0
 11
468.6656586233
 21
491.5493940603
 31
0.0
  0
LINE
  5
8A
330
1F
100
AcDbEntity
  8
0
  6
Continuous
 62
     7
370
    15
100
AcDbLine
 10
468.6656586233
 20
493.5493683111
 30
0.0
 11
477.6656619612
 21
493.5493683111
 31
0.0
  0
LINE
  5
8B
330
1F
100
AcDbEntity
  8
0
  6
Continuous
 62
     7
370
    15
100
AcDbLine
 10
459.6656701866
 20
493.5493683111
 30
0.0
 11
468.6656586233
 21
493.5493683111
 31
0.0
  0
SPLINE
  5
8C
330
1F
100
AcDbEntity
  8
0
  6
Continuous
 62
     7
370
    15
100
AcDbSpline
210
0.0
220
0.0
230
1.0
 70
     8
 71
     3
 72
    10
 73
     6
 74
     0
 42
0.00000001
 43
0.00000001
 40
0.0
 40
0.0
 40
0.0
 40
0.0
 40
0.5
 40
0.5
 40
1.0
 40
1.0
 40
1.0
 40
1.0
 10
390.0148643028409
 20
-344.2609691718238
 30
0.0
 10
390.3579734177237
 20
-341.595413583866
 30
0.0
 10
390.7368406936345
 20
-338.9208307609454
 30
0.0
 10
391.5623113891953
 20
-333.5623700464734
 30
0.0
 10
392.0089614466356
 20
-330.8783202167014
 30
0.0
 10
392.488583971994
 20
-328.1911723804096
 30
0.0
  0
LINE
  5
8D
330
1F
100
AcDbEntity
  8
0
  6
Continuous
 62
     7
370
    15
100
AcDbLine
 10
380.3656614724
 20
-344.2609692324
 30
0.0
 11
390.0148637
 21
-344.2609692324
 31
0.0
  0
LINE
  5
8E
330
1F
100
AcDbEntity
  8
0
  6
Continuous
 62
     7
370
    15
100
AcDbLine
 10
380.3656614724
 20
-344.2609692324
 30
0.0
 11
380.3656614724
 21
-342.9131294001
 31
0.0
  0
LINE
  5
8F
330
1F
100
AcDbEntity
  8
0
  6
Continuous
 62
     7
370
    15
100
AcDbLine
 10
379.151432902
 20
-325.8102024305
 30
0.0
 11
380.3656614724
 21
-342.9131294001
 31
0.0
  0
LINE
  5
90
330
1F
100
AcDbEntity
  8
0
  6
Continuous
 62
     7
370
    15
100
AcDbLine
 10
378.5798914138
 20
-325.8102024305
 30
0.0
 11
377.3656628433
 21
-342.9131294001
 31
0.0
  0
LINE
  5
91
330
1F
100
AcDbEntity
  8
0
  6
Continuous
 62
     7
370
    15
100
AcDbLine
 10
377.3656628433
 20
-342.9131294001
 30
0.0
 11
377.3656628433
 21
-344.2609692324
 31
0.0
  0
LINE
  5
92
330
1F
100
AcDbEntity
  8
0
  6
Continuous
 62
     7
370
    15
100
AcDbLine
 10
367.716464341
 20
-344.2609692324
 30
0.0
 11
377.3656628433
 21
-344.2609692324
 31
0.0
  0
SPLINE
  5
93
330
1F
100
AcDbEntity
  8
0
  6
Continuous
 62
     7
370
    15
100
AcDbSpline
210
0.0
220
0.0
230
1.0
 70
     8
 71
     3
 72
    10
 73
     6
 74
     0
 42
0.00000001
 43
0.00000001
 40
0.0
 40
0.0
 40
0.0
 40
0.0
 40
0.5
 40
0.5
 40
1.0
 40
1.0
 40
1.0
 40
1.0
 10
365.2427444161389
 20
-328.1911723804094
 30
0.0
 10
365.7223669401824
 20
-330.878320209334
 30
0.0
 10
366.1690169964883
 20
-333.5623700317553
 30
0.0
 10
366.9944876901586
 20
-338.9208307315909
 30
0.0
 10
367.3733549653124
 20
-341.5954135472233
 30
0.0
 10
367.7164640796479
 20
-344.2609691279764
 30
0.0
  0
SPLINE
  5
94
330
1F
100
AcDbEntity
  8
0
  6
Continuous
 62
     7
370
    15
100
AcDbSpline
210
0.0
220
0.0
230
1.0
 70
     8
 71
     3
 72
    14
 73
    10
 74
     0
 42
0.00000001
 43
0.00000001
 40
0.0
 40
0.0
 40
0.0
 40
0.0
 40
0.0450067611220441
 40
0.1924584836635495
 40
0.4101033145389044
 40
0.6281124151706738
 40
0.8446477283887007
 40
0.9597512426859808
 40
1.0
 40
1.0
 40
1.0
 40
1.0
 10
378.333068579777
 20
-342.7759493101237
 30
0.0
 10
378.3131257551275
 20
-342.764666635528
 30
0.0
 10
378.2278459950131
 20
-342.7164195190898
 30
0.0
 10
378.011881556006
 20
-342.7004160457645
 30
0.0
 10
377.7417061704673
 20
-342.7046732843226
 30
0.0
 10
377.5061392796069
 20
-342.7506774969953
 30
0.0
 10
377.393614812578
 20
-342.7907206292865
 30
0.0
 10
377.3670919692703
 20
-342.7866453753675
 30
0.0
 10
377.36595691409
 20
-342.7614156104374
 30
0.0
 10
377.3656628433306
 20
-342.7548790681956
 30
0.0
  0
SPLINE
  5
95
330
1F
100
AcDbEntity
  8
0
  6
Continuous
 62
     7
370
    15
100
AcDbSpline
210
0.0
220
0.0
230
1.0
 70
     8
 71
     3
 72
    15
 73
    11
 74
     0
 42
0.00000001
 43
0.00000001
 40
0.0
 40
0.0
 40
0.0
 40
0.0
 40
0.080287206651782
 40
0.2296492067869854
 40
0.4389298579372569
 40
0.6497351708679227
 40
0.8665113162073169
 40
0.9462847232219345
 40
0.9895201932867085
 40
0.9999999999999999
 40
0.9999999999999999
 40
0.9999999999999999
 40
0.9999999999999999
 10
380.3656614724238
 20
-342.7548790681956
 30
0.0
 10
380.3644642790787
 20
-342.7658821423281
 30
0.0
 10
380.3610398916382
 20
-342.7973547436573
 30
0.0
 10
380.3082472359127
 20
-342.7775344354284
 30
0.0
 10
380.1610960588559
 20
-342.7351846893743
 30
0.0
 10
379.9090262272233
 20
-342.6989313064601
 30
0.0
 10
379.6589816076002
 20
-342.6997131075642
 30
0.0
 10
379.4893876468003
 20
-342.732506898273
 30
0.0
 10
379.4236101724313
 20
-342.7561067704569
 30
0.0
 10
379.4024010659448
 20
-342.7727100280931
 30
0.0
 10
379.398263186558
 20
-342.7759493101237
 30
0.0
  0
SPLINE
  5
96
330
1F
100
AcDbEntity
  8
0
  6
Continuous
 62
     7
370
    15
100
AcDbSpline
210
0.0
220
0.0
230
1.0
 70
     8
 71
     3
 72
     8
 73
     4
 74
     0
 42
0.00000001
 43
0.00000001
 40
0.0
 40
0.0
 40
0.0
 40
0.0
 40
1.0
 40
1.0
 40
1.0
 40
1.0
 10
379.3982600053583
 20
-342.7759465949082
 30
0.0
 10
379.3873934672496
 20
-342.7856343472727
 30
0.0
 10
379.3764929650738
 20
-342.7953445852149
 30
0.0
 10
379.3656717392608
 20
-342.8049843022708
 30
0.0
  0
LINE
  5
97
330
1F
100
AcDbEntity
  8
0
  6
Continuous
 62
     7
370
    15
100
AcDbLine
 10
378.3656648699
 20
-342.8049767721
 30
0.0
 11
379.3656668964
 21
-342.8049767721
 31
0.0
  0
SPLINE
  5
98
330
1F
100
AcDbEntity
  8
0
  6
Continuous
 62
     7
370
    15
100
AcDbSpline
210
0.0
220
0.0
230
1.0
 70
     8
 71
     3
 72
     9
 73
     5
 74
     0
 42
0.00000001
 43
0.00000001
 40
0.0
 40
0.0
 40
0.0
 40
0.0
 40
0.8631251573419021
 40
1.0
 40
1.0
 40
1.0
 40
1.0
 10
378.333068579777
 20
-342.7759493101237
 30
0.0
 10
378.3424347119476
 20
-342.784313795271
 30
0.0
 10
378.3532861302974
 20
-342.7940047248846
 30
0.0
 10
378.3641745228686
 20
-342.8036557848191
 30
0.0
 10
378.3656648698885
 20
-342.8049767721293
 30
0.0
  0
LINE
  5
99
330
1F
100
AcDbEntity
  8
0
  6
Continuous
 62
     7
370
    15
100
AcDbLine
 10
367.239783645
 20
-343.9838970411
 30
0.0
 11
367.2387368384
 21
-343.9738238562
 31
0.0
  0
LINE
  5
9A
330
1F
100
AcDbEntity
  8
0
  6
Continuous
 62
     7
370
    15
100
AcDbLine
 10
378.3656648699
 20
-343.3506274927
 30
0.0
 11
378.3656648699
 21
-342.8049767721
 31
0.0
  0
ARC
  5
9B
330
1F
100
AcDbEntity
  8
0
  6
Continuous
 62
     7
370
    15
100
AcDbCircle
 10
378.3656641941
 20
-344.3506173288
 30
0.0
 40
1.0
100
AcDbArc
 50
90.0
 51
180.0
  0
ARC
  5
9C
330
1F
100
AcDbEntity
  8
0
  6
Continuous
 62
     7
370
    15
100
AcDbCircle
 10
379.3656641941
 20
-344.3506173288
 30
0.0
 40
1.0
100
AcDbArc
 50
0.0
 51
90.0
  0
LINE
  5
9D
330
1F
100
AcDbEntity
  8
0
  6
Continuous
 62
     7
370
    15
100
AcDbLine
 10
379.3656668964
 20
-342.8049767721
 30
0.0
 11
379.3656668964
 21
-343.3506274927
 31
0.0
  0
ARC
  5
9E
330
1F
100
AcDbEntity
  8
0
  6
Continuous
 62
     7
370
    15
100
AcDbCircle
 10
389.3559248169
 20
-344.2053134935
 30
0.0
 40
0.661285122315464
100
AcDbArc
 50
282.6256118287
 51
355.1721042411
  0
LINE
  5
9F
330
1F
100
AcDbEntity
  8
0
  6
Continuous
 62
     7
370
    15
100
AcDbLine
 10
389.500468165
 20
-344.8506081808
 30
0.0
 11
380.3656614724
 21
-344.8506081808
 31
0.0
  0
SPLINE
  5
A0
330
1F
100
AcDbEntity
  8
0
  6
Continuous
 62
     7
370
    15
100
AcDbSpline
210
0.0
220
0.0
230
1.0
 70
    24
 71
     3
 72
    11
 73
     7
 74
     0
 42
0.00000001
 43
0.00000001
 40
0.0
 40
0.0
 40
0.0
 40
0.0
 40
0.294731980655085
 40
0.5894742008860638
 40
0.8837717785491088
 40
1.0
 40
1.0
 40
1.0
 40
1.0
 10
380.3656614724238
 20
-344.8506081808207
 30
0.0
 10
380.3656614724238
 20
-344.8395288409309
 30
0.0
 10
380.3656614724238
 20
-344.8173697762328
 30
0.0
 10
380.3656614724238
 20
-344.6438942209248
 30
0.0
 10
380.3656614724238
 20
-344.4410538257256
 30
0.0
 10
380.3656614724238
 20
-344.3007048797186
 30
0.0
 10
380.3656614724238
 20
-344.2609692323801
 30
0.0
  0
LINE
  5
A1
330
1F
100
AcDbEntity
  8
0
  6
Continuous
 62
     7
370
    15
100
AcDbLine
 10
377.3656628433
 20
-344.8506081808
 30
0.0
 11
368.230859876
 21
-344.8506081808
 31
0.0
  0
ARC
  5
A2
330
1F
100
AcDbEntity
  8
0
  6
Continuous
 62
     7
370
    15
100
AcDbCircle
 10
368.3754010076
 20
-344.2053154272
 30
0.0
 40
0.6612827508876621
100
AcDbArc
 50
184.8277449747
 51
257.3745389554
  0
SPLINE
  5
A3
330
1F
100
AcDbEntity
  8
0
  6
Continuous
 62
     7
370
    15
100
AcDbSpline
210
0.0
220
0.0
230
1.0
 70
    24
 71
     3
 72
    11
 73
     7
 74
     0
 42
0.00000001
 43
0.00000001
 40
0.0
 40
0.0
 40
0.0
 40
0.0
 40
0.293322866071425
 40
0.5866077361330518
 40
0.8805037111238823
 40
1.0
 40
1.0
 40
1.0
 40
1.0
 10
377.3656628433306
 20
-344.2609692323801
 30
0.0
 10
377.3656628433306
 20
-344.3590336056455
 30
0.0
 10
377.3656628433306
 20
-344.5551496492633
 30
0.0
 10
377.3656628433306
 20
-344.7562225748196
 30
0.0
 10
377.3656628433306
 20
-344.8422278921579
 30
0.0
 10
377.3656628433306
 20
-344.8487289635065
 30
0.0
 10
377.3656628433306
 20
-344.8506081808207
 30
0.0
  0
LINE
  5
A4
330
1F
100
AcDbEntity
  8
0
  6
Continuous
 62
     7
370
    15
100
AcDbLine
 10
379.3656668964
 20
-343.3506274927
 30
0.0
 11
378.3656648699
 21
-343.3506274927
 31
0.0
  0
LINE
  5
A5
330
1F
100
AcDbEntity
  8
0
  6
Continuous
 62
     7
370
    15
100
AcDbLine
 10
380.3656614724
 20
-344.3506146181
 30
0.0
 11
377.3656628433
 21
-344.3506146181
 31
0.0
  0
LINE
  5
A6
330
1F
100
AcDbEntity
  8
0
  6
Continuous
 62
     7
370
    15
100
AcDbLine
 10
377.3656628433
 20
-344.8506081808
 30
0.0
 11
380.3656614724
 21
-344.8506081808
 31
0.0
  0
LINE
  5
A7
330
1F
100
AcDbEntity
  8
0
  6
Continuous
 62
     7
370
    15
100
AcDbLine
 10
503.9656601254
 20
-190.2503157366
 30
0.0
 11
501.1656574312
 21
-190.2503157366
 31
0.0
  0
LINE
  5
A8
330
1F
100
AcDbEntity
  8
0
  6
Continuous
 62
     7
370
    15
100
AcDbLine
 10
-90.834335297
 20
-190.2503157366
 30
0.0
 11
-93.63432309
 21
-190.2503157366
 31
0.0
  0
LINE
  5
A9
330
1F
100
AcDbEntity
  8
0
  6
Continuous
 62
     7
370
    15
100
AcDbLine
 10
503.9656601254
 20
-192.7003348578
 30
0.0
 11
503.9656601254
 21
-190.2503157366
 31
0.0
  0
LINE
  5
AA
330
1F
100
AcDbEntity
  8
0
  6
Continuous
 62
     7
370
    15
100
AcDbLine
 10
-93.63432309
 20
-192.7003348578
 30
0.0
 11
-93.63432309
 21
-190.2503157366
 31
0.0
  0
LINE
  5
AB
330
1F
100
AcDbEntity
  8
0
  6
Continuous
 62
     7
370
    15
100
AcDbLine
 10
503.9656601254
 20
-284.0171242464
 30
0.0
 11
503.9656601254
 21
-192.7003348578
 31
0.0
  0
LINE
  5
AC
330
1F
100
AcDbEntity
  8
0
  6
Continuous
 62
     7
370
    15
100
AcDbLine
 10
503.9656601254
 20
-284.0171242464
 30
0.0
 11
-93.63432309
 21
-284.0171242464
 31
0.0
  0
LINE
  5
AD
330
1F
100
AcDbEntity
  8
0
  6
Continuous
 62
     7
370
    15
100
AcDbLine
 10
-93.63432309
 20
-284.0171242464
 30
0.0
 11
-93.63432309
 21
-192.7003348578
 31
0.0
  0
LINE
  5
AE
330
1F
100
AcDbEntity
  8
0
  6
Continuous
 62
     7
370
    15
100
AcDbLine
 10
503.9656601254
 20
-307.3171163309
 30
0.0
 11
503.9656601254
 21
-284.0171242464
 31
0.0
  0
LINE
  5
AF
330
1F
100
AcDbEntity
  8
0
  6
Continuous
 62
     7
370
    15
100
AcDbLine
 10
-93.63432309
 20
-307.3171163309
 30
0.0
 11
-93.63432309
 21
-284.0171242464
 31
0.0
  0
LINE
  5
B0
330
1F
100
AcDbEntity
  8
0
  6
Continuous
 62
     7
370
    15
100
AcDbLine
 10
502.6656679216
 20
-190.2503157366
 30
0.0
 11
502.6656679216
 21
-189.7503221739
 31
0.0
  0
LINE
  5
B1
330
1F
100
AcDbEntity
  8
0
  6
Continuous
 62
     7
370
    15
100
AcDbLine
 10
-92.3343457874
 20
-189.7503221739
 30
0.0
 11
-92.3343457874
 21
-190.2503157366
 31
0.0
  0
LINE
  5
B2
330
1F
100
AcDbEntity
  8
0
  6
Continuous
 62
     7
370
    15
100
AcDbLine
 10
505.1656655375
 20
-189.0003169287
 30
0.0
 11
505.1656655375
 21
405.4496800196
 31
0.0
  0
LINE
  5
B3
330
1F
100
AcDbEntity
  8
0
  6
Continuous
 62
     7
370
    15
100
AcDbLine
 10
504.1656635109
 20
-189.0003169287
 30
0.0
 11
505.1656655375
 21
-189.0003169287
 31
0.0
  0
LINE
  5
B4
330
1F
100
AcDbEntity
  8
0
  6
Continuous
 62
     7
370
    15
100
AcDbLine
 10
-93.8343264755
 20
-189.0003169287
 30
0.0
 11
-94.8343434032
 21
-189.0003169287
 31
0.0
  0
LINE
  5
B5
330
1F
100
AcDbEntity
  8
0
  6
Continuous
 62
     7
370
    15
100
AcDbLine
 10
-94.8343434032
 20
-189.0003169287
 30
0.0
 11
-94.8343434032
 21
405.4496800196
 31
0.0
  0
LINE
  5
B6
330
1F
100
AcDbEntity
  8
0
  6
Continuous
 62
     7
370
    15
100
AcDbLine
 10
-94.8343434032
 20
-190.5003274191
 30
0.0
 11
-93.63432309
 21
-190.5003274191
 31
0.0
  0
LINE
  5
B7
330
1F
100
AcDbEntity
  8
0
  6
Continuous
 62
     7
370
    15
100
AcDbLine
 10
-94.8343434032
 20
-190.5003274191
 30
0.0
 11
-94.8343434032
 21
-189.0003169287
 31
0.0
  0
LINE
  5
B8
330
1F
100
AcDbEntity
  8
0
  6
Continuous
 62
     7
370
    15
100
AcDbLine
 10
-93.63432309
 20
-190.2503157366
 30
0.0
 11
-93.63432309
 21
-189.7503221739
 31
0.0
  0
LINE
  5
B9
330
1F
100
AcDbEntity
  8
0
  6
Continuous
 62
     7
370
    15
100
AcDbLine
 10
505.1656655375
 20
-190.5003274191
 30
0.0
 11
503.9656601254
 21
-190.5003274191
 31
0.0
  0
LINE
  5
BA
330
1F
100
AcDbEntity
  8
0
  6
Continuous
 62
     7
370
    15
100
AcDbLine
 10
503.9656601254
 20
-189.7503221739
 30
0.0
 11
503.9656601254
 21
-190.2503157366
 31
0.0
  0
LINE
  5
BB
330
1F
100
AcDbEntity
  8
0
  6
Continuous
 62
     7
370
    15
100
AcDbLine
 10
505.1656655375
 20
-189.0003169287
 30
0.0
 11
505.1656655375
 21
-190.5003274191
 31
0.0
  0
LINE
  5
BC
330
1F
100
AcDbEntity
  8
0
  6
Continuous
 62
     7
370
    15
100
AcDbLine
 10
-85.3343465027
 20
402.7763222944
 30
0.0
 11
-85.3343465027
 21
404.5889591467
 31
0.0
  0
LWPOLYLINE
  5
BD
330
1F
100
AcDbEntity
  8
0
  6
Continuous
 62
     7
370
    15
100
AcDbPolyline
 90
        9
 70
   128
 43
0.0
 10
-90.3343417343
 20
400.6632482302
 10
-90.2382590469
 20
401.0755037557
 10
-89.9537362751
 20
401.4719044458
 10
-89.4916810688
 20
401.8372213137
 10
-88.8698556122
 20
402.1574174654
 10
-88.1121911701
 20
402.4202143442
 10
-87.2477450069
 20
402.6154791605
 10
-86.3097765144
 20
402.7357315313
 10
-85.3343465027
 20
402.7763222944
  0
LINE
  5
BE
330
1F
100
AcDbEntity
  8
0
  6
Continuous
 62
     7
370
    15
100
AcDbLine
 10
-90.3343417343
 20
400.6632482302
 30
0.0
 11
-90.3343417343
 21
402.4758552801
 31
0.0
  0
LWPOLYLINE
  5
BF
330
1F
100
AcDbEntity
  8
0
  6
Continuous
 62
     7
370
    15
100
AcDbPolyline
 90
        9
 70
   128
 43
0.0
 10
-90.3343417343
 20
402.4758552801
 10
-90.2382590469
 20
402.8881108057
 10
-89.9537362751
 20
403.2845114958
 10
-89.4916810688
 20
403.6498283636
 10
-88.8698556122
 20
403.9700543177
 10
-88.1121911701
 20
404.2328213941
 10
-87.2477450069
 20
404.4281160128
 10
-86.3097765144
 20
404.5483385813
 10
-85.3343465027
 20
404.5889591467
  0
LINE
  5
C0
330
1F
100
AcDbEntity
  8
0
  6
Continuous
 62
     7
370
    15
100
AcDbLine
 10
495.6656686369
 20
402.7763222944
 30
0.0
 11
495.6656686369
 21
404.5889591467
 31
0.0
  0
LINE
  5
C1
330
1F
100
AcDbEntity
  8
0
  6
Continuous
 62
     7
370
    15
100
AcDbLine
 10
-85.3343465027
 20
402.7763222944
 30
0.0
 11
495.6656686369
 21
402.7763222944
 31
0.0
  0
LINE
  5
C2
330
1F
100
AcDbEntity
  8
0
  6
Continuous
 62
     7
370
    15
100
AcDbLine
 10
-85.3343465027
 20
404.5889591467
 30
0.0
 11
495.6656686369
 21
404.5889591467
 31
0.0
  0
LWPOLYLINE
  5
C3
330
1F
100
AcDbEntity
  8
0
  6
Continuous
 62
     7
370
    15
100
AcDbPolyline
 90
        9
 70
   128
 43
0.0
 10
495.6656686369
 20
402.7763222944
 10
496.6411135498
 20
402.7357315313
 10
497.5790820423
 20
402.6154791605
 10
498.4435133043
 20
402.4202143442
 10
499.2011926476
 20
402.1574174654
 10
499.8230181042
 20
401.8372213137
 10
500.2850584093
 20
401.4719044458
 10
500.5695960823
 20
401.0755037557
 10
500.6656638685
 20
400.6632482302
  0
LINE
  5
C4
330
1F
100
AcDbEntity
  8
0
  6
Continuous
 62
     7
370
    15
100
AcDbLine
 10
500.6656638685
 20
400.6632482302
 30
0.0
 11
500.6656638685
 21
396.5775882494
 31
0.0
  0
LINE
  5
C5
330
1F
100
AcDbEntity
  8
0
  6
Continuous
 62
     7
370
    15
100
AcDbLine
 10
-90.3343417343
 20
396.5775882494
 30
0.0
 11
500.6656638685
 21
396.5775882494
 31
0.0
  0
LINE
  5
C6
330
1F
100
AcDbEntity
  8
0
  6
Continuous
 62
     7
370
    15
100
AcDbLine
 10
-90.3343417343
 20
396.5775882494
 30
0.0
 11
-90.3343417343
 21
400.6632482302
 31
0.0
  0
LINE
  5
C7
330
1F
100
AcDbEntity
  8
0
  6
Continuous
 62
     7
370
    15
100
AcDbLine
 10
500.6656638685
 20
400.6632482302
 30
0.0
 11
500.6656638685
 21
402.4758552801
 31
0.0
  0
LWPOLYLINE
  5
C8
330
1F
100
AcDbEntity
  8
0
  6
Continuous
 62
     7
370
    15
100
AcDbPolyline
 90
        9
 70
   128
 43
0.0
 10
495.6656686369
 20
404.5889591467
 10
496.6411135498
 20
404.5483385813
 10
497.5790820423
 20
404.4281160128
 10
498.4435133043
 20
404.2328213941
 10
499.2011926476
 20
403.9700543177
 10
499.8230181042
 20
403.6498283636
 10
500.2850584093
 20
403.2845114958
 10
500.5695960823
 20
402.8881108057
 10
500.6656638685
 20
402.4758552801
  0
LINE
  5
C9
330
1F
100
AcDbEntity
  8
0
  6
Continuous
 62
     7
370
    15
100
AcDbLine
 10
500.6656638685
 20
396.5775882494
 30
0.0
 11
500.6656638685
 21
396.2496732962
 31
0.0
  0
LINE
  5
CA
330
1F
100
AcDbEntity
  8
0
  6
Continuous
 62
     7
370
    15
100
AcDbLine
 10
500.6656638685
 20
396.2496732962
 30
0.0
 11
-90.3343417343
 21
396.2496732962
 31
0.0
  0
LINE
  5
CB
330
1F
100
AcDbEntity
  8
0
  6
Continuous
 62
     7
370
    15
100
AcDbLine
 10
-90.3343417343
 20
396.2496732962
 30
0.0
 11
-90.3343417343
 21
396.5775882494
 31
0.0
  0
SPLINE
  5
CC
330
1F
100
AcDbEntity
  8
0
  6
Continuous
 62
     7
370
    15
100
AcDbSpline
210
0.0
220
0.0
230
1.0
 70
     8
 71
     3
 72
    14
 73
    10
 74
     0
 42
0.00000001
 43
0.00000001
 40
0.0
 40
0.0
 40
0.0
 40
0.0
 40
0.25
 40
0.25
 40
0.5
 40
0.5
 40
0.75
 40
0.75
 40
1.0
 40
1.0
 40
1.0
 40
1.0
 10
504.1656641940385
 20
394.7496927169232
 30
0.0
 10
504.165662337037
 20
395.2078404633609
 30
0.0
 10
504.0745653250146
 20
395.6658075808438
 30
0.0
 10
503.7239116472704
 20
396.5123531664811
 30
0.0
 10
503.4644929473783
 20
396.9005985585222
 30
0.0
 10
502.8165728776929
 20
397.5485160020107
 30
0.0
 10
502.428326434158
 20
397.8079331282331
 30
0.0
 10
501.5817794272297
 20
398.1585833746871
 30
0.0
 10
501.1238119405088
 20
398.2496785304391
 30
0.0
 10
500.6656641940673
 20
398.2496785304391
 30
0.0
  0
LINE
  5
CD
330
1F
100
AcDbEntity
  8
0
  6
Continuous
 62
     7
370
    15
100
AcDbLine
 10
502.1656594578
 20
394.7496926081
 30
0.0
 11
504.1656635109
 21
394.7496926081
 31
0.0
  0
SPLINE
  5
CE
330
1F
100
AcDbEntity
  8
0
  6
Continuous
 62
     7
370
    15
100
AcDbSpline
210
0.0
220
0.0
230
1.0
 70
     8
 71
     3
 72
    14
 73
    10
 74
     0
 42
0.00000001
 43
0.00000001
 40
0.0
 40
0.0
 40
0.0
 40
0.0
 40
0.25
 40
0.25
 40
0.5
 40
0.5
 40
0.75
 40
0.75
 40
1.0
 40
1.0
 40
1.0
 40
1.0
 10
502.1656641940007
 20
394.7496926604621
 30
0.0
 10
502.1656623443961
 20
394.9460410238008
 30
0.0
 10
502.1266199845375
 20
395.1423117665271
 30
0.0
 10
501.9763388900733
 20
395.5051151730762
 30
0.0
 10
501.8651592832481
 20
395.6715050926624
 30
0.0
 10
501.5874794569876
 20
395.9491823031871
 30
0.0
 10
501.4210884900951
 20
396.0603603426117
 30
0.0
 10
501.0582836679121
 20
396.2106380194555
 30
0.0
 10
500.8620125574148
 20
396.2496785304391
 30
0.0
 10
500.6656641940673
 20
396.2496785304391
 30
0.0
  0
SPLINE
  5
CF
330
1F
100
AcDbEntity
  8
0
  6
Continuous
 62
     7
370
    15
100
AcDbSpline
210
0.0
220
0.0
230
1.0
 70
     8
 71
     3
 72
    11
 73
     7
 74
     0
 42
0.00000001
 43
0.00000001
 40
0.0
 40
0.0
 40
0.0
 40
0.0
 40
0.2500010885880584
 40
0.5000086102165701
 40
0.7499999002437381
 40
1.0
 40
1.0
 40
1.0
 40
1.0
 10
-90.3343417343061
 20
396.2496732961538
 30
0.0
 10
-90.53089661265918
 20
396.2271298050815
 30
0.0
 10
-90.92401142712525
 20
396.1820422428466
 30
0.0
 10
-91.41982000850324
 20
395.8351563902494
 30
0.0
 10
-91.76669136381066
 20
395.3393519858612
 30
0.0
 10
-91.81177847139632
 20
394.9462480427921
 30
0.0
 10
-91.83432242240119
 20
394.7496926080587
 30
0.0
  0
LINE
  5
D0
330
1F
100
AcDbEntity
  8
0
  6
Continuous
 62
     7
370
    15
100
AcDbLine
 10
-91.8343224224
 20
394.7496926081
 30
0.0
 11
-93.8343264755
 21
394.7496926081
 31
0.0
  0
SPLINE
  5
D1
330
1F
100
AcDbEntity
  8
0
  6
Continuous
 62
     7
370
    15
100
AcDbSpline
210
0.0
220
0.0
230
1.0
 70
     8
 71
     3
 72
    14
 73
    10
 74
     0
 42
0.00000001
 43
0.00000001
 40
0.0
 40
0.0
 40
0.0
 40
0.0
 40
0.25
 40
0.25
 40
0.5
 40
0.5
 40
0.75
 40
0.75
 40
1.0
 40
1.0
 40
1.0
 40
1.0
 10
-90.3343358059327
 20
398.2496785304391
 30
0.0
 10
-90.79248355237112
 20
398.2496785304391
 30
0.0
 10
-91.2504510390893
 20
398.1585833746882
 30
0.0
 10
-92.09699804601307
 20
397.8079331282385
 30
0.0
 10
-92.48524448954637
 20
397.5485160020194
 30
0.0
 10
-93.13316455923088
 20
396.9005985585383
 30
0.0
 10
-93.39258325912381
 20
396.5123531665012
 30
0.0
 10
-93.7432369368721
 20
395.665807580872
 30
0.0
 10
-93.83433394889774
 20
395.2078404633929
 30
0.0
 10
-93.83433580590395
 20
394.7496927169581
 30
0.0
  0
LINE
  5
D2
330
1F
100
AcDbEntity
  8
0
  6
Continuous
 62
     7
370
    15
100
AcDbLine
 10
504.1656635109
 20
-175.2213621843
 30
0.0
 11
502.1656594578
 21
-175.2213621843
 31
0.0
  0
LINE
  5
D3
330
1F
100
AcDbEntity
  8
0
  6
Continuous
 62
     7
370
    15
100
AcDbLine
 10
504.1656635109
 20
394.7496926081
 30
0.0
 11
504.1656635109
 21
-175.2213621843
 31
0.0
  0
LINE
  5
D4
330
1F
100
AcDbEntity
  8
0
  6
Continuous
 62
     7
370
    15
100
AcDbLine
 10
502.1656594578
 20
394.7496926081
 30
0.0
 11
502.1656594578
 21
-175.2213621843
 31
0.0
  0
LINE
  5
D5
330
1F
100
AcDbEntity
  8
0
  6
Continuous
 62
     7
370
    15
100
AcDbLine
 10
-93.8343264755
 20
-175.2213621843
 30
0.0
 11
-91.8343224224
 21
-175.2213621843
 31
0.0
  0
LINE
  5
D6
330
1F
100
AcDbEntity
  8
0
  6
Continuous
 62
     7
370
    15
100
AcDbLine
 10
-93.8343264755
 20
-175.2213621843
 30
0.0
 11
-93.8343264755
 21
394.7496926081
 31
0.0
  0
LINE
  5
D7
330
1F
100
AcDbEntity
  8
0
  6
Continuous
 62
     7
370
    15
100
AcDbLine
 10
-91.8343224224
 20
-175.2213621843
 30
0.0
 11
-91.8343224224
 21
394.7496926081
 31
0.0
  0
LINE
  5
D8
330
1F
100
AcDbEntity
  8
0
  6
Continuous
 62
     7
370
    15
100
AcDbLine
 10
504.1656635109
 20
-181.7963803518
 30
0.0
 11
502.1656594578
 21
-181.7963803518
 31
0.0
  0
LINE
  5
D9
330
1F
100
AcDbEntity
  8
0
  6
Continuous
 62
     7
370
    15
100
AcDbLine
 10
504.1656635109
 20
-175.2213621843
 30
0.0
 11
504.1656635109
 21
-181.7963803518
 31
0.0
  0
LINE
  5
DA
330
1F
100
AcDbEntity
  8
0
  6
Continuous
 62
     7
370
    15
100
AcDbLine
 10
502.1656594578
 20
-175.2213621843
 30
0.0
 11
502.1656594578
 21
-181.7963803518
 31
0.0
  0
LINE
  5
DB
330
1F
100
AcDbEntity
  8
0
  6
Continuous
 62
     7
370
    15
100
AcDbLine
 10
-93.8343264755
 20
-181.7963803518
 30
0.0
 11
-91.8343224224
 21
-181.7963803518
 31
0.0
  0
LINE
  5
DC
330
1F
100
AcDbEntity
  8
0
  6
Continuous
 62
     7
370
    15
100
AcDbLine
 10
-93.8343264755
 20
-181.7963803518
 30
0.0
 11
-93.8343264755
 21
-175.2213621843
 31
0.0
  0
LINE
  5
DD
330
1F
100
AcDbEntity
  8
0
  6
Continuous
 62
     7
370
    15
100
AcDbLine
 10
-91.8343224224
 20
-181.7963803518
 30
0.0
 11
-91.8343224224
 21
-175.2213621843
 31
0.0
  0
LINE
  5
DE
330
1F
100
AcDbEntity
  8
0
  6
Continuous
 62
     7
370
    15
100
AcDbLine
 10
504.1656635109
 20
-189.7503221739
 30
0.0
 11
502.1656594578
 21
-189.7503221739
 31
0.0
  0
LINE
  5
DF
330
1F
100
AcDbEntity
  8
0
  6
Continuous
 62
     7
370
    15
100
AcDbLine
 10
504.1656635109
 20
-181.7963803518
 30
0.0
 11
504.1656635109
 21
-189.7503221739
 31
0.0
  0
LINE
  5
E0
330
1F
100
AcDbEntity
  8
0
  6
Continuous
 62
     7
370
    15
100
AcDbLine
 10
502.1656594578
 20
-181.7963803518
 30
0.0
 11
502.1656594578
 21
-189.7143507708
 31
0.0
  0
LINE
  5
E1
330
1F
100
AcDbEntity
  8
0
  6
Continuous
 62
     7
370
    15
100
AcDbLine
 10
-93.8343264755
 20
-189.7503221739
 30
0.0
 11
-91.8343224224
 21
-189.7503221739
 31
0.0
  0
LINE
  5
E2
330
1F
100
AcDbEntity
  8
0
  6
Continuous
 62
     7
370
    15
100
AcDbLine
 10
-93.8343264755
 20
-189.7503221739
 30
0.0
 11
-93.8343264755
 21
-181.7963803518
 31
0.0
  0
LINE
  5
E3
330
1F
100
AcDbEntity
  8
0
  6
Continuous
 62
     7
370
    15
100
AcDbLine
 10
-91.8343224224
 20
-189.7143507708
 30
0.0
 11
-91.8343224224
 21
-181.7963803518
 31
0.0
  0
LINE
  5
E4
330
1F
100
AcDbEntity
  8
0
  6
Continuous
 62
     7
370
    15
100
AcDbLine
 10
479.6656660143
 20
477.5493954908
 30
0.0
 11
457.6656661335
 21
477.5493954908
 31
0.0
  0
SPLINE
  5
E5
330
1F
100
AcDbEntity
  8
0
  6
Continuous
 62
     7
370
    15
100
AcDbSpline
210
0.0
220
0.0
230
1.0
 70
    24
 71
     3
 72
    14
 73
    10
 74
     0
 42
0.00000001
 43
0.00000001
 40
0.0
 40
0.0
 40
0.0
 40
0.0
 40
0.2500000000000001
 40
0.2500000000000001
 40
0.5000000000000001
 40
0.5000000000000001
 40
0.7500000000000002
 40
0.7500000000000002
 40
1.0
 40
1.0
 40
1.0
 40
1.0
 10
318.9656641940654
 20
-326.05061732883
 30
0.0
 10
318.9656641940654
 20
-326.05061732883
 30
0.0
 10
319.4819384790113
 20
-326.05061732883
 30
0.0
 10
321.3197422210546
 20
-326.05061732883
 30
0.0
 10
322.5661387315278
 20
-326.05061732883
 30
0.0
 10
325.1651861707456
 20
-326.05061732883
 30
0.0
 10
326.4115830484961
 20
-326.05061732883
 30
0.0
 10
328.2493880979524
 20
-326.05061732883
 30
0.0
 10
328.7656632695844
 20
-326.05061732883
 30
0.0
 10
328.765664194065
 20
-326.05061732883
 30
0.0
  0
LINE
  5
E6
330
1F
100
AcDbEntity
  8
0
  6
Continuous
 62
     7
370
    15
100
AcDbLine
 10
-90.834335297
 20
-186.5003193129
 30
0.0
 11
-90.834335297
 21
-184.050329994
 31
0.0
  0
LINE
  5
E7
330
1F
100
AcDbEntity
  8
0
  6
Continuous
 62
     7
370
    15
100
AcDbLine
 10
501.1656574312
 20
-184.050329994
 30
0.0
 11
-90.834335297
 21
-184.050329994
 31
0.0
  0
LINE
  5
E8
330
1F
100
AcDbEntity
  8
0
  6
Continuous
 62
     7
370
    15
100
AcDbLine
 10
501.1656574312
 20
-186.5003193129
 30
0.0
 11
-90.834335297
 21
-186.5003193129
 31
0.0
  0
LINE
  5
E9
330
1F
100
AcDbEntity
  8
0
  6
Continuous
 62
     7
370
    15
100
AcDbLine
 10
501.1656574312
 20
-184.050329994
 30
0.0
 11
501.1656574312
 21
-186.5003193129
 31
0.0
  0
LINE
  5
EA
330
1F
100
AcDbEntity
  8
0
  6
Continuous
 62
     7
370
    15
100
AcDbLine
 10
-90.834335297
 20
-210.0857580412
 30
0.0
 11
501.1656574312
 21
-210.0857580412
 31
0.0
  0
LINE
  5
EB
330
1F
100
AcDbEntity
  8
0
  6
Continuous
 62
     7
370
    15
100
AcDbLine
 10
-90.834335297
 20
-186.5003193129
 30
0.0
 11
-90.834335297
 21
-210.0857580412
 31
0.0
  0
LINE
  5
EC
330
1F
100
AcDbEntity
  8
0
  6
Continuous
 62
     7
370
    15
100
AcDbLine
 10
501.1656574312
 20
-210.0857580412
 30
0.0
 11
501.1656574312
 21
-186.5003193129
 31
0.0
  0
LINE
  5
ED
330
1F
100
AcDbEntity
  8
0
  6
Continuous
 62
     7
370
    15
100
AcDbLine
 10
501.1656574312
 20
-210.7198620546
 30
0.0
 11
-90.834335297
 21
-210.7198620546
 31
0.0
  0
LINE
  5
EE
330
1F
100
AcDbEntity
  8
0
  6
Continuous
 62
     7
370
    15
100
AcDbLine
 10
-90.834335297
 20
-210.7198620546
 30
0.0
 11
-90.834335297
 21
-210.0857580412
 31
0.0
  0
LINE
  5
EF
330
1F
100
AcDbEntity
  8
0
  6
Continuous
 62
     7
370
    15
100
AcDbLine
 10
501.1656574312
 20
-210.0857580412
 30
0.0
 11
501.1656574312
 21
-210.7198620546
 31
0.0
  0
ARC
  5
F0
330
1F
100
AcDbEntity
  8
0
  6
Continuous
 62
     7
370
    15
100
AcDbCircle
 10
496.249394296
 20
-213.3719962714
 30
0.0
 40
4.917027554150168
100
AcDbArc
 50
269.0242626104
 51
358.9896830467
  0
LINE
  5
F1
330
1F
100
AcDbEntity
  8
0
  6
Continuous
 62
     7
370
    15
100
AcDbLine
 10
496.1656621996
 20
-218.2883108366
 30
0.0
 11
-85.8343400654
 21
-218.2883108366
 31
0.0
  0
ARC
  5
F2
330
1F
100
AcDbEntity
  8
0
  6
Continuous
 62
     7
370
    15
100
AcDbCircle
 10
-85.9180515346
 20
-213.3719749165
 30
0.0
 40
4.917048554686007
100
AcDbArc
 50
181.0105615133
 51
270.9754928296
  0
LINE
  5
F3
330
1F
100
AcDbEntity
  8
0
  6
Continuous
 62
     7
370
    15
100
AcDbLine
 10
-90.834335297
 20
-213.4586954821
 30
0.0
 11
-90.834335297
 21
-210.7198620546
 31
0.0
  0
LINE
  5
F4
330
1F
100
AcDbEntity
  8
0
  6
Continuous
 62
     7
370
    15
100
AcDbLine
 10
501.1656574312
 20
-210.7198620546
 30
0.0
 11
501.1656574312
 21
-213.4586954821
 31
0.0
  0
ARC
  5
F5
330
1F
100
AcDbEntity
  8
0
  6
Continuous
 62
     7
370
    15
100
AcDbCircle
 10
40.1656641941
 20
-128.8506173288
 30
0.0
 40
6.350000000000009
100
AcDbArc
 50
206.3500697893
 51
270.0
  0
LINE
  5
F6
330
1F
100
AcDbEntity
  8
0
  6
Continuous
 62
     7
370
    15
100
AcDbLine
 10
40.1656768623
 20
-135.2006281126
 30
0.0
 11
54.4918618504
 21
-135.2006281126
 31
0.0
  0
LINE
  5
F7
330
1F
100
AcDbEntity
  8
0
  6
Continuous
 62
     7
370
    15
100
AcDbLine
 10
-94.8343434032
 20
-190.5503357161
 30
0.0
 11
-94.8343434032
 21
-190.5003274191
 31
0.0
  0
LINE
  5
F8
330
1F
100
AcDbEntity
  8
0
  6
Continuous
 62
     7
370
    15
100
AcDbLine
 10
505.1656655375
 20
-192.5503099669
 30
0.0
 11
503.9656601254
 21
-192.5503099669
 31
0.0
  0
LINE
  5
F9
330
1F
100
AcDbEntity
  8
0
  6
Continuous
 62
     7
370
    15
100
AcDbLine
 10
505.1656655375
 20
-283.5503304709
 30
0.0
 11
503.9656601254
 21
-283.5503304709
 31
0.0
  0
LINE
  5
FA
330
1F
100
AcDbEntity
  8
0
  6
Continuous
 62
     7
370
    15
100
AcDbLine
 10
505.1656655375
 20
-283.5503304709
 30
0.0
 11
505.1656655375
 21
-192.5503099669
 31
0.0
  0
LINE
  5
FB
330
1F
100
AcDbEntity
  8
0
  6
Continuous
 62
     7
370
    15
100
AcDbLine
 10
505.1656655375
 20
-190.5503357161
 30
0.0
 11
503.9656601254
 21
-190.5503357161
 31
0.0
  0
LINE
  5
FC
330
1F
100
AcDbEntity
  8
0
  6
Continuous
 62
     7
370
    15
100
AcDbLine
 10
505.1656655375
 20
-192.5503099669
 30
0.0
 11
505.1656655375
 21
-190.5503357161
 31
0.0
  0
LINE
  5
FD
330
1F
100
AcDbEntity
  8
0
  6
Continuous
 62
     7
370
    15
100
AcDbLine
 10
505.1656655375
 20
-306.5503323782
 30
0.0
 11
505.1656655375
 21
-283.5503304709
 31
0.0
  0
SPLINE
  5
FE
330
1F
100
AcDbEntity
  8
0
  6
Continuous
 62
     7
370
    15
100
AcDbSpline
210
0.0
220
0.0
230
1.0
 70
     8
 71
     3
 72
    10
 73
     6
 74
     0
 42
0.00000001
 43
0.00000001
 40
0.0
 40
0.0
 40
0.0
 40
0.0
 40
0.5
 40
0.5
 40
1.0
 40
1.0
 40
1.0
 40
1.0
 10
280.0148642822447
 20
-344.2609693318324
 30
0.0
 10
280.3579733991243
 20
-341.5954137175834
 30
0.0
 10
280.736840677797
 20
-338.9208308680658
 30
0.0
 10
281.5623113802569
 20
-333.5623701001825
 30
0.0
 10
282.0089614418371
 20
-330.8783202435856
 30
0.0
 10
282.488583971994
 20
-328.1911723804096
 30
0.0
  0
LINE
  5
FF
330
1F
100
AcDbEntity
  8
0
  6
Continuous
 62
     7
370
    15
100
AcDbLine
 10
270.3656657938
 20
-344.2609692324
 30
0.0
 11
280.0148624334
 21
-344.2609692324
 31
0.0
  0
LINE
  5
100
330
1F
100
AcDbEntity
  8
0
  6
Continuous
 62
     7
370
    15
100
AcDbLine
 10
270.3656657938
 20
-344.2609692324
 30
0.0
 11
270.3656657938
 21
-342.9131294001
 31
0.0
  0
LINE
  5
101
330
1F
100
AcDbEntity
  8
0
  6
Continuous
 62
     7
370
    15
100
AcDbLine
 10
269.151433498
 20
-325.8102024305
 30
0.0
 11
270.3656657938
 21
-342.9131294001
 31
0.0
  0
LINE
  5
102
330
1F
100
AcDbEntity
  8
0
  6
Continuous
 62
     7
370
    15
100
AcDbLine
 10
268.5798920098
 20
-325.8102024305
 30
0.0
 11
267.3656634394
 21
-342.9131294001
 31
0.0
  0
LINE
  5
103
330
1F
100
AcDbEntity
  8
0
  6
Continuous
 62
     7
370
    15
100
AcDbLine
 10
267.3656634394
 20
-342.9131294001
 30
0.0
 11
267.3656634394
 21
-344.2609692324
 31
0.0
  0
LINE
  5
104
330
1F
100
AcDbEntity
  8
0
  6
Continuous
 62
     7
370
    15
100
AcDbLine
 10
257.7164649371
 20
-344.2609692324
 30
0.0
 11
267.3656634394
 21
-344.2609692324
 31
0.0
  0
SPLINE
  5
105
330
1F
100
AcDbEntity
  8
0
  6
Continuous
 62
     7
370
    15
100
AcDbSpline
210
0.0
220
0.0
230
1.0
 70
     8
 71
     3
 72
    10
 73
     6
 74
     0
 42
0.00000001
 43
0.00000001
 40
0.0
 40
0.0
 40
0.0
 40
0.0
 40
0.5
 40
0.5
 40
1.0
 40
1.0
 40
1.0
 40
1.0
 10
255.2427444161389
 20
-328.1911723804094
 30
0.0
 10
255.7223669424405
 20
-330.8783202219855
 30
0.0
 10
256.1690170006946
 20
-333.5623700570302
 30
0.0
 10
256.9944876976115
 20
-338.9208307820005
 30
0.0
 10
257.373354974065
 20
-341.5954136101493
 30
0.0
 10
257.7164640893403
 20
-344.2609692032746
 30
0.0
  0
SPLINE
  5
106
330
1F
100
AcDbEntity
  8
0
  6
Continuous
 62
     7
370
    15
100
AcDbSpline
210
0.0
220
0.0
230
1.0
 70
     8
 71
     3
 72
    14
 73
    10
 74
     0
 42
0.00000001
 43
0.00000001
 40
0.0
 40
0.0
 40
0.0
 40
0.0
 40
0.0450067394477795
 40
0.192458390979784
 40
0.4101051855575099
 40
0.6281125942635413
 40
0.8446478032029321
 40
0.9597512620688956
 40
1.0
 40
1.0
 40
1.0
 40
1.0
 10
268.3330691758234
 20
-342.7759493101237
 30
0.0
 10
268.3131263472167
 20
-342.7646666349127
 30
0.0
 10
268.2278465701802
 20
-342.7164195158428
 30
0.0
 10
268.0118814683995
 20
-342.7004160281298
 30
0.0
 10
267.7417034180801
 20
-342.7046730110202
 30
0.0
 10
267.5061403192655
 20
-342.7506777076709
 30
0.0
 10
267.3936153026879
 20
-342.7907206161821
 30
0.0
 10
267.367092570859
 20
-342.786645376053
 30
0.0
 10
267.3659575112769
 20
-342.7614156105785
 30
0.0
 10
267.365663439377
 20
-342.7548790681956
 30
0.0
  0
SPLINE
  5
107
330
1F
100
AcDbEntity
  8
0
  6
Continuous
 62
     7
370
    15
100
AcDbSpline
210
0.0
220
0.0
230
1.0
 70
     8
 71
     3
 72
    15
 73
    11
 74
     0
 42
0.00000001
 43
0.00000001
 40
0.0
 40
0.0
 40
0.0
 40
0.0
 40
0.0802871311411213
 40
0.2296487629328572
 40
0.438928897973538
 40
0.6497319402180433
 40
0.8665097035275859
 40
0.9462851528960412
 40
0.9895184121513518
 40
1.0
 40
1.0
 40
1.0
 40
1.0
 10
270.3656657937605
 20
-342.7548790681956
 30
0.0
 10
270.3644671256229
 20
-342.7658821458523
 30
0.0
 10
270.3610385231676
 20
-342.7973547260328
 30
0.0
 10
270.3082488484155
 20
-342.7775343758073
 30
0.0
 10
270.1610964488195
 20
-342.7351852128818
 30
0.0
 10
269.9090289446442
 20
-342.6989298723241
 30
0.0
 10
269.6589845419566
 20
-342.6997164845448
 30
0.0
 10
269.4893844825363
 20
-342.7325035281634
 30
0.0
 10
269.4236111162874
 20
-342.7561099637413
 30
0.0
 10
269.4023992178747
 20
-342.7727100671328
 30
0.0
 10
269.3982600573141
 20
-342.7759493101237
 30
0.0
  0
SPLINE
  5
108
330
1F
100
AcDbEntity
  8
0
  6
Continuous
 62
     7
370
    15
100
AcDbSpline
210
0.0
220
0.0
230
1.0
 70
     8
 71
     3
 72
     9
 73
     5
 74
     0
 42
0.00000001
 43
0.00000001
 40
0.0
 40
0.0
 40
0.0
 40
0.0
 40
0.1369321040629459
 40
1.0
 40
1.0
 40
1.0
 40
1.0
 10
269.3656637672026
 20
-342.8049767721293
 30
0.0
 10
269.3671554052495
 20
-342.803655828892
 30
0.0
 10
269.3780486728079
 20
-342.7940091266357
 30
0.0
 10
269.3888971150736
 20
-342.7843155365355
 30
0.0
 10
269.3982600573141
 20
-342.7759493101237
 30
0.0
  0
LINE
  5
109
330
1F
100
AcDbEntity
  8
0
  6
Continuous
 62
     7
370
    15
100
AcDbLine
 10
268.3656654659
 20
-342.8049767721
 30
0.0
 11
269.3656637672
 21
-342.8049767721
 31
0.0
  0
SPLINE
  5
10A
330
1F
100
AcDbEntity
  8
0
  6
Continuous
 62
     7
370
    15
100
AcDbSpline
210
0.0
220
0.0
230
1.0
 70
     8
 71
     3
 72
     9
 73
     5
 74
     0
 42
0.00000001
 43
0.00000001
 40
0.0
 40
0.0
 40
0.0
 40
0.0
 40
0.8630678959370541
 40
1.0
 40
1.0
 40
1.0
 40
1.0
 10
268.3330691758234
 20
-342.7759493101237
 30
0.0
 10
268.342432118064
 20
-342.7843155365355
 30
0.0
 10
268.3532805603297
 20
-342.7940091266356
 30
0.0
 10
268.3641738278881
 20
-342.8036558288921
 30
0.0
 10
268.365665465935
 20
-342.8049767721293
 30
0.0
  0
LINE
  5
10B
330
1F
100
AcDbEntity
  8
0
  6
Continuous
 62
     7
370
    15
100
AcDbLine
 10
257.2397842411
 20
-343.9838970411
 30
0.0
 11
257.2387374345
 21
-343.9738238562
 31
0.0
  0
LINE
  5
10C
330
1F
100
AcDbEntity
  8
0
  6
Continuous
 62
     7
370
    15
100
AcDbLine
 10
268.3656654659
 20
-343.3506274927
 30
0.0
 11
268.3656654659
 21
-342.8049767721
 31
0.0
  0
ARC
  5
10D
330
1F
100
AcDbEntity
  8
0
  6
Continuous
 62
     7
370
    15
100
AcDbCircle
 10
268.3656641941
 20
-344.3506173288
 30
0.0
 40
1.0
100
AcDbArc
 50
90.0
 51
180.0
  0
ARC
  5
10E
330
1F
100
AcDbEntity
  8
0
  6
Continuous
 62
     7
370
    15
100
AcDbCircle
 10
269.3656641941
 20
-344.3506173288
 30
0.0
 40
1.0
100
AcDbArc
 50
0.0
 51
90.0
  0
LINE
  5
10F
330
1F
100
AcDbEntity
  8
0
  6
Continuous
 62
     7
370
    15
100
AcDbLine
 10
269.3656637672
 20
-342.8049767721
 30
0.0
 11
269.3656637672
 21
-343.3506274927
 31
0.0
  0
ARC
  5
110
330
1F
100
AcDbEntity
  8
0
  6
Continuous
 62
     7
370
    15
100
AcDbCircle
 10
279.3559246232
 20
-344.2053148861
 30
0.0
 40
0.6612839359696931
100
AcDbArc
 50
282.6257049706
 51
355.1722166512
  0
LINE
  5
111
330
1F
100
AcDbEntity
  8
0
  6
Continuous
 62
     7
370
    15
100
AcDbLine
 10
279.5004687611
 20
-344.8506081808
 30
0.0
 11
270.3656657938
 21
-344.8506081808
 31
0.0
  0
SPLINE
  5
112
330
1F
100
AcDbEntity
  8
0
  6
Continuous
 62
     7
370
    15
100
AcDbSpline
210
0.0
220
0.0
230
1.0
 70
    24
 71
     3
 72
    11
 73
     7
 74
     0
 42
0.00000001
 43
0.00000001
 40
0.0
 40
0.0
 40
0.0
 40
0.0
 40
0.294731980655085
 40
0.5894742008860638
 40
0.8837717785491088
 40
1.0
 40
1.0
 40
1.0
 40
1.0
 10
270.3656657937605
 20
-344.8506081808207
 30
0.0
 10
270.3656657937605
 20
-344.8395288409309
 30
0.0
 10
270.3656657937605
 20
-344.8173697762328
 30
0.0
 10
270.3656657937605
 20
-344.6438942209248
 30
0.0
 10
270.3656657937605
 20
-344.4410538257256
 30
0.0
 10
270.3656657937605
 20
-344.3007048797186
 30
0.0
 10
270.3656657937605
 20
-344.2609692323801
 30
0.0
  0
LINE
  5
113
330
1F
100
AcDbEntity
  8
0
  6
Continuous
 62
     7
370
    15
100
AcDbLine
 10
267.3656634394
 20
-344.8506081808
 30
0.0
 11
258.2308604721
 21
-344.8506081808
 31
0.0
  0
ARC
  5
114
330
1F
100
AcDbEntity
  8
0
  6
Continuous
 62
     7
370
    15
100
AcDbCircle
 10
258.3754016037
 20
-344.2053154272
 30
0.0
 40
0.6612827508876621
100
AcDbArc
 50
184.8277449747
 51
257.3745389554
  0
SPLINE
  5
115
330
1F
100
AcDbEntity
  8
0
  6
Continuous
 62
     7
370
    15
100
AcDbSpline
210
0.0
220
0.0
230
1.0
 70
    24
 71
     3
 72
    11
 73
     7
 74
     0
 42
0.00000001
 43
0.00000001
 40
0.0
 40
0.0
 40
0.0
 40
0.0
 40
0.293322866071425
 40
0.5866077361330518
 40
0.8805037111238823
 40
1.0
 40
1.0
 40
1.0
 40
1.0
 10
267.365663439377
 20
-344.2609692323801
 30
0.0
 10
267.365663439377
 20
-344.3590336056455
 30
0.0
 10
267.365663439377
 20
-344.5551496492633
 30
0.0
 10
267.365663439377
 20
-344.7562225748196
 30
0.0
 10
267.365663439377
 20
-344.8422278921579
 30
0.0
 10
267.365663439377
 20
-344.8487289635065
 30
0.0
 10
267.365663439377
 20
-344.8506081808207
 30
0.0
  0
LINE
  5
116
330
1F
100
AcDbEntity
  8
0
  6
Continuous
 62
     7
370
    15
100
AcDbLine
 10
269.3656637672
 20
-343.3506274927
 30
0.0
 11
268.3656654659
 21
-343.3506274927
 31
0.0
  0
LINE
  5
117
330
1F
100
AcDbEntity
  8
0
  6
Continuous
 62
     7
370
    15
100
AcDbLine
 10
270.3656657938
 20
-344.3506146181
 30
0.0
 11
267.3656634394
 21
-344.3506146181
 31
0.0
  0
LINE
  5
118
330
1F
100
AcDbEntity
  8
0
  6
Continuous
 62
     7
370
    15
100
AcDbLine
 10
267.3656634394
 20
-344.8506081808
 30
0.0
 11
270.3656657938
 21
-344.8506081808
 31
0.0
  0
LINE
  5
119
330
1F
100
AcDbEntity
  8
0
  6
Continuous
 62
     7
370
    15
100
AcDbLine
 10
-91.8343224224
 20
-90.7503152598
 30
0.0
 11
-86.7736198601
 21
-90.7503152598
 31
0.0
  0
LINE
  5
11A
330
1F
100
AcDbEntity
  8
0
  6
Continuous
 62
     7
370
    15
100
AcDbLine
 10
200.699894816
 20
-90.7503152598
 30
0.0
 11
502.1656594578
 21
-90.7503152598
 31
0.0
  0
LINE
  5
11B
330
1F
100
AcDbEntity
  8
0
  6
Continuous
 62
     7
370
    15
100
AcDbLine
 10
200.699894816
 20
-90.7503152598
 30
0.0
 11
200.699894816
 21
385.2496659052
 31
0.0
  0
ELLIPSE
  5
11C
330
1F
100
AcDbEntity
  8
0
  6
Continuous
 62
     7
370
    15
100
AcDbEllipse
 10
197.1658748787
 20
385.2496785304
 30
0.0
 11
3.534020858327636
 21
0.0
 31
0.0
210
0.0
220
0.0
230
1.0
 40
0.7074095203
 41
0.0
 42
1.570796326794913
  0
LINE
  5
11D
330
1F
100
AcDbEntity
  8
0
  6
Continuous
 62
     7
370
    15
100
AcDbLine
 10
196.6015837494
 20
387.7496933233
 30
0.0
 11
197.1658758226
 21
387.7496933233
 31
0.0
  0
ELLIPSE
  5
11E
330
1F
100
AcDbEntity
  8
0
  6
Continuous
 62
     7
370
    15
100
AcDbEllipse
 10
196.6015856644
 20
385.2496785304
 30
0.0
 11
3.535533905932738
 21
0.0
 31
0.0
210
0.0
220
0.0
230
1.0
 40
0.7071067812
 41
1.570796326794897
 42
3.141592653589793
  0
LINE
  5
11F
330
1F
100
AcDbEntity
  8
0
  6
Continuous
 62
     7
370
    15
100
AcDbLine
 10
193.0660522882
 20
385.2496659052
 30
0.0
 11
193.0660522882
 21
-90.7503152598
 31
0.0
  0
LINE
  5
120
330
1F
100
AcDbEntity
  8
0
  6
Continuous
 62
     7
370
    15
100
AcDbLine
 10
190.6014747325
 20
-90.7503152598
 30
0.0
 11
193.0660522882
 21
-90.7503152598
 31
0.0
  0
LINE
  5
121
330
1F
100
AcDbEntity
  8
0
  6
Continuous
 62
     7
370
    15
100
AcDbLine
 10
190.6014747325
 20
-90.7503152598
 30
0.0
 11
190.6014747325
 21
385.2496659052
 31
0.0
  0
ELLIPSE
  5
122
330
1F
100
AcDbEntity
  8
0
  6
Continuous
 62
     7
370
    15
100
AcDbEllipse
 10
187.0659408864
 20
385.2496785304
 30
0.0
 11
3.535533905932709
 21
0.0
 31
0.0
210
0.0
220
0.0
230
1.0
 40
0.7071067812
 41
0.0
 42
1.570796326794897
  0
LINE
  5
123
330
1F
100
AcDbEntity
  8
0
  6
Continuous
 62
     7
370
    15
100
AcDbLine
 10
186.499892861
 20
387.7496933233
 30
0.0
 11
187.0659432713
 21
387.7496933233
 31
0.0
  0
ELLIPSE
  5
124
330
1F
100
AcDbEntity
  8
0
  6
Continuous
 62
     7
370
    15
100
AcDbEllipse
 10
186.4998956829
 20
385.2496785304
 30
0.0
 11
3.535533905932823
 21
0.0
 31
0.0
210
0.0
220
0.0
230
1.0
 40
0.7071067812
 41
1.570796326794897
 42
3.141592653589793
  0
LINE
  5
125
330
1F
100
AcDbEntity
  8
0
  6
Continuous
 62
     7
370
    15
100
AcDbLine
 10
182.9643688503
 20
385.2496659052
 30
0.0
 11
182.9643688503
 21
-90.7503152598
 31
0.0
  0
LINE
  5
126
330
1F
100
AcDbEntity
  8
0
  6
Continuous
 62
     7
370
    15
100
AcDbLine
 10
180.702268273
 20
-90.7503152598
 30
0.0
 11
182.9643688503
 21
-90.7503152598
 31
0.0
  0
LINE
  5
127
330
1F
100
AcDbEntity
  8
0
  6
Continuous
 62
     7
370
    15
100
AcDbLine
 10
180.702268273
 20
-90.7503152598
 30
0.0
 11
180.702268273
 21
385.2496659052
 31
0.0
  0
ELLIPSE
  5
128
330
1F
100
AcDbEntity
  8
0
  6
Continuous
 62
     7
370
    15
100
AcDbEllipse
 10
177.114196968
 20
385.2496785304
 30
0.0
 11
3.588066387057381
 21
0.0
 31
0.0
210
0.0
220
0.0
230
1.0
 40
0.6967541094
 41
0.0
 42
1.570796326794913
  0
LINE
  5
129
330
1F
100
AcDbEntity
  8
0
  6
Continuous
 62
     7
370
    15
100
AcDbLine
 10
176.5714279715
 20
387.7496933233
 30
0.0
 11
177.114202768
 21
387.7496933233
 31
0.0
  0
ELLIPSE
  5
12A
330
1F
100
AcDbEntity
  8
0
  6
Continuous
 62
     7
370
    15
100
AcDbEllipse
 10
176.5714241028
 20
385.2496785304
 30
0.0
 11
3.535533905932738
 21
0.0
 31
0.0
210
0.0
220
0.0
230
1.0
 40
0.7071067812
 41
1.570796326794897
 42
3.141592653589793
  0
LINE
  5
12B
330
1F
100
AcDbEntity
  8
0
  6
Continuous
 62
     7
370
    15
100
AcDbLine
 10
173.0358890596
 20
385.2496659052
 30
0.0
 11
173.0358890596
 21
-90.7503152598
 31
0.0
  0
LINE
  5
12C
330
1F
100
AcDbEntity
  8
0
  6
Continuous
 62
     7
370
    15
100
AcDbLine
 10
170.6316314045
 20
-90.7503152598
 30
0.0
 11
173.0358890596
 21
-90.7503152598
 31
0.0
  0
LINE
  5
12D
330
1F
100
AcDbEntity
  8
0
  6
Continuous
 62
     7
370
    15
100
AcDbLine
 10
170.6316314045
 20
-90.7503152598
 30
0.0
 11
170.6316314045
 21
385.2496659052
 31
0.0
  0
ELLIPSE
  5
12E
330
1F
100
AcDbEntity
  8
0
  6
Continuous
 62
     7
370
    15
100
AcDbEllipse
 10
167.096102448
 20
385.2496785304
 30
0.0
 11
3.535533905934443
 21
0.0
 31
0.0
210
0.0
220
0.0
230
1.0
 40
0.7071067812
 41
0.0
 42
1.570796326794897
  0
LINE
  5
12F
330
1F
100
AcDbEntity
  8
0
  6
Continuous
 62
     7
370
    15
100
AcDbLine
 10
166.571422607
 20
387.7496933233
 30
0.0
 11
167.0961073938
 21
387.7496933233
 31
0.0
  0
ELLIPSE
  5
130
330
1F
100
AcDbEntity
  8
0
  6
Continuous
 62
     7
370
    15
100
AcDbEllipse
 10
166.5714241028
 20
385.2496785304
 30
0.0
 11
3.535533905932738
 21
0.0
 31
0.0
210
0.0
220
0.0
230
1.0
 40
0.7071067812
 41
1.570796326794881
 42
3.141592653589793
  0
LINE
  5
131
330
1F
100
AcDbEntity
  8
0
  6
Continuous
 62
     7
370
    15
100
AcDbLine
 10
163.0358836952
 20
385.2496659052
 30
0.0
 11
163.0358836952
 21
-90.7503152598
 31
0.0
  0
LINE
  5
132
330
1F
100
AcDbEntity
  8
0
  6
Continuous
 62
     7
370
    15
100
AcDbLine
 10
160.6316409412
 20
-90.7503152598
 30
0.0
 11
163.0358836952
 21
-90.7503152598
 31
0.0
  0
LINE
  5
133
330
1F
100
AcDbEntity
  8
0
  6
Continuous
 62
     7
370
    15
100
AcDbLine
 10
160.6316409412
 20
-90.7503152598
 30
0.0
 11
160.6316409412
 21
385.2496659052
 31
0.0
  0
ELLIPSE
  5
134
330
1F
100
AcDbEntity
  8
0
  6
Continuous
 62
     7
370
    15
100
AcDbEllipse
 10
157.096102448
 20
385.2496785304
 30
0.0
 11
3.535533905941179
 21
0.0
 31
0.0
210
0.0
220
0.0
230
1.0
 40
0.7071067812
 41
0.0
 42
1.570796326794897
  0
LINE
  5
135
330
1F
100
AcDbEntity
  8
0
  6
Continuous
 62
     7
370
    15
100
AcDbLine
 10
156.5714172426
 20
387.7496933233
 30
0.0
 11
157.0961020294
 21
387.7496933233
 31
0.0
  0
ELLIPSE
  5
136
330
1F
100
AcDbEntity
  8
0
  6
Continuous
 62
     7
370
    15
100
AcDbEllipse
 10
156.5714241028
 20
385.2496785304
 30
0.0
 11
3.535533905932738
 21
0.0
 31
0.0
210
0.0
220
0.0
230
1.0
 40
0.7071067812
 41
1.570796326794889
 42
3.141592653589793
  0
LINE
  5
137
330
1F
100
AcDbEntity
  8
0
  6
Continuous
 62
     7
370
    15
100
AcDbLine
 10
153.035893232
 20
385.2496659052
 30
0.0
 11
153.035893232
 21
-90.7503152598
 31
0.0
  0
LINE
  5
138
330
1F
100
AcDbEntity
  8
0
  6
Continuous
 62
     7
370
    15
100
AcDbLine
 10
150.6316355768
 20
-90.7503152598
 30
0.0
 11
153.035893232
 21
-90.7503152598
 31
0.0
  0
LINE
  5
139
330
1F
100
AcDbEntity
  8
0
  6
Continuous
 62
     7
370
    15
100
AcDbLine
 10
150.6316355768
 20
-90.7503152598
 30
0.0
 11
150.6316355768
 21
385.2496659052
 31
0.0
  0
ELLIPSE
  5
13A
330
1F
100
AcDbEntity
  8
0
  6
Continuous
 62
     7
370
    15
100
AcDbEllipse
 10
147.096102448
 20
385.2496785304
 30
0.0
 11
3.535533905931374
 21
0.0
 31
0.0
210
0.0
220
0.0
230
1.0
 40
0.7071067812
 41
0.0
 42
1.570796326794897
  0
LINE
  5
13B
330
1F
100
AcDbEntity
  8
0
  6
Continuous
 62
     7
370
    15
100
AcDbLine
 10
146.5714267794
 20
387.7496933233
 30
0.0
 11
147.096096665
 21
387.7496933233
 31
0.0
  0
ELLIPSE
  5
13C
330
1F
100
AcDbEntity
  8
0
  6
Continuous
 62
     7
370
    15
100
AcDbEllipse
 10
146.5714241028
 20
385.2496785304
 30
0.0
 11
3.535533905932738
 21
0.0
 31
0.0
210
0.0
220
0.0
230
1.0
 40
0.7071067812
 41
1.570796326794897
 42
3.141592653589793
  0
LINE
  5
13D
330
1F
100
AcDbEntity
  8
0
  6
Continuous
 62
     7
370
    15
100
AcDbLine
 10
143.0358878676
 20
385.2496659052
 30
0.0
 11
143.0358878676
 21
-90.7503152598
 31
0.0
  0
LINE
  5
13E
330
1F
100
AcDbEntity
  8
0
  6
Continuous
 62
     7
370
    15
100
AcDbLine
 10
140.6316302124
 20
-90.7503152598
 30
0.0
 11
143.0358878676
 21
-90.7503152598
 31
0.0
  0
LINE
  5
13F
330
1F
100
AcDbEntity
  8
0
  6
Continuous
 62
     7
370
    15
100
AcDbLine
 10
140.6316302124
 20
-90.7503152598
 30
0.0
 11
140.6316302124
 21
385.2496659052
 31
0.0
  0
ELLIPSE
  5
140
330
1F
100
AcDbEntity
  8
0
  6
Continuous
 62
     7
370
    15
100
AcDbEllipse
 10
137.096102448
 20
385.2496785304
 30
0.0
 11
3.535533905933903
 21
0.0
 31
0.0
210
0.0
220
0.0
230
1.0
 40
0.7071067812
 41
0.0
 42
1.570796326794897
  0
LINE
  5
141
330
1F
100
AcDbEntity
  8
0
  6
Continuous
 62
     7
370
    15
100
AcDbLine
 10
136.6317413155
 20
387.7496933233
 30
0.0
 11
137.0961062018
 21
387.7496933233
 31
0.0
  0
ELLIPSE
  5
142
330
1F
100
AcDbEntity
  8
0
  6
Continuous
 62
     7
370
    15
100
AcDbEllipse
 10
136.6317472261
 20
385.2496785304
 30
0.0
 11
3.535533905932652
 21
0.0
 31
0.0
210
0.0
220
0.0
230
1.0
 40
0.7071067812
 41
1.570796326794897
 42
3.141592653589793
  0
LINE
  5
143
330
1F
100
AcDbEntity
  8
0
  6
Continuous
 62
     7
370
    15
100
AcDbLine
 10
133.0962173048
 20
385.2496659052
 30
0.0
 11
133.0962173048
 21
-90.7503152598
 31
0.0
  0
LINE
  5
144
330
1F
100
AcDbEntity
  8
0
  6
Continuous
 62
     7
370
    15
100
AcDbLine
 10
130.6316397492
 20
-90.7503152598
 30
0.0
 11
133.0962173048
 21
-90.7503152598
 31
0.0
  0
LINE
  5
145
330
1F
100
AcDbEntity
  8
0
  6
Continuous
 62
     7
370
    15
100
AcDbLine
 10
130.6316397492
 20
-90.7503152598
 30
0.0
 11
130.6316397492
 21
385.2496659052
 31
0.0
  0
ELLIPSE
  5
146
330
1F
100
AcDbEntity
  8
0
  6
Continuous
 62
     7
370
    15
100
AcDbEllipse
 10
127.096102448
 20
385.2496785304
 30
0.0
 11
3.535533905934315
 21
0.0
 31
0.0
210
0.0
220
0.0
230
1.0
 40
0.7071067812
 41
0.0
 42
1.570796326794905
  0
LINE
  5
147
330
1F
100
AcDbEntity
  8
0
  6
Continuous
 62
     7
370
    15
100
AcDbLine
 10
126.6317508522
 20
387.7496933233
 30
0.0
 11
127.0961008373
 21
387.7496933233
 31
0.0
  0
ELLIPSE
  5
148
330
1F
100
AcDbEntity
  8
0
  6
Continuous
 62
     7
370
    15
100
AcDbEllipse
 10
126.6317472261
 20
385.2496785304
 30
0.0
 11
3.535533905932709
 21
0.0
 31
0.0
210
0.0
220
0.0
230
1.0
 40
0.7071067812
 41
1.570796326794905
 42
3.141592653589793
  0
LINE
  5
149
330
1F
100
AcDbEntity
  8
0
  6
Continuous
 62
     7
370
    15
100
AcDbLine
 10
123.0962119404
 20
385.2496659052
 30
0.0
 11
123.0962119404
 21
-90.7503152598
 31
0.0
  0
LINE
  5
14A
330
1F
100
AcDbEntity
  8
0
  6
Continuous
 62
     7
370
    15
100
AcDbLine
 10
120.6316343847
 20
-90.7503152598
 30
0.0
 11
123.0962119404
 21
-90.7503152598
 31
0.0
  0
LINE
  5
14B
330
1F
100
AcDbEntity
  8
0
  6
Continuous
 62
     7
370
    15
100
AcDbLine
 10
120.6316343847
 20
-90.7503152598
 30
0.0
 11
120.6316343847
 21
385.2496659052
 31
0.0
  0
ELLIPSE
  5
14C
330
1F
100
AcDbEntity
  8
0
  6
Continuous
 62
     7
370
    15
100
AcDbEllipse
 10
117.0961024481
 20
385.2496785304
 30
0.0
 11
3.53553390593332
 21
0.0
 31
0.0
210
0.0
220
0.0
230
1.0
 40
0.7071067812
 41
0.0
 42
1.570796326794897
  0
LINE
  5
14D
330
1F
100
AcDbEntity
  8
0
  6
Continuous
 62
     7
370
    15
100
AcDbLine
 10
116.6317454878
 20
387.7496933233
 30
0.0
 11
117.0960954729
 21
387.7496933233
 31
0.0
  0
ELLIPSE
  5
14E
330
1F
100
AcDbEntity
  8
0
  6
Continuous
 62
     7
370
    15
100
AcDbEllipse
 10
116.6317472261
 20
385.2496785304
 30
0.0
 11
3.535533905932638
 21
0.0
 31
0.0
210
0.0
220
0.0
230
1.0
 40
0.7071067812
 41
1.570796326794897
 42
3.141592653589793
  0
LINE
  5
14F
330
1F
100
AcDbEntity
  8
0
  6
Continuous
 62
     7
370
    15
100
AcDbLine
 10
113.096206576
 20
385.2496659052
 30
0.0
 11
113.096206576
 21
-90.7503152598
 31
0.0
  0
LINE
  5
150
330
1F
100
AcDbEntity
  8
0
  6
Continuous
 62
     7
370
    15
100
AcDbLine
 10
110.6316290203
 20
-90.7503152598
 30
0.0
 11
113.096206576
 21
-90.7503152598
 31
0.0
  0
LINE
  5
151
330
1F
100
AcDbEntity
  8
0
  6
Continuous
 62
     7
370
    15
100
AcDbLine
 10
110.6316290203
 20
-90.7503152598
 30
0.0
 11
110.6316290203
 21
385.2496659052
 31
0.0
  0
ELLIPSE
  5
152
330
1F
100
AcDbEntity
  8
0
  6
Continuous
 62
     7
370
    15
100
AcDbEllipse
 10
107.0961024481
 20
385.2496785304
 30
0.0
 11
3.535533905933405
 21
0.0
 31
0.0
210
0.0
220
0.0
230
1.0
 40
0.7071067812
 41
0.0
 42
1.570796326794889
  0
LINE
  5
153
330
1F
100
AcDbEntity
  8
0
  6
Continuous
 62
     7
370
    15
100
AcDbLine
 10
106.6317401234
 20
387.7496933233
 30
0.0
 11
107.0961050097
 21
387.7496933233
 31
0.0
  0
ELLIPSE
  5
154
330
1F
100
AcDbEntity
  8
0
  6
Continuous
 62
     7
370
    15
100
AcDbEllipse
 10
106.6317472261
 20
385.2496785304
 30
0.0
 11
3.535533905932638
 21
0.0
 31
0.0
210
0.0
220
0.0
230
1.0
 40
0.7071067812
 41
1.570796326794905
 42
3.141592653589793
  0
LINE
  5
155
330
1F
100
AcDbEntity
  8
0
  6
Continuous
 62
     7
370
    15
100
AcDbLine
 10
103.0962161127
 20
385.2496659052
 30
0.0
 11
103.0962161127
 21
-90.7503152598
 31
0.0
  0
LINE
  5
156
330
1F
100
AcDbEntity
  8
0
  6
Continuous
 62
     7
370
    15
100
AcDbLine
 10
100.6316385571
 20
-90.7503152598
 30
0.0
 11
103.0962161127
 21
-90.7503152598
 31
0.0
  0
LINE
  5
157
330
1F
100
AcDbEntity
  8
0
  6
Continuous
 62
     7
370
    15
100
AcDbLine
 10
100.6316385571
 20
-90.7503152598
 30
0.0
 11
100.6316385571
 21
385.2496659052
 31
0.0
  0
ELLIPSE
  5
158
330
1F
100
AcDbEntity
  8
0
  6
Continuous
 62
     7
370
    15
100
AcDbEllipse
 10
97.096102448
 20
385.2496785304
 30
0.0
 11
3.535533905932908
 21
0.0
 31
0.0
210
0.0
220
0.0
230
1.0
 40
0.7071067812
 41
0.0
 42
1.570796326794905
  0
LINE
  5
159
330
1F
100
AcDbEntity
  8
0
  6
Continuous
 62
     7
370
    15
100
AcDbLine
 10
96.6317496601
 20
387.7496933233
 30
0.0
 11
97.0960996452
 21
387.7496933233
 31
0.0
  0
ELLIPSE
  5
15A
330
1F
100
AcDbEntity
  8
0
  6
Continuous
 62
     7
370
    15
100
AcDbEllipse
 10
96.631747226
 20
385.2496785304
 30
0.0
 11
3.535533905932368
 21
0.0
 31
0.0
210
0.0
220
0.0
230
1.0
 40
0.7071067812
 41
1.570796326794897
 42
3.141592653589793
  0
LINE
  5
15B
330
1F
100
AcDbEntity
  8
0
  6
Continuous
 62
     7
370
    15
100
AcDbLine
 10
93.0962107483
 20
385.2496659052
 30
0.0
 11
93.0962107483
 21
-90.7503152598
 31
0.0
  0
LINE
  5
15C
330
1F
100
AcDbEntity
  8
0
  6
Continuous
 62
     7
370
    15
100
AcDbLine
 10
90.6316331926
 20
-90.7503152598
 30
0.0
 11
93.0962107483
 21
-90.7503152598
 31
0.0
  0
LINE
  5
15D
330
1F
100
AcDbEntity
  8
0
  6
Continuous
 62
     7
370
    15
100
AcDbLine
 10
90.6316331926
 20
-90.7503152598
 30
0.0
 11
90.6316331926
 21
385.2496659052
 31
0.0
  0
ELLIPSE
  5
15E
330
1F
100
AcDbEntity
  8
0
  6
Continuous
 62
     7
370
    15
100
AcDbEllipse
 10
87.096102448
 20
385.2496785304
 30
0.0
 11
3.535533905933107
 21
0.0
 31
0.0
210
0.0
220
0.0
230
1.0
 40
0.7071067812
 41
0.0
 42
1.570796326794897
  0
LINE
  5
15F
330
1F
100
AcDbEntity
  8
0
  6
Continuous
 62
     7
370
    15
100
AcDbLine
 10
86.6317442957
 20
387.7496933233
 30
0.0
 11
87.096109182
 21
387.7496933233
 31
0.0
  0
ELLIPSE
  5
160
330
1F
100
AcDbEntity
  8
0
  6
Continuous
 62
     7
370
    15
100
AcDbEllipse
 10
86.631747226
 20
385.2496785304
 30
0.0
 11
3.535533905932382
 21
0.0
 31
0.0
210
0.0
220
0.0
230
1.0
 40
0.7071067812
 41
1.570796326794897
 42
3.141592653589793
  0
LINE
  5
161
330
1F
100
AcDbEntity
  8
0
  6
Continuous
 62
     7
370
    15
100
AcDbLine
 10
83.096220285
 20
385.2496659052
 30
0.0
 11
83.096220285
 21
-90.7503152598
 31
0.0
  0
LINE
  5
162
330
1F
100
AcDbEntity
  8
0
  6
Continuous
 62
     7
370
    15
100
AcDbLine
 10
80.6316427294
 20
-90.7503152598
 30
0.0
 11
83.096220285
 21
-90.7503152598
 31
0.0
  0
LINE
  5
163
330
1F
100
AcDbEntity
  8
0
  6
Continuous
 62
     7
370
    15
100
AcDbLine
 10
80.6316427294
 20
-90.7503152598
 30
0.0
 11
80.6316427294
 21
385.2496659052
 31
0.0
  0
ELLIPSE
  5
164
330
1F
100
AcDbEntity
  8
0
  6
Continuous
 62
     7
370
    15
100
AcDbEllipse
 10
77.0961024479
 20
385.2496785304
 30
0.0
 11
3.535533905932808
 21
0.0
 31
0.0
210
0.0
220
0.0
230
1.0
 40
0.7071067812
 41
0.0
 42
1.570796326794889
  0
LINE
  5
165
330
1F
100
AcDbEntity
  8
0
  6
Continuous
 62
     7
370
    15
100
AcDbLine
 10
76.6317538324
 20
387.7496933233
 30
0.0
 11
77.0961038176
 21
387.7496933233
 31
0.0
  0
ELLIPSE
  5
166
330
1F
100
AcDbEntity
  8
0
  6
Continuous
 62
     7
370
    15
100
AcDbEllipse
 10
76.6317472262
 20
385.2496785304
 30
0.0
 11
3.535533905932752
 21
0.0
 31
0.0
210
0.0
220
0.0
230
1.0
 40
0.7071067812
 41
1.570796326794905
 42
3.141592653589793
  0
LINE
  5
167
330
1F
100
AcDbEntity
  8
0
  6
Continuous
 62
     7
370
    15
100
AcDbLine
 10
73.0962149206
 20
385.2496659052
 30
0.0
 11
73.0962149206
 21
-90.7503152598
 31
0.0
  0
LINE
  5
168
330
1F
100
AcDbEntity
  8
0
  6
Continuous
 62
     7
370
    15
100
AcDbLine
 10
70.631637365
 20
-90.7503152598
 30
0.0
 11
73.0962149206
 21
-90.7503152598
 31
0.0
  0
LINE
  5
169
330
1F
100
AcDbEntity
  8
0
  6
Continuous
 62
     7
370
    15
100
AcDbLine
 10
70.631637365
 20
-90.7503152598
 30
0.0
 11
70.631637365
 21
385.2496659052
 31
0.0
  0
ELLIPSE
  5
16A
330
1F
100
AcDbEntity
  8
0
  6
Continuous
 62
     7
370
    15
100
AcDbEllipse
 10
67.0961024478
 20
385.2496785304
 30
0.0
 11
3.535533905932723
 21
0.0
 31
0.0
210
0.0
220
0.0
230
1.0
 40
0.7071067812
 41
0.0
 42
1.570796326794897
  0
LINE
  5
16B
330
1F
100
AcDbEntity
  8
0
  6
Continuous
 62
     7
370
    15
100
AcDbLine
 10
66.631748468
 20
387.7496933233
 30
0.0
 11
67.0960984531
 21
387.7496933233
 31
0.0
  0
ELLIPSE
  5
16C
330
1F
100
AcDbEntity
  8
0
  6
Continuous
 62
     7
370
    15
100
AcDbEllipse
 10
66.6317472262
 20
385.2496785304
 30
0.0
 11
3.535533905932752
 21
0.0
 31
0.0
210
0.0
220
0.0
230
1.0
 40
0.7071067812
 41
1.570796326794897
 42
3.141592653589793
  0
LINE
  5
16D
330
1F
100
AcDbEntity
  8
0
  6
Continuous
 62
     7
370
    15
100
AcDbLine
 10
63.0962095562
 20
385.2496659052
 30
0.0
 11
63.0962095562
 21
-90.7503152598
 31
0.0
  0
LINE
  5
16E
330
1F
100
AcDbEntity
  8
0
  6
Continuous
 62
     7
370
    15
100
AcDbLine
 10
60.6316469017
 20
-90.7503152598
 30
0.0
 11
63.0962095562
 21
-90.7503152598
 31
0.0
  0
LINE
  5
16F
330
1F
100
AcDbEntity
  8
0
  6
Continuous
 62
     7
370
    15
100
AcDbLine
 10
60.6316469017
 20
-90.7503152598
 30
0.0
 11
60.6316469017
 21
385.2496659052
 31
0.0
  0
ELLIPSE
  5
170
330
1F
100
AcDbEntity
  8
0
  6
Continuous
 62
     7
370
    15
100
AcDbEllipse
 10
57.0961024478
 20
385.2496785304
 30
0.0
 11
3.535533905933065
 21
0.0
 31
0.0
210
0.0
220
0.0
230
1.0
 40
0.7071067812
 41
0.0
 42
1.570796326794897
  0
LINE
  5
171
330
1F
100
AcDbEntity
  8
0
  6
Continuous
 62
     7
370
    15
100
AcDbLine
 10
56.6317580048
 20
387.7496933233
 30
0.0
 11
57.0961079899
 21
387.7496933233
 31
0.0
  0
ELLIPSE
  5
172
330
1F
100
AcDbEntity
  8
0
  6
Continuous
 62
     7
370
    15
100
AcDbEllipse
 10
56.6317472262
 20
385.2496785304
 30
0.0
 11
3.535533905932752
 21
0.0
 31
0.0
210
0.0
220
0.0
230
1.0
 40
0.7071067812
 41
1.570796326794897
 42
3.141592653589793
  0
LINE
  5
173
330
1F
100
AcDbEntity
  8
0
  6
Continuous
 62
     7
370
    15
100
AcDbLine
 10
53.0962190929
 20
385.2496659052
 30
0.0
 11
53.0962190929
 21
-90.7503152598
 31
0.0
  0
LINE
  5
174
330
1F
100
AcDbEntity
  8
0
  6
Continuous
 62
     7
370
    15
100
AcDbLine
 10
50.6316266361
 20
-90.7503152598
 30
0.0
 11
53.0962190929
 21
-90.7503152598
 31
0.0
  0
LINE
  5
175
330
1F
100
AcDbEntity
  8
0
  6
Continuous
 62
     7
370
    15
100
AcDbLine
 10
50.6316266361
 20
-90.7503152598
 30
0.0
 11
50.6316266361
 21
385.2496659052
 31
0.0
  0
ELLIPSE
  5
176
330
1F
100
AcDbEntity
  8
0
  6
Continuous
 62
     7
370
    15
100
AcDbEllipse
 10
47.0961024479
 20
385.2496785304
 30
0.0
 11
3.535533905932752
 21
0.0
 31
0.0
210
0.0
220
0.0
230
1.0
 40
0.7071067812
 41
0.0
 42
1.570796326794897
  0
LINE
  5
177
330
1F
100
AcDbEntity
  8
0
  6
Continuous
 62
     7
370
    15
100
AcDbLine
 10
46.6317377392
 20
387.7496933233
 30
0.0
 11
47.0960877243
 21
387.7496933233
 31
0.0
  0
ELLIPSE
  5
178
330
1F
100
AcDbEntity
  8
0
  6
Continuous
 62
     7
370
    15
100
AcDbEllipse
 10
46.6317472262
 20
385.2496785304
 30
0.0
 11
3.535533905931806
 21
0.0
 31
0.0
210
0.0
220
0.0
230
1.0
 40
0.7071067812
 41
1.570796326794897
 42
3.141592653589793
  0
LINE
  5
179
330
1F
100
AcDbEntity
  8
0
  6
Continuous
 62
     7
370
    15
100
AcDbLine
 10
43.0961988274
 20
385.2496659052
 30
0.0
 11
43.0961988274
 21
-90.7503152598
 31
0.0
  0
LINE
  5
17A
330
1F
100
AcDbEntity
  8
0
  6
Continuous
 62
     7
370
    15
100
AcDbLine
 10
40.6316361729
 20
-90.7503152598
 30
0.0
 11
43.0961988274
 21
-90.7503152598
 31
0.0
  0
LINE
  5
17B
330
1F
100
AcDbEntity
  8
0
  6
Continuous
 62
     7
370
    15
100
AcDbLine
 10
40.6316361729
 20
-90.7503152598
 30
0.0
 11
40.6316361729
 21
385.2496659052
 31
0.0
  0
ELLIPSE
  5
17C
330
1F
100
AcDbEntity
  8
0
  6
Continuous
 62
     7
370
    15
100
AcDbEllipse
 10
37.0961024479
 20
385.2496785304
 30
0.0
 11
3.535533905933093
 21
0.0
 31
0.0
210
0.0
220
0.0
230
1.0
 40
0.7071067812
 41
0.0
 42
1.570796326794897
  0
LINE
  5
17D
330
1F
100
AcDbEntity
  8
0
  6
Continuous
 62
     7
370
    15
100
AcDbLine
 10
36.6317472759
 20
387.7496933233
 30
0.0
 11
37.0960972611
 21
387.7496933233
 31
0.0
  0
ELLIPSE
  5
17E
330
1F
100
AcDbEntity
  8
0
  6
Continuous
 62
     7
370
    15
100
AcDbEllipse
 10
36.6317472262
 20
385.2496785304
 30
0.0
 11
3.535533905931806
 21
0.0
 31
0.0
210
0.0
220
0.0
230
1.0
 40
0.7071067812
 41
1.570796326794897
 42
3.141592653589793
  0
LINE
  5
17F
330
1F
100
AcDbEntity
  8
0
  6
Continuous
 62
     7
370
    15
100
AcDbLine
 10
33.0962083641
 20
385.2496659052
 30
0.0
 11
33.0962083641
 21
-90.7503152598
 31
0.0
  0
LINE
  5
180
330
1F
100
AcDbEntity
  8
0
  6
Continuous
 62
     7
370
    15
100
AcDbLine
 10
30.6316457096
 20
-90.7503152598
 30
0.0
 11
33.0962083641
 21
-90.7503152598
 31
0.0
  0
LINE
  5
181
330
1F
100
AcDbEntity
  8
0
  6
Continuous
 62
     7
370
    15
100
AcDbLine
 10
30.6316457096
 20
-90.7503152598
 30
0.0
 11
30.6316457096
 21
385.2496659052
 31
0.0
  0
ELLIPSE
  5
182
330
1F
100
AcDbEntity
  8
0
  6
Continuous
 62
     7
370
    15
100
AcDbEllipse
 10
27.0961024479
 20
385.2496785304
 30
0.0
 11
3.535533905932752
 21
0.0
 31
0.0
210
0.0
220
0.0
230
1.0
 40
0.7071067812
 41
0.0
 42
1.570796326794897
  0
LINE
  5
183
330
1F
100
AcDbEntity
  8
0
  6
Continuous
 62
     7
370
    15
100
AcDbLine
 10
26.6317568127
 20
387.7496933233
 30
0.0
 11
27.0961067978
 21
387.7496933233
 31
0.0
  0
ELLIPSE
  5
184
330
1F
100
AcDbEntity
  8
0
  6
Continuous
 62
     7
370
    15
100
AcDbEllipse
 10
26.6317472261
 20
385.2496785304
 30
0.0
 11
3.535533905932947
 21
0.0
 31
0.0
210
0.0
220
0.0
230
1.0
 40
0.7071067812
 41
1.570796326794881
 42
3.141592653589793
  0
LINE
  5
185
330
1F
100
AcDbEntity
  8
0
  6
Continuous
 62
     7
370
    15
100
AcDbLine
 10
23.0962179009
 20
385.2496659052
 30
0.0
 11
23.0962179009
 21
-90.7503152598
 31
0.0
  0
LINE
  5
186
330
1F
100
AcDbEntity
  8
0
  6
Continuous
 62
     7
370
    15
100
AcDbLine
 10
20.631625444
 20
-90.7503152598
 30
0.0
 11
23.0962179009
 21
-90.7503152598
 31
0.0
  0
LINE
  5
187
330
1F
100
AcDbEntity
  8
0
  6
Continuous
 62
     7
370
    15
100
AcDbLine
 10
20.631625444
 20
-90.7503152598
 30
0.0
 11
20.631625444
 21
385.2496659052
 31
0.0
  0
ELLIPSE
  5
188
330
1F
100
AcDbEntity
  8
0
  6
Continuous
 62
     7
370
    15
100
AcDbEllipse
 10
17.096102448
 20
385.2496785304
 30
0.0
 11
3.535533905931835
 21
0.0
 31
0.0
210
0.0
220
0.0
230
1.0
 40
0.7071067812
 41
0.0
 42
1.570796326794897
  0
LINE
  5
189
330
1F
100
AcDbEntity
  8
0
  6
Continuous
 62
     7
370
    15
100
AcDbLine
 10
16.6317365471
 20
387.7496933233
 30
0.0
 11
17.0961163345
 21
387.7496933233
 31
0.0
  0
ELLIPSE
  5
18A
330
1F
100
AcDbEntity
  8
0
  6
Continuous
 62
     7
370
    15
100
AcDbEllipse
 10
16.6317472261
 20
385.2496785304
 30
0.0
 11
3.53553390593267
 21
0.0
 31
0.0
210
0.0
220
0.0
230
1.0
 40
0.7071067812
 41
1.570796326794897
 42
3.141592653589793
  0
LINE
  5
18B
330
1F
100
AcDbEntity
  8
0
  6
Continuous
 62
     7
370
    15
100
AcDbLine
 10
13.0962274376
 20
385.2496659052
 30
0.0
 11
13.0962274376
 21
-90.7503152598
 31
0.0
  0
LINE
  5
18C
330
1F
100
AcDbEntity
  8
0
  6
Continuous
 62
     7
370
    15
100
AcDbLine
 10
10.6316349808
 20
-90.7503152598
 30
0.0
 11
13.0962274376
 21
-90.7503152598
 31
0.0
  0
LINE
  5
18D
330
1F
100
AcDbEntity
  8
0
  6
Continuous
 62
     7
370
    15
100
AcDbLine
 10
10.6316349808
 20
-90.7503152598
 30
0.0
 11
10.6316349808
 21
385.2496659052
 31
0.0
  0
ELLIPSE
  5
18E
330
1F
100
AcDbEntity
  8
0
  6
Continuous
 62
     7
370
    15
100
AcDbEllipse
 10
7.096102448
 20
385.2496785304
 30
0.0
 11
3.535533905933086
 21
0.0
 31
0.0
210
0.0
220
0.0
230
1.0
 40
0.7071067812
 41
0.0
 42
1.570796326794897
  0
LINE
  5
18F
330
1F
100
AcDbEntity
  8
0
  6
Continuous
 62
     7
370
    15
100
AcDbLine
 10
6.6317460838
 20
387.7496933233
 30
0.0
 11
7.096096069
 21
387.7496933233
 31
0.0
  0
ELLIPSE
  5
190
330
1F
100
AcDbEntity
  8
0
  6
Continuous
 62
     7
370
    15
100
AcDbEllipse
 10
6.6317472261
 20
385.2496785304
 30
0.0
 11
3.535533905932752
 21
0.0
 31
0.0
210
0.0
220
0.0
230
1.0
 40
0.7071067812
 41
1.570796326794897
 42
3.141592653589793
  0
LINE
  5
191
330
1F
100
AcDbEntity
  8
0
  6
Continuous
 62
     7
370
    15
100
AcDbLine
 10
3.096207172
 20
385.2496659052
 30
0.0
 11
3.096207172
 21
-90.7503152598
 31
0.0
  0
LINE
  5
192
330
1F
100
AcDbEntity
  8
0
  6
Continuous
 62
     7
370
    15
100
AcDbLine
 10
0.6316445175
 20
-90.7503152598
 30
0.0
 11
3.096207172
 21
-90.7503152598
 31
0.0
  0
LINE
  5
193
330
1F
100
AcDbEntity
  8
0
  6
Continuous
 62
     7
370
    15
100
AcDbLine
 10
0.6316445175
 20
-90.7503152598
 30
0.0
 11
0.6316445175
 21
385.2496659052
 31
0.0
  0
ELLIPSE
  5
194
330
1F
100
AcDbEntity
  8
0
  6
Continuous
 62
     7
370
    15
100
AcDbEllipse
 10
-2.903897552
 20
385.2496785304
 30
0.0
 11
3.535533905939803
 21
0.0
 31
0.0
210
0.0
220
0.0
230
1.0
 40
0.7071067812
 41
0.0
 42
1.570796326794897
  0
LINE
  5
195
330
1F
100
AcDbEntity
  8
0
  6
Continuous
 62
     7
370
    15
100
AcDbLine
 10
-3.3682443794
 20
387.7496933233
 30
0.0
 11
-2.9038943943
 21
387.7496933233
 31
0.0
  0
ELLIPSE
  5
196
330
1F
100
AcDbEntity
  8
0
  6
Continuous
 62
     7
370
    15
100
AcDbEllipse
 10
-3.3682527739
 20
385.2496785304
 30
0.0
 11
3.53553390593278
 21
0.0
 31
0.0
210
0.0
220
0.0
230
1.0
 40
0.7071067812
 41
1.570796326794881
 42
3.141592653589793
  0
LINE
  5
197
330
1F
100
AcDbEntity
  8
0
  6
Continuous
 62
     7
370
    15
100
AcDbLine
 10
-6.9037832912
 20
385.2496659052
 30
0.0
 11
-6.9037832912
 21
-90.7503152598
 31
0.0
  0
LINE
  5
198
330
1F
100
AcDbEntity
  8
0
  6
Continuous
 62
     7
370
    15
100
AcDbLine
 10
-9.3683757481
 20
-90.7503152598
 30
0.0
 11
-6.9037832912
 21
-90.7503152598
 31
0.0
  0
LINE
  5
199
330
1F
100
AcDbEntity
  8
0
  6
Continuous
 62
     7
370
    15
100
AcDbLine
 10
-9.3683757481
 20
-90.7503152598
 30
0.0
 11
-9.3683757481
 21
385.2496659052
 31
0.0
  0
ELLIPSE
  5
19A
330
1F
100
AcDbEntity
  8
0
  6
Continuous
 62
     7
370
    15
100
AcDbEllipse
 10
-12.903897552
 20
385.2496785304
 30
0.0
 11
3.535533905933086
 21
0.0
 31
0.0
210
0.0
220
0.0
230
1.0
 40
0.7071067812
 41
0.0
 42
1.570796326794897
  0
LINE
  5
19B
330
1F
100
AcDbEntity
  8
0
  6
Continuous
 62
     7
370
    15
100
AcDbLine
 10
-13.368264645
 20
387.7496933233
 30
0.0
 11
-12.9038848576
 21
387.7496933233
 31
0.0
  0
ELLIPSE
  5
19C
330
1F
100
AcDbEntity
  8
0
  6
Continuous
 62
     7
370
    15
100
AcDbEllipse
 10
-13.3682527739
 20
385.2496785304
 30
0.0
 11
3.535533905932725
 21
0.0
 31
0.0
210
0.0
220
0.0
230
1.0
 40
0.7071067812
 41
1.570796326794897
 42
3.141592653589793
  0
LINE
  5
19D
330
1F
100
AcDbEntity
  8
0
  6
Continuous
 62
     7
370
    15
100
AcDbLine
 10
-16.9037737545
 20
385.2496659052
 30
0.0
 11
-16.9037737545
 21
-90.7503152598
 31
0.0
  0
LINE
  5
19E
330
1F
100
AcDbEntity
  8
0
  6
Continuous
 62
     7
370
    15
100
AcDbLine
 10
-19.3683662113
 20
-90.7503152598
 30
0.0
 11
-16.9037737545
 21
-90.7503152598
 31
0.0
  0
LINE
  5
19F
330
1F
100
AcDbEntity
  8
0
  6
Continuous
 62
     7
370
    15
100
AcDbLine
 10
-19.3683662113
 20
-90.7503152598
 30
0.0
 11
-19.3683662113
 21
385.2496659052
 31
0.0
  0
ELLIPSE
  5
1A0
330
1F
100
AcDbEntity
  8
0
  6
Continuous
 62
     7
370
    15
100
AcDbEllipse
 10
-22.903897552
 20
385.2496785304
 30
0.0
 11
3.535533905924815
 21
0.0
 31
0.0
210
0.0
220
0.0
230
1.0
 40
0.7071067812
 41
0.0
 42
1.570796326794897
  0
LINE
  5
1A1
330
1F
100
AcDbEntity
  8
0
  6
Continuous
 62
     7
370
    15
100
AcDbLine
 10
-23.3682551083
 20
387.7496933233
 30
0.0
 11
-22.9039051231
 21
387.7496933233
 31
0.0
  0
ELLIPSE
  5
1A2
330
1F
100
AcDbEntity
  8
0
  6
Continuous
 62
     7
370
    15
100
AcDbEllipse
 10
-23.368252774
 20
385.2496785304
 30
0.0
 11
3.53553390593267
 21
0.0
 31
0.0
210
0.0
220
0.0
230
1.0
 40
0.7071067812
 41
1.570796326794897
 42
3.141592653589793
  0
LINE
  5
1A3
330
1F
100
AcDbEntity
  8
0
  6
Continuous
 62
     7
370
    15
100
AcDbLine
 10
-26.9037940201
 20
385.2496659052
 30
0.0
 11
-26.9037940201
 21
-90.7503152598
 31
0.0
  0
LINE
  5
1A4
330
1F
100
AcDbEntity
  8
0
  6
Continuous
 62
     7
370
    15
100
AcDbLine
 10
-29.3683566746
 20
-90.7503152598
 30
0.0
 11
-26.9037940201
 21
-90.7503152598
 31
0.0
  0
LINE
  5
1A5
330
1F
100
AcDbEntity
  8
0
  6
Continuous
 62
     7
370
    15
100
AcDbLine
 10
-29.3683566746
 20
-90.7503152598
 30
0.0
 11
-29.3683566746
 21
385.2496659052
 31
0.0
  0
ELLIPSE
  5
1A6
330
1F
100
AcDbEntity
  8
0
  6
Continuous
 62
     7
370
    15
100
AcDbEllipse
 10
-32.903897552
 20
385.2496785304
 30
0.0
 11
3.535533905932783
 21
0.0
 31
0.0
210
0.0
220
0.0
230
1.0
 40
0.7071067812
 41
0.0
 42
1.570796326794897
  0
LINE
  5
1A7
330
1F
100
AcDbEntity
  8
0
  6
Continuous
 62
     7
370
    15
100
AcDbLine
 10
-33.3682455715
 20
387.7496933233
 30
0.0
 11
-32.9038955864
 21
387.7496933233
 31
0.0
  0
ELLIPSE
  5
1A8
330
1F
100
AcDbEntity
  8
0
  6
Continuous
 62
     7
370
    15
100
AcDbEllipse
 10
-33.368252774
 20
385.2496785304
 30
0.0
 11
3.535533905932699
 21
0.0
 31
0.0
210
0.0
220
0.0
230
1.0
 40
0.7071067812
 41
1.570796326794897
 42
3.141592653589793
  0
LINE
  5
1A9
330
1F
100
AcDbEntity
  8
0
  6
Continuous
 62
     7
370
    15
100
AcDbLine
 10
-36.9037844833
 20
385.2496659052
 30
0.0
 11
-36.9037844833
 21
-90.7503152598
 31
0.0
  0
LINE
  5
1AA
330
1F
100
AcDbEntity
  8
0
  6
Continuous
 62
     7
370
    15
100
AcDbLine
 10
-39.3683769401
 20
-90.7503152598
 30
0.0
 11
-36.9037844833
 21
-90.7503152598
 31
0.0
  0
LINE
  5
1AB
330
1F
100
AcDbEntity
  8
0
  6
Continuous
 62
     7
370
    15
100
AcDbLine
 10
-39.3683769401
 20
-90.7503152598
 30
0.0
 11
-39.3683769401
 21
385.2496659052
 31
0.0
  0
ELLIPSE
  5
1AC
330
1F
100
AcDbEntity
  8
0
  6
Continuous
 62
     7
370
    15
100
AcDbEllipse
 10
-42.9038975518
 20
385.2496785304
 30
0.0
 11
3.535533905950572
 21
0.0
 31
0.0
210
0.0
220
0.0
230
1.0
 40
0.7071067812
 41
0.0
 42
1.570796326794897
  0
LINE
  5
1AD
330
1F
100
AcDbEntity
  8
0
  6
Continuous
 62
     7
370
    15
100
AcDbLine
 10
-43.3682658371
 20
387.7496933233
 30
0.0
 11
-42.9038860496
 21
387.7496933233
 31
0.0
  0
ELLIPSE
  5
1AE
330
1F
100
AcDbEntity
  8
0
  6
Continuous
 62
     7
370
    15
100
AcDbEllipse
 10
-43.3682527739
 20
385.2496785304
 30
0.0
 11
3.535533905932752
 21
0.0
 31
0.0
210
0.0
220
0.0
230
1.0
 40
0.7071067812
 41
1.570796326794897
 42
3.141592653589793
  0
LINE
  5
1AF
330
1F
100
AcDbEntity
  8
0
  6
Continuous
 62
     7
370
    15
100
AcDbLine
 10
-46.9037749466
 20
385.2496659052
 30
0.0
 11
-46.9037749466
 21
-90.7503152598
 31
0.0
  0
LINE
  5
1B0
330
1F
100
AcDbEntity
  8
0
  6
Continuous
 62
     7
370
    15
100
AcDbLine
 10
-49.3683674034
 20
-90.7503152598
 30
0.0
 11
-46.9037749466
 21
-90.7503152598
 31
0.0
  0
LINE
  5
1B1
330
1F
100
AcDbEntity
  8
0
  6
Continuous
 62
     7
370
    15
100
AcDbLine
 10
-49.3683674034
 20
-90.7503152598
 30
0.0
 11
-49.3683674034
 21
385.2496659052
 31
0.0
  0
ELLIPSE
  5
1B2
330
1F
100
AcDbEntity
  8
0
  6
Continuous
 62
     7
370
    15
100
AcDbEllipse
 10
-52.9038975518
 20
385.2496785304
 30
0.0
 11
3.535533905936191
 21
0.0
 31
0.0
210
0.0
220
0.0
230
1.0
 40
0.7071067812
 41
0.0
 42
1.570796326794897
  0
LINE
  5
1B3
330
1F
100
AcDbEntity
  8
0
  6
Continuous
 62
     7
370
    15
100
AcDbLine
 10
-53.3682563003
 20
387.7496933233
 30
0.0
 11
-52.9039063152
 21
387.7496933233
 31
0.0
  0
ELLIPSE
  5
1B4
330
1F
100
AcDbEntity
  8
0
  6
Continuous
 62
     7
370
    15
100
AcDbEllipse
 10
-53.3682527739
 20
385.2496785304
 30
0.0
 11
3.535533905932752
 21
0.0
 31
0.0
210
0.0
220
0.0
230
1.0
 40
0.7071067812
 41
1.570796326794897
 42
3.141592653589787
  0
LINE
  5
1B5
330
1F
100
AcDbEntity
  8
0
  6
Continuous
 62
     7
370
    15
100
AcDbLine
 10
-56.9037952122
 20
385.2496659052
 30
0.0
 11
-56.9037952122
 21
-90.7503152598
 31
0.0
  0
LINE
  5
1B6
330
1F
100
AcDbEntity
  8
0
  6
Continuous
 62
     7
370
    15
100
AcDbLine
 10
-59.3683578667
 20
-90.7503152598
 30
0.0
 11
-56.9037952122
 21
-90.7503152598
 31
0.0
  0
LINE
  5
1B7
330
1F
100
AcDbEntity
  8
0
  6
Continuous
 62
     7
370
    15
100
AcDbLine
 10
-59.3683578667
 20
-90.7503152598
 30
0.0
 11
-59.3683578667
 21
385.2496659052
 31
0.0
  0
ELLIPSE
  5
1B8
330
1F
100
AcDbEntity
  8
0
  6
Continuous
 62
     7
370
    15
100
AcDbEllipse
 10
-62.9038975519
 20
385.2496785304
 30
0.0
 11
3.535533905932915
 21
0.0
 31
0.0
210
0.0
220
0.0
230
1.0
 40
0.7071067812
 41
0.0
 42
1.570796326794897
  0
LINE
  5
1B9
330
1F
100
AcDbEntity
  8
0
  6
Continuous
 62
     7
370
    15
100
AcDbLine
 10
-63.3682467636
 20
387.7496933233
 30
0.0
 11
-62.9038967785
 21
387.7496933233
 31
0.0
  0
ELLIPSE
  5
1BA
330
1F
100
AcDbEntity
  8
0
  6
Continuous
 62
     7
370
    15
100
AcDbEllipse
 10
-63.368252774
 20
385.2496785304
 30
0.0
 11
3.535533905932695
 21
0.0
 31
0.0
210
0.0
220
0.0
230
1.0
 40
0.7071067812
 41
1.570796326794897
 42
3.141592653589793
  0
LINE
  5
1BB
330
1F
100
AcDbEntity
  8
0
  6
Continuous
 62
     7
370
    15
100
AcDbLine
 10
-66.9037856754
 20
385.2496659052
 30
0.0
 11
-66.9037856754
 21
-90.7503152598
 31
0.0
  0
LINE
  5
1BC
330
1F
100
AcDbEntity
  8
0
  6
Continuous
 62
     7
370
    15
100
AcDbLine
 10
-69.3683781322
 20
-90.7503152598
 30
0.0
 11
-66.9037856754
 21
-90.7503152598
 31
0.0
  0
LINE
  5
1BD
330
1F
100
AcDbEntity
  8
0
  6
Continuous
 62
     7
370
    15
100
AcDbLine
 10
-69.3683781322
 20
-90.7503152598
 30
0.0
 11
-69.3683781322
 21
385.2496659052
 31
0.0
  0
ELLIPSE
  5
1BE
330
1F
100
AcDbEntity
  8
0
  6
Continuous
 62
     7
370
    15
100
AcDbEllipse
 10
-72.9038975519
 20
385.2496785304
 30
0.0
 11
3.535533905933078
 21
0.0
 31
0.0
210
0.0
220
0.0
230
1.0
 40
0.7071067812
 41
0.0
 42
1.570796326794897
  0
LINE
  5
1BF
330
1F
100
AcDbEntity
  8
0
  6
Continuous
 62
     7
370
    15
100
AcDbLine
 10
-73.3682670292
 20
387.7496933233
 30
0.0
 11
-72.9038872417
 21
387.7496933233
 31
0.0
  0
ELLIPSE
  5
1C0
330
1F
100
AcDbEntity
  8
0
  6
Continuous
 62
     7
370
    15
100
AcDbEllipse
 10
-73.368252774
 20
385.2496785304
 30
0.0
 11
3.535533905932695
 21
0.0
 31
0.0
210
0.0
220
0.0
230
1.0
 40
0.7071067812
 41
1.570796326794897
 42
3.141592653589793
  0
LINE
  5
1C1
330
1F
100
AcDbEntity
  8
0
  6
Continuous
 62
     7
370
    15
100
AcDbLine
 10
-76.9037761387
 20
385.2496659052
 30
0.0
 11
-76.9037761387
 21
-90.7503152598
 31
0.0
  0
LINE
  5
1C2
330
1F
100
AcDbEntity
  8
0
  6
Continuous
 62
     7
370
    15
100
AcDbLine
 10
-79.3683685955
 20
-90.7503152598
 30
0.0
 11
-76.9037761387
 21
-90.7503152598
 31
0.0
  0
LINE
  5
1C3
330
1F
100
AcDbEntity
  8
0
  6
Continuous
 62
     7
370
    15
100
AcDbLine
 10
-79.3683685955
 20
-90.7503152598
 30
0.0
 11
-79.3683685955
 21
385.2496659052
 31
0.0
  0
ELLIPSE
  5
1C4
330
1F
100
AcDbEntity
  8
0
  6
Continuous
 62
     7
370
    15
100
AcDbEllipse
 10
-82.903897552
 20
385.2496785304
 30
0.0
 11
3.535533905932808
 21
0.0
 31
0.0
210
0.0
220
0.0
230
1.0
 40
0.7071067812
 41
0.0
 42
1.570796326794897
  0
LINE
  5
1C5
330
1F
100
AcDbEntity
  8
0
  6
Continuous
 62
     7
370
    15
100
AcDbLine
 10
-83.2380809482
 20
387.7496933233
 30
0.0
 11
-82.9039075073
 21
387.7496933233
 31
0.0
  0
ELLIPSE
  5
1C6
330
1F
100
AcDbEntity
  8
0
  6
Continuous
 62
     7
370
    15
100
AcDbEllipse
 10
-83.2380862921
 20
385.2496785304
 30
0.0
 11
3.535533905932695
 21
0.0
 31
0.0
210
0.0
220
0.0
230
1.0
 40
0.7071067812
 41
1.570796326794897
 42
3.141592653589793
  0
LINE
  5
1C7
330
1F
100
AcDbEntity
  8
0
  6
Continuous
 62
     7
370
    15
100
AcDbLine
 10
-86.7736198601
 20
385.2496659052
 30
0.0
 11
-86.7736198601
 21
-90.7503152598
 31
0.0
  0
ELLIPSE
  5
1C8
330
1F
100
AcDbEntity
  8
0
  6
Continuous
 62
     7
370
    15
100
AcDbEllipse
 10
36.863924837
 20
385.2496785304
 30
0.0
 11
0.0
 21
2.5
 31
0.0
210
0.0
220
0.0
230
1.0
 40
0.5656854249
 41
0.0
 42
1.570796326794897
  0
LINE
  5
1C9
330
1F
100
AcDbEntity
  8
0
  6
Continuous
 62
     7
370
    15
100
AcDbLine
 10
35.4496977631
 20
385.2496659052
 30
0.0
 11
33.0962083641
 21
385.2496659052
 31
0.0
  0
ELLIPSE
  5
1CA
330
1F
100
AcDbEntity
  8
0
  6
Continuous
 62
     7
370
    15
100
AcDbEllipse
 10
136.8639248371
 20
385.2496785304
 30
0.0
 11
0.0
 21
2.5
 31
0.0
210
0.0
220
0.0
230
1.0
 40
0.5656854249
 41
0.0
 42
1.570796326794897
  0
LINE
  5
1CB
330
1F
100
AcDbEntity
  8
0
  6
Continuous
 62
     7
370
    15
100
AcDbLine
 10
135.4497067038
 20
385.2496659052
 30
0.0
 11
133.0962173048
 21
385.2496659052
 31
0.0
  0
LINE
  5
1CC
330
1F
100
AcDbEntity
  8
0
  6
Continuous
 62
     7
370
    15
100
AcDbLine
 10
-19.3683662113
 20
385.2496659052
 30
0.0
 11
-21.7218556103
 21
385.2496659052
 31
0.0
  0
ELLIPSE
  5
1CD
330
1F
100
AcDbEntity
  8
0
  6
Continuous
 62
     7
370
    15
100
AcDbEllipse
 10
-23.136075163
 20
385.2496785304
 30
0.0
 11
0.0
 21
2.5
 31
0.0
210
0.0
220
0.0
230
1.0
 40
0.565685425
 41
4.712388980384698
 42
6.283185307179586
  0
ELLIPSE
  5
1CE
330
1F
100
AcDbEntity
  8
0
  6
Continuous
 62
     7
370
    15
100
AcDbEllipse
 10
-43.1360751629
 20
385.2496785304
 30
0.0
 11
0.0
 21
2.5
 31
0.0
210
0.0
220
0.0
230
1.0
 40
0.5656854249
 41
0.0
 42
1.570796326794897
  0
LINE
  5
1CF
330
1F
100
AcDbEntity
  8
0
  6
Continuous
 62
     7
370
    15
100
AcDbLine
 10
-44.5502855476
 20
385.2496659052
 30
0.0
 11
-46.9037749466
 21
385.2496659052
 31
0.0
  0
ELLIPSE
  5
1D0
330
1F
100
AcDbEntity
  8
0
  6
Continuous
 62
     7
370
    15
100
AcDbEllipse
 10
-73.1360751629
 20
385.2496785304
 30
0.0
 11
0.0
 21
2.5
 31
0.0
210
0.0
220
0.0
230
1.0
 40
0.5656854249
 41
0.0
 42
1.570796326794897
  0
LINE
  5
1D1
330
1F
100
AcDbEntity
  8
0
  6
Continuous
 62
     7
370
    15
100
AcDbLine
 10
-74.5502867397
 20
385.2496659052
 30
0.0
 11
-76.9037761387
 21
385.2496659052
 31
0.0
  0
LINE
  5
1D2
330
1F
100
AcDbEntity
  8
0
  6
Continuous
 62
     7
370
    15
100
AcDbLine
 10
110.6316290203
 20
385.2496659052
 30
0.0
 11
108.2781396214
 21
385.2496659052
 31
0.0
  0
ELLIPSE
  5
1D3
330
1F
100
AcDbEntity
  8
0
  6
Continuous
 62
     7
370
    15
100
AcDbEllipse
 10
106.8639248371
 20
385.2496785304
 30
0.0
 11
0.0
 21
2.5
 31
0.0
210
0.0
220
0.0
230
1.0
 40
0.5656854249
 41
4.712388980384698
 42
6.283185307179586
  0
ELLIPSE
  5
1D4
330
1F
100
AcDbEntity
  8
0
  6
Continuous
 62
     7
370
    15
100
AcDbEllipse
 10
176.8388654499
 20
385.2496785304
 30
0.0
 11
0.0
 21
2.5
 31
0.0
210
0.0
220
0.0
230
1.0
 40
0.5677262948
 41
0.0
 42
1.570796326794897
  0
LINE
  5
1D5
330
1F
100
AcDbEntity
  8
0
  6
Continuous
 62
     7
370
    15
100
AcDbLine
 10
175.41955331
 20
385.2496659052
 30
0.0
 11
173.0358890596
 21
385.2496659052
 31
0.0
  0
LINE
  5
1D6
330
1F
100
AcDbEntity
  8
0
  6
Continuous
 62
     7
370
    15
100
AcDbLine
 10
130.6316397492
 20
385.2496659052
 30
0.0
 11
128.278135449
 21
385.2496659052
 31
0.0
  0
ELLIPSE
  5
1D7
330
1F
100
AcDbEntity
  8
0
  6
Continuous
 62
     7
370
    15
100
AcDbEllipse
 10
126.8639248371
 20
385.2496785304
 30
0.0
 11
0.0
 21
2.5
 31
0.0
210
0.0
220
0.0
230
1.0
 40
0.5656854249
 41
4.712388980384698
 42
6.283185307179586
  0
ELLIPSE
  5
1D8
330
1F
100
AcDbEntity
  8
0
  6
Continuous
 62
     7
370
    15
100
AcDbEllipse
 10
166.8337632754
 20
385.2496785304
 30
0.0
 11
0.0
 21
2.5
 31
0.0
210
0.0
220
0.0
230
1.0
 40
0.5656854249
 41
0.0
 42
1.570796326794897
  0
LINE
  5
1D9
330
1F
100
AcDbEntity
  8
0
  6
Continuous
 62
     7
370
    15
100
AcDbLine
 10
165.4195479456
 20
385.2496659052
 30
0.0
 11
163.0358836952
 21
385.2496659052
 31
0.0
  0
LINE
  5
1DA
330
1F
100
AcDbEntity
  8
0
  6
Continuous
 62
     7
370
    15
100
AcDbLine
 10
-29.3683566746
 20
385.2496659052
 30
0.0
 11
-31.7218758758
 21
385.2496659052
 31
0.0
  0
ELLIPSE
  5
1DB
330
1F
100
AcDbEntity
  8
0
  6
Continuous
 62
     7
370
    15
100
AcDbEllipse
 10
-33.136075163
 20
385.2496785304
 30
0.0
 11
0.0
 21
2.5
 31
0.0
210
0.0
220
0.0
230
1.0
 40
0.5656854249
 41
4.712388980384698
 42
6.283185307179586
  0
ELLIPSE
  5
1DC
330
1F
100
AcDbEntity
  8
0
  6
Continuous
 62
     7
370
    15
100
AcDbEllipse
 10
-13.1360751629
 20
385.2496785304
 30
0.0
 11
0.0
 21
2.5
 31
0.0
210
0.0
220
0.0
230
1.0
 40
0.5656854249
 41
0.0
 42
1.570796326794897
  0
LINE
  5
1DD
330
1F
100
AcDbEntity
  8
0
  6
Continuous
 62
     7
370
    15
100
AcDbLine
 10
-14.5502843555
 20
385.2496659052
 30
0.0
 11
-16.9037737545
 21
385.2496659052
 31
0.0
  0
LINE
  5
1DE
330
1F
100
AcDbEntity
  8
0
  6
Continuous
 62
     7
370
    15
100
AcDbLine
 10
170.6316314045
 20
385.2496659052
 30
0.0
 11
168.2479820553
 21
385.2496659052
 31
0.0
  0
ELLIPSE
  5
1DF
330
1F
100
AcDbEntity
  8
0
  6
Continuous
 62
     7
370
    15
100
AcDbEllipse
 10
166.8337632754
 20
385.2496785304
 30
0.0
 11
0.0
 21
2.5
 31
0.0
210
0.0
220
0.0
230
1.0
 40
0.5656854249
 41
4.712388980384698
 42
6.283185307179586
  0
LINE
  5
1E0
330
1F
100
AcDbEntity
  8
0
  6
Continuous
 62
     7
370
    15
100
AcDbLine
 10
-49.3683674034
 20
385.2496659052
 30
0.0
 11
-51.7218568024
 21
385.2496659052
 31
0.0
  0
ELLIPSE
  5
1E1
330
1F
100
AcDbEntity
  8
0
  6
Continuous
 62
     7
370
    15
100
AcDbEllipse
 10
-53.1360751629
 20
385.2496785304
 30
0.0
 11
0.0
 21
2.5
 31
0.0
210
0.0
220
0.0
230
1.0
 40
0.5656854249
 41
4.712388980384698
 42
6.283185307179586
  0
ELLIPSE
  5
1E2
330
1F
100
AcDbEntity
  8
0
  6
Continuous
 62
     7
370
    15
100
AcDbEllipse
 10
196.8838510942
 20
385.2496785304
 30
0.0
 11
0.0
 21
2.5
 31
0.0
210
0.0
220
0.0
230
1.0
 40
0.5653825562
 41
0.0
 42
1.570796326794897
  0
LINE
  5
1E3
330
1F
100
AcDbEntity
  8
0
  6
Continuous
 62
     7
370
    15
100
AcDbLine
 10
195.4703918997
 20
385.2496659052
 30
0.0
 11
193.0660522882
 21
385.2496659052
 31
0.0
  0
LINE
  5
1E4
330
1F
100
AcDbEntity
  8
0
  6
Continuous
 62
     7
370
    15
100
AcDbLine
 10
-39.3683769401
 20
385.2496659052
 30
0.0
 11
-41.7218663391
 21
385.2496659052
 31
0.0
  0
ELLIPSE
  5
1E5
330
1F
100
AcDbEntity
  8
0
  6
Continuous
 62
     7
370
    15
100
AcDbEllipse
 10
-43.1360751629
 20
385.2496785304
 30
0.0
 11
0.0
 21
2.5
 31
0.0
210
0.0
220
0.0
230
1.0
 40
0.5656854249
 41
4.712388980384698
 42
6.283185307179586
  0
ELLIPSE
  5
1E6
330
1F
100
AcDbEntity
  8
0
  6
Continuous
 62
     7
370
    15
100
AcDbEllipse
 10
16.863924837
 20
385.2496785304
 30
0.0
 11
0.0
 21
2.5
 31
0.0
210
0.0
220
0.0
230
1.0
 40
0.5656854249
 41
0.0
 42
1.570796326794897
  0
LINE
  5
1E7
330
1F
100
AcDbEntity
  8
0
  6
Continuous
 62
     7
370
    15
100
AcDbLine
 10
15.4497168366
 20
385.2496659052
 30
0.0
 11
13.0962274376
 21
385.2496659052
 31
0.0
  0
LINE
  5
1E8
330
1F
100
AcDbEntity
  8
0
  6
Continuous
 62
     7
370
    15
100
AcDbLine
 10
-69.3683781322
 20
385.2496659052
 30
0.0
 11
-71.7218675312
 21
385.2496659052
 31
0.0
  0
ELLIPSE
  5
1E9
330
1F
100
AcDbEntity
  8
0
  6
Continuous
 62
     7
370
    15
100
AcDbEllipse
 10
-73.1360751629
 20
385.2496785304
 30
0.0
 11
0.0
 21
2.5
 31
0.0
210
0.0
220
0.0
230
1.0
 40
0.5656854249
 41
4.712388980384698
 42
6.283185307179586
  0
ELLIPSE
  5
1EA
330
1F
100
AcDbEntity
  8
0
  6
Continuous
 62
     7
370
    15
100
AcDbEllipse
 10
-53.1360751629
 20
385.2496785304
 30
0.0
 11
0.0
 21
2.5
 31
0.0
210
0.0
220
0.0
230
1.0
 40
0.5656854249
 41
0.0
 42
1.570796326794897
  0
LINE
  5
1EB
330
1F
100
AcDbEntity
  8
0
  6
Continuous
 62
     7
370
    15
100
AcDbLine
 10
-54.5502760109
 20
385.2496659052
 30
0.0
 11
-56.9037952122
 21
385.2496659052
 31
0.0
  0
ELLIPSE
  5
1EC
330
1F
100
AcDbEntity
  8
0
  6
Continuous
 62
     7
370
    15
100
AcDbEllipse
 10
186.7829182846
 20
385.2496785304
 30
0.0
 11
0.0
 21
2.5
 31
0.0
210
0.0
220
0.0
230
1.0
 40
0.5656854249
 41
0.0
 42
1.570796326794897
  0
LINE
  5
1ED
330
1F
100
AcDbEntity
  8
0
  6
Continuous
 62
     7
370
    15
100
AcDbLine
 10
185.3687010113
 20
385.2496659052
 30
0.0
 11
182.9643688503
 21
385.2496659052
 31
0.0
  0
LINE
  5
1EE
330
1F
100
AcDbEntity
  8
0
  6
Continuous
 62
     7
370
    15
100
AcDbLine
 10
70.631637365
 20
385.2496659052
 30
0.0
 11
68.2781330649
 21
385.2496659052
 31
0.0
  0
ELLIPSE
  5
1EF
330
1F
100
AcDbEntity
  8
0
  6
Continuous
 62
     7
370
    15
100
AcDbEllipse
 10
66.863924837
 20
385.2496785304
 30
0.0
 11
0.0
 21
2.5
 31
0.0
210
0.0
220
0.0
230
1.0
 40
0.5656854249
 41
4.712388980384698
 42
6.283185307179586
  0
ELLIPSE
  5
1F0
330
1F
100
AcDbEntity
  8
0
  6
Continuous
 62
     7
370
    15
100
AcDbEllipse
 10
116.8639248371
 20
385.2496785304
 30
0.0
 11
0.0
 21
2.5
 31
0.0
210
0.0
220
0.0
230
1.0
 40
0.5656854249
 41
0.0
 42
1.570796326794897
  0
LINE
  5
1F1
330
1F
100
AcDbEntity
  8
0
  6
Continuous
 62
     7
370
    15
100
AcDbLine
 10
115.4497108761
 20
385.2496659052
 30
0.0
 11
113.096206576
 21
385.2496659052
 31
0.0
  0
LINE
  5
1F2
330
1F
100
AcDbEntity
  8
0
  6
Continuous
 62
     7
370
    15
100
AcDbLine
 10
40.6316361729
 20
385.2496659052
 30
0.0
 11
38.2781467739
 21
385.2496659052
 31
0.0
  0
ELLIPSE
  5
1F3
330
1F
100
AcDbEntity
  8
0
  6
Continuous
 62
     7
370
    15
100
AcDbEllipse
 10
36.863924837
 20
385.2496785304
 30
0.0
 11
0.0
 21
2.5
 31
0.0
210
0.0
220
0.0
230
1.0
 40
0.5656854249
 41
4.712388980384698
 42
6.283185307179586
  0
LINE
  5
1F4
330
1F
100
AcDbEntity
  8
0
  6
Continuous
 62
     7
370
    15
100
AcDbLine
 10
-9.3683757481
 20
385.2496659052
 30
0.0
 11
-11.721865147
 21
385.2496659052
 31
0.0
  0
ELLIPSE
  5
1F5
330
1F
100
AcDbEntity
  8
0
  6
Continuous
 62
     7
370
    15
100
AcDbEllipse
 10
-13.1360751629
 20
385.2496785304
 30
0.0
 11
0.0
 21
2.5
 31
0.0
210
0.0
220
0.0
230
1.0
 40
0.5656854249
 41
4.712388980384698
 42
6.283185307179586
  0
ELLIPSE
  5
1F6
330
1F
100
AcDbEntity
  8
0
  6
Continuous
 62
     7
370
    15
100
AcDbEllipse
 10
-23.136075163
 20
385.2496785304
 30
0.0
 11
0.0
 21
2.5
 31
0.0
210
0.0
220
0.0
230
1.0
 40
0.5656854249
 41
0.0
 42
1.570796326794897
  0
LINE
  5
1F7
330
1F
100
AcDbEntity
  8
0
  6
Continuous
 62
     7
370
    15
100
AcDbLine
 10
-24.5502748188
 20
385.2496659052
 30
0.0
 11
-26.9037940201
 21
385.2496659052
 31
0.0
  0
LINE
  5
1F8
330
1F
100
AcDbEntity
  8
0
  6
Continuous
 62
     7
370
    15
100
AcDbLine
 10
160.6316409412
 20
385.2496659052
 30
0.0
 11
158.2479766909
 21
385.2496659052
 31
0.0
  0
ELLIPSE
  5
1F9
330
1F
100
AcDbEntity
  8
0
  6
Continuous
 62
     7
370
    15
100
AcDbEllipse
 10
156.8337632754
 20
385.2496785304
 30
0.0
 11
0.0
 21
2.5
 31
0.0
210
0.0
220
0.0
230
1.0
 40
0.565685425
 41
4.712388980384698
 42
6.283185307179586
  0
LINE
  5
1FA
330
1F
100
AcDbEntity
  8
0
  6
Continuous
 62
     7
370
    15
100
AcDbLine
 10
180.702268273
 20
385.2496659052
 30
0.0
 11
178.2272748056
 21
385.2496659052
 31
0.0
  0
ELLIPSE
  5
1FB
330
1F
100
AcDbEntity
  8
0
  6
Continuous
 62
     7
370
    15
100
AcDbEllipse
 10
176.8388654499
 20
385.2496785304
 30
0.0
 11
0.0
 21
2.5
 31
0.0
210
0.0
220
0.0
230
1.0
 40
0.5553624177
 41
4.712388980384698
 42
6.283185307179586
  0
LINE
  5
1FC
330
1F
100
AcDbEntity
  8
0
  6
Continuous
 62
     7
370
    15
100
AcDbLine
 10
150.6316355768
 20
385.2496659052
 30
0.0
 11
148.2479713265
 21
385.2496659052
 31
0.0
  0
ELLIPSE
  5
1FD
330
1F
100
AcDbEntity
  8
0
  6
Continuous
 62
     7
370
    15
100
AcDbEllipse
 10
146.8337632754
 20
385.2496785304
 30
0.0
 11
0.0
 21
2.5
 31
0.0
210
0.0
220
0.0
230
1.0
 40
0.565685425
 41
4.712388980384698
 42
6.283185307179586
  0
LINE
  5
1FE
330
1F
100
AcDbEntity
  8
0
  6
Continuous
 62
     7
370
    15
100
AcDbLine
 10
140.6316302124
 20
385.2496659052
 30
0.0
 11
138.2781408135
 21
385.2496659052
 31
0.0
  0
ELLIPSE
  5
1FF
330
1F
100
AcDbEntity
  8
0
  6
Continuous
 62
     7
370
    15
100
AcDbEllipse
 10
136.8639248371
 20
385.2496785304
 30
0.0
 11
0.0
 21
2.5
 31
0.0
210
0.0
220
0.0
230
1.0
 40
0.5656854249
 41
4.712388980384698
 42
6.283185307179586
  0
ELLIPSE
  5
200
330
1F
100
AcDbEntity
  8
0
  6
Continuous
 62
     7
370
    15
100
AcDbEllipse
 10
76.863924837
 20
385.2496785304
 30
0.0
 11
0.0
 21
2.5
 31
0.0
210
0.0
220
0.0
230
1.0
 40
0.5656854249
 41
0.0
 42
1.570796326794897
  0
LINE
  5
201
330
1F
100
AcDbEntity
  8
0
  6
Continuous
 62
     7
370
    15
100
AcDbLine
 10
75.4497043196
 20
385.2496659052
 30
0.0
 11
73.0962149206
 21
385.2496659052
 31
0.0
  0
LINE
  5
202
330
1F
100
AcDbEntity
  8
0
  6
Continuous
 62
     7
370
    15
100
AcDbLine
 10
20.631625444
 20
385.2496659052
 30
0.0
 11
18.2781360451
 21
385.2496659052
 31
0.0
  0
ELLIPSE
  5
203
330
1F
100
AcDbEntity
  8
0
  6
Continuous
 62
     7
370
    15
100
AcDbEllipse
 10
16.863924837
 20
385.2496785304
 30
0.0
 11
0.0
 21
2.5
 31
0.0
210
0.0
220
0.0
230
1.0
 40
0.5656854249
 41
4.712388980384698
 42
6.283185307179586
  0
ELLIPSE
  5
204
330
1F
100
AcDbEntity
  8
0
  6
Continuous
 62
     7
370
    15
100
AcDbEllipse
 10
66.863924837
 20
385.2496785304
 30
0.0
 11
0.0
 21
2.5
 31
0.0
210
0.0
220
0.0
230
1.0
 40
0.5656854249
 41
0.0
 42
1.570796326794897
  0
LINE
  5
205
330
1F
100
AcDbEntity
  8
0
  6
Continuous
 62
     7
370
    15
100
AcDbLine
 10
65.4497138563
 20
385.2496659052
 30
0.0
 11
63.0962095562
 21
385.2496659052
 31
0.0
  0
ELLIPSE
  5
206
330
1F
100
AcDbEntity
  8
0
  6
Continuous
 62
     7
370
    15
100
AcDbEllipse
 10
-3.1360751629
 20
385.2496785304
 30
0.0
 11
0.0
 21
2.5
 31
0.0
210
0.0
220
0.0
230
1.0
 40
0.5656854249
 41
0.0
 42
1.570796326794897
  0
LINE
  5
207
330
1F
100
AcDbEntity
  8
0
  6
Continuous
 62
     7
370
    15
100
AcDbLine
 10
-4.5502938923
 20
385.2496659052
 30
0.0
 11
-6.9037832912
 21
385.2496659052
 31
0.0
  0
LINE
  5
208
330
1F
100
AcDbEntity
  8
0
  6
Continuous
 62
     7
370
    15
100
AcDbLine
 10
0.6316445175
 20
385.2496659052
 30
0.0
 11
-1.7218746838
 21
385.2496659052
 31
0.0
  0
ELLIPSE
  5
209
330
1F
100
AcDbEntity
  8
0
  6
Continuous
 62
     7
370
    15
100
AcDbEllipse
 10
-3.1360751629
 20
385.2496785304
 30
0.0
 11
0.0
 21
2.5
 31
0.0
210
0.0
220
0.0
230
1.0
 40
0.5656854249
 41
4.712388980384698
 42
6.283185307179586
  0
ELLIPSE
  5
20A
330
1F
100
AcDbEntity
  8
0
  6
Continuous
 62
     7
370
    15
100
AcDbEllipse
 10
6.863924837
 20
385.2496785304
 30
0.0
 11
0.0
 21
2.5
 31
0.0
210
0.0
220
0.0
230
1.0
 40
0.5656854249
 41
0.0
 42
1.570796326794897
  0
LINE
  5
20B
330
1F
100
AcDbEntity
  8
0
  6
Continuous
 62
     7
370
    15
100
AcDbLine
 10
5.449696571
 20
385.2496659052
 30
0.0
 11
3.096207172
 21
385.2496659052
 31
0.0
  0
LINE
  5
20C
330
1F
100
AcDbEntity
  8
0
  6
Continuous
 62
     7
370
    15
100
AcDbLine
 10
50.6316266361
 20
385.2496659052
 30
0.0
 11
48.2781372372
 21
385.2496659052
 31
0.0
  0
ELLIPSE
  5
20D
330
1F
100
AcDbEntity
  8
0
  6
Continuous
 62
     7
370
    15
100
AcDbEllipse
 10
46.863924837
 20
385.2496785304
 30
0.0
 11
0.0
 21
2.5
 31
0.0
210
0.0
220
0.0
230
1.0
 40
0.5656854249
 41
4.712388980384698
 42
6.283185307179586
  0
ELLIPSE
  5
20E
330
1F
100
AcDbEntity
  8
0
  6
Continuous
 62
     7
370
    15
100
AcDbEllipse
 10
46.863924837
 20
385.2496785304
 30
0.0
 11
0.0
 21
2.5
 31
0.0
210
0.0
220
0.0
230
1.0
 40
0.5656854249
 41
0.0
 42
1.570796326794897
  0
LINE
  5
20F
330
1F
100
AcDbEntity
  8
0
  6
Continuous
 62
     7
370
    15
100
AcDbLine
 10
45.4497180286
 20
385.2496659052
 30
0.0
 11
43.0961988274
 21
385.2496659052
 31
0.0
  0
LINE
  5
210
330
1F
100
AcDbEntity
  8
0
  6
Continuous
 62
     7
370
    15
100
AcDbLine
 10
100.6316385571
 20
385.2496659052
 30
0.0
 11
98.2781342569
 21
385.2496659052
 31
0.0
  0
ELLIPSE
  5
211
330
1F
100
AcDbEntity
  8
0
  6
Continuous
 62
     7
370
    15
100
AcDbEllipse
 10
96.863924837
 20
385.2496785304
 30
0.0
 11
0.0
 21
2.5
 31
0.0
210
0.0
220
0.0
230
1.0
 40
0.5656854249
 41
4.712388980384698
 42
6.283185307179586
  0
LINE
  5
212
330
1F
100
AcDbEntity
  8
0
  6
Continuous
 62
     7
370
    15
100
AcDbLine
 10
30.6316457096
 20
385.2496659052
 30
0.0
 11
28.2781265083
 21
385.2496659052
 31
0.0
  0
ELLIPSE
  5
213
330
1F
100
AcDbEntity
  8
0
  6
Continuous
 62
     7
370
    15
100
AcDbEllipse
 10
26.863924837
 20
385.2496785304
 30
0.0
 11
0.0
 21
2.5
 31
0.0
210
0.0
220
0.0
230
1.0
 40
0.5656854249
 41
4.712388980384698
 42
6.283185307179586
  0
ELLIPSE
  5
214
330
1F
100
AcDbEntity
  8
0
  6
Continuous
 62
     7
370
    15
100
AcDbEllipse
 10
96.863924837
 20
385.2496785304
 30
0.0
 11
0.0
 21
2.5
 31
0.0
210
0.0
220
0.0
230
1.0
 40
0.5656854249
 41
0.0
 42
1.570796326794897
  0
LINE
  5
215
330
1F
100
AcDbEntity
  8
0
  6
Continuous
 62
     7
370
    15
100
AcDbLine
 10
95.4497150484
 20
385.2496659052
 30
0.0
 11
93.0962107483
 21
385.2496659052
 31
0.0
  0
LINE
  5
216
330
1F
100
AcDbEntity
  8
0
  6
Continuous
 62
     7
370
    15
100
AcDbLine
 10
-59.3683578667
 20
385.2496659052
 30
0.0
 11
-61.7218472656
 21
385.2496659052
 31
0.0
  0
ELLIPSE
  5
217
330
1F
100
AcDbEntity
  8
0
  6
Continuous
 62
     7
370
    15
100
AcDbEllipse
 10
-63.1360751629
 20
385.2496785304
 30
0.0
 11
0.0
 21
2.5
 31
0.0
210
0.0
220
0.0
230
1.0
 40
0.5656854249
 41
4.712388980384698
 42
6.283185307179586
  0
ELLIPSE
  5
218
330
1F
100
AcDbEntity
  8
0
  6
Continuous
 62
     7
370
    15
100
AcDbEllipse
 10
86.863924837
 20
385.2496785304
 30
0.0
 11
0.0
 21
2.5
 31
0.0
210
0.0
220
0.0
230
1.0
 40
0.5656854249
 41
0.0
 42
1.570796326794897
  0
LINE
  5
219
330
1F
100
AcDbEntity
  8
0
  6
Continuous
 62
     7
370
    15
100
AcDbLine
 10
85.449709684
 20
385.2496659052
 30
0.0
 11
83.096220285
 21
385.2496659052
 31
0.0
  0
LINE
  5
21A
330
1F
100
AcDbEntity
  8
0
  6
Continuous
 62
     7
370
    15
100
AcDbLine
 10
120.6316343847
 20
385.2496659052
 30
0.0
 11
118.2781449858
 21
385.2496659052
 31
0.0
  0
ELLIPSE
  5
21B
330
1F
100
AcDbEntity
  8
0
  6
Continuous
 62
     7
370
    15
100
AcDbEllipse
 10
116.8639248371
 20
385.2496785304
 30
0.0
 11
0.0
 21
2.5
 31
0.0
210
0.0
220
0.0
230
1.0
 40
0.5656854249
 41
4.712388980384698
 42
6.283185307179586
  0
ELLIPSE
  5
21C
330
1F
100
AcDbEntity
  8
0
  6
Continuous
 62
     7
370
    15
100
AcDbEllipse
 10
-63.1360751629
 20
385.2496785304
 30
0.0
 11
0.0
 21
2.5
 31
0.0
210
0.0
220
0.0
230
1.0
 40
0.5656854249
 41
0.0
 42
1.570796326794897
  0
LINE
  5
21D
330
1F
100
AcDbEntity
  8
0
  6
Continuous
 62
     7
370
    15
100
AcDbLine
 10
-64.5502962765
 20
385.2496659052
 30
0.0
 11
-66.9037856754
 21
385.2496659052
 31
0.0
  0
LINE
  5
21E
330
1F
100
AcDbEntity
  8
0
  6
Continuous
 62
     7
370
    15
100
AcDbLine
 10
90.6316331926
 20
385.2496659052
 30
0.0
 11
88.2781437937
 21
385.2496659052
 31
0.0
  0
ELLIPSE
  5
21F
330
1F
100
AcDbEntity
  8
0
  6
Continuous
 62
     7
370
    15
100
AcDbEllipse
 10
86.863924837
 20
385.2496785304
 30
0.0
 11
0.0
 21
2.5
 31
0.0
210
0.0
220
0.0
230
1.0
 40
0.5656854249
 41
4.712388980384698
 42
6.283185307179586
  0
LINE
  5
220
330
1F
100
AcDbEntity
  8
0
  6
Continuous
 62
     7
370
    15
100
AcDbLine
 10
10.6316349808
 20
385.2496659052
 30
0.0
 11
8.2781455818
 21
385.2496659052
 31
0.0
  0
ELLIPSE
  5
221
330
1F
100
AcDbEntity
  8
0
  6
Continuous
 62
     7
370
    15
100
AcDbEllipse
 10
6.863924837
 20
385.2496785304
 30
0.0
 11
0.0
 21
2.5
 31
0.0
210
0.0
220
0.0
230
1.0
 40
0.5656854249
 41
4.712388980384698
 42
6.283185307179586
  0
LINE
  5
222
330
1F
100
AcDbEntity
  8
0
  6
Continuous
 62
     7
370
    15
100
AcDbLine
 10
190.6014747325
 20
385.2496659052
 30
0.0
 11
188.197135121
 21
385.2496659052
 31
0.0
  0
ELLIPSE
  5
223
330
1F
100
AcDbEntity
  8
0
  6
Continuous
 62
     7
370
    15
100
AcDbEllipse
 10
186.7829182846
 20
385.2496785304
 30
0.0
 11
0.0
 21
2.5
 31
0.0
210
0.0
220
0.0
230
1.0
 40
0.5656854249
 41
4.712388980384698
 42
6.283185307179586
  0
ELLIPSE
  5
224
330
1F
100
AcDbEntity
  8
0
  6
Continuous
 62
     7
370
    15
100
AcDbEllipse
 10
126.8639248371
 20
385.2496785304
 30
0.0
 11
0.0
 21
2.5
 31
0.0
210
0.0
220
0.0
230
1.0
 40
0.5656854249
 41
0.0
 42
1.570796326794897
  0
LINE
  5
225
330
1F
100
AcDbEntity
  8
0
  6
Continuous
 62
     7
370
    15
100
AcDbLine
 10
125.4497162405
 20
385.2496659052
 30
0.0
 11
123.0962119404
 21
385.2496659052
 31
0.0
  0
ELLIPSE
  5
226
330
1F
100
AcDbEntity
  8
0
  6
Continuous
 62
     7
370
    15
100
AcDbEllipse
 10
56.863924837
 20
385.2496785304
 30
0.0
 11
0.0
 21
2.5
 31
0.0
210
0.0
220
0.0
230
1.0
 40
0.5656854249
 41
0.0
 42
1.570796326794897
  0
LINE
  5
227
330
1F
100
AcDbEntity
  8
0
  6
Continuous
 62
     7
370
    15
100
AcDbLine
 10
55.4497084919
 20
385.2496659052
 30
0.0
 11
53.0962190929
 21
385.2496659052
 31
0.0
  0
LINE
  5
228
330
1F
100
AcDbEntity
  8
0
  6
Continuous
 62
     7
370
    15
100
AcDbLine
 10
80.6316427294
 20
385.2496659052
 30
0.0
 11
78.2781384293
 21
385.2496659052
 31
0.0
  0
ELLIPSE
  5
229
330
1F
100
AcDbEntity
  8
0
  6
Continuous
 62
     7
370
    15
100
AcDbEllipse
 10
76.863924837
 20
385.2496785304
 30
0.0
 11
0.0
 21
2.5
 31
0.0
210
0.0
220
0.0
230
1.0
 40
0.5656854249
 41
4.712388980384698
 42
6.283185307179586
  0
ELLIPSE
  5
22A
330
1F
100
AcDbEntity
  8
0
  6
Continuous
 62
     7
370
    15
100
AcDbEllipse
 10
146.8337632754
 20
385.2496785304
 30
0.0
 11
0.0
 21
2.5
 31
0.0
210
0.0
220
0.0
230
1.0
 40
0.565685425
 41
0.0
 42
1.570796326794897
  0
LINE
  5
22B
330
1F
100
AcDbEntity
  8
0
  6
Continuous
 62
     7
370
    15
100
AcDbLine
 10
145.4195521179
 20
385.2496659052
 30
0.0
 11
143.0358878676
 21
385.2496659052
 31
0.0
  0
ELLIPSE
  5
22C
330
1F
100
AcDbEntity
  8
0
  6
Continuous
 62
     7
370
    15
100
AcDbEllipse
 10
26.863924837
 20
385.2496785304
 30
0.0
 11
0.0
 21
2.5
 31
0.0
210
0.0
220
0.0
230
1.0
 40
0.5656854249
 41
0.0
 42
1.570796326794897
  0
LINE
  5
22D
330
1F
100
AcDbEntity
  8
0
  6
Continuous
 62
     7
370
    15
100
AcDbLine
 10
25.4497072998
 20
385.2496659052
 30
0.0
 11
23.0962179009
 21
385.2496659052
 31
0.0
  0
ELLIPSE
  5
22E
330
1F
100
AcDbEntity
  8
0
  6
Continuous
 62
     7
370
    15
100
AcDbEllipse
 10
106.8639248371
 20
385.2496785304
 30
0.0
 11
0.0
 21
2.5
 31
0.0
210
0.0
220
0.0
230
1.0
 40
0.5656854249
 41
0.0
 42
1.570796326794897
  0
LINE
  5
22F
330
1F
100
AcDbEntity
  8
0
  6
Continuous
 62
     7
370
    15
100
AcDbLine
 10
105.4497055117
 20
385.2496659052
 30
0.0
 11
103.0962161127
 21
385.2496659052
 31
0.0
  0
ELLIPSE
  5
230
330
1F
100
AcDbEntity
  8
0
  6
Continuous
 62
     7
370
    15
100
AcDbEllipse
 10
-33.136075163
 20
385.2496785304
 30
0.0
 11
0.0
 21
2.5
 31
0.0
210
0.0
220
0.0
230
1.0
 40
0.5656854249
 41
0.0
 42
1.570796326794897
  0
LINE
  5
231
330
1F
100
AcDbEntity
  8
0
  6
Continuous
 62
     7
370
    15
100
AcDbLine
 10
-34.5502950844
 20
385.2496659052
 30
0.0
 11
-36.9037844833
 21
385.2496659052
 31
0.0
  0
ELLIPSE
  5
232
330
1F
100
AcDbEntity
  8
0
  6
Continuous
 62
     7
370
    15
100
AcDbEllipse
 10
156.8337632754
 20
385.2496785304
 30
0.0
 11
0.0
 21
2.5
 31
0.0
210
0.0
220
0.0
230
1.0
 40
0.565685425
 41
0.0
 42
1.570796326794897
  0
LINE
  5
233
330
1F
100
AcDbEntity
  8
0
  6
Continuous
 62
     7
370
    15
100
AcDbLine
 10
155.4195425812
 20
385.2496659052
 30
0.0
 11
153.035893232
 21
385.2496659052
 31
0.0
  0
LINE
  5
234
330
1F
100
AcDbEntity
  8
0
  6
Continuous
 62
     7
370
    15
100
AcDbLine
 10
60.6316469017
 20
385.2496659052
 30
0.0
 11
58.2781277004
 21
385.2496659052
 31
0.0
  0
ELLIPSE
  5
235
330
1F
100
AcDbEntity
  8
0
  6
Continuous
 62
     7
370
    15
100
AcDbEllipse
 10
56.863924837
 20
385.2496785304
 30
0.0
 11
0.0
 21
2.5
 31
0.0
210
0.0
220
0.0
230
1.0
 40
0.5656854249
 41
4.712388980384698
 42
6.283185307179586
  0
ELLIPSE
  5
236
330
1F
100
AcDbEntity
  8
0
  6
Continuous
 62
     7
370
    15
100
AcDbEllipse
 10
-83.0709919221
 20
385.2496785304
 30
0.0
 11
0.0
 21
2.5
 31
0.0
210
0.0
220
0.0
230
1.0
 40
0.5656854249
 41
0.0
 42
1.570796326794897
  0
LINE
  5
237
330
1F
100
AcDbEntity
  8
0
  6
Continuous
 62
     7
370
    15
100
AcDbLine
 10
-84.4852187332
 20
385.2496659052
 30
0.0
 11
-86.7736198601
 21
385.2496659052
 31
0.0
  0
LINE
  5
238
330
1F
100
AcDbEntity
  8
0
  6
Continuous
 62
     7
370
    15
100
AcDbLine
 10
200.699894816
 20
385.2496659052
 30
0.0
 11
198.2982150618
 21
385.2496659052
 31
0.0
  0
ELLIPSE
  5
239
330
1F
100
AcDbEntity
  8
0
  6
Continuous
 62
     7
370
    15
100
AcDbEllipse
 10
196.8838510942
 20
385.2496785304
 30
0.0
 11
0.0
 21
2.5
 31
0.0
210
0.0
220
0.0
230
1.0
 40
0.5657459987
 41
4.712388980384698
 42
6.283185307179586
  0
LINE
  5
23A
330
1F
100
AcDbEntity
  8
0
  6
Continuous
 62
     7
370
    15
100
AcDbLine
 10
-79.3683685955
 20
385.2496659052
 30
0.0
 11
-81.6567697224
 21
385.2496659052
 31
0.0
  0
ELLIPSE
  5
23B
330
1F
100
AcDbEntity
  8
0
  6
Continuous
 62
     7
370
    15
100
AcDbEllipse
 10
-83.0709919221
 20
385.2496785304
 30
0.0
 11
0.0
 21
2.5
 31
0.0
210
0.0
220
0.0
230
1.0
 40
0.5656854249
 41
4.712388980384698
 42
6.283185307179586
  0
LINE
  5
23C
330
1F
100
AcDbEntity
  8
0
  6
Continuous
 62
     7
370
    15
100
AcDbLine
 10
73.0962149206
 20
-90.7503152598
 30
0.0
 11
75.4497043196
 21
-90.7503152598
 31
0.0
  0
LINE
  5
23D
330
1F
100
AcDbEntity
  8
0
  6
Continuous
 62
     7
370
    15
100
AcDbLine
 10
75.4497043196
 20
-90.7503152598
 30
0.0
 11
75.4497043196
 21
385.2496659052
 31
0.0
  0
LINE
  5
23E
330
1F
100
AcDbEntity
  8
0
  6
Continuous
 62
     7
370
    15
100
AcDbLine
 10
163.0358836952
 20
-90.7503152598
 30
0.0
 11
165.4195479456
 21
-90.7503152598
 31
0.0
  0
LINE
  5
23F
330
1F
100
AcDbEntity
  8
0
  6
Continuous
 62
     7
370
    15
100
AcDbLine
 10
165.4195479456
 20
-90.7503152598
 30
0.0
 11
165.4195479456
 21
385.2496659052
 31
0.0
  0
LINE
  5
240
330
1F
100
AcDbEntity
  8
0
  6
Continuous
 62
     7
370
    15
100
AcDbLine
 10
-6.9037832912
 20
-90.7503152598
 30
0.0
 11
-4.5502938923
 21
-90.7503152598
 31
0.0
  0
LINE
  5
241
330
1F
100
AcDbEntity
  8
0
  6
Continuous
 62
     7
370
    15
100
AcDbLine
 10
-4.5502938923
 20
-90.7503152598
 30
0.0
 11
-4.5502938923
 21
385.2496659052
 31
0.0
  0
LINE
  5
242
330
1F
100
AcDbEntity
  8
0
  6
Continuous
 62
     7
370
    15
100
AcDbLine
 10
43.0961988274
 20
-90.7503152598
 30
0.0
 11
45.4497180286
 21
-90.7503152598
 31
0.0
  0
LINE
  5
243
330
1F
100
AcDbEntity
  8
0
  6
Continuous
 62
     7
370
    15
100
AcDbLine
 10
45.4497180286
 20
-90.7503152598
 30
0.0
 11
45.4497180286
 21
385.2496659052
 31
0.0
  0
LINE
  5
244
330
1F
100
AcDbEntity
  8
0
  6
Continuous
 62
     7
370
    15
100
AcDbLine
 10
-26.9037940201
 20
-90.7503152598
 30
0.0
 11
-24.5502748188
 21
-90.7503152598
 31
0.0
  0
LINE
  5
245
330
1F
100
AcDbEntity
  8
0
  6
Continuous
 62
     7
370
    15
100
AcDbLine
 10
-24.5502748188
 20
-90.7503152598
 30
0.0
 11
-24.5502748188
 21
385.2496659052
 31
0.0
  0
LINE
  5
246
330
1F
100
AcDbEntity
  8
0
  6
Continuous
 62
     7
370
    15
100
AcDbLine
 10
-86.7736198601
 20
-90.7503152598
 30
0.0
 11
-84.4852187332
 21
-90.7503152598
 31
0.0
  0
LINE
  5
247
330
1F
100
AcDbEntity
  8
0
  6
Continuous
 62
     7
370
    15
100
AcDbLine
 10
-84.4852187332
 20
-90.7503152598
 30
0.0
 11
-84.4852187332
 21
385.2496659052
 31
0.0
  0
LINE
  5
248
330
1F
100
AcDbEntity
  8
0
  6
Continuous
 62
     7
370
    15
100
AcDbLine
 10
-1.7218746838
 20
-90.7503152598
 30
0.0
 11
0.6316445175
 21
-90.7503152598
 31
0.0
  0
LINE
  5
249
330
1F
100
AcDbEntity
  8
0
  6
Continuous
 62
     7
370
    15
100
AcDbLine
 10
-1.7218746838
 20
-90.7503152598
 30
0.0
 11
-1.7218746838
 21
385.2496659052
 31
0.0
  0
LINE
  5
24A
330
1F
100
AcDbEntity
  8
0
  6
Continuous
 62
     7
370
    15
100
AcDbLine
 10
-51.7218568024
 20
-90.7503152598
 30
0.0
 11
-49.3683674034
 21
-90.7503152598
 31
0.0
  0
LINE
  5
24B
330
1F
100
AcDbEntity
  8
0
  6
Continuous
 62
     7
370
    15
100
AcDbLine
 10
-51.7218568024
 20
-90.7503152598
 30
0.0
 11
-51.7218568024
 21
385.2496659052
 31
0.0
  0
LINE
  5
24C
330
1F
100
AcDbEntity
  8
0
  6
Continuous
 62
     7
370
    15
100
AcDbLine
 10
18.2781360451
 20
-90.7503152598
 30
0.0
 11
20.631625444
 21
-90.7503152598
 31
0.0
  0
LINE
  5
24D
330
1F
100
AcDbEntity
  8
0
  6
Continuous
 62
     7
370
    15
100
AcDbLine
 10
18.2781360451
 20
-90.7503152598
 30
0.0
 11
18.2781360451
 21
385.2496659052
 31
0.0
  0
LINE
  5
24E
330
1F
100
AcDbEntity
  8
0
  6
Continuous
 62
     7
370
    15
100
AcDbLine
 10
-76.9037761387
 20
-90.7503152598
 30
0.0
 11
-74.5502867397
 21
-90.7503152598
 31
0.0
  0
LINE
  5
24F
330
1F
100
AcDbEntity
  8
0
  6
Continuous
 62
     7
370
    15
100
AcDbLine
 10
-74.5502867397
 20
-90.7503152598
 30
0.0
 11
-74.5502867397
 21
385.2496659052
 31
0.0
  0
LINE
  5
250
330
1F
100
AcDbEntity
  8
0
  6
Continuous
 62
     7
370
    15
100
AcDbLine
 10
23.0962179009
 20
-90.7503152598
 30
0.0
 11
25.4497072998
 21
-90.7503152598
 31
0.0
  0
LINE
  5
251
330
1F
100
AcDbEntity
  8
0
  6
Continuous
 62
     7
370
    15
100
AcDbLine
 10
25.4497072998
 20
-90.7503152598
 30
0.0
 11
25.4497072998
 21
385.2496659052
 31
0.0
  0
LINE
  5
252
330
1F
100
AcDbEntity
  8
0
  6
Continuous
 62
     7
370
    15
100
AcDbLine
 10
173.0358890596
 20
-90.7503152598
 30
0.0
 11
175.41955331
 21
-90.7503152598
 31
0.0
  0
LINE
  5
253
330
1F
100
AcDbEntity
  8
0
  6
Continuous
 62
     7
370
    15
100
AcDbLine
 10
175.41955331
 20
-90.7503152598
 30
0.0
 11
175.41955331
 21
385.2496659052
 31
0.0
  0
LINE
  5
254
330
1F
100
AcDbEntity
  8
0
  6
Continuous
 62
     7
370
    15
100
AcDbLine
 10
123.0962119404
 20
-90.7503152598
 30
0.0
 11
125.4497162405
 21
-90.7503152598
 31
0.0
  0
LINE
  5
255
330
1F
100
AcDbEntity
  8
0
  6
Continuous
 62
     7
370
    15
100
AcDbLine
 10
125.4497162405
 20
-90.7503152598
 30
0.0
 11
125.4497162405
 21
385.2496659052
 31
0.0
  0
LINE
  5
256
330
1F
100
AcDbEntity
  8
0
  6
Continuous
 62
     7
370
    15
100
AcDbLine
 10
148.2479713265
 20
-90.7503152598
 30
0.0
 11
150.6316355768
 21
-90.7503152598
 31
0.0
  0
LINE
  5
257
330
1F
100
AcDbEntity
  8
0
  6
Continuous
 62
     7
370
    15
100
AcDbLine
 10
148.2479713265
 20
-90.7503152598
 30
0.0
 11
148.2479713265
 21
385.2496659052
 31
0.0
  0
LINE
  5
258
330
1F
100
AcDbEntity
  8
0
  6
Continuous
 62
     7
370
    15
100
AcDbLine
 10
-56.9037952122
 20
-90.7503152598
 30
0.0
 11
-54.5502760109
 21
-90.7503152598
 31
0.0
  0
LINE
  5
259
330
1F
100
AcDbEntity
  8
0
  6
Continuous
 62
     7
370
    15
100
AcDbLine
 10
-54.5502760109
 20
-90.7503152598
 30
0.0
 11
-54.5502760109
 21
385.2496659052
 31
0.0
  0
LINE
  5
25A
330
1F
100
AcDbEntity
  8
0
  6
Continuous
 62
     7
370
    15
100
AcDbLine
 10
-71.7218675312
 20
-90.7503152598
 30
0.0
 11
-69.3683781322
 21
-90.7503152598
 31
0.0
  0
LINE
  5
25B
330
1F
100
AcDbEntity
  8
0
  6
Continuous
 62
     7
370
    15
100
AcDbLine
 10
-71.7218675312
 20
-90.7503152598
 30
0.0
 11
-71.7218675312
 21
385.2496659052
 31
0.0
  0
LINE
  5
25C
330
1F
100
AcDbEntity
  8
0
  6
Continuous
 62
     7
370
    15
100
AcDbLine
 10
198.2982150618
 20
-90.7503152598
 30
0.0
 11
200.699894816
 21
-90.7503152598
 31
0.0
  0
LINE
  5
25D
330
1F
100
AcDbEntity
  8
0
  6
Continuous
 62
     7
370
    15
100
AcDbLine
 10
198.2982150618
 20
-90.7503152598
 30
0.0
 11
198.2982150618
 21
385.2496659052
 31
0.0
  0
LINE
  5
25E
330
1F
100
AcDbEntity
  8
0
  6
Continuous
 62
     7
370
    15
100
AcDbLine
 10
78.2781384293
 20
-90.7503152598
 30
0.0
 11
80.6316427294
 21
-90.7503152598
 31
0.0
  0
LINE
  5
25F
330
1F
100
AcDbEntity
  8
0
  6
Continuous
 62
     7
370
    15
100
AcDbLine
 10
78.2781384293
 20
-90.7503152598
 30
0.0
 11
78.2781384293
 21
385.2496659052
 31
0.0
  0
LINE
  5
260
330
1F
100
AcDbEntity
  8
0
  6
Continuous
 62
     7
370
    15
100
AcDbLine
 10
-61.7218472656
 20
-90.7503152598
 30
0.0
 11
-59.3683578667
 21
-90.7503152598
 31
0.0
  0
LINE
  5
261
330
1F
100
AcDbEntity
  8
0
  6
Continuous
 62
     7
370
    15
100
AcDbLine
 10
-61.7218472656
 20
-90.7503152598
 30
0.0
 11
-61.7218472656
 21
385.2496659052
 31
0.0
  0
LINE
  5
262
330
1F
100
AcDbEntity
  8
0
  6
Continuous
 62
     7
370
    15
100
AcDbLine
 10
3.096207172
 20
-90.7503152598
 30
0.0
 11
5.449696571
 21
-90.7503152598
 31
0.0
  0
LINE
  5
263
330
1F
100
AcDbEntity
  8
0
  6
Continuous
 62
     7
370
    15
100
AcDbLine
 10
5.449696571
 20
-90.7503152598
 30
0.0
 11
5.449696571
 21
385.2496659052
 31
0.0
  0
LINE
  5
264
330
1F
100
AcDbEntity
  8
0
  6
Continuous
 62
     7
370
    15
100
AcDbLine
 10
48.2781372372
 20
-90.7503152598
 30
0.0
 11
50.6316266361
 21
-90.7503152598
 31
0.0
  0
LINE
  5
265
330
1F
100
AcDbEntity
  8
0
  6
Continuous
 62
     7
370
    15
100
AcDbLine
 10
48.2781372372
 20
-90.7503152598
 30
0.0
 11
48.2781372372
 21
385.2496659052
 31
0.0
  0
LINE
  5
266
330
1F
100
AcDbEntity
  8
0
  6
Continuous
 62
     7
370
    15
100
AcDbLine
 10
128.278135449
 20
-90.7503152598
 30
0.0
 11
130.6316397492
 21
-90.7503152598
 31
0.0
  0
LINE
  5
267
330
1F
100
AcDbEntity
  8
0
  6
Continuous
 62
     7
370
    15
100
AcDbLine
 10
128.278135449
 20
-90.7503152598
 30
0.0
 11
128.278135449
 21
385.2496659052
 31
0.0
  0
LINE
  5
268
330
1F
100
AcDbEntity
  8
0
  6
Continuous
 62
     7
370
    15
100
AcDbLine
 10
88.2781437937
 20
-90.7503152598
 30
0.0
 11
90.6316331926
 21
-90.7503152598
 31
0.0
  0
LINE
  5
269
330
1F
100
AcDbEntity
  8
0
  6
Continuous
 62
     7
370
    15
100
AcDbLine
 10
88.2781437937
 20
-90.7503152598
 30
0.0
 11
88.2781437937
 21
385.2496659052
 31
0.0
  0
LINE
  5
26A
330
1F
100
AcDbEntity
  8
0
  6
Continuous
 62
     7
370
    15
100
AcDbLine
 10
98.2781342569
 20
-90.7503152598
 30
0.0
 11
100.6316385571
 21
-90.7503152598
 31
0.0
  0
LINE
  5
26B
330
1F
100
AcDbEntity
  8
0
  6
Continuous
 62
     7
370
    15
100
AcDbLine
 10
98.2781342569
 20
-90.7503152598
 30
0.0
 11
98.2781342569
 21
385.2496659052
 31
0.0
  0
LINE
  5
26C
330
1F
100
AcDbEntity
  8
0
  6
Continuous
 62
     7
370
    15
100
AcDbLine
 10
68.2781330649
 20
-90.7503152598
 30
0.0
 11
70.631637365
 21
-90.7503152598
 31
0.0
  0
LINE
  5
26D
330
1F
100
AcDbEntity
  8
0
  6
Continuous
 62
     7
370
    15
100
AcDbLine
 10
68.2781330649
 20
-90.7503152598
 30
0.0
 11
68.2781330649
 21
385.2496659052
 31
0.0
  0
LINE
  5
26E
330
1F
100
AcDbEntity
  8
0
  6
Continuous
 62
     7
370
    15
100
AcDbLine
 10
113.096206576
 20
-90.7503152598
 30
0.0
 11
115.4497108761
 21
-90.7503152598
 31
0.0
  0
LINE
  5
26F
330
1F
100
AcDbEntity
  8
0
  6
Continuous
 62
     7
370
    15
100
AcDbLine
 10
115.4497108761
 20
-90.7503152598
 30
0.0
 11
115.4497108761
 21
385.2496659052
 31
0.0
  0
LINE
  5
270
330
1F
100
AcDbEntity
  8
0
  6
Continuous
 62
     7
370
    15
100
AcDbLine
 10
-36.9037844833
 20
-90.7503152598
 30
0.0
 11
-34.5502950844
 21
-90.7503152598
 31
0.0
  0
LINE
  5
271
330
1F
100
AcDbEntity
  8
0
  6
Continuous
 62
     7
370
    15
100
AcDbLine
 10
-34.5502950844
 20
-90.7503152598
 30
0.0
 11
-34.5502950844
 21
385.2496659052
 31
0.0
  0
LINE
  5
272
330
1F
100
AcDbEntity
  8
0
  6
Continuous
 62
     7
370
    15
100
AcDbLine
 10
-46.9037749466
 20
-90.7503152598
 30
0.0
 11
-44.5502855476
 21
-90.7503152598
 31
0.0
  0
LINE
  5
273
330
1F
100
AcDbEntity
  8
0
  6
Continuous
 62
     7
370
    15
100
AcDbLine
 10
-44.5502855476
 20
-90.7503152598
 30
0.0
 11
-44.5502855476
 21
385.2496659052
 31
0.0
  0
LINE
  5
274
330
1F
100
AcDbEntity
  8
0
  6
Continuous
 62
     7
370
    15
100
AcDbLine
 10
-21.7218556103
 20
-90.7503152598
 30
0.0
 11
-19.3683662113
 21
-90.7503152598
 31
0.0
  0
LINE
  5
275
330
1F
100
AcDbEntity
  8
0
  6
Continuous
 62
     7
370
    15
100
AcDbLine
 10
-21.7218556103
 20
-90.7503152598
 30
0.0
 11
-21.7218556103
 21
385.2496659052
 31
0.0
  0
LINE
  5
276
330
1F
100
AcDbEntity
  8
0
  6
Continuous
 62
     7
370
    15
100
AcDbLine
 10
28.2781265083
 20
-90.7503152598
 30
0.0
 11
30.6316457096
 21
-90.7503152598
 31
0.0
  0
LINE
  5
277
330
1F
100
AcDbEntity
  8
0
  6
Continuous
 62
     7
370
    15
100
AcDbLine
 10
28.2781265083
 20
-90.7503152598
 30
0.0
 11
28.2781265083
 21
385.2496659052
 31
0.0
  0
LINE
  5
278
330
1F
100
AcDbEntity
  8
0
  6
Continuous
 62
     7
370
    15
100
AcDbLine
 10
193.0660522882
 20
-90.7503152598
 30
0.0
 11
195.4703918997
 21
-90.7503152598
 31
0.0
  0
LINE
  5
279
330
1F
100
AcDbEntity
  8
0
  6
Continuous
 62
     7
370
    15
100
AcDbLine
 10
195.4703918997
 20
-90.7503152598
 30
0.0
 11
195.4703918997
 21
385.2496659052
 31
0.0
  0
LINE
  5
27A
330
1F
100
AcDbEntity
  8
0
  6
Continuous
 62
     7
370
    15
100
AcDbLine
 10
153.035893232
 20
-90.7503152598
 30
0.0
 11
155.4195425812
 21
-90.7503152598
 31
0.0
  0
LINE
  5
27B
330
1F
100
AcDbEntity
  8
0
  6
Continuous
 62
     7
370
    15
100
AcDbLine
 10
155.4195425812
 20
-90.7503152598
 30
0.0
 11
155.4195425812
 21
385.2496659052
 31
0.0
  0
LINE
  5
27C
330
1F
100
AcDbEntity
  8
0
  6
Continuous
 62
     7
370
    15
100
AcDbLine
 10
108.2781396214
 20
-90.7503152598
 30
0.0
 11
110.6316290203
 21
-90.7503152598
 31
0.0
  0
LINE
  5
27D
330
1F
100
AcDbEntity
  8
0
  6
Continuous
 62
     7
370
    15
100
AcDbLine
 10
108.2781396214
 20
-90.7503152598
 30
0.0
 11
108.2781396214
 21
385.2496659052
 31
0.0
  0
LINE
  5
27E
330
1F
100
AcDbEntity
  8
0
  6
Continuous
 62
     7
370
    15
100
AcDbLine
 10
93.0962107483
 20
-90.7503152598
 30
0.0
 11
95.4497150484
 21
-90.7503152598
 31
0.0
  0
LINE
  5
27F
330
1F
100
AcDbEntity
  8
0
  6
Continuous
 62
     7
370
    15
100
AcDbLine
 10
95.4497150484
 20
-90.7503152598
 30
0.0
 11
95.4497150484
 21
385.2496659052
 31
0.0
  0
LINE
  5
280
330
1F
100
AcDbEntity
  8
0
  6
Continuous
 62
     7
370
    15
100
AcDbLine
 10
143.0358878676
 20
-90.7503152598
 30
0.0
 11
145.4195521179
 21
-90.7503152598
 31
0.0
  0
LINE
  5
281
330
1F
100
AcDbEntity
  8
0
  6
Continuous
 62
     7
370
    15
100
AcDbLine
 10
145.4195521179
 20
-90.7503152598
 30
0.0
 11
145.4195521179
 21
385.2496659052
 31
0.0
  0
LINE
  5
282
330
1F
100
AcDbEntity
  8
0
  6
Continuous
 62
     7
370
    15
100
AcDbLine
 10
-66.9037856754
 20
-90.7503152598
 30
0.0
 11
-64.5502962765
 21
-90.7503152598
 31
0.0
  0
LINE
  5
283
330
1F
100
AcDbEntity
  8
0
  6
Continuous
 62
     7
370
    15
100
AcDbLine
 10
-64.5502962765
 20
-90.7503152598
 30
0.0
 11
-64.5502962765
 21
385.2496659052
 31
0.0
  0
LINE
  5
284
330
1F
100
AcDbEntity
  8
0
  6
Continuous
 62
     7
370
    15
100
AcDbLine
 10
138.2781408135
 20
-90.7503152598
 30
0.0
 11
140.6316302124
 21
-90.7503152598
 31
0.0
  0
LINE
  5
285
330
1F
100
AcDbEntity
  8
0
  6
Continuous
 62
     7
370
    15
100
AcDbLine
 10
138.2781408135
 20
-90.7503152598
 30
0.0
 11
138.2781408135
 21
385.2496659052
 31
0.0
  0
LINE
  5
286
330
1F
100
AcDbEntity
  8
0
  6
Continuous
 62
     7
370
    15
100
AcDbLine
 10
-11.721865147
 20
-90.7503152598
 30
0.0
 11
-9.3683757481
 21
-90.7503152598
 31
0.0
  0
LINE
  5
287
330
1F
100
AcDbEntity
  8
0
  6
Continuous
 62
     7
370
    15
100
AcDbLine
 10
-11.721865147
 20
-90.7503152598
 30
0.0
 11
-11.721865147
 21
385.2496659052
 31
0.0
  0
LINE
  5
288
330
1F
100
AcDbEntity
  8
0
  6
Continuous
 62
     7
370
    15
100
AcDbLine
 10
-41.7218663391
 20
-90.7503152598
 30
0.0
 11
-39.3683769401
 21
-90.7503152598
 31
0.0
  0
LINE
  5
289
330
1F
100
AcDbEntity
  8
0
  6
Continuous
 62
     7
370
    15
100
AcDbLine
 10
-41.7218663391
 20
-90.7503152598
 30
0.0
 11
-41.7218663391
 21
385.2496659052
 31
0.0
  0
LINE
  5
28A
330
1F
100
AcDbEntity
  8
0
  6
Continuous
 62
     7
370
    15
100
AcDbLine
 10
182.9643688503
 20
-90.7503152598
 30
0.0
 11
185.3687010113
 21
-90.7503152598
 31
0.0
  0
LINE
  5
28B
330
1F
100
AcDbEntity
  8
0
  6
Continuous
 62
     7
370
    15
100
AcDbLine
 10
185.3687010113
 20
-90.7503152598
 30
0.0
 11
185.3687010113
 21
385.2496659052
 31
0.0
  0
LINE
  5
28C
330
1F
100
AcDbEntity
  8
0
  6
Continuous
 62
     7
370
    15
100
AcDbLine
 10
178.2272748056
 20
-90.7503152598
 30
0.0
 11
180.702268273
 21
-90.7503152598
 31
0.0
  0
LINE
  5
28D
330
1F
100
AcDbEntity
  8
0
  6
Continuous
 62
     7
370
    15
100
AcDbLine
 10
178.2272748056
 20
-90.7503152598
 30
0.0
 11
178.2272748056
 21
385.2496659052
 31
0.0
  0
LINE
  5
28E
330
1F
100
AcDbEntity
  8
0
  6
Continuous
 62
     7
370
    15
100
AcDbLine
 10
83.096220285
 20
-90.7503152598
 30
0.0
 11
85.449709684
 21
-90.7503152598
 31
0.0
  0
LINE
  5
28F
330
1F
100
AcDbEntity
  8
0
  6
Continuous
 62
     7
370
    15
100
AcDbLine
 10
85.449709684
 20
-90.7503152598
 30
0.0
 11
85.449709684
 21
385.2496659052
 31
0.0
  0
LINE
  5
290
330
1F
100
AcDbEntity
  8
0
  6
Continuous
 62
     7
370
    15
100
AcDbLine
 10
63.0962095562
 20
-90.7503152598
 30
0.0
 11
65.4497138563
 21
-90.7503152598
 31
0.0
  0
LINE
  5
291
330
1F
100
AcDbEntity
  8
0
  6
Continuous
 62
     7
370
    15
100
AcDbLine
 10
65.4497138563
 20
-90.7503152598
 30
0.0
 11
65.4497138563
 21
385.2496659052
 31
0.0
  0
LINE
  5
292
330
1F
100
AcDbEntity
  8
0
  6
Continuous
 62
     7
370
    15
100
AcDbLine
 10
-16.9037737545
 20
-90.7503152598
 30
0.0
 11
-14.5502843555
 21
-90.7503152598
 31
0.0
  0
LINE
  5
293
330
1F
100
AcDbEntity
  8
0
  6
Continuous
 62
     7
370
    15
100
AcDbLine
 10
-14.5502843555
 20
-90.7503152598
 30
0.0
 11
-14.5502843555
 21
385.2496659052
 31
0.0
  0
LINE
  5
294
330
1F
100
AcDbEntity
  8
0
  6
Continuous
 62
     7
370
    15
100
AcDbLine
 10
13.0962274376
 20
-90.7503152598
 30
0.0
 11
15.4497168366
 21
-90.7503152598
 31
0.0
  0
LINE
  5
295
330
1F
100
AcDbEntity
  8
0
  6
Continuous
 62
     7
370
    15
100
AcDbLine
 10
15.4497168366
 20
-90.7503152598
 30
0.0
 11
15.4497168366
 21
385.2496659052
 31
0.0
  0
LINE
  5
296
330
1F
100
AcDbEntity
  8
0
  6
Continuous
 62
     7
370
    15
100
AcDbLine
 10
118.2781449858
 20
-90.7503152598
 30
0.0
 11
120.6316343847
 21
-90.7503152598
 31
0.0
  0
LINE
  5
297
330
1F
100
AcDbEntity
  8
0
  6
Continuous
 62
     7
370
    15
100
AcDbLine
 10
118.2781449858
 20
-90.7503152598
 30
0.0
 11
118.2781449858
 21
385.2496659052
 31
0.0
  0
LINE
  5
298
330
1F
100
AcDbEntity
  8
0
  6
Continuous
 62
     7
370
    15
100
AcDbLine
 10
58.2781277004
 20
-90.7503152598
 30
0.0
 11
60.6316469017
 21
-90.7503152598
 31
0.0
  0
LINE
  5
299
330
1F
100
AcDbEntity
  8
0
  6
Continuous
 62
     7
370
    15
100
AcDbLine
 10
58.2781277004
 20
-90.7503152598
 30
0.0
 11
58.2781277004
 21
385.2496659052
 31
0.0
  0
LINE
  5
29A
330
1F
100
AcDbEntity
  8
0
  6
Continuous
 62
     7
370
    15
100
AcDbLine
 10
33.0962083641
 20
-90.7503152598
 30
0.0
 11
35.4496977631
 21
-90.7503152598
 31
0.0
  0
LINE
  5
29B
330
1F
100
AcDbEntity
  8
0
  6
Continuous
 62
     7
370
    15
100
AcDbLine
 10
35.4496977631
 20
-90.7503152598
 30
0.0
 11
35.4496977631
 21
385.2496659052
 31
0.0
  0
LINE
  5
29C
330
1F
100
AcDbEntity
  8
0
  6
Continuous
 62
     7
370
    15
100
AcDbLine
 10
8.2781455818
 20
-90.7503152598
 30
0.0
 11
10.6316349808
 21
-90.7503152598
 31
0.0
  0
LINE
  5
29D
330
1F
100
AcDbEntity
  8
0
  6
Continuous
 62
     7
370
    15
100
AcDbLine
 10
8.2781455818
 20
-90.7503152598
 30
0.0
 11
8.2781455818
 21
385.2496659052
 31
0.0
  0
LINE
  5
29E
330
1F
100
AcDbEntity
  8
0
  6
Continuous
 62
     7
370
    15
100
AcDbLine
 10
103.0962161127
 20
-90.7503152598
 30
0.0
 11
105.4497055117
 21
-90.7503152598
 31
0.0
  0
LINE
  5
29F
330
1F
100
AcDbEntity
  8
0
  6
Continuous
 62
     7
370
    15
100
AcDbLine
 10
105.4497055117
 20
-90.7503152598
 30
0.0
 11
105.4497055117
 21
385.2496659052
 31
0.0
  0
LINE
  5
2A0
330
1F
100
AcDbEntity
  8
0
  6
Continuous
 62
     7
370
    15
100
AcDbLine
 10
168.2479820553
 20
-90.7503152598
 30
0.0
 11
170.6316314045
 21
-90.7503152598
 31
0.0
  0
LINE
  5
2A1
330
1F
100
AcDbEntity
  8
0
  6
Continuous
 62
     7
370
    15
100
AcDbLine
 10
168.2479820553
 20
-90.7503152598
 30
0.0
 11
168.2479820553
 21
385.2496659052
 31
0.0
  0
LINE
  5
2A2
330
1F
100
AcDbEntity
  8
0
  6
Continuous
 62
     7
370
    15
100
AcDbLine
 10
-81.6567697224
 20
-90.7503152598
 30
0.0
 11
-79.3683685955
 21
-90.7503152598
 31
0.0
  0
LINE
  5
2A3
330
1F
100
AcDbEntity
  8
0
  6
Continuous
 62
     7
370
    15
100
AcDbLine
 10
-81.6567697224
 20
-90.7503152598
 30
0.0
 11
-81.6567697224
 21
385.2496659052
 31
0.0
  0
LINE
  5
2A4
330
1F
100
AcDbEntity
  8
0
  6
Continuous
 62
     7
370
    15
100
AcDbLine
 10
38.2781467739
 20
-90.7503152598
 30
0.0
 11
40.6316361729
 21
-90.7503152598
 31
0.0
  0
LINE
  5
2A5
330
1F
100
AcDbEntity
  8
0
  6
Continuous
 62
     7
370
    15
100
AcDbLine
 10
38.2781467739
 20
-90.7503152598
 30
0.0
 11
38.2781467739
 21
385.2496659052
 31
0.0
  0
LINE
  5
2A6
330
1F
100
AcDbEntity
  8
0
  6
Continuous
 62
     7
370
    15
100
AcDbLine
 10
133.0962173048
 20
-90.7503152598
 30
0.0
 11
135.4497067038
 21
-90.7503152598
 31
0.0
  0
LINE
  5
2A7
330
1F
100
AcDbEntity
  8
0
  6
Continuous
 62
     7
370
    15
100
AcDbLine
 10
135.4497067038
 20
-90.7503152598
 30
0.0
 11
135.4497067038
 21
385.2496659052
 31
0.0
  0
LINE
  5
2A8
330
1F
100
AcDbEntity
  8
0
  6
Continuous
 62
     7
370
    15
100
AcDbLine
 10
158.2479766909
 20
-90.7503152598
 30
0.0
 11
160.6316409412
 21
-90.7503152598
 31
0.0
  0
LINE
  5
2A9
330
1F
100
AcDbEntity
  8
0
  6
Continuous
 62
     7
370
    15
100
AcDbLine
 10
158.2479766909
 20
-90.7503152598
 30
0.0
 11
158.2479766909
 21
385.2496659052
 31
0.0
  0
LINE
  5
2AA
330
1F
100
AcDbEntity
  8
0
  6
Continuous
 62
     7
370
    15
100
AcDbLine
 10
188.197135121
 20
-90.7503152598
 30
0.0
 11
190.6014747325
 21
-90.7503152598
 31
0.0
  0
LINE
  5
2AB
330
1F
100
AcDbEntity
  8
0
  6
Continuous
 62
     7
370
    15
100
AcDbLine
 10
188.197135121
 20
-90.7503152598
 30
0.0
 11
188.197135121
 21
385.2496659052
 31
0.0
  0
LINE
  5
2AC
330
1F
100
AcDbEntity
  8
0
  6
Continuous
 62
     7
370
    15
100
AcDbLine
 10
-31.7218758758
 20
-90.7503152598
 30
0.0
 11
-29.3683566746
 21
-90.7503152598
 31
0.0
  0
LINE
  5
2AD
330
1F
100
AcDbEntity
  8
0
  6
Continuous
 62
     7
370
    15
100
AcDbLine
 10
-31.7218758758
 20
-90.7503152598
 30
0.0
 11
-31.7218758758
 21
385.2496659052
 31
0.0
  0
LINE
  5
2AE
330
1F
100
AcDbEntity
  8
0
  6
Continuous
 62
     7
370
    15
100
AcDbLine
 10
53.0962190929
 20
-90.7503152598
 30
0.0
 11
55.4497084919
 21
-90.7503152598
 31
0.0
  0
LINE
  5
2AF
330
1F
100
AcDbEntity
  8
0
  6
Continuous
 62
     7
370
    15
100
AcDbLine
 10
55.4497084919
 20
-90.7503152598
 30
0.0
 11
55.4497084919
 21
385.2496659052
 31
0.0
  0
LINE
  5
2B0
330
1F
100
AcDbEntity
  8
0
  6
Continuous
 62
     7
370
    15
100
AcDbLine
 10
-81.6567697224
 20
385.2496659052
 30
0.0
 11
-84.4852187332
 21
385.2496659052
 31
0.0
  0
LINE
  5
2B1
330
1F
100
AcDbEntity
  8
0
  6
Continuous
 62
     7
370
    15
100
AcDbLine
 10
78.2781384293
 20
385.2496659052
 30
0.0
 11
75.4497043196
 21
385.2496659052
 31
0.0
  0
LINE
  5
2B2
330
1F
100
AcDbEntity
  8
0
  6
Continuous
 62
     7
370
    15
100
AcDbLine
 10
68.2781330649
 20
385.2496659052
 30
0.0
 11
65.4497138563
 21
385.2496659052
 31
0.0
  0
LINE
  5
2B3
330
1F
100
AcDbEntity
  8
0
  6
Continuous
 62
     7
370
    15
100
AcDbLine
 10
58.2781277004
 20
385.2496659052
 30
0.0
 11
55.4497084919
 21
385.2496659052
 31
0.0
  0
LINE
  5
2B4
330
1F
100
AcDbEntity
  8
0
  6
Continuous
 62
     7
370
    15
100
AcDbLine
 10
38.2781467739
 20
385.2496659052
 30
0.0
 11
35.4496977631
 21
385.2496659052
 31
0.0
  0
LINE
  5
2B5
330
1F
100
AcDbEntity
  8
0
  6
Continuous
 62
     7
370
    15
100
AcDbLine
 10
48.2781372372
 20
385.2496659052
 30
0.0
 11
45.4497180286
 21
385.2496659052
 31
0.0
  0
LINE
  5
2B6
330
1F
100
AcDbEntity
  8
0
  6
Continuous
 62
     7
370
    15
100
AcDbLine
 10
28.2781265083
 20
385.2496659052
 30
0.0
 11
25.4497072998
 21
385.2496659052
 31
0.0
  0
LINE
  5
2B7
330
1F
100
AcDbEntity
  8
0
  6
Continuous
 62
     7
370
    15
100
AcDbLine
 10
128.278135449
 20
385.2496659052
 30
0.0
 11
125.4497162405
 21
385.2496659052
 31
0.0
  0
LINE
  5
2B8
330
1F
100
AcDbEntity
  8
0
  6
Continuous
 62
     7
370
    15
100
AcDbLine
 10
138.2781408135
 20
385.2496659052
 30
0.0
 11
135.4497067038
 21
385.2496659052
 31
0.0
  0
LINE
  5
2B9
330
1F
100
AcDbEntity
  8
0
  6
Continuous
 62
     7
370
    15
100
AcDbLine
 10
18.2781360451
 20
385.2496659052
 30
0.0
 11
15.4497168366
 21
385.2496659052
 31
0.0
  0
LINE
  5
2BA
330
1F
100
AcDbEntity
  8
0
  6
Continuous
 62
     7
370
    15
100
AcDbLine
 10
8.2781455818
 20
385.2496659052
 30
0.0
 11
5.449696571
 21
385.2496659052
 31
0.0
  0
LINE
  5
2BB
330
1F
100
AcDbEntity
  8
0
  6
Continuous
 62
     7
370
    15
100
AcDbLine
 10
-11.721865147
 20
385.2496659052
 30
0.0
 11
-14.5502843555
 21
385.2496659052
 31
0.0
  0
LINE
  5
2BC
330
1F
100
AcDbEntity
  8
0
  6
Continuous
 62
     7
370
    15
100
AcDbLine
 10
-1.7218746838
 20
385.2496659052
 30
0.0
 11
-4.5502938923
 21
385.2496659052
 31
0.0
  0
LINE
  5
2BD
330
1F
100
AcDbEntity
  8
0
  6
Continuous
 62
     7
370
    15
100
AcDbLine
 10
108.2781396214
 20
385.2496659052
 30
0.0
 11
105.4497055117
 21
385.2496659052
 31
0.0
  0
LINE
  5
2BE
330
1F
100
AcDbEntity
  8
0
  6
Continuous
 62
     7
370
    15
100
AcDbLine
 10
118.2781449858
 20
385.2496659052
 30
0.0
 11
115.4497108761
 21
385.2496659052
 31
0.0
  0
LINE
  5
2BF
330
1F
100
AcDbEntity
  8
0
  6
Continuous
 62
     7
370
    15
100
AcDbLine
 10
-21.7218556103
 20
385.2496659052
 30
0.0
 11
-24.5502748188
 21
385.2496659052
 31
0.0
  0
LINE
  5
2C0
330
1F
100
AcDbEntity
  8
0
  6
Continuous
 62
     7
370
    15
100
AcDbLine
 10
-31.7218758758
 20
385.2496659052
 30
0.0
 11
-34.5502950844
 21
385.2496659052
 31
0.0
  0
LINE
  5
2C1
330
1F
100
AcDbEntity
  8
0
  6
Continuous
 62
     7
370
    15
100
AcDbLine
 10
88.2781437937
 20
385.2496659052
 30
0.0
 11
85.449709684
 21
385.2496659052
 31
0.0
  0
LINE
  5
2C2
330
1F
100
AcDbEntity
  8
0
  6
Continuous
 62
     7
370
    15
100
AcDbLine
 10
98.2781342569
 20
385.2496659052
 30
0.0
 11
95.4497150484
 21
385.2496659052
 31
0.0
  0
LINE
  5
2C3
330
1F
100
AcDbEntity
  8
0
  6
Continuous
 62
     7
370
    15
100
AcDbLine
 10
-51.7218568024
 20
385.2496659052
 30
0.0
 11
-54.5502760109
 21
385.2496659052
 31
0.0
  0
LINE
  5
2C4
330
1F
100
AcDbEntity
  8
0
  6
Continuous
 62
     7
370
    15
100
AcDbLine
 10
-41.7218663391
 20
385.2496659052
 30
0.0
 11
-44.5502855476
 21
385.2496659052
 31
0.0
  0
LINE
  5
2C5
330
1F
100
AcDbEntity
  8
0
  6
Continuous
 62
     7
370
    15
100
AcDbLine
 10
-71.7218675312
 20
385.2496659052
 30
0.0
 11
-74.5502867397
 21
385.2496659052
 31
0.0
  0
LINE
  5
2C6
330
1F
100
AcDbEntity
  8
0
  6
Continuous
 62
     7
370
    15
100
AcDbLine
 10
-61.7218472656
 20
385.2496659052
 30
0.0
 11
-64.5502962765
 21
385.2496659052
 31
0.0
  0
LINE
  5
2C7
330
1F
100
AcDbEntity
  8
0
  6
Continuous
 62
     7
370
    15
100
AcDbLine
 10
168.2479820553
 20
385.2496659052
 30
0.0
 11
165.4195479456
 21
385.2496659052
 31
0.0
  0
LINE
  5
2C8
330
1F
100
AcDbEntity
  8
0
  6
Continuous
 62
     7
370
    15
100
AcDbLine
 10
148.2479713265
 20
385.2496659052
 30
0.0
 11
145.4195521179
 21
385.2496659052
 31
0.0
  0
LINE
  5
2C9
330
1F
100
AcDbEntity
  8
0
  6
Continuous
 62
     7
370
    15
100
AcDbLine
 10
158.2479766909
 20
385.2496659052
 30
0.0
 11
155.4195425812
 21
385.2496659052
 31
0.0
  0
LINE
  5
2CA
330
1F
100
AcDbEntity
  8
0
  6
Continuous
 62
     7
370
    15
100
AcDbLine
 10
178.2272748056
 20
385.2496659052
 30
0.0
 11
175.41955331
 21
385.2496659052
 31
0.0
  0
LINE
  5
2CB
330
1F
100
AcDbEntity
  8
0
  6
Continuous
 62
     7
370
    15
100
AcDbLine
 10
198.2982150618
 20
385.2496659052
 30
0.0
 11
195.4703918997
 21
385.2496659052
 31
0.0
  0
LINE
  5
2CC
330
1F
100
AcDbEntity
  8
0
  6
Continuous
 62
     7
370
    15
100
AcDbLine
 10
188.197135121
 20
385.2496659052
 30
0.0
 11
185.3687010113
 21
385.2496659052
 31
0.0
  0
LINE
  5
2CD
330
1F
100
AcDbEntity
  8
0
  6
Continuous
 62
     7
370
    15
100
AcDbLine
 10
-84.4852187332
 20
-90.7503152598
 30
0.0
 11
-81.6567697224
 21
-90.7503152598
 31
0.0
  0
LINE
  5
2CE
330
1F
100
AcDbEntity
  8
0
  6
Continuous
 62
     7
370
    15
100
AcDbLine
 10
75.4497043196
 20
-90.7503152598
 30
0.0
 11
78.2781384293
 21
-90.7503152598
 31
0.0
  0
LINE
  5
2CF
330
1F
100
AcDbEntity
  8
0
  6
Continuous
 62
     7
370
    15
100
AcDbLine
 10
65.4497138563
 20
-90.7503152598
 30
0.0
 11
68.2781330649
 21
-90.7503152598
 31
0.0
  0
LINE
  5
2D0
330
1F
100
AcDbEntity
  8
0
  6
Continuous
 62
     7
370
    15
100
AcDbLine
 10
55.4497084919
 20
-90.7503152598
 30
0.0
 11
58.2781277004
 21
-90.7503152598
 31
0.0
  0
LINE
  5
2D1
330
1F
100
AcDbEntity
  8
0
  6
Continuous
 62
     7
370
    15
100
AcDbLine
 10
45.4497180286
 20
-90.7503152598
 30
0.0
 11
48.2781372372
 21
-90.7503152598
 31
0.0
  0
LINE
  5
2D2
330
1F
100
AcDbEntity
  8
0
  6
Continuous
 62
     7
370
    15
100
AcDbLine
 10
35.4496977631
 20
-90.7503152598
 30
0.0
 11
38.2781467739
 21
-90.7503152598
 31
0.0
  0
LINE
  5
2D3
330
1F
100
AcDbEntity
  8
0
  6
Continuous
 62
     7
370
    15
100
AcDbLine
 10
25.4497072998
 20
-90.7503152598
 30
0.0
 11
28.2781265083
 21
-90.7503152598
 31
0.0
  0
LINE
  5
2D4
330
1F
100
AcDbEntity
  8
0
  6
Continuous
 62
     7
370
    15
100
AcDbLine
 10
125.4497162405
 20
-90.7503152598
 30
0.0
 11
128.278135449
 21
-90.7503152598
 31
0.0
  0
LINE
  5
2D5
330
1F
100
AcDbEntity
  8
0
  6
Continuous
 62
     7
370
    15
100
AcDbLine
 10
135.4497067038
 20
-90.7503152598
 30
0.0
 11
138.2781408135
 21
-90.7503152598
 31
0.0
  0
LINE
  5
2D6
330
1F
100
AcDbEntity
  8
0
  6
Continuous
 62
     7
370
    15
100
AcDbLine
 10
15.4497168366
 20
-90.7503152598
 30
0.0
 11
18.2781360451
 21
-90.7503152598
 31
0.0
  0
LINE
  5
2D7
330
1F
100
AcDbEntity
  8
0
  6
Continuous
 62
     7
370
    15
100
AcDbLine
 10
5.449696571
 20
-90.7503152598
 30
0.0
 11
8.2781455818
 21
-90.7503152598
 31
0.0
  0
LINE
  5
2D8
330
1F
100
AcDbEntity
  8
0
  6
Continuous
 62
     7
370
    15
100
AcDbLine
 10
-4.5502938923
 20
-90.7503152598
 30
0.0
 11
-1.7218746838
 21
-90.7503152598
 31
0.0
  0
LINE
  5
2D9
330
1F
100
AcDbEntity
  8
0
  6
Continuous
 62
     7
370
    15
100
AcDbLine
 10
-14.5502843555
 20
-90.7503152598
 30
0.0
 11
-11.721865147
 21
-90.7503152598
 31
0.0
  0
LINE
  5
2DA
330
1F
100
AcDbEntity
  8
0
  6
Continuous
 62
     7
370
    15
100
AcDbLine
 10
-24.5502748188
 20
-90.7503152598
 30
0.0
 11
-21.7218556103
 21
-90.7503152598
 31
0.0
  0
LINE
  5
2DB
330
1F
100
AcDbEntity
  8
0
  6
Continuous
 62
     7
370
    15
100
AcDbLine
 10
105.4497055117
 20
-90.7503152598
 30
0.0
 11
108.2781396214
 21
-90.7503152598
 31
0.0
  0
LINE
  5
2DC
330
1F
100
AcDbEntity
  8
0
  6
Continuous
 62
     7
370
    15
100
AcDbLine
 10
115.4497108761
 20
-90.7503152598
 30
0.0
 11
118.2781449858
 21
-90.7503152598
 31
0.0
  0
LINE
  5
2DD
330
1F
100
AcDbEntity
  8
0
  6
Continuous
 62
     7
370
    15
100
AcDbLine
 10
-34.5502950844
 20
-90.7503152598
 30
0.0
 11
-31.7218758758
 21
-90.7503152598
 31
0.0
  0
LINE
  5
2DE
330
1F
100
AcDbEntity
  8
0
  6
Continuous
 62
     7
370
    15
100
AcDbLine
 10
85.449709684
 20
-90.7503152598
 30
0.0
 11
88.2781437937
 21
-90.7503152598
 31
0.0
  0
LINE
  5
2DF
330
1F
100
AcDbEntity
  8
0
  6
Continuous
 62
     7
370
    15
100
AcDbLine
 10
95.4497150484
 20
-90.7503152598
 30
0.0
 11
98.2781342569
 21
-90.7503152598
 31
0.0
  0
LINE
  5
2E0
330
1F
100
AcDbEntity
  8
0
  6
Continuous
 62
     7
370
    15
100
AcDbLine
 10
-44.5502855476
 20
-90.7503152598
 30
0.0
 11
-41.7218663391
 21
-90.7503152598
 31
0.0
  0
LINE
  5
2E1
330
1F
100
AcDbEntity
  8
0
  6
Continuous
 62
     7
370
    15
100
AcDbLine
 10
-54.5502760109
 20
-90.7503152598
 30
0.0
 11
-51.7218568024
 21
-90.7503152598
 31
0.0
  0
LINE
  5
2E2
330
1F
100
AcDbEntity
  8
0
  6
Continuous
 62
     7
370
    15
100
AcDbLine
 10
-64.5502962765
 20
-90.7503152598
 30
0.0
 11
-61.7218472656
 21
-90.7503152598
 31
0.0
  0
LINE
  5
2E3
330
1F
100
AcDbEntity
  8
0
  6
Continuous
 62
     7
370
    15
100
AcDbLine
 10
-74.5502867397
 20
-90.7503152598
 30
0.0
 11
-71.7218675312
 21
-90.7503152598
 31
0.0
  0
LINE
  5
2E4
330
1F
100
AcDbEntity
  8
0
  6
Continuous
 62
     7
370
    15
100
AcDbLine
 10
175.41955331
 20
-90.7503152598
 30
0.0
 11
178.2272748056
 21
-90.7503152598
 31
0.0
  0
LINE
  5
2E5
330
1F
100
AcDbEntity
  8
0
  6
Continuous
 62
     7
370
    15
100
AcDbLine
 10
165.4195479456
 20
-90.7503152598
 30
0.0
 11
168.2479820553
 21
-90.7503152598
 31
0.0
  0
LINE
  5
2E6
330
1F
100
AcDbEntity
  8
0
  6
Continuous
 62
     7
370
    15
100
AcDbLine
 10
145.4195521179
 20
-90.7503152598
 30
0.0
 11
148.2479713265
 21
-90.7503152598
 31
0.0
  0
LINE
  5
2E7
330
1F
100
AcDbEntity
  8
0
  6
Continuous
 62
     7
370
    15
100
AcDbLine
 10
155.4195425812
 20
-90.7503152598
 30
0.0
 11
158.2479766909
 21
-90.7503152598
 31
0.0
  0
LINE
  5
2E8
330
1F
100
AcDbEntity
  8
0
  6
Continuous
 62
     7
370
    15
100
AcDbLine
 10
195.4703918997
 20
-90.7503152598
 30
0.0
 11
198.2982150618
 21
-90.7503152598
 31
0.0
  0
LINE
  5
2E9
330
1F
100
AcDbEntity
  8
0
  6
Continuous
 62
     7
370
    15
100
AcDbLine
 10
185.3687010113
 20
-90.7503152598
 30
0.0
 11
188.197135121
 21
-90.7503152598
 31
0.0
  0
LINE
  5
2EA
330
1F
100
AcDbEntity
  8
0
  6
Continuous
 62
     7
370
    15
100
AcDbLine
 10
-93.63432309
 20
-190.5503357161
 30
0.0
 11
-94.8343434032
 21
-190.5503357161
 31
0.0
  0
LINE
  5
2EB
330
1F
100
AcDbEntity
  8
0
  6
Continuous
 62
     7
370
    15
100
AcDbLine
 10
-93.63432309
 20
-192.5503099669
 30
0.0
 11
-94.8343434032
 21
-192.5503099669
 31
0.0
  0
LINE
  5
2EC
330
1F
100
AcDbEntity
  8
0
  6
Continuous
 62
     7
370
    15
100
AcDbLine
 10
-94.8343434032
 20
-192.5503099669
 30
0.0
 11
-94.8343434032
 21
-190.5503357161
 31
0.0
  0
LINE
  5
2ED
330
1F
100
AcDbEntity
  8
0
  6
Continuous
 62
     7
370
    15
100
AcDbLine
 10
-93.63432309
 20
-283.5503304709
 30
0.0
 11
-94.8343434032
 21
-283.5503304709
 31
0.0
  0
LINE
  5
2EE
330
1F
100
AcDbEntity
  8
0
  6
Continuous
 62
     7
370
    15
100
AcDbLine
 10
-94.8343434032
 20
-283.5503304709
 30
0.0
 11
-94.8343434032
 21
-192.5503099669
 31
0.0
  0
LINE
  5
2EF
330
1F
100
AcDbEntity
  8
0
  6
Continuous
 62
     7
370
    15
100
AcDbLine
 10
-94.8343434032
 20
-306.5503323782
 30
0.0
 11
-94.8343434032
 21
-283.5503304709
 31
0.0
  0
LINE
  5
2F0
330
1F
100
AcDbEntity
  8
0
  6
Continuous
 62
     7
370
    15
100
AcDbLine
 10
502.1656594578
 20
-189.7503221739
 30
0.0
 11
502.1656594578
 21
-189.7143507708
 31
0.0
  0
LINE
  5
2F1
330
1F
100
AcDbEntity
  8
0
  6
Continuous
 62
     7
370
    15
100
AcDbLine
 10
502.1656594578
 20
-189.7503221739
 30
0.0
 11
501.1656574312
 21
-189.7503221739
 31
0.0
  0
LINE
  5
2F2
330
1F
100
AcDbEntity
  8
0
  6
Continuous
 62
     7
370
    15
100
AcDbLine
 10
-90.834335297
 20
-189.7503221739
 30
0.0
 11
-91.8343224224
 21
-189.7503221739
 31
0.0
  0
LINE
  5
2F3
330
1F
100
AcDbEntity
  8
0
  6
Continuous
 62
     7
370
    15
100
AcDbLine
 10
502.1656594578
 20
-188.550331663
 30
0.0
 11
501.1656574312
 21
-188.550331663
 31
0.0
  0
LINE
  5
2F4
330
1F
100
AcDbEntity
  8
0
  6
Continuous
 62
     7
370
    15
100
AcDbLine
 10
-90.834335297
 20
-188.550331663
 30
0.0
 11
-91.8343224224
 21
-188.550331663
 31
0.0
  0
LINE
  5
2F5
330
1F
100
AcDbEntity
  8
0
  6
Continuous
 62
     7
370
    15
100
AcDbLine
 10
-91.8343224224
 20
-189.7503221739
 30
0.0
 11
-91.8343224224
 21
-189.7143507708
 31
0.0
  0
LINE
  5
2F6
330
1F
100
AcDbEntity
  8
0
  6
Continuous
 62
     7
370
    15
100
AcDbLine
 10
502.1656594578
 20
-90.8078784454
 30
0.0
 11
-91.8343224224
 21
-90.8078784454
 31
0.0
  0
LINE
  5
2F7
330
1F
100
AcDbEntity
  8
0
  6
Continuous
 62
     7
370
    15
100
AcDbLine
 10
502.1656594578
 20
-122.6690942753
 30
0.0
 11
-91.8343224224
 21
-122.6690942753
 31
0.0
  0
LINE
  5
2F8
330
1F
100
AcDbEntity
  8
0
  6
Continuous
 62
     7
370
    15
100
AcDbLine
 10
-91.8343224224
 20
-122.8322470892
 30
0.0
 11
502.1656594578
 21
-122.8322470892
 31
0.0
  0
LINE
  5
2F9
330
1F
100
AcDbEntity
  8
0
  6
Continuous
 62
     7
370
    15
100
AcDbLine
 10
-11.1343421635
 20
-125.669100355
 30
0.0
 11
-13.6720397171
 21
-125.669100355
 31
0.0
  0
ARC
  5
2FA
330
1F
100
AcDbEntity
  8
0
  6
Continuous
 62
     7
370
    15
100
AcDbCircle
 10
-11.1343358059
 20
-141.6690930578
 30
0.0
 40
16.2
100
AcDbArc
 50
99.0124514993
 51
180.0
  0
LINE
  5
2FB
330
1F
100
AcDbEntity
  8
0
  6
Continuous
 62
     7
370
    15
100
AcDbLine
 10
-27.3343481716
 20
-141.6691029776
 30
0.0
 11
-27.3343481716
 21
-159.669079851
 31
0.0
  0
ARC
  5
2FC
330
1F
100
AcDbEntity
  8
0
  6
Continuous
 62
     7
370
    15
100
AcDbCircle
 10
-11.1343358059
 20
-159.6690930578
 30
0.0
 40
16.20000000000002
100
AcDbArc
 50
180.0
 51
260.9875485007
  0
LINE
  5
2FD
330
1F
100
AcDbEntity
  8
0
  6
Continuous
 62
     7
370
    15
100
AcDbLine
 10
-11.1343421635
 20
-175.6690824736
 30
0.0
 11
-13.6720397171
 21
-175.6690824736
 31
0.0
  0
LINE
  5
2FE
330
1F
100
AcDbEntity
  8
0
  6
Continuous
 62
     7
370
    15
100
AcDbLine
 10
46.8656561676
 20
-175.6690824736
 30
0.0
 11
-11.1343421635
 21
-175.6690824736
 31
0.0
  0
LINE
  5
2FF
330
1F
100
AcDbEntity
  8
0
  6
Continuous
 62
     7
370
    15
100
AcDbLine
 10
49.4033835236
 20
-175.6690824736
 30
0.0
 11
46.8656561676
 21
-175.6690824736
 31
0.0
  0
ARC
  5
300
330
1F
100
AcDbEntity
  8
0
  6
Continuous
 62
     7
370
    15
100
AcDbCircle
 10
46.8656641941
 20
-159.6690930578
 30
0.0
 40
16.20000000000002
100
AcDbArc
 50
279.0124514993
 51
0.0
  0
LINE
  5
301
330
1F
100
AcDbEntity
  8
0
  6
Continuous
 62
     7
370
    15
100
AcDbLine
 10
63.0656621758
 20
-159.669079851
 30
0.0
 11
63.0656621758
 21
-141.6691029776
 31
0.0
  0
ARC
  5
302
330
1F
100
AcDbEntity
  8
0
  6
Continuous
 62
     7
370
    15
100
AcDbCircle
 10
46.8656641941
 20
-141.6690930578
 30
0.0
 40
16.2
100
AcDbArc
 50
0.0
 51
80.9875485007
  0
LINE
  5
303
330
1F
100
AcDbEntity
  8
0
  6
Continuous
 62
     7
370
    15
100
AcDbLine
 10
49.4033835236
 20
-125.669100355
 30
0.0
 11
46.8656561676
 21
-125.669100355
 31
0.0
  0
LINE
  5
304
330
1F
100
AcDbEntity
  8
0
  6
Continuous
 62
     7
370
    15
100
AcDbLine
 10
46.8656561676
 20
-125.669100355
 30
0.0
 11
-11.1343421635
 21
-125.669100355
 31
0.0
  0
LINE
  5
305
330
1F
100
AcDbEntity
  8
0
  6
Continuous
 62
     7
370
    15
100
AcDbLine
 10
-11.1343421635
 20
-169.6691001166
 30
0.0
 11
-12.7008416351
 21
-169.5456290949
 31
0.0
  0
LINE
  5
306
330
1F
100
AcDbEntity
  8
0
  6
Continuous
 62
     7
370
    15
100
AcDbLine
 10
-11.1343421635
 20
-175.6690824736
 30
0.0
 11
-11.1343421635
 21
-169.6691001166
 31
0.0
  0
LWPOLYLINE
  5
307
330
1F
100
AcDbEntity
  8
0
  6
Continuous
 62
     7
370
    15
100
AcDbPolyline
 90
        9
 70
   128
 43
0.0
 10
-13.6720397171
 20
-175.6690824736
 10
-13.4825863537
 20
-174.4744563807
 10
-13.3003749546
 20
-173.3257556666
 10
-13.1324686703
 20
-172.2670877684
 10
-12.9853048023
 20
-171.3391626585
 10
-12.8645159897
 20
-170.5776239145
 10
-12.7747513946
 20
-170.0117672194
 10
-12.7194978889
 20
-169.6632886637
 10
-12.7008416351
 20
-169.5456290949
  0
LINE
  5
308
330
1F
100
AcDbEntity
  8
0
  6
Continuous
 62
     7
370
    15
100
AcDbLine
 10
46.8656561676
 20
-169.6691001166
 30
0.0
 11
-11.1343421635
 21
-169.6691001166
 31
0.0
  0
LINE
  5
309
330
1F
100
AcDbEntity
  8
0
  6
Continuous
 62
     7
370
    15
100
AcDbLine
 10
46.8656561676
 20
-169.6691001166
 30
0.0
 11
46.8656561676
 21
-175.6690824736
 31
0.0
  0
LINE
  5
30A
330
1F
100
AcDbEntity
  8
0
  6
Continuous
 62
     7
370
    15
100
AcDbLine
 10
-12.7008416351
 20
-131.7925537336
 30
0.0
 11
-11.1343421635
 21
-131.669082712
 31
0.0
  0
LWPOLYLINE
  5
30B
330
1F
100
AcDbEntity
  8
0
  6
Continuous
 62
     7
370
    15
100
AcDbPolyline
 90
        9
 70
   128
 43
0.0
 10
-13.6720397171
 20
-125.669100355
 10
-13.4825863537
 20
-126.8637264479
 10
-13.3003749546
 20
-128.0124420632
 10
-13.1324686703
 20
-129.0710950602
 10
-12.9853048023
 20
-129.99902017
 10
-12.8645159897
 20
-130.760558914
 10
-12.7747513946
 20
-131.3264156092
 10
-12.7194978889
 20
-131.6748941649
 10
-12.7008416351
 20
-131.7925537336
  0
LINE
  5
30C
330
1F
100
AcDbEntity
  8
0
  6
Continuous
 62
     7
370
    15
100
AcDbLine
 10
-11.1343421635
 20
-125.669100355
 30
0.0
 11
-11.1343421635
 21
-131.669082712
 31
0.0
  0
LINE
  5
30D
330
1F
100
AcDbEntity
  8
0
  6
Continuous
 62
     7
370
    15
100
AcDbLine
 10
-11.1343421635
 20
-131.669082712
 30
0.0
 11
46.8656561676
 21
-131.669082712
 31
0.0
  0
LINE
  5
30E
330
1F
100
AcDbEntity
  8
0
  6
Continuous
 62
     7
370
    15
100
AcDbLine
 10
46.8656561676
 20
-131.669082712
 30
0.0
 11
46.8656561676
 21
-125.669100355
 31
0.0
  0
ARC
  5
30F
330
1F
100
AcDbEntity
  8
0
  6
Continuous
 62
     7
370
    15
100
AcDbCircle
 10
46.8656641941
 20
-141.6690930578
 30
0.0
 40
10.00000000000001
100
AcDbArc
 50
0.0
 51
80.9875485007
  0
LWPOLYLINE
  5
310
330
1F
100
AcDbEntity
  8
0
  6
Continuous
 62
     7
370
    15
100
AcDbPolyline
 90
        9
 70
   128
 43
0.0
 10
48.4321556393
 20
-131.7925537336
 10
48.4508118931
 20
-131.6748941649
 10
48.5060952011
 20
-131.3264156092
 10
48.5958299938
 20
-130.760558914
 10
48.7166188065
 20
-129.99902017
 10
48.8637826744
 20
-129.0710950602
 10
49.0317187611
 20
-128.0124420632
 10
49.2139003578
 20
-126.8637264479
 10
49.4033835236
 20
-125.669100355
  0
LINE
  5
311
330
1F
100
AcDbEntity
  8
0
  6
Continuous
 62
     7
370
    15
100
AcDbLine
 10
56.8656764332
 20
-141.6691029776
 30
0.0
 11
63.0656621758
 21
-141.6691029776
 31
0.0
  0
ARC
  5
312
330
1F
100
AcDbEntity
  8
0
  6
Continuous
 62
     7
370
    15
100
AcDbCircle
 10
-11.1343358059
 20
-141.6690930578
 30
0.0
 40
10.00000000000001
100
AcDbArc
 50
99.0124514993
 51
180.0
  0
LINE
  5
313
330
1F
100
AcDbEntity
  8
0
  6
Continuous
 62
     7
370
    15
100
AcDbLine
 10
-27.3343481716
 20
-141.6691029776
 30
0.0
 11
-21.1343326267
 21
-141.6691029776
 31
0.0
  0
LINE
  5
314
330
1F
100
AcDbEntity
  8
0
  6
Continuous
 62
     7
370
    15
100
AcDbLine
 10
46.8656561676
 20
-131.669082712
 30
0.0
 11
48.4321556393
 21
-131.7925537336
 31
0.0
  0
LINE
  5
315
330
1F
100
AcDbEntity
  8
0
  6
Continuous
 62
     7
370
    15
100
AcDbLine
 10
56.8656764332
 20
-141.6691029776
 30
0.0
 11
56.8656764332
 21
-159.669079851
 31
0.0
  0
LINE
  5
316
330
1F
100
AcDbEntity
  8
0
  6
Continuous
 62
     7
370
    15
100
AcDbLine
 10
56.8656764332
 20
-159.669079851
 30
0.0
 11
63.0656621758
 21
-159.669079851
 31
0.0
  0
LINE
  5
317
330
1F
100
AcDbEntity
  8
0
  6
Continuous
 62
     7
370
    15
100
AcDbLine
 10
-21.1343326267
 20
-159.669079851
 30
0.0
 11
-21.1343326267
 21
-141.6691029776
 31
0.0
  0
LINE
  5
318
330
1F
100
AcDbEntity
  8
0
  6
Continuous
 62
     7
370
    15
100
AcDbLine
 10
-27.3343481716
 20
-159.669079851
 30
0.0
 11
-21.1343326267
 21
-159.669079851
 31
0.0
  0
ARC
  5
319
330
1F
100
AcDbEntity
  8
0
  6
Continuous
 62
     7
370
    15
100
AcDbCircle
 10
-11.1343358059
 20
-159.6690930578
 30
0.0
 40
10.00000000000001
100
AcDbArc
 50
180.0
 51
260.9875485007
  0
ARC
  5
31A
330
1F
100
AcDbEntity
  8
0
  6
Continuous
 62
     7
370
    15
100
AcDbCircle
 10
46.8656641941
 20
-159.6690930578
 30
0.0
 40
10.00000000000001
100
AcDbArc
 50
279.0124514993
 51
0.0
  0
LWPOLYLINE
  5
31B
330
1F
100
AcDbEntity
  8
0
  6
Continuous
 62
     7
370
    15
100
AcDbPolyline
 90
        9
 70
   128
 43
0.0
 10
48.4321556393
 20
-169.5456290949
 10
48.4508118931
 20
-169.6632886637
 10
48.5060952011
 20
-170.0117672194
 10
48.5958299938
 20
-170.5776239145
 10
48.7166188065
 20
-171.3391626585
 10
48.8637826744
 20
-172.2670877684
 10
49.0317187611
 20
-173.3257556666
 10
49.2139003578
 20
-174.4744563807
 10
49.4033835236
 20
-175.6690824736
  0
SPLINE
  5
31C
330
1F
100
AcDbEntity
  8
0
  6
Continuous
 62
     7
370
    15
100
AcDbSpline
210
0.0
220
0.0
230
1.0
 70
     8
 71
     3
 72
     8
 73
     4
 74
     0
 42
0.00000001
 43
0.00000001
 40
0.0
 40
0.0
 40
0.0
 40
0.0
 40
1.0
 40
1.0
 40
1.0
 40
1.0
 10
48.43215524844246
 20
-169.5456362676781
 30
0.0
 10
47.91323262829478
 20
-169.6279411414686
 30
0.0
 10
47.39107334696557
 20
-169.6690930578016
 30
0.0
 10
46.86566419406601
 20
-169.6690930578016
 30
0.0
  0
SPLINE
  5
31D
330
1F
100
AcDbEntity
  8
0
  6
Continuous
 62
     7
370
    15
100
AcDbSpline
210
0.0
220
0.0
230
1.0
 70
    24
 71
     3
 72
    14
 73
    10
 74
     0
 42
0.00000001
 43
0.00000001
 40
0.0
 40
0.0
 40
0.0
 40
0.0
 40
0.2500000000000001
 40
0.2500000000000001
 40
0.5000000000000001
 40
0.5000000000000001
 40
0.7500000000000002
 40
0.7500000000000002
 40
1.0
 40
1.0
 40
1.0
 40
1.0
 10
208.9656641940653
 20
-326.05061732883
 30
0.0
 10
208.9656641940653
 20
-326.05061732883
 30
0.0
 10
209.4819384790115
 20
-326.05061732883
 30
0.0
 10
211.3197422210555
 20
-326.05061732883
 30
0.0
 10
212.5661387315291
 20
-326.05061732883
 30
0.0
 10
215.1651861707477
 20
-326.05061732883
 30
0.0
 10
216.4115830484982
 20
-326.05061732883
 30
0.0
 10
218.2493880979539
 20
-326.05061732883
 30
0.0
 10
218.7656632695852
 20
-326.05061732883
 30
0.0
 10
218.765664194065
 20
-326.05061732883
 30
0.0
  0
LINE
  5
31E
330
1F
100
AcDbEntity
  8
0
  6
Continuous
 62
     7
370
    15
100
AcDbLine
 10
-74.8039045032
 20
428.1493937265
 30
0.0
 11
-5.0719835457
 21
428.1493937265
 31
0.0
  0
LINE
  5
31F
330
1F
100
AcDbEntity
  8
0
  6
Continuous
 62
     7
370
    15
100
AcDbLine
 10
5.8477065865
 20
428.1493937265
 30
0.0
 11
94.9280104939
 21
428.1493937265
 31
0.0
  0
LINE
  5
320
330
1F
100
AcDbEntity
  8
0
  6
Continuous
 62
     7
370
    15
100
AcDbLine
 10
105.847700626
 20
428.1493937265
 30
0.0
 11
194.9280045334
 21
428.1493937265
 31
0.0
  0
LINE
  5
321
330
1F
100
AcDbEntity
  8
0
  6
Continuous
 62
     7
370
    15
100
AcDbLine
 10
205.8477095667
 20
428.1493937265
 30
0.0
 11
294.9280078862
 21
428.1493937265
 31
0.0
  0
LINE
  5
322
330
1F
100
AcDbEntity
  8
0
  6
Continuous
 62
     7
370
    15
100
AcDbLine
 10
305.8477073315
 20
428.1493937265
 30
0.0
 11
394.9280075136
 21
428.1493937265
 31
0.0
  0
LINE
  5
323
330
1F
100
AcDbEntity
  8
0
  6
Continuous
 62
     7
370
    15
100
AcDbLine
 10
405.8477050963
 20
428.1493937265
 30
0.0
 11
457.6656661335
 21
428.1493937265
 31
0.0
  0
LINE
  5
324
330
1F
100
AcDbEntity
  8
0
  6
Continuous
 62
     7
370
    15
100
AcDbLine
 10
479.6656660143
 20
428.1493937265
 30
0.0
 11
485.1352415386
 21
428.1493937265
 31
0.0
  0
CIRCLE
  5
325
330
1F
100
AcDbEntity
  8
0
  6
Continuous
 62
     7
370
    15
100
AcDbCircle
 10
-50.3343358059
 20
440.1493826712
 30
0.0
 40
2.249999999999943
  0
LINE
  5
326
330
1F
100
AcDbEntity
  8
0
  6
Continuous
 62
     7
370
    15
100
AcDbLine
 10
484.9074623886
 20
427.1493767988
 30
0.0
 11
479.6656660143
 21
427.1493767988
 31
0.0
  0
LINE
  5
327
330
1F
100
AcDbEntity
  8
0
  6
Continuous
 62
     7
370
    15
100
AcDbLine
 10
-57.8343429264
 20
427.1493767988
 30
0.0
 11
-74.5761253532
 21
427.1493767988
 31
0.0
  0
LINE
  5
328
330
1F
100
AcDbEntity
  8
0
  6
Continuous
 62
     7
370
    15
100
AcDbLine
 10
-57.8343429264
 20
427.1493767988
 30
0.0
 11
-57.8343429264
 21
423.8791977655
 31
0.0
  0
LINE
  5
329
330
1F
100
AcDbEntity
  8
0
  6
Continuous
 62
     7
370
    15
100
AcDbLine
 10
15.1656709019
 20
-131.669082712
 30
0.0
 11
15.1656709019
 21
-169.6691001166
 31
0.0
  0
LINE
  5
32A
330
1F
100
AcDbEntity
  8
0
  6
Continuous
 62
     7
370
    15
100
AcDbLine
 10
504.3656668964
 20
459.5496868383
 30
0.0
 11
-94.0343298611
 21
459.5496868383
 31
0.0
  0
LINE
  5
32B
330
1F
100
AcDbEntity
  8
0
  6
Continuous
 62
     7
370
    15
100
AcDbLine
 10
504.3656668964
 20
456.9691037428
 30
0.0
 11
-94.0343298611
 21
456.9691037428
 31
0.0
  0
LINE
  5
32C
330
1F
100
AcDbEntity
  8
0
  6
Continuous
 62
     7
370
    15
100
AcDbLine
 10
504.3656668964
 20
459.5496868383
 30
0.0
 11
504.3656668964
 21
456.9691037428
 31
0.0
  0
LINE
  5
32D
330
1F
100
AcDbEntity
  8
0
  6
Continuous
 62
     7
370
    15
100
AcDbLine
 10
-94.0343298611
 20
459.5496868383
 30
0.0
 11
-94.0343298611
 21
456.9691037428
 31
0.0
  0
ARC
  5
32E
330
1F
100
AcDbEntity
  8
0
  6
Continuous
 62
     7
370
    15
100
AcDbCircle
 10
-10.3506845673
 20
428.6493768597
 30
0.0
 40
5.000516141764416
100
AcDbArc
 50
275.5332447464
 51
331.7858164934
  0
LINE
  5
32F
330
1F
100
AcDbEntity
  8
0
  6
Continuous
 62
     7
370
    15
100
AcDbLine
 10
-5.944297522
 20
426.2852882635
 30
0.0
 11
3.9709649387
 21
445.1208328497
 31
0.0
  0
ARC
  5
330
330
1F
100
AcDbEntity
  8
0
  6
Continuous
 62
     7
370
    15
100
AcDbCircle
 10
-0.3521034194
 20
447.3000415199
 30
0.0
 40
4.841267443313338
100
AcDbArc
 50
333.2478563817
 51
91.5841710454
  0
LINE
  5
331
330
1F
100
AcDbEntity
  8
0
  6
Continuous
 62
     7
370
    15
100
AcDbLine
 10
-0.485942572
 20
452.1394585859
 30
0.0
 11
-69.8343374428
 21
452.1394585859
 31
0.0
  0
ARC
  5
332
330
1F
100
AcDbEntity
  8
0
  6
Continuous
 62
     7
370
    15
100
AcDbCircle
 10
-69.9181030835
 20
447.2231787484
 30
0.0
 40
4.916993402795605
100
AcDbArc
 50
89.0238648969
 51
178.9900807602
  0
LINE
  5
333
330
1F
100
AcDbEntity
  8
0
  6
Continuous
 62
     7
370
    15
100
AcDbLine
 10
-74.8343326744
 20
447.3098432314
 30
0.0
 11
-74.8343326744
 21
428.4742986452
 31
0.0
  0
ARC
  5
334
330
1F
100
AcDbEntity
  8
0
  6
Continuous
 62
     7
370
    15
100
AcDbCircle
 10
-69.9396990014
 20
428.5486697832
 30
0.0
 40
4.895198653640407
100
AcDbArc
 50
180.8705093645
 51
264.9916547355
  0
LINE
  5
335
330
1F
100
AcDbEntity
  8
0
  6
Continuous
 62
     7
370
    15
100
AcDbLine
 10
-70.3670539555
 20
423.6721610319
 30
0.0
 11
-94.0343298611
 21
423.6721610319
 31
0.0
  0
LINE
  5
336
330
1F
100
AcDbEntity
  8
0
  6
Continuous
 62
     7
370
    15
100
AcDbLine
 10
504.3656668964
 20
423.6721610319
 30
0.0
 11
480.6983611885
 21
423.6721610319
 31
0.0
  0
ARC
  5
337
330
1F
100
AcDbEntity
  8
0
  6
Continuous
 62
     7
370
    15
100
AcDbCircle
 10
480.2710334326
 20
428.548674858
 30
0.0
 40
4.895201334693398
100
AcDbArc
 50
275.0080229552
 51
359.129431708
  0
LINE
  5
338
330
1F
100
AcDbEntity
  8
0
  6
Continuous
 62
     7
370
    15
100
AcDbLine
 10
485.1656697098
 20
428.4742986452
 30
0.0
 11
485.1656697098
 21
447.3098432314
 31
0.0
  0
ARC
  5
339
330
1F
100
AcDbEntity
  8
0
  6
Continuous
 62
     7
370
    15
100
AcDbCircle
 10
480.2494253475
 20
447.2231637144
 30
0.0
 40
4.917008436838391
100
AcDbArc
 50
1.0100913637
 51
90.9761336313
  0
LINE
  5
33A
330
1F
100
AcDbEntity
  8
0
  6
Continuous
 62
     7
370
    15
100
AcDbLine
 10
480.165659577
 20
452.1394585859
 30
0.0
 11
420.7325420681
 21
452.1394585859
 31
0.0
  0
ARC
  5
33B
330
1F
100
AcDbEntity
  8
0
  6
Continuous
 62
     7
370
    15
100
AcDbCircle
 10
420.6965310727
 20
447.1186353781
 30
0.0
 40
5.020952347463173
100
AcDbArc
 50
89.5890628713
 51
151.7020227255
  0
LINE
  5
33C
330
1F
100
AcDbEntity
  8
0
  6
Continuous
 62
     7
370
    15
100
AcDbLine
 10
416.2756122056
 20
449.4988536131
 30
0.0
 11
406.3603571955
 21
430.6633090269
 31
0.0
  0
ARC
  5
33D
330
1F
100
AcDbEntity
  8
0
  6
Continuous
 62
     7
370
    15
100
AcDbCircle
 10
410.6595133795
 20
428.4795487234
 30
0.0
 40
4.821986412048604
100
AcDbArc
 50
153.0716661279
 51
265.5404435245
  0
LINE
  5
33E
330
1F
100
AcDbEntity
  8
0
  6
Continuous
 62
     7
370
    15
100
AcDbLine
 10
410.2845779959
 20
423.6721610319
 30
0.0
 11
390.1314950887
 21
423.6721610319
 31
0.0
  0
ARC
  5
33F
330
1F
100
AcDbEntity
  8
0
  6
Continuous
 62
     7
370
    15
100
AcDbCircle
 10
389.6492628959
 20
428.6494758957
 30
0.0
 40
5.000621075521757
100
AcDbArc
 50
275.5338874235
 51
331.7851738163
  0
LINE
  5
340
330
1F
100
AcDbEntity
  8
0
  6
Continuous
 62
     7
370
    15
100
AcDbLine
 10
394.0557158891
 20
426.2852882635
 30
0.0
 11
403.9709708992
 21
445.1208328497
 31
0.0
  0
ARC
  5
341
330
1F
100
AcDbEntity
  8
0
  6
Continuous
 62
     7
370
    15
100
AcDbCircle
 10
399.6478989522
 20
447.3000396672
 30
0.0
 40
4.841269814055957
100
AcDbArc
 50
333.24789508
 51
91.5843924107
  0
LINE
  5
342
330
1F
100
AcDbEntity
  8
0
  6
Continuous
 62
     7
370
    15
100
AcDbLine
 10
399.5140410367
 20
452.1394585859
 30
0.0
 11
320.7325387153
 21
452.1394585859
 31
0.0
  0
ARC
  5
343
330
1F
100
AcDbEntity
  8
0
  6
Continuous
 62
     7
370
    15
100
AcDbCircle
 10
320.696530374
 20
447.1186386948
 30
0.0
 40
5.020949011908773
100
AcDbArc
 50
89.5890928847
 51
151.7020452161
  0
LINE
  5
344
330
1F
100
AcDbEntity
  8
0
  6
Continuous
 62
     7
370
    15
100
AcDbLine
 10
316.2756135095
 20
449.4988536131
 30
0.0
 11
306.360358965
 21
430.6633090269
 31
0.0
  0
ARC
  5
345
330
1F
100
AcDbEntity
  8
0
  6
Continuous
 62
     7
370
    15
100
AcDbCircle
 10
310.6595088823
 20
428.4795452401
 30
0.0
 40
4.821982402302702
100
AcDbArc
 50
153.0715955048
 51
265.540522128
  0
LINE
  5
346
330
1F
100
AcDbEntity
  8
0
  6
Continuous
 62
     7
370
    15
100
AcDbLine
 10
310.2845804057
 20
423.6721610319
 30
0.0
 11
290.1314935986
 21
423.6721610319
 31
0.0
  0
ARC
  5
347
330
1F
100
AcDbEntity
  8
0
  6
Continuous
 62
     7
370
    15
100
AcDbCircle
 10
289.6492702116
 20
428.6494626717
 30
0.0
 40
5.000607063996054
100
AcDbArc
 50
275.5338016103
 51
331.7852596295
  0
LINE
  5
348
330
1F
100
AcDbEntity
  8
0
  6
Continuous
 62
     7
370
    15
100
AcDbLine
 10
294.055714399
 20
426.2852882635
 30
0.0
 11
303.9709694091
 21
445.1208328497
 31
0.0
  0
ARC
  5
349
330
1F
100
AcDbEntity
  8
0
  6
Continuous
 62
     7
370
    15
100
AcDbCircle
 10
299.6479012513
 20
447.3000420024
 30
0.0
 40
4.841267481535303
100
AcDbArc
 50
333.2478502152
 51
91.5843939316
  0
LINE
  5
34A
330
1F
100
AcDbEntity
  8
0
  6
Continuous
 62
     7
370
    15
100
AcDbLine
 10
299.5140432719
 20
452.1394585859
 30
0.0
 11
220.7325390879
 21
452.1394585859
 31
0.0
  0
ARC
  5
34B
330
1F
100
AcDbEntity
  8
0
  6
Continuous
 62
     7
370
    15
100
AcDbCircle
 10
220.6965223306
 20
447.1186575771
 30
0.0
 40
5.02093019039445
100
AcDbArc
 50
89.5889953049
 51
151.7021742983
  0
LINE
  5
34C
330
1F
100
AcDbEntity
  8
0
  6
Continuous
 62
     7
370
    15
100
AcDbLine
 10
216.275616676
 20
449.4988536131
 30
0.0
 11
206.3603616658
 21
430.6633090269
 31
0.0
  0
ARC
  5
34D
330
1F
100
AcDbEntity
  8
0
  6
Continuous
 62
     7
370
    15
100
AcDbCircle
 10
210.6595075794
 20
428.4795429584
 30
0.0
 40
4.821979866003141
100
AcDbArc
 50
153.0715497882
 51
265.5405598643
  0
LINE
  5
34E
330
1F
100
AcDbEntity
  8
0
  6
Continuous
 62
     7
370
    15
100
AcDbLine
 10
210.2845824662
 20
423.6721610319
 30
0.0
 11
190.1314921084
 21
423.6721610319
 31
0.0
  0
ARC
  5
34F
330
1F
100
AcDbEntity
  8
0
  6
Continuous
 62
     7
370
    15
100
AcDbCircle
 10
189.6492832938
 20
428.649440788
 30
0.0
 40
5.000583877054072
100
AcDbArc
 50
275.5336596014
 51
331.7854016384
  0
LINE
  5
350
330
1F
100
AcDbEntity
  8
0
  6
Continuous
 62
     7
370
    15
100
AcDbLine
 10
194.0557129088
 20
426.2852882635
 30
0.0
 11
203.970967919
 21
445.1208328497
 31
0.0
  0
ARC
  5
351
330
1F
100
AcDbEntity
  8
0
  6
Continuous
 62
     7
370
    15
100
AcDbCircle
 10
199.6478990836
 20
447.300041501
 30
0.0
 40
4.841267860933828
100
AcDbArc
 50
333.247859123
 51
91.58434168
  0
LINE
  5
352
330
1F
100
AcDbEntity
  8
0
  6
Continuous
 62
     7
370
    15
100
AcDbLine
 10
199.5140455071
 20
452.1394585859
 30
0.0
 11
120.7325450483
 21
452.1394585859
 31
0.0
  0
ARC
  5
353
330
1F
100
AcDbEntity
  8
0
  6
Continuous
 62
     7
370
    15
100
AcDbCircle
 10
120.696534447
 20
447.1186222392
 30
0.0
 40
5.020965483269714
100
AcDbArc
 50
89.5890684435
 51
151.7019331471
  0
LINE
  5
354
330
1F
100
AcDbEntity
  8
0
  6
Continuous
 62
     7
370
    15
100
AcDbLine
 10
116.2756077353
 20
449.4988536131
 30
0.0
 11
106.3603601757
 21
430.6633090269
 31
0.0
  0
ARC
  5
355
330
1F
100
AcDbEntity
  8
0
  6
Continuous
 62
     7
370
    15
100
AcDbCircle
 10
110.6595097804
 20
428.4795450303
 30
0.0
 40
4.821982218613227
100
AcDbArc
 50
153.0715916001
 51
265.5405180524
  0
LINE
  5
356
330
1F
100
AcDbEntity
  8
0
  6
Continuous
 62
     7
370
    15
100
AcDbLine
 10
110.2845809761
 20
423.6721610319
 30
0.0
 11
90.1314906183
 21
423.6721610319
 31
0.0
  0
ARC
  5
357
330
1F
100
AcDbEntity
  8
0
  6
Continuous
 62
     7
370
    15
100
AcDbCircle
 10
89.6492753022
 20
428.6494505515
 30
0.0
 40
5.000594222015
100
AcDbArc
 50
275.5337229595
 51
331.7853382803
  0
LINE
  5
358
330
1F
100
AcDbEntity
  8
0
  6
Continuous
 62
     7
370
    15
100
AcDbLine
 10
94.0557114187
 20
426.2852882635
 30
0.0
 11
103.9709738794
 21
445.1208328497
 31
0.0
  0
ARC
  5
359
330
1F
100
AcDbEntity
  8
0
  6
Continuous
 62
     7
370
    15
100
AcDbCircle
 10
99.6478988208
 20
447.3000378333
 30
0.0
 40
4.841271767185509
100
AcDbArc
 50
333.247931037
 51
91.5844431414
  0
LINE
  5
35A
330
1F
100
AcDbEntity
  8
0
  6
Continuous
 62
     7
370
    15
100
AcDbLine
 10
99.5140365664
 20
452.1394585859
 30
0.0
 11
20.7325361076
 21
452.1394585859
 31
0.0
  0
ARC
  5
35B
330
1F
100
AcDbEntity
  8
0
  6
Continuous
 62
     7
370
    15
100
AcDbCircle
 10
20.6965516621
 20
447.1185780922
 30
0.0
 40
5.021009441548999
100
AcDbArc
 50
89.5893705177
 51
151.7016310728
  0
LINE
  5
35C
330
1F
100
AcDbEntity
  8
0
  6
Continuous
 62
     7
370
    15
100
AcDbLine
 10
16.2755987946
 20
449.4988536131
 30
0.0
 11
6.3603661362
 21
430.6633090269
 31
0.0
  0
ARC
  5
35D
330
1F
100
AcDbEntity
  8
0
  6
Continuous
 62
     7
370
    15
100
AcDbCircle
 10
10.6595157409
 20
428.4795450303
 30
0.0
 40
4.821982218613226
100
AcDbArc
 50
153.0715916001
 51
265.5405180524
  0
LINE
  5
35E
330
1F
100
AcDbEntity
  8
0
  6
Continuous
 62
     7
370
    15
100
AcDbLine
 10
10.2845869366
 20
423.6721610319
 30
0.0
 11
-9.8685183224
 21
423.6721610319
 31
0.0
  0
LINE
  5
35F
330
1F
100
AcDbEntity
  8
0
  6
Continuous
 62
     7
370
    15
100
AcDbLine
 10
504.3656668964
 20
456.9691037428
 30
0.0
 11
504.3656668964
 21
423.6721610319
 31
0.0
  0
LINE
  5
360
330
1F
100
AcDbEntity
  8
0
  6
Continuous
 62
     7
370
    15
100
AcDbLine
 10
-94.0343298611
 20
456.9691037428
 30
0.0
 11
-94.0343298611
 21
423.6721610319
 31
0.0
  0
LINE
  5
361
330
1F
100
AcDbEntity
  8
0
  6
Continuous
 62
     7
370
    15
100
AcDbLine
 10
-94.8343434032
 20
457.2020386946
 30
0.0
 11
-94.0343298611
 21
457.2020386946
 31
0.0
  0
LINE
  5
362
330
1F
100
AcDbEntity
  8
0
  6
Continuous
 62
     7
370
    15
100
AcDbLine
 10
-94.8343434032
 20
458.6496865045
 30
0.0
 11
-94.8343434032
 21
457.2020386946
 31
0.0
  0
LINE
  5
363
330
1F
100
AcDbEntity
  8
0
  6
Continuous
 62
     7
370
    15
100
AcDbLine
 10
-94.8343434032
 20
458.6496865045
 30
0.0
 11
-94.0343298611
 21
458.6496865045
 31
0.0
  0
LINE
  5
364
330
1F
100
AcDbEntity
  8
0
  6
Continuous
 62
     7
370
    15
100
AcDbLine
 10
505.1656655375
 20
458.6496865045
 30
0.0
 11
504.3656668964
 21
458.6496865045
 31
0.0
  0
LINE
  5
365
330
1F
100
AcDbEntity
  8
0
  6
Continuous
 62
     7
370
    15
100
AcDbLine
 10
505.1656655375
 20
458.6496865045
 30
0.0
 11
505.1656655375
 21
457.2020386946
 31
0.0
  0
LINE
  5
366
330
1F
100
AcDbEntity
  8
0
  6
Continuous
 62
     7
370
    15
100
AcDbLine
 10
505.1656655375
 20
457.2020386946
 30
0.0
 11
504.3656668964
 21
457.2020386946
 31
0.0
  0
LINE
  5
367
330
1F
100
AcDbEntity
  8
0
  6
Continuous
 62
     7
370
    15
100
AcDbLine
 10
505.1656655375
 20
423.9050959837
 30
0.0
 11
504.3656668964
 21
423.9050959837
 31
0.0
  0
LINE
  5
368
330
1F
100
AcDbEntity
  8
0
  6
Continuous
 62
     7
370
    15
100
AcDbLine
 10
505.1656655375
 20
457.2020386946
 30
0.0
 11
505.1656655375
 21
423.9050959837
 31
0.0
  0
LINE
  5
369
330
1F
100
AcDbEntity
  8
0
  6
Continuous
 62
     7
370
    15
100
AcDbLine
 10
-94.8343434032
 20
423.9050959837
 30
0.0
 11
-94.0343298611
 21
423.9050959837
 31
0.0
  0
LINE
  5
36A
330
1F
100
AcDbEntity
  8
0
  6
Continuous
 62
     7
370
    15
100
AcDbLine
 10
-94.8343434032
 20
457.2020386946
 30
0.0
 11
-94.8343434032
 21
423.9050959837
 31
0.0
  0
LINE
  5
36B
330
1F
100
AcDbEntity
  8
0
  6
Continuous
 62
     7
370
    15
100
AcDbLine
 10
403.9709708992
 20
445.3278695833
 30
0.0
 11
403.9709708992
 21
445.1208328497
 31
0.0
  0
LWPOLYLINE
  5
36C
330
1F
100
AcDbEntity
  8
0
  6
Continuous
 62
     7
370
    15
100
AcDbPolyline
 90
        3
 70
   128
 43
0.0
 10
403.9709708992
 20
445.3278695833
 10
404.3986565772
 20
446.4853023779
 10
404.5128963295
 20
447.4133764994
  0
LINE
  5
36D
330
1F
100
AcDbEntity
  8
0
  6
Continuous
 62
     7
370
    15
100
AcDbLine
 10
303.9709694091
 20
445.3278695833
 30
0.0
 11
303.9709694091
 21
445.1208328497
 31
0.0
  0
LWPOLYLINE
  5
36E
330
1F
100
AcDbEntity
  8
0
  6
Continuous
 62
     7
370
    15
100
AcDbPolyline
 90
        3
 70
   128
 43
0.0
 10
303.9709694091
 20
445.3278695833
 10
304.3986541558
 20
446.4853023779
 10
304.5128948394
 20
447.4133764994
  0
LINE
  5
36F
330
1F
100
AcDbEntity
  8
0
  6
Continuous
 62
     7
370
    15
100
AcDbLine
 10
3.9709649387
 20
445.3278695833
 30
0.0
 11
3.9709649387
 21
445.1208328497
 31
0.0
  0
LWPOLYLINE
  5
370
330
1F
100
AcDbEntity
  8
0
  6
Continuous
 62
     7
370
    15
100
AcDbPolyline
 90
        3
 70
   128
 43
0.0
 10
3.9709649387
 20
445.3278695833
 10
4.3986580673
 20
446.4853023779
 10
4.512890369
 20
447.4133764994
  0
LINE
  5
371
330
1F
100
AcDbEntity
  8
0
  6
Continuous
 62
     7
370
    15
100
AcDbLine
 10
203.970967919
 20
445.3278695833
 30
0.0
 11
203.970967919
 21
445.1208328497
 31
0.0
  0
LWPOLYLINE
  5
372
330
1F
100
AcDbEntity
  8
0
  6
Continuous
 62
     7
370
    15
100
AcDbPolyline
 90
        3
 70
   128
 43
0.0
 10
203.970967919
 20
445.3278695833
 10
204.398653597
 20
446.4853023779
 10
204.5128933493
 20
447.4133764994
  0
LINE
  5
373
330
1F
100
AcDbEntity
  8
0
  6
Continuous
 62
     7
370
    15
100
AcDbLine
 10
103.9709738794
 20
445.3278695833
 30
0.0
 11
103.9709738794
 21
445.1208328497
 31
0.0
  0
LWPOLYLINE
  5
374
330
1F
100
AcDbEntity
  8
0
  6
Continuous
 62
     7
370
    15
100
AcDbPolyline
 90
        3
 70
   128
 43
0.0
 10
103.9709738794
 20
445.3278695833
 10
104.3986521069
 20
446.4853023779
 10
104.5128993097
 20
447.4133764994
  0
LINE
  5
375
330
1F
100
AcDbEntity
  8
0
  6
Continuous
 62
     7
370
    15
100
AcDbLine
 10
394.0557158891
 20
426.4923249971
 30
0.0
 11
394.0557158891
 21
426.2852882635
 31
0.0
  0
LINE
  5
376
330
1F
100
AcDbEntity
  8
0
  6
Continuous
 62
     7
370
    15
100
AcDbLine
 10
394.0557158891
 20
426.4923249971
 30
0.0
 11
403.9709708992
 21
445.3278695833
 31
0.0
  0
LINE
  5
377
330
1F
100
AcDbEntity
  8
0
  6
Continuous
 62
     7
370
    15
100
AcDbLine
 10
-5.944297522
 20
426.4923249971
 30
0.0
 11
-5.944297522
 21
426.2852882635
 31
0.0
  0
LINE
  5
378
330
1F
100
AcDbEntity
  8
0
  6
Continuous
 62
     7
370
    15
100
AcDbLine
 10
-5.944297522
 20
426.4923249971
 30
0.0
 11
3.9709649387
 21
445.3278695833
 31
0.0
  0
LINE
  5
379
330
1F
100
AcDbEntity
  8
0
  6
Continuous
 62
     7
370
    15
100
AcDbLine
 10
194.0557129088
 20
426.4923249971
 30
0.0
 11
194.0557129088
 21
426.2852882635
 31
0.0
  0
LINE
  5
37A
330
1F
100
AcDbEntity
  8
0
  6
Continuous
 62
     7
370
    15
100
AcDbLine
 10
194.0557129088
 20
426.4923249971
 30
0.0
 11
203.970967919
 21
445.3278695833
 31
0.0
  0
LINE
  5
37B
330
1F
100
AcDbEntity
  8
0
  6
Continuous
 62
     7
370
    15
100
AcDbLine
 10
294.055714399
 20
426.4923249971
 30
0.0
 11
294.055714399
 21
426.2852882635
 31
0.0
  0
LINE
  5
37C
330
1F
100
AcDbEntity
  8
0
  6
Continuous
 62
     7
370
    15
100
AcDbLine
 10
294.055714399
 20
426.4923249971
 30
0.0
 11
303.9709694091
 21
445.3278695833
 31
0.0
  0
LINE
  5
37D
330
1F
100
AcDbEntity
  8
0
  6
Continuous
 62
     7
370
    15
100
AcDbLine
 10
94.0557114187
 20
426.4923249971
 30
0.0
 11
94.0557114187
 21
426.2852882635
 31
0.0
  0
LINE
  5
37E
330
1F
100
AcDbEntity
  8
0
  6
Continuous
 62
     7
370
    15
100
AcDbLine
 10
94.0557114187
 20
426.4923249971
 30
0.0
 11
103.9709738794
 21
445.3278695833
 31
0.0
  0
LINE
  5
37F
330
1F
100
AcDbEntity
  8
0
  6
Continuous
 62
     7
370
    15
100
AcDbLine
 10
310.8172847821
 20
423.6446534883
 30
0.0
 11
310.2845804057
 21
423.6721610319
 31
0.0
  0
ARC
  5
380
330
1F
100
AcDbEntity
  8
0
  6
Continuous
 62
     7
370
    15
100
AcDbCircle
 10
310.8171092631
 20
429.0257621142
 30
0.0
 40
5.174042092844847
100
AcDbArc
 50
264.0924748737
 51
270.0019436441
  0
LINE
  5
381
330
1F
100
AcDbEntity
  8
0
  6
Continuous
 62
     7
370
    15
100
AcDbLine
 10
310.8172847821
 20
423.8517200243
 30
0.0
 11
310.8172847821
 21
423.6446534883
 31
0.0
  0
ARC
  5
382
330
1F
100
AcDbEntity
  8
0
  6
Continuous
 62
     7
370
    15
100
AcDbCircle
 10
310.7144695399
 20
428.7597158215
 30
0.0
 40
4.8994143692899
100
AcDbArc
 50
182.1278633344
 51
264.9662253603
  0
LINE
  5
383
330
1F
100
AcDbEntity
  8
0
  6
Continuous
 62
     7
370
    15
100
AcDbLine
 10
10.8172736469
 20
423.6446534883
 30
0.0
 11
10.2845869366
 21
423.6721610319
 31
0.0
  0
ARC
  5
384
330
1F
100
AcDbEntity
  8
0
  6
Continuous
 62
     7
370
    15
100
AcDbCircle
 10
10.817085154
 20
429.0251682301
 30
0.0
 40
5.173448209249431
100
AcDbArc
 50
264.0921354577
 51
270.0020875539
  0
LINE
  5
385
330
1F
100
AcDbEntity
  8
0
  6
Continuous
 62
     7
370
    15
100
AcDbLine
 10
10.8172736469
 20
423.8517200243
 30
0.0
 11
10.8172736469
 21
423.6446534883
 31
0.0
  0
ARC
  5
386
330
1F
100
AcDbEntity
  8
0
  6
Continuous
 62
     7
370
    15
100
AcDbCircle
 10
10.7144410421
 20
428.7596818586
 30
0.0
 40
4.899377464000095
100
AcDbArc
 50
182.1274819174
 51
264.9665985736
  0
LINE
  5
387
330
1F
100
AcDbEntity
  8
0
  6
Continuous
 62
     7
370
    15
100
AcDbLine
 10
410.817287058
 20
423.6446534883
 30
0.0
 11
410.2845779959
 21
423.6721610319
 31
0.0
  0
ARC
  5
388
330
1F
100
AcDbEntity
  8
0
  6
Continuous
 62
     7
370
    15
100
AcDbCircle
 10
410.8171110666
 20
429.0258437667
 30
0.0
 40
5.174123745358631
100
AcDbArc
 50
264.0925215266
 51
270.0019488448
  0
LINE
  5
389
330
1F
100
AcDbEntity
  8
0
  6
Continuous
 62
     7
370
    15
100
AcDbLine
 10
410.817287058
 20
423.8517200243
 30
0.0
 11
410.817287058
 21
423.6446534883
 31
0.0
  0
ARC
  5
38A
330
1F
100
AcDbEntity
  8
0
  6
Continuous
 62
     7
370
    15
100
AcDbCircle
 10
410.7144774336
 20
428.7597249481
 30
0.0
 40
4.899424364749263
100
AcDbArc
 50
182.1279657948
 51
264.9661146963
  0
LINE
  5
38B
330
1F
100
AcDbEntity
  8
0
  6
Continuous
 62
     7
370
    15
100
AcDbLine
 10
110.8172825876
 20
423.6446534883
 30
0.0
 11
110.2845809761
 21
423.6721610319
 31
0.0
  0
ARC
  5
38C
330
1F
100
AcDbEntity
  8
0
  6
Continuous
 62
     7
370
    15
100
AcDbCircle
 10
110.8171090519
 20
429.025746978
 30
0.0
 40
5.174026956594353
100
AcDbArc
 50
264.0924662322
 51
270.0019216882
  0
LINE
  5
38D
330
1F
100
AcDbEntity
  8
0
  6
Continuous
 62
     7
370
    15
100
AcDbLine
 10
110.8172825876
 20
423.8517200243
 30
0.0
 11
110.8172825876
 21
423.6446534883
 31
0.0
  0
ARC
  5
38E
330
1F
100
AcDbEntity
  8
0
  6
Continuous
 62
     7
370
    15
100
AcDbCircle
 10
110.7144804138
 20
428.7597249481
 30
0.0
 40
4.89942436474926
100
AcDbArc
 50
182.1279657948
 51
264.9661146963
  0
LINE
  5
38F
330
1F
100
AcDbEntity
  8
0
  6
Continuous
 62
     7
370
    15
100
AcDbLine
 10
210.8172840777
 20
423.6446534883
 30
0.0
 11
210.2845824662
 21
423.6721610319
 31
0.0
  0
ARC
  5
390
330
1F
100
AcDbEntity
  8
0
  6
Continuous
 62
     7
370
    15
100
AcDbCircle
 10
210.817110542
 20
429.025746978
 30
0.0
 40
5.174026956594354
100
AcDbArc
 50
264.0924662322
 51
270.0019216882
  0
LINE
  5
391
330
1F
100
AcDbEntity
  8
0
  6
Continuous
 62
     7
370
    15
100
AcDbLine
 10
210.8172840777
 20
423.8517200243
 30
0.0
 11
210.8172840777
 21
423.6446534883
 31
0.0
  0
ARC
  5
392
330
1F
100
AcDbEntity
  8
0
  6
Continuous
 62
     7
370
    15
100
AcDbCircle
 10
210.7144592377
 20
428.7597034032
 30
0.0
 40
4.899400914185541
100
AcDbArc
 50
182.1277238558
 51
264.9663566353
  0
LINE
  5
393
330
1F
100
AcDbEntity
  8
0
  6
Continuous
 62
     7
370
    15
100
AcDbLine
 10
-69.8343374428
 20
423.6446534883
 30
0.0
 11
-70.3670539555
 21
423.6721610319
 31
0.0
  0
ARC
  5
394
330
1F
100
AcDbEntity
  8
0
  6
Continuous
 62
     7
370
    15
100
AcDbCircle
 10
-69.8344960173
 20
429.0263258279
 30
0.0
 40
5.174605806065496
100
AcDbArc
 50
264.0927970048
 51
270.0017558152
  0
LINE
  5
395
330
1F
100
AcDbEntity
  8
0
  6
Continuous
 62
     7
370
    15
100
AcDbLine
 10
-69.8343374428
 20
423.8517200243
 30
0.0
 11
-69.8343374428
 21
423.6446534883
 31
0.0
  0
ARC
  5
396
330
1F
100
AcDbEntity
  8
0
  6
Continuous
 62
     7
370
    15
100
AcDbCircle
 10
-69.9396455959
 20
428.7557561984
 30
0.0
 40
4.89525280804889
100
AcDbArc
 50
180.8710812907
 51
264.9910828093
  0
LINE
  5
397
330
1F
100
AcDbEntity
  8
0
  6
Continuous
 62
     7
370
    15
100
AcDbLine
 10
480.6983611885
 20
423.6721610319
 30
0.0
 11
480.165659577
 21
423.6446534883
 31
0.0
  0
LINE
  5
398
330
1F
100
AcDbEntity
  8
0
  6
Continuous
 62
     7
370
    15
100
AcDbLine
 10
480.165659577
 20
423.8517200243
 30
0.0
 11
480.165659577
 21
423.6446534883
 31
0.0
  0
ARC
  5
399
330
1F
100
AcDbEntity
  8
0
  6
Continuous
 62
     7
370
    15
100
AcDbCircle
 10
480.1658396553
 20
429.0256201402
 30
0.0
 40
5.173900119042846
100
AcDbArc
 50
269.9980058127
 51
275.9076062669
  0
ARC
  5
39A
330
1F
100
AcDbEntity
  8
0
  6
Continuous
 62
     7
370
    15
100
AcDbCircle
 10
480.2709800275
 20
428.7557612731
 30
0.0
 40
4.895255488739895
100
AcDbArc
 50
275.00859488
 51
359.1288597832
  0
LINE
  5
39B
330
1F
100
AcDbEntity
  8
0
  6
Continuous
 62
     7
370
    15
100
AcDbLine
 10
90.1314906183
 20
423.6721610319
 30
0.0
 11
89.5987890068
 21
423.6446534883
 31
0.0
  0
LINE
  5
39C
330
1F
100
AcDbEntity
  8
0
  6
Continuous
 62
     7
370
    15
100
AcDbLine
 10
89.5987890068
 20
423.8517200243
 30
0.0
 11
89.5987890068
 21
423.6446534883
 31
0.0
  0
ARC
  5
39D
330
1F
100
AcDbEntity
  8
0
  6
Continuous
 62
     7
370
    15
100
AcDbCircle
 10
89.5989625426
 20
429.025746978
 30
0.0
 40
5.174026956594353
100
AcDbArc
 50
269.9980783118
 51
275.9075337678
  0
ARC
  5
39E
330
1F
100
AcDbEntity
  8
0
  6
Continuous
 62
     7
370
    15
100
AcDbCircle
 10
89.6492337703
 20
428.856549655
 30
0.0
 40
5.000660306311512
100
AcDbArc
 50
275.5341276884
 51
331.7849335514
  0
LINE
  5
39F
330
1F
100
AcDbEntity
  8
0
  6
Continuous
 62
     7
370
    15
100
AcDbLine
 10
-9.8685183224
 20
423.6721610319
 30
0.0
 11
-10.4012050327
 21
423.6446534883
 31
0.0
  0
LINE
  5
3A0
330
1F
100
AcDbEntity
  8
0
  6
Continuous
 62
     7
370
    15
100
AcDbLine
 10
-10.4012050327
 20
423.8517200243
 30
0.0
 11
-10.4012050327
 21
423.6446534883
 31
0.0
  0
ARC
  5
3A1
330
1F
100
AcDbEntity
  8
0
  6
Continuous
 62
     7
370
    15
100
AcDbCircle
 10
-10.4010165397
 20
429.0251682301
 30
0.0
 40
5.173448209249431
100
AcDbArc
 50
269.9979124461
 51
275.9078645423
  0
ARC
  5
3A2
330
1F
100
AcDbEntity
  8
0
  6
Continuous
 62
     7
370
    15
100
AcDbCircle
 10
-10.3507260971
 20
428.85647596
 30
0.0
 40
5.000582222459705
100
AcDbArc
 50
275.5336494677
 51
331.7854117721
  0
LINE
  5
3A3
330
1F
100
AcDbEntity
  8
0
  6
Continuous
 62
     7
370
    15
100
AcDbLine
 10
190.1314921084
 20
423.6721610319
 30
0.0
 11
189.5987904969
 21
423.6446534883
 31
0.0
  0
LINE
  5
3A4
330
1F
100
AcDbEntity
  8
0
  6
Continuous
 62
     7
370
    15
100
AcDbLine
 10
189.5987904969
 20
423.8517200243
 30
0.0
 11
189.5987904969
 21
423.6446534883
 31
0.0
  0
ARC
  5
3A5
330
1F
100
AcDbEntity
  8
0
  6
Continuous
 62
     7
370
    15
100
AcDbCircle
 10
189.5989640327
 20
429.025746978
 30
0.0
 40
5.174026956594354
100
AcDbArc
 50
269.9980783118
 51
275.9075337678
  0
ARC
  5
3A6
330
1F
100
AcDbEntity
  8
0
  6
Continuous
 62
     7
370
    15
100
AcDbCircle
 10
189.6492417619
 20
428.8565398915
 30
0.0
 40
5.000649961311438
100
AcDbArc
 50
275.5340643319
 51
331.7849969079
  0
LINE
  5
3A7
330
1F
100
AcDbEntity
  8
0
  6
Continuous
 62
     7
370
    15
100
AcDbLine
 10
290.1314935986
 20
423.6721610319
 30
0.0
 11
289.5987901244
 21
423.6446534883
 31
0.0
  0
LINE
  5
3A8
330
1F
100
AcDbEntity
  8
0
  6
Continuous
 62
     7
370
    15
100
AcDbLine
 10
289.5987901244
 20
423.8517200243
 30
0.0
 11
289.5987901244
 21
423.6446534883
 31
0.0
  0
ARC
  5
3A9
330
1F
100
AcDbEntity
  8
0
  6
Continuous
 62
     7
370
    15
100
AcDbCircle
 10
289.5989642741
 20
429.0257711744
 30
0.0
 40
5.174051153075767
100
AcDbArc
 50
269.9980715222
 51
275.9075199444
  0
ARC
  5
3AA
330
1F
100
AcDbEntity
  8
0
  6
Continuous
 62
     7
370
    15
100
AcDbCircle
 10
289.6492286789
 20
428.8565617764
 30
0.0
 40
5.000673149580898
100
AcDbArc
 50
275.5342063447
 51
331.7848548951
  0
LINE
  5
3AB
330
1F
100
AcDbEntity
  8
0
  6
Continuous
 62
     7
370
    15
100
AcDbLine
 10
390.1314950887
 20
423.6721610319
 30
0.0
 11
389.5987860266
 21
423.6446534883
 31
0.0
  0
LINE
  5
3AC
330
1F
100
AcDbEntity
  8
0
  6
Continuous
 62
     7
370
    15
100
AcDbLine
 10
389.5987860266
 20
423.8517200243
 30
0.0
 11
389.5987860266
 21
423.6446534883
 31
0.0
  0
ARC
  5
3AD
330
1F
100
AcDbEntity
  8
0
  6
Continuous
 62
     7
370
    15
100
AcDbCircle
 10
389.5989669952
 20
429.0257472731
 30
0.0
 40
5.174027251945231
100
AcDbArc
 50
269.9979960022
 51
275.9075336264
  0
ARC
  5
3AE
330
1F
100
AcDbEntity
  8
0
  6
Continuous
 62
     7
370
    15
100
AcDbCircle
 10
389.649221363
 20
428.8565750007
 30
0.0
 40
5.000687161572854
100
AcDbArc
 50
275.5342921582
 51
331.7847690816
  0
LINE
  5
3AF
330
1F
100
AcDbEntity
  8
0
  6
Continuous
 62
     7
370
    15
100
AcDbLine
 10
189.5987904969
 20
423.6446534883
 30
0.0
 11
110.8172825876
 21
423.6446534883
 31
0.0
  0
LINE
  5
3B0
330
1F
100
AcDbEntity
  8
0
  6
Continuous
 62
     7
370
    15
100
AcDbLine
 10
289.5987901244
 20
423.6446534883
 30
0.0
 11
210.8172840777
 21
423.6446534883
 31
0.0
  0
LINE
  5
3B1
330
1F
100
AcDbEntity
  8
0
  6
Continuous
 62
     7
370
    15
100
AcDbLine
 10
389.5987860266
 20
423.6446534883
 30
0.0
 11
310.8172847821
 21
423.6446534883
 31
0.0
  0
LINE
  5
3B2
330
1F
100
AcDbEntity
  8
0
  6
Continuous
 62
     7
370
    15
100
AcDbLine
 10
480.165659577
 20
423.6446534883
 30
0.0
 11
410.817287058
 21
423.6446534883
 31
0.0
  0
LINE
  5
3B3
330
1F
100
AcDbEntity
  8
0
  6
Continuous
 62
     7
370
    15
100
AcDbLine
 10
504.3656668964
 20
423.6721610319
 30
0.0
 11
504.3656668964
 21
404.5496796858
 31
0.0
  0
LINE
  5
3B4
330
1F
100
AcDbEntity
  8
0
  6
Continuous
 62
     7
370
    15
100
AcDbLine
 10
504.3656668964
 20
404.5496796858
 30
0.0
 11
496.6251693073
 21
404.5496796858
 31
0.0
  0
LINE
  5
3B5
330
1F
100
AcDbEntity
  8
0
  6
Continuous
 62
     7
370
    15
100
AcDbLine
 10
-86.2938620743
 20
404.5496796858
 30
0.0
 11
-94.0343298611
 21
404.5496796858
 31
0.0
  0
LINE
  5
3B6
330
1F
100
AcDbEntity
  8
0
  6
Continuous
 62
     7
370
    15
100
AcDbLine
 10
-94.0343298611
 20
423.6721610319
 30
0.0
 11
-94.0343298611
 21
404.5496796858
 31
0.0
  0
LINE
  5
3B7
330
1F
100
AcDbEntity
  8
0
  6
Continuous
 62
     7
370
    15
100
AcDbLine
 10
-10.4012050327
 20
423.6446534883
 30
0.0
 11
-69.8343374428
 21
423.6446534883
 31
0.0
  0
LINE
  5
3B8
330
1F
100
AcDbEntity
  8
0
  6
Continuous
 62
     7
370
    15
100
AcDbLine
 10
89.5987890068
 20
423.6446534883
 30
0.0
 11
10.8172736469
 21
423.6446534883
 31
0.0
  0
LINE
  5
3B9
330
1F
100
AcDbEntity
  8
0
  6
Continuous
 62
     7
370
    15
100
AcDbLine
 10
10.8172736469
 20
423.8517200243
 30
0.0
 11
89.5987890068
 21
423.8517200243
 31
0.0
  0
LINE
  5
3BA
330
1F
100
AcDbEntity
  8
0
  6
Continuous
 62
     7
370
    15
100
AcDbLine
 10
-69.8343374428
 20
423.8517200243
 30
0.0
 11
-10.4012050327
 21
423.8517200243
 31
0.0
  0
LINE
  5
3BB
330
1F
100
AcDbEntity
  8
0
  6
Continuous
 62
     7
370
    15
100
AcDbLine
 10
310.8172847821
 20
423.8517200243
 30
0.0
 11
389.5987860266
 21
423.8517200243
 31
0.0
  0
LINE
  5
3BC
330
1F
100
AcDbEntity
  8
0
  6
Continuous
 62
     7
370
    15
100
AcDbLine
 10
410.817287058
 20
423.8517200243
 30
0.0
 11
480.165659577
 21
423.8517200243
 31
0.0
  0
LINE
  5
3BD
330
1F
100
AcDbEntity
  8
0
  6
Continuous
 62
     7
370
    15
100
AcDbLine
 10
210.8172840777
 20
423.8517200243
 30
0.0
 11
289.5987901244
 21
423.8517200243
 31
0.0
  0
LINE
  5
3BE
330
1F
100
AcDbEntity
  8
0
  6
Continuous
 62
     7
370
    15
100
AcDbLine
 10
110.8172825876
 20
423.8517200243
 30
0.0
 11
189.5987904969
 21
423.8517200243
 31
0.0
  0
LINE
  5
3BF
330
1F
100
AcDbEntity
  8
0
  6
Continuous
 62
     7
370
    15
100
AcDbLine
 10
480.6983611885
 20
423.8791977655
 30
0.0
 11
410.2845779959
 21
423.8791977655
 31
0.0
  0
LINE
  5
3C0
330
1F
100
AcDbEntity
  8
0
  6
Continuous
 62
     7
370
    15
100
AcDbLine
 10
-9.8685183224
 20
423.8791977655
 30
0.0
 11
-70.3670539555
 21
423.8791977655
 31
0.0
  0
LINE
  5
3C1
330
1F
100
AcDbEntity
  8
0
  6
Continuous
 62
     7
370
    15
100
AcDbLine
 10
390.1314950887
 20
423.8791977655
 30
0.0
 11
310.2845804057
 21
423.8791977655
 31
0.0
  0
LINE
  5
3C2
330
1F
100
AcDbEntity
  8
0
  6
Continuous
 62
     7
370
    15
100
AcDbLine
 10
290.1314935986
 20
423.8791977655
 30
0.0
 11
210.2845824662
 21
423.8791977655
 31
0.0
  0
LINE
  5
3C3
330
1F
100
AcDbEntity
  8
0
  6
Continuous
 62
     7
370
    15
100
AcDbLine
 10
190.1314921084
 20
423.8791977655
 30
0.0
 11
110.2845809761
 21
423.8791977655
 31
0.0
  0
LINE
  5
3C4
330
1F
100
AcDbEntity
  8
0
  6
Continuous
 62
     7
370
    15
100
AcDbLine
 10
90.1314906183
 20
423.8791977655
 30
0.0
 11
10.2845869366
 21
423.8791977655
 31
0.0
  0
LINE
  5
3C5
330
1F
100
AcDbEntity
  8
0
  6
Continuous
 62
     7
370
    15
100
AcDbLine
 10
-94.8343434032
 20
405.4496800196
 30
0.0
 11
-94.0343298611
 21
405.4496800196
 31
0.0
  0
LINE
  5
3C6
330
1F
100
AcDbEntity
  8
0
  6
Continuous
 62
     7
370
    15
100
AcDbLine
 10
-94.8343434032
 20
423.9050959837
 30
0.0
 11
-94.8343434032
 21
405.4496800196
 31
0.0
  0
LINE
  5
3C7
330
1F
100
AcDbEntity
  8
0
  6
Continuous
 62
     7
370
    15
100
AcDbLine
 10
505.1656655375
 20
405.4496800196
 30
0.0
 11
504.3656668964
 21
405.4496800196
 31
0.0
  0
LINE
  5
3C8
330
1F
100
AcDbEntity
  8
0
  6
Continuous
 62
     7
370
    15
100
AcDbLine
 10
505.1656655375
 20
423.9050959837
 30
0.0
 11
505.1656655375
 21
405.4496800196
 31
0.0
  0
LWPOLYLINE
  5
3C9
330
1F
100
AcDbEntity
  8
0
  6
Continuous
 62
     7
370
    15
100
AcDbPolyline
 90
        3
 70
   128
 43
0.0
 10
504.8127166334
 20
458.6496865045
 10
504.5652381483
 20
458.9492594492
 10
504.3656668964
 20
459.1244971048
  0
LWPOLYLINE
  5
3CA
330
1F
100
AcDbEntity
  8
0
  6
Continuous
 62
     7
370
    15
100
AcDbPolyline
 90
        3
 70
   128
 43
0.0
 10
-94.0343298611
 20
459.1244971048
 10
-94.2339160141
 20
458.9492594492
 10
-94.4813944992
 20
458.6496865045
  0
LWPOLYLINE
  5
3CB
330
1F
100
AcDbEntity
  8
0
  6
Continuous
 62
     7
370
    15
100
AcDbPolyline
 90
        3
 70
   128
 43
0.0
 10
-94.4813944992
 20
405.4496800196
 10
-94.2339160141
 20
405.1501070749
 10
-94.0343298611
 20
404.9748694193
  0
LWPOLYLINE
  5
3CC
330
1F
100
AcDbEntity
  8
0
  6
Continuous
 62
     7
370
    15
100
AcDbPolyline
 90
        3
 70
   128
 43
0.0
 10
504.3656668964
 20
404.9748694193
 10
504.5652381483
 20
405.1501070749
 10
504.8127166334
 20
405.4496800196
  0
CIRCLE
  5
3CD
330
1F
100
AcDbEntity
  8
0
  6
Continuous
 62
     7
370
    15
100
AcDbCircle
 10
1.1656641941
 20
-157.8506173288
 30
0.0
 40
4.450000000000017
  0
CIRCLE
  5
3CE
330
1F
100
AcDbEntity
  8
0
  6
Continuous
 62
     7
370
    15
100
AcDbCircle
 10
1.1656641941
 20
-157.8506173288
 30
0.0
 40
3.025000000000006
  0
CIRCLE
  5
3CF
330
1F
100
AcDbEntity
  8
0
  6
Continuous
 62
     7
370
    15
100
AcDbCircle
 10
1.1656641941
 20
-157.8506173288
 30
0.0
 40
2.5
  0
CIRCLE
  5
3D0
330
1F
100
AcDbEntity
  8
0
  6
Continuous
 62
     7
370
    15
100
AcDbCircle
 10
1.1656641941
 20
-157.8506173288
 30
0.0
 40
4.699999999999989
  0
CIRCLE
  5
3D1
330
1F
100
AcDbEntity
  8
0
  6
Continuous
 62
     7
370
    15
100
AcDbCircle
 10
1.1656641941
 20
-157.8506173288
 30
0.0
 40
5.199999999999989
  0
CIRCLE
  5
3D2
330
1F
100
AcDbEntity
  8
0
  6
Continuous
 62
     7
370
    15
100
AcDbCircle
 10
1.1656641941
 20
-157.8506173288
 30
0.0
 40
5.900000000000034
  0
CIRCLE
  5
3D3
330
1F
100
AcDbEntity
  8
0
  6
Continuous
 62
     7
370
    15
100
AcDbCircle
 10
1.1656641941
 20
-157.8506173288
 30
0.0
 40
6.400000000000034
  0
SPLINE
  5
3D4
330
1F
100
AcDbEntity
  8
0
  6
Continuous
 62
     8
370
    15
100
AcDbSpline
210
0.0
220
0.0
230
1.0
 70
     8
 71
     3
 72
     9
 73
     5
 74
     0
 42
0.00000001
 43
0.00000001
 40
0.0
 40
0.0
 40
0.0
 40
0.0
 40
0.540663923023007
 40
1.0
 40
1.0
 40
1.0
 40
1.0
 10
392.4885831180651
 20
-328.1911695707438
 30
0.0
 10
392.604729393283
 20
-327.7286881970459
 30
0.0
 10
392.8195509677807
 20
-326.8732929061746
 30
0.0
 10
393.4058682536966
 20
-326.1448174765595
 30
0.0
 10
393.675184935673
 20
-325.810202430546
 30
0.0
  0
SPLINE
  5
3D5
330
1F
100
AcDbEntity
  8
0
  6
Continuous
 62
     8
370
    15
100
AcDbSpline
210
0.0
220
0.0
230
1.0
 70
     8
 71
     3
 72
     9
 73
     5
 74
     0
 42
0.00000001
 43
0.00000001
 40
0.0
 40
0.0
 40
0.0
 40
0.0
 40
0.4593360769769929
 40
1.0
 40
1.0
 40
1.0
 40
1.0
 10
364.0561431053717
 20
-325.8102024305461
 30
0.0
 10
364.3254597873481
 20
-326.1448174765596
 30
0.0
 10
364.9117770732639
 20
-326.8732929061747
 30
0.0
 10
365.1265986477616
 20
-327.728688197046
 30
0.0
 10
365.2427449229796
 20
-328.1911695707438
 30
0.0
  0
SPLINE
  5
3D6
330
1F
100
AcDbEntity
  8
0
  6
Continuous
 62
     8
370
    15
100
AcDbSpline
210
0.0
220
0.0
230
1.0
 70
     8
 71
     3
 72
    10
 73
     6
 74
     0
 42
0.00000001
 43
0.00000001
 40
0.0
 40
0.0
 40
0.0
 40
0.0
 40
0.2588203583286793
 40
0.5472745022393247
 40
1.0
 40
1.0
 40
1.0
 40
1.0
 10
378.8314677182276
 20
-325.810202430546
 30
0.0
 10
378.762395534325
 20
-327.2734331012114
 30
0.0
 10
378.6163427071518
 20
-330.3674278785958
 30
0.0
 10
378.6795113028193
 20
-336.0268238325814
 30
0.0
 10
378.4644386937456
 20
-340.2166997597587
 30
0.0
 10
378.333068579777
 20
-342.7759493101237
 30
0.0
  0
SPLINE
  5
3D7
330
1F
100
AcDbEntity
  8
0
  6
Continuous
 62
     8
370
    15
100
AcDbSpline
210
0.0
220
0.0
230
1.0
 70
     8
 71
     3
 72
     9
 73
     5
 74
     0
 42
0.00000001
 43
0.00000001
 40
0.0
 40
0.0
 40
0.0
 40
0.0
 40
0.5763579120275996
 40
1.0
 40
1.0
 40
1.0
 40
1.0
 10
379.398263186558
 20
-342.7759493101237
 30
0.0
 10
379.2916622737756
 20
-339.5167309500425
 30
0.0
 10
379.1067061717462
 20
-333.8618795251434
 30
0.0
 10
378.9576629594674
 20
-328.2061903862639
 30
0.0
 10
378.8945219818194
 20
-325.8102024305461
 30
0.0
  0
LWPOLYLINE
  5
3D8
330
1F
100
AcDbEntity
  8
0
  6
Continuous
 62
     8
370
    15
100
AcDbPolyline
 90
        7
 70
   128
 43
0.0
 10
393.01282087
 20
-327.9566848982
 10
392.9954610172
 20
-328.0051136721
 10
392.9459444586
 20
-328.0627513636
 10
392.8676314059
 20
-328.1115377653
 10
392.762995452
 20
-328.1499231566
 10
392.6353074018
 20
-328.176775049
 10
392.4885831181
 20
-328.1911695707
  0
LWPOLYLINE
  5
3D9
330
1F
100
AcDbEntity
  8
0
  6
Continuous
 62
     8
370
    15
100
AcDbPolyline
 90
        7
 70
   128
 43
0.0
 10
364.7177174095
 20
-327.9514694918
 10
364.7358670238
 20
-328.0051136721
 10
364.7853873077
 20
-328.0627513636
 10
364.8636966351
 20
-328.1115377653
 10
364.968332589
 20
-328.1499231566
 10
365.096016914
 20
-328.176775049
 10
365.242744923
 20
-328.1911695707
  0
LWPOLYLINE
  5
3DA
330
1F
100
AcDbEntity
  8
0
  6
Continuous
 62
     8
370
    15
100
AcDbPolyline
 90
        8
 70
   128
 43
0.0
 10
367.716464341
 20
-344.2609692324
 10
367.5908848051
 20
-344.2374850023
 10
367.4808322791
 20
-344.2046428431
 10
367.3889740709
 20
-344.1631878126
 10
367.3175416294
 20
-344.11413319
 10
367.2682634893
 20
-344.0587008703
 10
367.2423429195
 20
-343.9982319582
 10
367.239783645
 20
-343.9838970411
  0
ARC
  5
3DB
330
1F
100
AcDbEntity
  8
0
  6
Continuous
 62
     8
370
    15
100
AcDbCircle
 10
390.0394784498
 20
-343.7548714108
 30
0.0
 40
0.506696053734121
100
AcDbArc
 50
267.2155366832
 51
333.1582697452
  0
LINE
  5
3DC
330
1F
100
AcDbEntity
  8
0
  6
Continuous
 62
     8
370
    15
100
AcDbLine
 10
503.9656601254
 20
-192.7003348578
 30
0.0
 11
501.1656574312
 21
-192.7003348578
 31
0.0
  0
LINE
  5
3DD
330
1F
100
AcDbEntity
  8
0
  6
Continuous
 62
     8
370
    15
100
AcDbLine
 10
-90.834335297
 20
-192.7003348578
 30
0.0
 11
-93.63432309
 21
-192.7003348578
 31
0.0
  0
LINE
  5
3DE
330
1F
100
AcDbEntity
  8
0
  6
Continuous
 62
     8
370
    15
100
AcDbLine
 10
502.7156613175
 20
397.5084339868
 30
0.0
 11
502.7156613175
 21
404.5496796858
 31
0.0
  0
LINE
  5
3DF
330
1F
100
AcDbEntity
  8
0
  6
Continuous
 62
     8
370
    15
100
AcDbLine
 10
-92.3843242821
 20
404.5496796858
 30
0.0
 11
-92.3843242821
 21
397.5084339868
 31
0.0
  0
LINE
  5
3E0
330
1F
100
AcDbEntity
  8
0
  6
Continuous
 62
     8
370
    15
100
AcDbLine
 10
502.7156613175
 20
-189.7503221739
 30
0.0
 11
502.7156613175
 21
-190.2503157366
 31
0.0
  0
LINE
  5
3E1
330
1F
100
AcDbEntity
  8
0
  6
Continuous
 62
     8
370
    15
100
AcDbLine
 10
-92.3843242821
 20
-190.2503157366
 30
0.0
 11
-92.3843242821
 21
-189.7503221739
 31
0.0
  0
SPLINE
  5
3E2
330
1F
100
AcDbEntity
  8
0
  6
Continuous
 62
     8
370
    15
100
AcDbSpline
210
0.0
220
0.0
230
1.0
 70
     8
 71
     3
 72
     9
 73
     5
 74
     0
 42
0.00000001
 43
0.00000001
 40
0.0
 40
0.0
 40
0.0
 40
0.0
 40
0.5406637126385391
 40
1.0
 40
1.0
 40
1.0
 40
1.0
 10
282.4885837141115
 20
-328.1911695707438
 30
0.0
 10
282.6047298714067
 20
-327.7286881092543
 30
0.0
 10
282.8195513113888
 20
-326.8732923231522
 30
0.0
 10
283.4058699621248
 20
-326.1448173980694
 30
0.0
 10
283.6751873943646
 20
-325.810202430546
 30
0.0
  0
SPLINE
  5
3E3
330
1F
100
AcDbEntity
  8
0
  6
Continuous
 62
     8
370
    15
100
AcDbSpline
210
0.0
220
0.0
230
1.0
 70
     8
 71
     3
 72
     9
 73
     5
 74
     0
 42
0.00000001
 43
0.00000001
 40
0.0
 40
0.0
 40
0.0
 40
0.0
 40
0.4593364977461242
 40
1.0
 40
1.0
 40
1.0
 40
1.0
 10
254.0561399761279
 20
-325.8102024305461
 30
0.0
 10
254.3254581586312
 20
-326.1448173195792
 30
0.0
 10
254.9117781741859
 20
-326.8732917401294
 30
0.0
 10
255.1265994796533
 20
-327.7286880214629
 30
0.0
 10
255.242745519026
 20
-328.1911695707438
 30
0.0
  0
SPLINE
  5
3E4
330
1F
100
AcDbEntity
  8
0
  6
Continuous
 62
     8
370
    15
100
AcDbSpline
210
0.0
220
0.0
230
1.0
 70
     8
 71
     3
 72
    10
 73
     6
 74
     0
 42
0.00000001
 43
0.00000001
 40
0.0
 40
0.0
 40
0.0
 40
0.0
 40
0.2588203586525967
 40
0.5472745016727323
 40
1.0
 40
1.0
 40
1.0
 40
1.0
 10
268.8314645889837
 20
-325.810202430546
 30
0.0
 10
268.7623920733271
 20
-327.2734330993194
 30
0.0
 10
268.6163385449955
 20
-330.3674278656278
 30
0.0
 10
268.6795139890714
 20
-336.0268238515779
 30
0.0
 10
268.4644400825299
 20
-340.2166997642796
 30
0.0
 10
268.3330691758234
 20
-342.7759493101237
 30
0.0
  0
SPLINE
  5
3E5
330
1F
100
AcDbEntity
  8
0
  6
Continuous
 62
     8
370
    15
100
AcDbSpline
210
0.0
220
0.0
230
1.0
 70
     8
 71
     3
 72
     9
 73
     5
 74
     0
 42
0.00000001
 43
0.00000001
 40
0.0
 40
0.0
 40
0.0
 40
0.0
 40
0.5763579097050981
 40
1.0
 40
1.0
 40
1.0
 40
1.0
 10
269.3982600573141
 20
-342.7759493101237
 30
0.0
 10
269.2916607439179
 20
-339.5167309411071
 30
0.0
 10
269.1067074161309
 20
-333.8618794779178
 30
0.0
 10
268.957663748687
 20
-328.2061903814372
 30
0.0
 10
268.8945225778658
 20
-325.8102024305461
 30
0.0
  0
LWPOLYLINE
  5
3E6
330
1F
100
AcDbEntity
  8
0
  6
Continuous
 62
     8
370
    15
100
AcDbPolyline
 90
        7
 70
   128
 43
0.0
 10
283.0128233287
 20
-327.9566848982
 10
282.9954616133
 20
-328.0051136721
 10
282.9459413293
 20
-328.0627513636
 10
282.8676338646
 20
-328.1115377653
 10
282.7629960481
 20
-328.1499231566
 10
282.6353098605
 20
-328.176775049
 10
282.4885837141
 20
-328.1911695707
  0
LWPOLYLINE
  5
3E7
330
1F
100
AcDbEntity
  8
0
  6
Continuous
 62
     8
370
    15
100
AcDbPolyline
 90
        7
 70
   128
 43
0.0
 10
254.7177180055
 20
-327.9514694918
 10
254.7358676199
 20
-328.0051136721
 10
254.7853879038
 20
-328.0627513636
 10
254.8636935059
 20
-328.1115377653
 10
254.9683331851
 20
-328.1499231566
 10
255.09601751
 20
-328.176775049
 10
255.242745519
 20
-328.1911695707
  0
LWPOLYLINE
  5
3E8
330
1F
100
AcDbEntity
  8
0
  6
Continuous
 62
     8
370
    15
100
AcDbPolyline
 90
        8
 70
   128
 43
0.0
 10
257.7164649371
 20
-344.2609692324
 10
257.5908854011
 20
-344.2374850023
 10
257.4808328751
 20
-344.2046428431
 10
257.3889746669
 20
-344.1631878126
 10
257.3175385002
 20
-344.11413319
 10
257.2682640854
 20
-344.0587008703
 10
257.2423435155
 20
-343.9982319582
 10
257.2397842411
 20
-343.9838970411
  0
ARC
  5
3E9
330
1F
100
AcDbEntity
  8
0
  6
Continuous
 62
     8
370
    15
100
AcDbCircle
 10
280.0394866161
 20
-343.7548906633
 30
0.0
 40
0.5066772823641273
100
AcDbArc
 50
267.2143654994
 51
333.1596355307
  0
LINE
  5
3EA
330
1F
100
AcDbEntity
  8
0
  6
Continuous
 62
     8
370
    15
100
AcDbLine
 10
502.1656594578
 20
-187.300332855
 30
0.0
 11
501.1656574312
 21
-187.300332855
 31
0.0
  0
LINE
  5
3EB
330
1F
100
AcDbEntity
  8
0
  6
Continuous
 62
     8
370
    15
100
AcDbLine
 10
-90.834335297
 20
-187.300332855
 30
0.0
 11
-91.8343224224
 21
-187.300332855
 31
0.0
  0
ENDSEC
  0
SECTION
  2
OBJECTS
  0
DICTIONARY
  5
C
330
0
100
AcDbDictionary
281
     1
  3
ACAD_GROUP
350
D
  3
ACAD_LAYOUT
350
1A
  3
ACAD_MATERIAL
350
3B
  3
ACAD_MLEADERSTYLE
350
3ED
  3
ACAD_MLINESTYLE
350
17
  3
ACAD_PLOTSETTINGS
350
19
  3
ACAD_PLOTSTYLENAME
350
E
  3
ACAD_TABLESTYLE
350
3EC
  3
ACAD_VISUALSTYLE
350
2A
  0
DICTIONARY
  5
D
102
{ACAD_REACTORS
330
C
102
}
330
C
100
AcDbDictionary
281
     1
  0
DICTIONARY
  5
1A
102
{ACAD_REACTORS
330
C
102
}
330
C
100
AcDbDictionary
281
     1
  3
Layout1
350
1E
  3
Layout2
350
26
  3
Model
350
22
  0
DICTIONARY
  5
3B
102
{ACAD_REACTORS
330
C
102
}
330
C
100
AcDbDictionary
281
     1
  3
ByBlock
350
3D
  3
ByLayer
350
3C
  3
Global
350
3E
  0
DICTIONARY
  5
3ED
102
{ACAD_REACTORS
330
C
102
}
330
C
100
AcDbDictionary
281
     1
  0
DICTIONARY
  5
17
102
{ACAD_REACTORS
330
C
102
}
330
C
100
AcDbDictionary
281
     1
  3
Standard
350
18
  0
DICTIONARY
  5
19
102
{ACAD_REACTORS
330
C
102
}
330
C
100
AcDbDictionary
281
     1
  0
ACDBDICTIONARYWDFLT
  5
E
102
{ACAD_REACTORS
330
C
102
}
330
C
100
AcDbDictionary
281
     1
  3
Normal
350
F
100
AcDbDictionaryWithDefault
340
F
  0
DICTIONARY
  5
3EC
102
{ACAD_REACTORS
330
C
102
}
330
C
100
AcDbDictionary
281
     1
  0
DICTIONARY
  5
2A
102
{ACAD_REACTORS
330
C
102
}
330
C
100
AcDbDictionary
281
     1
  3
2dWireframe
350
2F
  3
3D Hidden
350
31
  3
3dWireframe
350
30
  3
Basic
350
32
  3
Brighten
350
36
  3
ColorChange
350
3A
  3
Conceptual
350
34
  3
Dim
350
35
  3
Facepattern
350
39
  3
Flat
350
2B
  3
FlatWithEdges
350
2C
  3
Gouraud
350
2D
  3
GouraudWithEdges
350
2E
  3
Linepattern
350
38
  3
Realistic
350
33
  3
Thicken
350
37
  0
LAYOUT
  5
1E
102
{ACAD_REACTORS
330
1A
102
}
330
1A
100
AcDbPlotSettings
  1

  2
none_device
  4

  6

 40
0.0
 41
0.0
 42
0.0
 43
0.0
 44
0.0
 45
0.0
 46
0.0
 47
0.0
 48
0.0
 49
0.0
140
0.0
141
0.0
142
1.0
143
1.0
 70
   688
 72
     0
 73
     0
 74
     5
  7

 75
    16
 76
     0
 77
     2
 78
   300
147
1.0
148
0.0
149
0.0
100
AcDbLayout
  1
Layout1
 70
     1
 71
     1
 10
0.0
 20
0.0
 11
420.0
 21
297.0
 12
0.0
 22
0.0
 32
0.0
 14
1.0000000000E+20
 24
1.0000000000E+20
 34
1.0000000000E+20
 15
-1.0000000000E+20
 25
-1.0000000000E+20
 35
-1.0000000000E+20
146
0.0
 13
0.0
 23
0.0
 33
0.0
 16
1.0
 26
0.0
 36
0.0
 17
0.0
 27
1.0
 37
0.0
 76
     0
330
1B
  0
LAYOUT
  5
26
102
{ACAD_REACTORS
330
1A
102
}
330
1A
100
AcDbPlotSettings
  1

  2
none_device
  4

  6

 40
0.0
 41
0.0
 42
0.0
 43
0.0
 44
0.0
 45
0.0
 46
0.0
 47
0.0
 48
0.0
 49
0.0
140
0.0
141
0.0
142
1.0
143
1.0
 70
   688
 72
     0
 73
     0
 74
     5
  7

 75
    16
 76
     0
 77
     2
 78
   300
147
1.0
148
0.0
149
0.0
100
AcDbLayout
  1
Layout2
 70
     1
 71
     2
 10
0.0
 20
0.0
 11
0.0
 21
0.0
 12
0.0
 22
0.0
 32
0.0
 14
0.0
 24
0.0
 34
0.0
 15
0.0
 25
0.0
 35
0.0
146
0.0
 13
0.0
 23
0.0
 33
0.0
 16
1.0
 26
0.0
 36
0.0
 17
0.0
 27
1.0
 37
0.0
 76
     0
330
23
  0
LAYOUT
  5
22
102
{ACAD_REACTORS
330
1A
102
}
330
1A
100
AcDbPlotSettings
  1

  2
none_device
  4

  6

 40
0.0
 41
0.0
 42
0.0
 43
0.0
 44
0.0
 45
0.0
 46
0.0
 47
0.0
 48
0.0
 49
0.0
140
0.0
141
0.0
142
1.0
143
1.0
 70
  1712
 72
     0
 73
     0
 74
     0
  7

 75
     0
 76
     0
 77
     2
 78
   300
147
1.0
148
0.0
149
0.0
100
AcDbLayout
  1
Model
 70
     1
 71
     0
 10
0.0
 20
0.0
 11
420.0
 21
297.0
 12
0.0
 22
0.0
 32
0.0
 14
0.0
 24
0.0
 34
0.0
 15
420.0
 25
297.0
 35
0.0
146
0.0
 13
0.0
 23
0.0
 33
0.0
 16
1.0
 26
0.0
 36
0.0
 17
0.0
 27
1.0
 37
0.0
 76
     0
330
1F
331
29
  0
MATERIAL
  5
3D
102
{ACAD_REACTORS
330
3B
102
}
330
3B
100
AcDbMaterial
  1
ByBlock
 72
     1
 94
      127
  0
MATERIAL
  5
3C
102
{ACAD_REACTORS
330
3B
102
}
330
3B
100
AcDbMaterial
  1
ByLayer
 72
     1
 94
      127
  0
MATERIAL
  5
3E
102
{ACAD_REACTORS
330
3B
102
}
330
3B
100
AcDbMaterial
  1
Global
 72
     1
 94
      127
  0
MLINESTYLE
  5
18
102
{ACAD_REACTORS
330
17
102
}
330
17
100
AcDbMlineStyle
  2
Standard
 70
     0
  3

 62
   256
 51
90.0
 52
90.0
 71
     2
 49
0.5
 62
   256
  6
BYLAYER
 49
-0.5
 62
   256
  6
BYLAYER
  0
ACDBPLACEHOLDER
  5
F
102
{ACAD_REACTORS
330
E
102
}
330
E
  0
VISUALSTYLE
  5
2F
102
{ACAD_REACTORS
330
2A
102
}
330
2A
100
AcDbVisualStyle
  2
2dWireframe
 70
     4
 71
     0
 72
     2
 73
     0
 90
        0
 40
-0.6
 41
-30.0
 62
     5
 63
     7
421
 16777215
 74
     1
 91
        4
 64
     7
 65
   257
 75
     1
175
     1
 42
1.0
 92
        0
 66
   257
 43
1.0
 76
     1
 77
     6
 78
     2
 67
     7
 79
     5
170
     0
171
     0
290
     0
174
     0
 93
        1
 44
0.0
173
     0
291
     0
 45
0.0
  0
VISUALSTYLE
  5
31
102
{ACAD_REACTORS
330
2A
102
}
330
2A
100
AcDbVisualStyle
  2
3D Hidden
 70
     6
 71
     1
 72
     2
 73
     2
 90
        0
 40
-0.6
 41
-30.0
 62
     5
 63
     7
421
 16777215
 74
     2
 91
        2
 64
     7
 65
   257
 75
     2
175
     1
 42
40.0
 92
        0
 66
   257
 43
1.0
 76
     1
 77
     6
 78
     2
 67
     7
 79
     3
170
     0
171
     0
290
     0
174
     0
 93
        1
 44
0.0
173
     0
291
     0
 45
0.0
  0
VISUALSTYLE
  5
30
102
{ACAD_REACTORS
330
2A
102
}
330
2A
100
AcDbVisualStyle
  2
3dWireframe
 70
     5
 71
     0
 72
     2
 73
     0
 90
        0
 40
-0.6
 41
-30.0
 62
     5
 63
     7
421
 16777215
 74
     1
 91
        4
 64
     7
 65
   257
 75
     1
175
     1
 42
1.0
 92
        0
 66
   257
 43
1.0
 76
     1
 77
     6
 78
     2
 67
     7
 79
     5
170
     0
171
     0
290
     0
174
     0
 93
        1
 44
0.0
173
     0
291
     0
 45
0.0
  0
VISUALSTYLE
  5
32
102
{ACAD_REACTORS
330
2A
102
}
330
2A
100
AcDbVisualStyle
  2
Basic
 70
     7
 71
     1
 72
     0
 73
     1
 90
        0
 40
-0.6
 41
-30.0
 62
     5
 63
     7
421
 16777215
 74
     0
 91
        4
 64
     7
 65
   257
 75
     1
175
     1
 42
1.0
 92
        8
 66
     7
 43
1.0
 76
     1
 77
     6
 78
     2
 67
     7
 79
     5
170
     0
171
     0
290
     0
174
     0
 93
        1
 44
0.0
173
     0
291
     1
 45
0.0
  0
VISUALSTYLE
  5
36
102
{ACAD_REACTORS
330
2A
102
}
330
2A
100
AcDbVisualStyle
  2
Brighten
 70
    12
 71
     2
 72
     2
 73
     0
 90
        0
 40
-0.6
 41
-30.0
 62
     5
 63
     7
421
 16777215
 74
     1
 91
        4
 64
     7
 65
   257
 75
     1
175
     1
 42
1.0
 92
        8
 66
     7
 43
1.0
 76
     1
 77
     6
 78
     2
 67
     7
 79
     5
170
     0
171
     0
290
     0
174
     0
 93
        1
 44
50.0
173
     0
291
     1
 45
0.0
  0
VISUALSTYLE
  5
3A
102
{ACAD_REACTORS
330
2A
102
}
330
2A
100
AcDbVisualStyle
  2
ColorChange
 70
    16
 71
     2
 72
     2
 73
     3
 90
        0
 40
-0.6
 41
-30.0
 62
     5
 63
     8
421
  8421504
 74
     1
 91
        4
 64
     7
 65
   257
 75
     1
175
     1
 42
1.0
 92
        8
 66
     8
424
  8421504
 43
1.0
 76
     1
 77
     6
 78
     2
 67
     7
 79
     5
170
     0
171
     0
290
     0
174
     0
 93
        1
 44
0.0
173
     0
291
     1
 45
0.0
  0
VISUALSTYLE
  5
34
102
{ACAD_REACTORS
330
2A
102
}
330
2A
100
AcDbVisualStyle
  2
Conceptual
 70
     9
 71
     3
 72
     2
 73
     0
 90
        0
 40
-0.6
 41
-30.0
 62
     5
 63
     7
421
 16777215
 74
     2
 91
        2
 64
     7
 65
   257
 75
     1
175
     1
 42
40.0
 92
        8
 66
     7
 43
1.0
 76
     1
 77
     6
 78
     2
 67
     7
 79
     3
170
     0
171
     0
290
     0
174
     0
 93
        1
 44
0.0
173
     0
291
     0
 45
0.0
  0
VISUALSTYLE
  5
35
102
{ACAD_REACTORS
330
2A
102
}
330
2A
100
AcDbVisualStyle
  2
Dim
 70
    11
 71
     2
 72
     2
 73
     0
 90
        0
 40
-0.6
 41
-30.0
 62
     5
 63
     7
421
 16777215
 74
     1
 91
        4
 64
     7
 65
   257
 75
     1
175
     1
 42
1.0
 92
        8
 66
     7
 43
1.0
 76
     1
 77
     6
 78
     2
 67
     7
 79
     5
170
     0
171
     0
290
     0
174
     0
 93
        1
 44
-50.0
173
     0
291
     1
 45
0.0
  0
VISUALSTYLE
  5
39
102
{ACAD_REACTORS
330
2A
102
}
330
2A
100
AcDbVisualStyle
  2
Facepattern
 70
    15
 71
     2
 72
     2
 73
     0
 90
        0
 40
-0.6
 41
-30.0
 62
     5
 63
     7
421
 16777215
 74
     1
 91
        4
 64
     7
 65
   257
 75
     1
175
     1
 42
1.0
 92
        8
 66
     7
 43
1.0
 76
     1
 77
     6
 78
     2
 67
     7
 79
     5
170
     0
171
     0
290
     0
174
     0
 93
        1
 44
0.0
173
     0
291
     1
 45
0.0
  0
VISUALSTYLE
  5
2B
102
{ACAD_REACTORS
330
2A
102
}
330
2A
100
AcDbVisualStyle
  2
Flat
 70
     0
 71
     2
 72
     1
 73
     1
 90
        2
 40
-0.6
 41
30.0
 62
     5
 63
     7
421
 16777215
 74
     0
 91
        4
 64
     7
 65
   257
 75
     1
175
     1
 42
1.0
 92
        8
 66
     7
 43
1.0
 76
     1
 77
     6
 78
     2
 67
     7
 79
     5
170
     0
171
     0
290
     0
174
     0
 93
       13
 44
0.0
173
     0
291
     1
 45
0.0
  0
VISUALSTYLE
  5
2C
102
{ACAD_REACTORS
330
2A
102
}
330
2A
100
AcDbVisualStyle
  2
FlatWithEdges
 70
     1
 71
     2
 72
     1
 73
     1
 90
        2
 40
-0.6
 41
30.0
 62
     5
 63
     7
421
 16777215
 74
     1
 91
        4
 64
     7
 65
   257
 75
     1
175
     1
 42
1.0
 92
        0
 66
   257
 43
1.0
 76
     1
 77
     6
 78
     2
 67
     7
 79
     5
170
     0
171
     0
290
     0
174
     0
 93
       13
 44
0.0
173
     0
291
     1
 45
0.0
  0
VISUALSTYLE
  5
2D
102
{ACAD_REACTORS
330
2A
102
}
330
2A
100
AcDbVisualStyle
  2
Gouraud
 70
     2
 71
     2
 72
     2
 73
     1
 90
        2
 40
-0.6
 41
30.0
 62
     5
 63
     7
421
 16777215
 74
     0
 91
        4
 64
     7
 65
   257
 75
     1
175
     1
 42
1.0
 92
        0
 66
     7
 43
1.0
 76
     1
 77
     6
 78
     2
 67
     7
 79
     5
170
     0
171
     0
290
     0
174
     0
 93
       13
 44
0.0
173
     0
291
     1
 45
0.0
  0
VISUALSTYLE
  5
2E
102
{ACAD_REACTORS
330
2A
102
}
330
2A
100
AcDbVisualStyle
  2
GouraudWithEdges
 70
     3
 71
     2
 72
     2
 73
     1
 90
        2
 40
-0.6
 41
30.0
 62
     5
 63
     7
421
 16777215
 74
     1
 91
        4
 64
     7
 65
   257
 75
     1
175
     1
 42
1.0
 92
        0
 66
   257
 43
1.0
 76
     1
 77
     6
 78
     2
 67
     7
 79
     5
170
     0
171
     0
290
     0
174
     0
 93
       13
 44
0.0
173
     0
291
     1
 45
0.0
  0
VISUALSTYLE
  5
38
102
{ACAD_REACTORS
330
2A
102
}
330
2A
100
AcDbVisualStyle
  2
Linepattern
 70
    14
 71
     2
 72
     2
 73
     0
 90
        0
 40
-0.6
 41
-30.0
 62
     5
 63
     7
421
 16777215
 74
     1
 91
        4
 64
     7
 65
   257
 75
     7
175
     7
 42
1.0
 92
        8
 66
     7
 43
1.0
 76
     1
 77
     6
 78
     2
 67
     7
 79
     5
170
     0
171
     0
290
     0
174
     0
 93
        1
 44
0.0
173
     0
291
     1
 45
0.0
  0
VISUALSTYLE
  5
33
102
{ACAD_REACTORS
330
2A
102
}
330
2A
100
AcDbVisualStyle
  2
Realistic
 70
     8
 71
     2
 72
     2
 73
     0
 90
        0
 40
-0.6
 41
-30.0
 62
     5
 63
     7
421
 16777215
 74
     1
 91
        0
 64
     7
 65
   257
 75
     1
175
     1
 42
1.0
 92
        8
 66
     8
424
  7895160
 43
1.0
 76
     1
 77
     6
 78
     2
 67
     7
 79
     5
170
     0
171
     0
290
     0
174
     0
 93
       13
 44
0.0
173
     0
291
     0
 45
0.0
  0
VISUALSTYLE
  5
37
102
{ACAD_REACTORS
330
2A
102
}
330
2A
100
AcDbVisualStyle
  2
Thicken
 70
    13
 71
     2
 72
     2
 73
     0
 90
        0
 40
-0.6
 41
-30.0
 62
     5
 63
     7
421
 16777215
 74
     1
 91
        4
 64
     7
 65
   257
 75
     1
175
     1
 42
1.0
 92
       12
 66
     7
 43
1.0
 76
     1
 77
     6
 78
     2
 67
     7
 79
     5
170
     0
171
     0
290
     0
174
     0
 93
        1
 44
0.0
173
     0
291
     1
 45
0.0
  0
ENDSEC
  0
EOF
