  0
SECTION
  2
HEADER
  9
$ACADVER
  1
AC1015
  9
$ACADMAINTVER
 70
     6
  9
$DWGCODEPAGE
  3
ANSI_1252
  9
$INSBASE
 10
0.0
 20
0.0
 30
0.0
  9
$EXTMIN
 10
0.0
 20
0.0
 30
0.0
  9
$EXTMAX
 10
841.0
 20
1200.0
 30
0.0
  9
$LIMMIN
 10
0.0
 20
0.0
  9
$LIMMAX
 10
841.0
 20
1200.0
  9
$ORTHOMODE
 70
     0
  9
$REGENMODE
 70
     1
  9
$FILLMODE
 70
     1
  9
$QTEXTMODE
 70
     0
  9
$MIRRTEXT
 70
     1
  9
$LTSCALE
 40
1.0
  9
$ATTMODE
 70
     1
  9
$TEXTSIZE
 40
3.5
  9
$TRACEWID
 40
1.0
  9
$TEXTSTYLE
  7
Standard
  9
$CLAYER
  8
0
  9
$CELTYPE
  6
ByLayer
  9
$CECOLOR
 62
   256
  9
$CELTSCALE
 40
1.0
  9
$DISPSILH
 70
     0
  9
$DIMSCALE
 40
1.0
  9
$DIMASZ
 40
3.302
  9
$DIMEXO
 40
1.0
  9
$DIMDLI
 40
3.75
  9
$DIMRND
 40
0.0
  9
$DIMDLE
 40
0.0
  9
$DIMEXE
 40
1.0
  9
$DIMTP
 40
0.0
  9
$DIMTM
 40
0.0
  9
$DIMTXT
 40
3.5
  9
$DIMCEN
 40
2.5
  9
$DIMTSZ
 40
0.0
  9
$DIMTOL
 70
     0
  9
$DIMLIM
 70
     0
  9
$DIMTIH
 70
     1
  9
$DIMTOH
 70
     1
  9
$DIMSE1
 70
     0
  9
$DIMSE2
 70
     0
  9
$DIMTAD
 70
     1
  9
$DIMZIN
 70
     0
  9
$DIMBLK
  1

  9
$DIMASO
 70
     1
  9
$DIMSHO
 70
     1
  9
$DIMPOST
  1

  9
$DIMAPOST
  1

  9
$DIMALT
 70
     0
  9
$DIMALTD
 70
     3
  9
$DIMALTF
 40
0.0393700787
  9
$DIMLFAC
 40
1.0
  9
$DIMTOFL
 70
     1
  9
$DIMTVP
 40
0.0
  9
$DIMTIX
 70
     0
  9
$DIMSOXD
 70
     0
  9
$DIMSAH
 70
     0
  9
$DIMBLK1
  1

  9
$DIMBLK2
  1

  9
$DIMSTYLE
  2
ISO-25
  9
$DIMCLRD
 70
     0
  9
$DIMCLRE
 70
     0
  9
$DIMCLRT
 70
     0
  9
$DIMTFAC
 40
1.0
  9
$DIMGAP
 40
1.524
  9
$DIMJUST
 70
     0
  9
$DIMSD1
 70
     0
  9
$DIMSD2
 70
     0
  9
$DIMTOLJ
 70
     0
  9
$DIMTZIN
 70
     0
  9
$DIMALTZ
 70
     0
  9
$DIMALTTZ
 70
     0
  9
$DIMUPT
 70
     0
  9
$DIMDEC
 70
     1
  9
$DIMTDEC
 70
     1
  9
$DIMALTU
 70
     2
  9
$DIMALTTD
 70
     3
  9
$DIMTXSTY
  7
Standard
  9
$DIMAUNIT
 70
     0
  9
$DIMADEC
 70
     1
  9
$DIMALTRND
 40
0.0
  9
$DIMAZIN
 70
     0
  9
$DIMDSEP
 70
    44
  9
$DIMATFIT
 70
     3
  9
$DIMFRAC
 70
     0
  9
$DIMLDRBLK
  1

  9
$DIMLUNIT
 70
     2
  9
$DIMLWD
 70
    -2
  9
$DIMLWE
 70
    -2
  9
$DIMTMOVE
 70
     0
  9
$LUNITS
 70
     2
  9
$LUPREC
 70
     1
  9
$SKETCHINC
 40
1.0
  9
$FILLETRAD
 40
10.0
  9
$AUNITS
 70
     0
  9
$AUPREC
 70
     1
  9
$MENU
  1
.
  9
$ELEVATION
 40
0.0
  9
$PELEVATION
 40
0.0
  9
$THICKNESS
 40
0.0
  9
$LIMCHECK
 70
     0
  9
$CHAMFERA
 40
10.0
  9
$CHAMFERB
 40
10.0
  9
$CHAMFERC
 40
20.0
  9
$CHAMFERD
 40
0.0
  9
$SKPOLY
 70
     0
  9
$TDCREATE
 40
2455685.596979398
  9
$TDUCREATE
 40
2455685.555312731
  9
$TDUPDATE
 40
2455685.59697941
  9
$TDUUPDATE
 40
2455685.555312743
  9
$TDINDWG
 40
0.0000000116
  9
$TDUSRTIMER
 40
0.0000000116
  9
$USRTIMER
 70
     1
  9
$ANGBASE
 50
0.0
  9
$ANGDIR
 70
     0
  9
$PDMODE
 70
     0
  9
$PDSIZE
 40
-1.0
  9
$PLINEWID
 40
0.0
  9
$SPLFRAME
 70
     0
  9
$SPLINETYPE
 70
     6
  9
$SPLINESEGS
 70
     8
  9
$HANDSEED
  5
330
  9
$SURFTAB1
 70
     6
  9
$SURFTAB2
 70
     6
  9
$SURFTYPE
 70
     6
  9
$SURFU
 70
     6
  9
$SURFV
 70
     6
  9
$UCSBASE
  2

  9
$UCSNAME
  2

  9
$UCSORG
 10
0.0
 20
0.0
 30
0.0
  9
$UCSXDIR
 10
1.0
 20
0.0
 30
0.0
  9
$UCSYDIR
 10
0.0
 20
1.0
 30
0.0
  9
$UCSORTHOREF
  2

  9
$UCSORTHOVIEW
 70
     0
  9
$UCSORGTOP
 10
0.0
 20
0.0
 30
0.0
  9
$UCSORGBOTTOM
 10
0.0
 20
0.0
 30
0.0
  9
$UCSORGLEFT
 10
0.0
 20
0.0
 30
0.0
  9
$UCSORGRIGHT
 10
0.0
 20
0.0
 30
0.0
  9
$UCSORGFRONT
 10
0.0
 20
0.0
 30
0.0
  9
$UCSORGBACK
 10
0.0
 20
0.0
 30
0.0
  9
$PUCSBASE
  2

  9
$PUCSNAME
  2

  9
$PUCSORG
 10
0.0
 20
0.0
 30
0.0
  9
$PUCSXDIR
 10
1.0
 20
0.0
 30
0.0
  9
$PUCSYDIR
 10
0.0
 20
1.0
 30
0.0
  9
$PUCSORTHOREF
  2

  9
$PUCSORTHOVIEW
 70
     0
  9
$PUCSORGTOP
 10
0.0
 20
0.0
 30
0.0
  9
$PUCSORGBOTTOM
 10
0.0
 20
0.0
 30
0.0
  9
$PUCSORGLEFT
 10
0.0
 20
0.0
 30
0.0
  9
$PUCSORGRIGHT
 10
0.0
 20
0.0
 30
0.0
  9
$PUCSORGFRONT
 10
0.0
 20
0.0
 30
0.0
  9
$PUCSORGBACK
 10
0.0
 20
0.0
 30
0.0
  9
$USERI1
 70
     0
  9
$USERI2
 70
     0
  9
$USERI3
 70
     0
  9
$USERI4
 70
     0
  9
$USERI5
 70
     0
  9
$USERR1
 40
0.0
  9
$USERR2
 40
0.0
  9
$USERR3
 40
0.0
  9
$USERR4
 40
0.0
  9
$USERR5
 40
0.0
  9
$WORLDVIEW
 70
     1
  9
$SHADEDGE
 70
     3
  9
$SHADEDIF
 70
    70
  9
$TILEMODE
 70
     1
  9
$MAXACTVP
 70
    64
  9
$PINSBASE
 10
0.0
 20
0.0
 30
0.0
  9
$PLIMCHECK
 70
     0
  9
$PEXTMIN
 10
1.0000000000E+20
 20
1.0000000000E+20
 30
1.0000000000E+20
  9
$PEXTMAX
 10
-1.0000000000E+20
 20
-1.0000000000E+20
 30
-1.0000000000E+20
  9
$PLIMMIN
 10
0.0
 20
0.0
  9
$PLIMMAX
 10
420.0
 20
297.0
  9
$UNITMODE
 70
     0
  9
$VISRETAIN
 70
     1
  9
$PLINEGEN
 70
     0
  9
$PSLTSCALE
 70
     1
  9
$TREEDEPTH
 70
  3020
  9
$CMLSTYLE
  2
Standard
  9
$CMLJUST
 70
     0
  9
$CMLSCALE
 40
20.0
  9
$PROXYGRAPHICS
 70
     1
  9
$MEASUREMENT
 70
     1
  9
$CELWEIGHT
370
    -1
  9
$ENDCAPS
280
     0
  9
$JOINSTYLE
280
     0
  9
$LWDISPLAY
290
     1
  9
$INSUNITS
 70
     4
  9
$HYPERLINKBASE
  1

  9
$STYLESHEET
  1

  9
$XEDIT
290
     1
  9
$CEPSNTYPE
380
     0
  9
$PSTYLEMODE
290
     1
  9
$FINGERPRINTGUID
  2
{E6AE3FA4-1CC1-433D-BE60-E391113AD1C9}
  9
$VERSIONGUID
  2
{FAEB1C32-E019-11D5-929B-00C0DF256EC4}
  9
$EXTNAMES
290
     1
  9
$PSVPSCALE
 40
0.0
  9
$OLESTARTUP
290
     0
  0
ENDSEC
  0
SECTION
  2
CLASSES
  0
CLASS
  1
ACDBDICTIONARYWDFLT
  2
AcDbDictionaryWithDefault
  3
ObjectDBX Classes
 90
        0
280
     0
281
     0
  0
CLASS
  1
VISUALSTYLE
  2
AcDbVisualStyle
  3
ObjectDBX Classes
 90
     4095
280
     0
281
     0
  0
CLASS
  1
MATERIAL
  2
AcDbMaterial
  3
ObjectDBX Classes
 90
     1153
280
     0
281
     0
  0
CLASS
  1
ACDBPLACEHOLDER
  2
AcDbPlaceHolder
  3
ObjectDBX Classes
 90
        0
280
     0
281
     0
  0
CLASS
  1
LAYOUT
  2
AcDbLayout
  3
ObjectDBX Classes
 90
        0
280
     0
281
     0
  0
ENDSEC
  0
SECTION
  2
TABLES
  0
TABLE
  2
VPORT
  5
8
330
0
100
AcDbSymbolTable
 70
     1
  0
VPORT
  5
29
330
8
100
AcDbSymbolTableRecord
100
AcDbViewportTableRecord
  2
*Active
 70
     0
 10
0.0
 20
0.0
 11
1.0
 21
1.0
 12
420.5
 22
600.0
 13
0.0
 23
0.0
 14
10.0
 24
10.0
 15
10.0
 25
10.0
 16
0.0
 26
0.0
 36
1.0
 17
0.0
 27
0.0
 37
0.0
 40
1200.0
 41
0.7008333333
 42
50.0
 43
0.0
 44
0.0
 50
0.0
 51
0.0
 71
     0
 72
  2000
 73
     1
 74
     3
 75
     0
 76
     0
 77
     0
 78
     0
281
     0
 65
     1
110
0.0
120
0.0
130
0.0
111
1.0
121
0.0
131
0.0
112
0.0
122
1.0
132
0.0
 79
     0
146
0.0
  0
ENDTAB
  0
TABLE
  2
LTYPE
  5
5
330
0
100
AcDbSymbolTable
 70
     6
  0
LTYPE
  5
14
330
5
100
AcDbSymbolTableRecord
100
AcDbLinetypeTableRecord
  2
ByBlock
 70
     0
  3

 72
    65
 73
     0
 40
0.0
  0
LTYPE
  5
15
330
5
100
AcDbSymbolTableRecord
100
AcDbLinetypeTableRecord
  2
ByLayer
 70
     0
  3

 72
    65
 73
     0
 40
0.0
  0
LTYPE
  5
16
330
5
100
AcDbSymbolTableRecord
100
AcDbLinetypeTableRecord
  2
Continuous
 70
     0
  3
Solid line
 72
    65
 73
     0
 40
0.0
  0
LTYPE
  5
3F
330
5
100
AcDbSymbolTableRecord
100
AcDbLinetypeTableRecord
  2
HIDDEN
 70
     0
  3
Hidden __ __ __ __ __ __ __ __ __ __ __ __ __ __
 72
    65
 73
     2
 40
1.905
 49
1.27
 74
     0
 49
-0.635
 74
     0
  0
LTYPE
  5
40
330
5
100
AcDbSymbolTableRecord
100
AcDbLinetypeTableRecord
  2
PHANTOM
 70
     0
  3
Phantom ______  __  __  ______  __  __  ______
 72
    65
 73
     6
 40
12.7
 49
6.35
 74
     0
 49
-1.27
 74
     0
 49
1.27
 74
     0
 49
-1.27
 74
     0
 49
1.27
 74
     0
 49
-1.27
 74
     0
  0
LTYPE
  5
41
330
5
100
AcDbSymbolTableRecord
100
AcDbLinetypeTableRecord
  2
CENTER
 70
     0
  3
Center ____ _ ____ _ ____ _ ____ _ ____ _ ____
 72
    65
 73
     4
 40
10.16
 49
6.35
 74
     0
 49
-1.27
 74
     0
 49
1.27
 74
     0
 49
-1.27
 74
     0
  0
LTYPE
  5
42
330
5
100
AcDbSymbolTableRecord
100
AcDbLinetypeTableRecord
  2
CENTERX2
 70
     0
  3
Center (2x) ________  __  ________  __  _____
 72
    65
 73
     4
 40
20.32
 49
12.7
 74
     0
 49
-2.54
 74
     0
 49
2.54
 74
     0
 49
-2.54
 74
     0
  0
LTYPE
  5
43
330
5
100
AcDbSymbolTableRecord
100
AcDbLinetypeTableRecord
  2
DOT2
 70
     0
  3
Dot (.5x) ........................................
 72
    65
 73
     2
 40
0.635
 49
0.0
 74
     0
 49
-0.635
 74
     0
  0
ENDTAB
  0
TABLE
  2
LAYER
  5
2
330
0
100
AcDbSymbolTable
 70
     4
  0
LAYER
  5
10
330
2
100
AcDbSymbolTableRecord
100
AcDbLayerTableRecord
  2
0
 70
     0
 62
     7
  6
Continuous
370
    -3
390
F
  0
LAYER
  5
44
330
2
100
AcDbSymbolTableRecord
100
AcDbLayerTableRecord
  2
FORMAT
 70
     0
 62
     7
  6
Continuous
370
    -3
390
F
  0
LAYER
  5
45
330
2
100
AcDbSymbolTableRecord
100
AcDbLayerTableRecord
  2
SLD-0
 70
     0
 62
     1
  6
Continuous
370
    -3
390
F
  0
LAYER
  5
46
330
2
100
AcDbSymbolTableRecord
100
AcDbLayerTableRecord
  2
WATERMARK
 70
     0
 62
     1
  6
Continuous
370
    -3
390
F
  0
ENDTAB
  0
TABLE
  2
STYLE
  5
3
330
0
100
AcDbSymbolTable
 70
     1
  0
STYLE
  5
11
330
3
100
AcDbSymbolTableRecord
100
AcDbTextStyleTableRecord
  2
Standard
 70
     0
 40
0.0
 41
1.0
 50
0.0
 71
     0
 42
2.5
  3
txt
  4

  0
ENDTAB
  0
TABLE
  2
VIEW
  5
6
330
0
100
AcDbSymbolTable
 70
     0
  0
ENDTAB
  0
TABLE
  2
UCS
  5
7
330
0
100
AcDbSymbolTable
 70
     0
  0
ENDTAB
  0
TABLE
  2
APPID
  5
9
330
0
100
AcDbSymbolTable
 70
     1
  0
APPID
  5
12
330
9
100
AcDbSymbolTableRecord
100
AcDbRegAppTableRecord
  2
ACAD
 70
     0
  0
ENDTAB
  0
TABLE
  2
DIMSTYLE
  5
A
330
0
100
AcDbSymbolTable
 70
     1
100
AcDbDimStyleTable
  0
DIMSTYLE
105
27
330
A
100
AcDbSymbolTableRecord
100
AcDbDimStyleTableRecord
  2
ISO-25
 70
     0
 41
2.5
 42
0.625
 43
3.75
 44
1.25
 73
     0
 74
     0
 77
     1
 78
     8
140
2.5
141
2.5
143
0.0393700787
147
0.625
171
     3
172
     1
271
     2
272
     2
274
     3
278
    44
283
     0
284
     8
340
11
  0
ENDTAB
  0
TABLE
  2
BLOCK_RECORD
  5
1
330
0
100
AcDbSymbolTable
 70
     1
  0
BLOCK_RECORD
  5
1F
330
1
100
AcDbSymbolTableRecord
100
AcDbBlockTableRecord
  2
*Model_Space
340
22
  0
BLOCK_RECORD
  5
1B
330
1
100
AcDbSymbolTableRecord
100
AcDbBlockTableRecord
  2
*Paper_Space
340
1E
  0
BLOCK_RECORD
  5
23
330
1
100
AcDbSymbolTableRecord
100
AcDbBlockTableRecord
  2
*Paper_Space0
340
26
  0
ENDTAB
  0
ENDSEC
  0
SECTION
  2
BLOCKS
  0
BLOCK
  5
20
330
1F
100
AcDbEntity
  8
0
100
AcDbBlockBegin
  2
*Model_Space
 70
     0
 10
0.0
 20
0.0
 30
0.0
  3
*Model_Space
  1

  0
ENDBLK
  5
21
330
1F
100
AcDbEntity
  8
0
100
AcDbBlockEnd
  0
BLOCK
  5
1C
330
1B
100
AcDbEntity
 67
     1
  8
0
100
AcDbBlockBegin
  2
*Paper_Space
 70
     0
 10
0.0
 20
0.0
 30
0.0
  3
*Paper_Space
  1

  0
ENDBLK
  5
1D
330
1B
100
AcDbEntity
 67
     1
  8
0
100
AcDbBlockEnd
  0
BLOCK
  5
24
330
23
100
AcDbEntity
  8
0
100
AcDbBlockBegin
  2
*Paper_Space0
 70
     0
 10
0.0
 20
0.0
 30
0.0
  3
*Paper_Space0
  1

  0
ENDBLK
  5
25
330
23
100
AcDbEntity
  8
0
100
AcDbBlockEnd
  0
ENDSEC
  0
SECTION
  2
ENTITIES
  0
LINE
  5
47
330
1F
100
AcDbEntity
  8
0
  6
Continuous
 62
     7
370
    15
100
AcDbLine
 10
743.8712228999
 20
523.5003862717
 30
0.0
 11
743.8712228999
 21
524.5004031994
 31
0.0
  0
LINE
  5
48
330
1F
100
AcDbEntity
  8
0
  6
Continuous
 62
     7
370
    15
100
AcDbLine
 10
743.8712228999
 20
514.5003829338
 30
0.0
 11
743.8712228999
 21
522.2003791668
 31
0.0
  0
LINE
  5
49
330
1F
100
AcDbEntity
  8
0
  6
Continuous
 62
     7
370
    15
100
AcDbLine
 10
743.32122267
 20
522.2003791668
 30
0.0
 11
743.32122267
 21
522.2503874638
 31
0.0
  0
LINE
  5
4A
330
1F
100
AcDbEntity
  8
0
  6
Continuous
 62
     7
370
    15
100
AcDbLine
 10
743.32122267
 20
523.4503779747
 30
0.0
 11
743.32122267
 21
523.5003862717
 31
0.0
  0
LINE
  5
4B
330
1F
100
AcDbEntity
  8
0
  6
Continuous
 62
     7
370
    15
100
AcDbLine
 10
746.371222844
 20
522.2503874638
 30
0.0
 11
746.371222844
 21
523.4503779747
 31
0.0
  0
LINE
  5
4C
330
1F
100
AcDbEntity
  8
0
  6
Continuous
 62
     7
370
    15
100
AcDbLine
 10
749.3712224044
 20
499.7004006245
 30
0.0
 11
742.771222673
 21
499.7004006245
 31
0.0
  0
LINE
  5
4D
330
1F
100
AcDbEntity
  8
0
  6
Continuous
 62
     7
370
    15
100
AcDbLine
 10
742.771222673
 20
479.7003898956
 30
0.0
 11
749.3712224044
 21
479.7003898956
 31
0.0
  0
LINE
  5
4E
330
1F
100
AcDbEntity
  8
0
  6
Continuous
 62
     7
370
    15
100
AcDbLine
 10
749.3712224044
 20
704.400393758
 30
0.0
 11
742.8861513712
 21
702.7791176178
 31
0.0
  0
LINE
  5
4F
330
1F
100
AcDbEntity
  8
0
  6
Continuous
 62
     7
370
    15
100
AcDbLine
 10
742.8861513712
 20
695.0216625073
 30
0.0
 11
749.3712224044
 21
693.400386367
 31
0.0
  0
ARC
  5
50
330
1F
100
AcDbEntity
  8
0
  6
Continuous
 62
     7
370
    15
100
AcDbCircle
 10
743.3712227099
 20
696.9619434237
 30
0.0
 40
2.000000000005842
100
AcDbArc
 50
233.1301023539
 51
255.9637565331
  0
ARC
  5
51
330
1F
100
AcDbEntity
  8
0
  6
Continuous
 62
     7
370
    15
100
AcDbCircle
 10
743.3712227099
 20
700.8388377981
 30
0.0
 40
2.000000000005732
100
AcDbArc
 50
104.0362434669
 51
126.8698976461
  0
LINE
  5
52
330
1F
100
AcDbEntity
  8
0
  6
Continuous
 62
     7
370
    15
100
AcDbLine
 10
749.3712224044
 20
286.0003892519
 30
0.0
 11
742.8861513712
 21
284.3791242876
 31
0.0
  0
LINE
  5
53
330
1F
100
AcDbEntity
  8
0
  6
Continuous
 62
     7
370
    15
100
AcDbLine
 10
742.8861513712
 20
276.6216580011
 30
0.0
 11
749.3712224044
 21
275.0003893115
 31
0.0
  0
ARC
  5
54
330
1F
100
AcDbEntity
  8
0
  6
Continuous
 62
     7
370
    15
100
AcDbCircle
 10
743.3712227099
 20
278.5619434237
 30
0.0
 40
2.000000000005842
100
AcDbArc
 50
233.130102354
 51
255.9637565331
  0
ARC
  5
55
330
1F
100
AcDbEntity
  8
0
  6
Continuous
 62
     7
370
    15
100
AcDbCircle
 10
743.3712227099
 20
282.4388377981
 30
0.0
 40
2.000000000005787
100
AcDbArc
 50
104.0362434669
 51
126.869897646
  0
LINE
  5
56
330
1F
100
AcDbEntity
  8
0
  6
Continuous
 62
     7
370
    15
100
AcDbLine
 10
799.6712217085
 20
227.2003904172
 30
0.0
 11
799.1712244205
 21
227.7003904991
 31
0.0
  0
LINE
  5
57
330
1F
100
AcDbEntity
  8
0
  6
Continuous
 62
     7
370
    15
100
AcDbLine
 10
783.1712217979
 20
227.7003904991
 30
0.0
 11
782.6712245099
 21
227.2003904172
 31
0.0
  0
LINE
  5
58
330
1F
100
AcDbEntity
  8
0
  6
Continuous
 62
     7
370
    15
100
AcDbLine
 10
782.6712245099
 20
227.2003904172
 30
0.0
 11
782.6712245099
 21
225.700390637
 31
0.0
  0
LINE
  5
59
330
1F
100
AcDbEntity
  8
0
  6
Continuous
 62
     7
370
    15
100
AcDbLine
 10
799.6712217085
 20
225.700390637
 30
0.0
 11
799.6712217085
 21
227.2003904172
 31
0.0
  0
LINE
  5
5A
330
1F
100
AcDbEntity
  8
0
  6
Continuous
 62
     7
370
    15
100
AcDbLine
 10
782.6712245099
 20
225.700390637
 30
0.0
 11
783.1712217979
 21
225.200390555
 31
0.0
  0
LINE
  5
5B
330
1F
100
AcDbEntity
  8
0
  6
Continuous
 62
     7
370
    15
100
AcDbLine
 10
799.1712244205
 20
225.200390555
 30
0.0
 11
799.6712217085
 21
225.700390637
 31
0.0
  0
LINE
  5
5C
330
1F
100
AcDbEntity
  8
0
  6
Continuous
 62
     7
370
    15
100
AcDbLine
 10
784.6712211125
 20
228.9074618556
 30
0.0
 11
784.6712211125
 21
228.900390789
 31
0.0
  0
LINE
  5
5D
330
1F
100
AcDbEntity
  8
0
  6
Continuous
 62
     7
370
    15
100
AcDbLine
 10
797.6712213807
 20
228.900390789
 30
0.0
 11
797.6712213807
 21
228.9074618556
 31
0.0
  0
LINE
  5
5E
330
1F
100
AcDbEntity
  8
0
  6
Continuous
 62
     7
370
    15
100
AcDbLine
 10
799.6712217085
 20
752.2003982403
 30
0.0
 11
799.6712217085
 21
753.7004087307
 31
0.0
  0
LINE
  5
5F
330
1F
100
AcDbEntity
  8
0
  6
Continuous
 62
     7
370
    15
100
AcDbLine
 10
782.6712245099
 20
753.7004087307
 30
0.0
 11
782.6712245099
 21
752.2003982403
 31
0.0
  0
LINE
  5
60
330
1F
100
AcDbEntity
  8
0
  6
Continuous
 62
     7
370
    15
100
AcDbLine
 10
782.6712245099
 20
752.2003982403
 30
0.0
 11
782.9712221377
 21
751.9004080631
 31
0.0
  0
LINE
  5
61
330
1F
100
AcDbEntity
  8
0
  6
Continuous
 62
     7
370
    15
100
AcDbLine
 10
799.1712244205
 20
751.7003748753
 30
0.0
 11
799.6712217085
 21
752.2003982403
 31
0.0
  0
LINE
  5
62
330
1F
100
AcDbEntity
  8
0
  6
Continuous
 62
     7
370
    15
100
AcDbLine
 10
799.6712217085
 20
753.7004087307
 30
0.0
 11
799.1712244205
 21
754.2003724911
 31
0.0
  0
LINE
  5
63
330
1F
100
AcDbEntity
  8
0
  6
Continuous
 62
     7
370
    15
100
AcDbLine
 10
783.1712217979
 20
754.2003724911
 30
0.0
 11
782.6712245099
 21
753.7004087307
 31
0.0
  0
LINE
  5
64
330
1F
100
AcDbEntity
  8
0
  6
Continuous
 62
     7
370
    15
100
AcDbLine
 10
797.6712213807
 20
750.4933212139
 30
0.0
 11
797.6712213807
 21
750.5004141667
 31
0.0
  0
LINE
  5
65
330
1F
100
AcDbEntity
  8
0
  6
Continuous
 62
     7
370
    15
100
AcDbLine
 10
784.6712211125
 20
750.5004141667
 30
0.0
 11
784.6712211125
 21
750.4933212139
 31
0.0
  0
LINE
  5
66
330
1F
100
AcDbEntity
  8
0
  6
Continuous
 62
     7
370
    15
100
AcDbLine
 10
799.1712244205
 20
222.7003906109
 30
0.0
 11
799.1712244205
 21
225.200390555
 31
0.0
  0
LINE
  5
67
330
1F
100
AcDbEntity
  8
0
  6
Continuous
 62
     7
370
    15
100
AcDbLine
 10
795.0712220721
 20
222.2003905871
 30
0.0
 11
795.0712220721
 21
222.7003906109
 31
0.0
  0
LINE
  5
68
330
1F
100
AcDbEntity
  8
0
  6
Continuous
 62
     7
370
    15
100
AcDbLine
 10
787.2712241464
 20
222.7003906109
 30
0.0
 11
787.2712241464
 21
222.2003905871
 31
0.0
  0
LINE
  5
69
330
1F
100
AcDbEntity
  8
0
  6
Continuous
 62
     7
370
    15
100
AcDbLine
 10
786.1712241523
 20
755.2004192211
 30
0.0
 11
786.1712241523
 21
754.2003724911
 31
0.0
  0
LINE
  5
6A
330
1F
100
AcDbEntity
  8
0
  6
Continuous
 62
     7
370
    15
100
AcDbLine
 10
796.1712220662
 20
754.2003724911
 30
0.0
 11
796.1712220662
 21
755.2004192211
 31
0.0
  0
LINE
  5
6B
330
1F
100
AcDbEntity
  8
0
  6
Continuous
 62
     7
370
    15
100
AcDbLine
 10
787.2712241464
 20
758.2003805973
 30
0.0
 11
787.2712241464
 21
757.7004168369
 31
0.0
  0
LINE
  5
6C
330
1F
100
AcDbEntity
  8
0
  6
Continuous
 62
     7
370
    15
100
AcDbLine
 10
795.0712220721
 20
757.7004168369
 30
0.0
 11
795.0712220721
 21
758.2003805973
 31
0.0
  0
LINE
  5
6D
330
1F
100
AcDbEntity
  8
0
  6
Continuous
 62
     7
370
    15
100
AcDbLine
 10
799.1712244205
 20
755.2004192211
 30
0.0
 11
799.1712244205
 21
757.7004168369
 31
0.0
  0
LINE
  5
6E
330
1F
100
AcDbEntity
  8
0
  6
Continuous
 62
     7
370
    15
100
AcDbLine
 10
98.8707134478
 20
1092.8973887302
 30
0.0
 11
98.3712265246
 21
1092.397901807
 31
0.0
  0
LINE
  5
6F
330
1F
100
AcDbEntity
  8
0
  6
Continuous
 62
     7
370
    15
100
AcDbLine
 10
98.3712265246
 20
1073.4029147961
 30
0.0
 11
98.4731504671
 21
1073.3009908535
 31
0.0
  0
LINE
  5
70
330
1F
100
AcDbEntity
  8
0
  6
Continuous
 62
     7
370
    15
100
AcDbLine
 10
102.2692510836
 20
1073.3009908535
 30
0.0
 11
102.3712346308
 21
1073.4029147961
 31
0.0
  0
LINE
  5
71
330
1F
100
AcDbEntity
  8
0
  6
Continuous
 62
     7
370
    15
100
AcDbLine
 10
102.3712346308
 20
1092.397901807
 30
0.0
 11
101.8711516611
 21
1092.8979251721
 31
0.0
  0
ARC
  5
72
330
1F
100
AcDbEntity
  8
0
  6
Continuous
 62
     7
370
    15
100
AcDbCircle
 10
97.97122271
 20
1088.3003906109
 30
0.0
 40
0.3999999999999631
100
AcDbArc
 50
270.0
 51
0.0
  0
ARC
  5
73
330
1F
100
AcDbEntity
  8
0
  6
Continuous
 62
     7
370
    15
100
AcDbCircle
 10
97.97122271
 20
1077.5003906109
 30
0.0
 40
0.4000000000000909
100
AcDbArc
 50
0.0
 51
90.0
  0
ARC
  5
74
330
1F
100
AcDbEntity
  8
0
  6
Continuous
 62
     7
370
    15
100
AcDbCircle
 10
91.07122271
 20
1078.1003906109
 30
0.0
 40
0.2000000000000455
100
AcDbArc
 50
180.0
 51
270.0
  0
ARC
  5
75
330
1F
100
AcDbEntity
  8
0
  6
Continuous
 62
     7
370
    15
100
AcDbCircle
 10
91.07122271
 20
1087.7003906109
 30
0.0
 40
0.2000000000000455
100
AcDbArc
 50
90.0
 51
180.0
  0
LINE
  5
76
330
1F
100
AcDbEntity
  8
0
  6
Continuous
 62
     7
370
    15
100
AcDbLine
 10
97.9712197535
 20
1087.9003737309
 30
0.0
 11
91.0712072604
 21
1087.9003737309
 31
0.0
  0
LINE
  5
77
330
1F
100
AcDbEntity
  8
0
  6
Continuous
 62
     7
370
    15
100
AcDbLine
 10
91.0712072604
 20
1077.9003832676
 30
0.0
 11
97.9712197535
 21
1077.9003832676
 31
0.0
  0
LINE
  5
78
330
1F
100
AcDbEntity
  8
0
  6
Continuous
 62
     7
370
    15
100
AcDbLine
 10
787.504721617
 20
815.1063654759
 30
0.0
 11
795.7792172186
 21
822.0007155277
 31
0.0
  0
LINE
  5
79
330
1F
100
AcDbEntity
  8
0
  6
Continuous
 62
     7
370
    15
100
AcDbLine
 10
769.9132768415
 20
876.7592642643
 30
0.0
 11
767.418615704
 21
876.9250247814
 31
0.0
  0
LINE
  5
7A
330
1F
100
AcDbEntity
  8
0
  6
Continuous
 62
     7
370
    15
100
AcDbLine
 10
778.1652474754
 20
876.210961137
 30
0.0
 11
774.902112966
 21
876.4278028347
 31
0.0
  0
LINE
  5
7B
330
1F
100
AcDbEntity
  8
0
  6
Continuous
 62
     7
370
    15
100
AcDbLine
 10
795.7792172186
 20
822.0007155277
 30
0.0
 11
811.5404138319
 21
836.3060090878
 31
0.0
  0
LINE
  5
7C
330
1F
100
AcDbEntity
  8
0
  6
Continuous
 62
     7
370
    15
100
AcDbLine
 10
778.6622980587
 20
876.1567209103
 30
0.0
 11
778.1652474754
 21
876.210961137
 31
0.0
  0
ARC
  5
7D
330
1F
100
AcDbEntity
  8
0
  6
Continuous
 62
     7
370
    15
100
AcDbCircle
 10
810.8683319939
 20
837.0465144744
 30
0.0
 40
1.000000000000071
100
AcDbArc
 50
312.227745318
 51
18.0
  0
LINE
  5
7E
330
1F
100
AcDbEntity
  8
0
  6
Continuous
 62
     7
370
    15
100
AcDbLine
 10
777.7572238796
 20
838.6339280941
 30
0.0
 11
779.6701269202
 21
839.2187688686
 31
0.0
  0
LINE
  5
7F
330
1F
100
AcDbEntity
  8
0
  6
Continuous
 62
     7
370
    15
100
AcDbLine
 10
774.9056035631
 20
876.4375779965
 30
0.0
 11
769.9111571513
 21
876.7694566586
 31
0.0
  0
LINE
  5
80
330
1F
100
AcDbEntity
  8
0
  6
Continuous
 62
     7
370
    15
100
AcDbLine
 10
89.6712133639
 20
1086.9003866055
 30
0.0
 11
89.1712496035
 21
1086.9003866055
 31
0.0
  0
LINE
  5
81
330
1F
100
AcDbEntity
  8
0
  6
Continuous
 62
     7
370
    15
100
AcDbLine
 10
89.1712496035
 20
1078.900370393
 30
0.0
 11
89.6712133639
 21
1078.900370393
 31
0.0
  0
ARC
  5
82
330
1F
100
AcDbEntity
  8
0
  6
Continuous
 62
     7
370
    15
100
AcDbCircle
 10
719.6712227099
 20
54.7003906109
 30
0.0
 40
2.0
100
AcDbArc
 50
270.0
 51
0.0
  0
ARC
  5
83
330
1F
100
AcDbEntity
  8
0
  6
Continuous
 62
     7
370
    15
100
AcDbCircle
 10
666.6712227099
 20
54.7003906109
 30
0.0
 40
2.0
100
AcDbArc
 50
180.0
 51
270.0
  0
LINE
  5
84
330
1F
100
AcDbEntity
  8
0
  6
Continuous
 62
     7
370
    15
100
AcDbLine
 10
721.6712219618
 20
54.7003928759
 30
0.0
 11
721.6712219618
 21
58.7003860809
 31
0.0
  0
LINE
  5
85
330
1F
100
AcDbEntity
  8
0
  6
Continuous
 62
     7
370
    15
100
AcDbLine
 10
664.6712237947
 20
58.7003860809
 30
0.0
 11
664.6712237947
 21
54.7003928759
 31
0.0
  0
ARC
  5
86
330
1F
100
AcDbEntity
  8
0
  6
Continuous
 62
     7
370
    15
100
AcDbCircle
 10
134.6712227099
 20
54.7003906109
 30
0.0
 40
2.0
100
AcDbArc
 50
270.0
 51
0.0
  0
ARC
  5
87
330
1F
100
AcDbEntity
  8
0
  6
Continuous
 62
     7
370
    15
100
AcDbCircle
 10
81.6712227099
 20
54.7003906109
 30
0.0
 40
2.0
100
AcDbArc
 50
180.0
 51
270.0
  0
LINE
  5
88
330
1F
100
AcDbEntity
  8
0
  6
Continuous
 62
     7
370
    15
100
AcDbLine
 10
136.671204304
 20
54.7003928759
 30
0.0
 11
136.671204304
 21
58.7003860809
 31
0.0
  0
LINE
  5
89
330
1F
100
AcDbEntity
  8
0
  6
Continuous
 62
     7
370
    15
100
AcDbLine
 10
79.6712229006
 20
58.7003860809
 30
0.0
 11
79.6712229006
 21
54.7003928759
 31
0.0
  0
LINE
  5
8A
330
1F
100
AcDbEntity
  8
0
  6
Continuous
 62
     7
370
    15
100
AcDbLine
 10
136.4712307207
 20
58.7003860809
 30
0.0
 11
136.4712307207
 21
126.7003897764
 31
0.0
  0
LINE
  5
8B
330
1F
100
AcDbEntity
  8
0
  6
Continuous
 62
     7
370
    15
100
AcDbLine
 10
79.8711964838
 20
126.7003897764
 30
0.0
 11
79.8711964838
 21
58.7003860809
 31
0.0
  0
LINE
  5
8C
330
1F
100
AcDbEntity
  8
0
  6
Continuous
 62
     7
370
    15
100
AcDbLine
 10
721.4712223016
 20
58.7003860809
 30
0.0
 11
721.4712223016
 21
126.7003897764
 31
0.0
  0
LINE
  5
8D
330
1F
100
AcDbEntity
  8
0
  6
Continuous
 62
     7
370
    15
100
AcDbLine
 10
664.8712197297
 20
126.7003897764
 30
0.0
 11
664.8712197297
 21
58.7003860809
 31
0.0
  0
ARC
  5
8E
330
1F
100
AcDbEntity
  8
0
  6
Continuous
 62
     7
370
    15
100
AcDbCircle
 10
726.5712227099
 20
219.2003906109
 30
0.0
 40
1.499999999999943
100
AcDbArc
 50
90.0
 51
180.0
  0
ARC
  5
8F
330
1F
100
AcDbEntity
  8
0
  6
Continuous
 62
     7
370
    15
100
AcDbCircle
 10
659.7712227099
 20
219.2003906109
 30
0.0
 40
1.5
100
AcDbArc
 50
0.0
 51
90.0
  0
LINE
  5
90
330
1F
100
AcDbEntity
  8
0
  6
Continuous
 62
     7
370
    15
100
AcDbLine
 10
725.0712227054
 20
132.7329535224
 30
0.0
 11
725.0712227054
 21
219.2003905029
 31
0.0
  0
LINE
  5
91
330
1F
100
AcDbEntity
  8
0
  6
Continuous
 62
     7
370
    15
100
AcDbLine
 10
661.2712258451
 20
219.2003905029
 30
0.0
 11
661.2712258451
 21
132.7329535224
 31
0.0
  0
ARC
  5
92
330
1F
100
AcDbEntity
  8
0
  6
Continuous
 62
     7
370
    15
100
AcDbCircle
 10
720.3712227099
 20
132.7329565566
 30
0.0
 40
4.700000000000045
100
AcDbArc
 50
350.5402980318
 51
0.0
  0
ARC
  5
93
330
1F
100
AcDbEntity
  8
0
  6
Continuous
 62
     7
370
    15
100
AcDbCircle
 10
665.9712227099
 20
132.7329565566
 30
0.0
 40
4.700000000000113
100
AcDbArc
 50
180.0
 51
189.4597019682
  0
LINE
  5
94
330
1F
100
AcDbEntity
  8
0
  6
Continuous
 62
     7
370
    15
100
AcDbLine
 10
661.3351369254
 20
131.9604922273
 30
0.0
 11
662.2115710728
 21
126.7003897764
 31
0.0
  0
LINE
  5
95
330
1F
100
AcDbEntity
  8
0
  6
Continuous
 62
     7
370
    15
100
AcDbLine
 10
724.1308728211
 20
126.7003897764
 30
0.0
 11
725.0073097624
 21
131.9604922273
 31
0.0
  0
ARC
  5
96
330
1F
100
AcDbEntity
  8
0
  6
Continuous
 62
     7
370
    15
100
AcDbCircle
 10
141.5712227099
 20
219.2003906109
 30
0.0
 40
1.499999999999943
100
AcDbArc
 50
90.0
 51
180.0
  0
ARC
  5
97
330
1F
100
AcDbEntity
  8
0
  6
Continuous
 62
     7
370
    15
100
AcDbCircle
 10
74.7712227099
 20
219.2003906109
 30
0.0
 40
1.499999999999943
100
AcDbArc
 50
0.0
 51
90.0
  0
LINE
  5
98
330
1F
100
AcDbEntity
  8
0
  6
Continuous
 62
     7
370
    15
100
AcDbLine
 10
140.0712320559
 20
132.7329535224
 30
0.0
 11
140.0712320559
 21
219.2003905029
 31
0.0
  0
LINE
  5
99
330
1F
100
AcDbEntity
  8
0
  6
Continuous
 62
     7
370
    15
100
AcDbLine
 10
76.2711951487
 20
219.2003905029
 30
0.0
 11
76.2711951487
 21
132.7329535224
 31
0.0
  0
ARC
  5
9A
330
1F
100
AcDbEntity
  8
0
  6
Continuous
 62
     7
370
    15
100
AcDbCircle
 10
135.3712227099
 20
132.7329565566
 30
0.0
 40
4.700000000000045
100
AcDbArc
 50
350.5402980318
 51
0.0
  0
ARC
  5
9B
330
1F
100
AcDbEntity
  8
0
  6
Continuous
 62
     7
370
    15
100
AcDbCircle
 10
80.9712227099
 20
132.7329565566
 30
0.0
 40
4.700000000000045
100
AcDbArc
 50
180.0
 51
189.4597019682
  0
LINE
  5
9C
330
1F
100
AcDbEntity
  8
0
  6
Continuous
 62
     7
370
    15
100
AcDbLine
 10
76.3351509325
 20
131.9604922273
 30
0.0
 11
77.2115776293
 21
126.7003897764
 31
0.0
  0
LINE
  5
9D
330
1F
100
AcDbEntity
  8
0
  6
Continuous
 62
     7
370
    15
100
AcDbLine
 10
139.1308495753
 20
126.7003897764
 30
0.0
 11
140.0073358767
 21
131.9604922273
 31
0.0
  0
ARC
  5
9E
330
1F
100
AcDbEntity
  8
0
  6
Continuous
 62
     7
370
    15
100
AcDbCircle
 10
22.7212227099
 20
363.9503906109
 30
0.0
 40
0.2499999999999716
100
AcDbArc
 50
0.0
 51
43.4670535275
  0
SPLINE
  5
9F
330
1F
100
AcDbEntity
  8
0
  6
Continuous
 62
     7
370
    15
100
AcDbSpline
210
0.0
220
0.0
230
1.0
 70
     8
 71
     3
 72
    13
 73
     9
 74
     0
 42
0.00000001
 43
0.00000001
 40
0.0
 40
0.0
 40
0.0
 40
0.0
 40
0.0719371550021643
 40
0.2495516703701387
 40
0.440574206808767
 40
0.6643415046743443
 40
0.938139156406842
 40
1.0
 40
1.0
 40
1.0
 40
1.0
 10
23.22115394996433
 20
348.7198386528111
 30
0.0
 10
23.21054114531268
 20
348.7192190199777
 30
0.0
 10
23.17372507817689
 20
348.717069499211
 30
0.0
 10
23.11146292511263
 20
348.7382053764916
 30
0.0
 10
23.04363786054703
 20
348.7821594963538
 30
0.0
 10
22.99248025720119
 20
348.8514177596734
 30
0.0
 10
22.96919154732729
 20
348.9149389983627
 30
0.0
 10
22.97297769019829
 20
348.9532776898168
 30
0.0
 10
22.9736754648569
 20
348.9603433944798
 30
0.0
  0
LINE
  5
A0
330
1F
100
AcDbEntity
  8
0
  6
Continuous
 62
     7
370
    15
100
AcDbLine
 10
28.3212253802
 20
348.7171415426
 30
0.0
 11
23.2212135546
 21
348.7171415426
 31
0.0
  0
ARC
  5
A1
330
1F
100
AcDbEntity
  8
0
  6
Continuous
 62
     7
370
    15
100
AcDbCircle
 10
28.3212227099
 20
348.4671461161
 30
0.0
 40
0.25
100
AcDbArc
 50
0.0
 51
90.0
  0
ARC
  5
A2
330
1F
100
AcDbEntity
  8
0
  6
Continuous
 62
     7
370
    15
100
AcDbCircle
 10
28.3212227099
 20
345.5750181663
 30
0.0
 40
0.2500000000000817
100
AcDbArc
 50
270.0
 51
0.0
  0
LINE
  5
A3
330
1F
100
AcDbEntity
  8
0
  6
Continuous
 62
     7
370
    15
100
AcDbLine
 10
23.2212135546
 20
345.3250188567
 30
0.0
 11
28.3212253802
 21
345.3250188567
 31
0.0
  0
LINE
  5
A4
330
1F
100
AcDbEntity
  8
0
  6
Continuous
 62
     7
370
    15
100
AcDbLine
 10
28.3212253802
 20
365.6757656672
 30
0.0
 11
23.2212135546
 21
365.6757656672
 31
0.0
  0
ARC
  5
A5
330
1F
100
AcDbEntity
  8
0
  6
Continuous
 62
     7
370
    15
100
AcDbCircle
 10
28.3212227099
 20
365.4257630555
 30
0.0
 40
0.2499999999999751
100
AcDbArc
 50
0.0
 51
90.0
  0
LINE
  5
A6
330
1F
100
AcDbEntity
  8
0
  6
Continuous
 62
     7
370
    15
100
AcDbLine
 10
24.1712519877
 20
362.2836355307
 30
0.0
 11
28.3212253802
 21
362.2836355307
 31
0.0
  0
ARC
  5
A7
330
1F
100
AcDbEntity
  8
0
  6
Continuous
 62
     7
370
    15
100
AcDbCircle
 10
28.3212227099
 20
362.5336351057
 30
0.0
 40
0.2499999999999751
100
AcDbArc
 50
270.0
 51
0.0
  0
SPLINE
  5
A8
330
1F
100
AcDbEntity
  8
0
  6
Continuous
 62
     7
370
    15
100
AcDbSpline
210
0.0
220
0.0
230
1.0
 70
     8
 71
     3
 72
    13
 73
     9
 74
     0
 42
0.00000001
 43
0.00000001
 40
0.0
 40
0.0
 40
0.0
 40
0.0
 40
0.1123745501937352
 40
0.3879046635671855
 40
0.6266849246593009
 40
0.8262033401049106
 40
0.9943251441058283
 40
0.9999999999999999
 40
0.9999999999999999
 40
0.9999999999999999
 40
0.9999999999999999
 10
22.72124979423301
 20
355.0645444728947
 30
0.0
 10
22.73847990076444
 20
355.0648740225225
 30
0.0
 10
22.79795634508191
 20
355.0660115918146
 30
0.0
 10
22.89035010018742
 20
355.0559888939062
 30
0.0
 10
22.97572201089576
 20
355.0384903992942
 30
0.0
 10
23.0207081449833
 20
355.0239060671157
 30
0.0
 10
23.03604029762346
 20
355.014099213759
 30
0.0
 10
23.03227070707908
 20
355.0169177374817
 30
0.0
 10
23.03214762138156
 20
355.0170097686863
 30
0.0
  0
ARC
  5
A9
330
1F
100
AcDbEntity
  8
0
  6
Continuous
 62
     7
370
    15
100
AcDbCircle
 10
17.6212227099
 20
355.3159633067
 30
0.0
 40
0.2499999999999716
100
AcDbArc
 50
180.0
 51
270.0
  0
LINE
  5
AA
330
1F
100
AcDbEntity
  8
0
  6
Continuous
 62
     7
370
    15
100
AcDbLine
 10
17.6212379687
 20
355.0659600832
 30
0.0
 11
22.7212497942
 21
355.0659600832
 31
0.0
  0
ARC
  5
AB
330
1F
100
AcDbEntity
  8
0
  6
Continuous
 62
     7
370
    15
100
AcDbCircle
 10
17.6212227099
 20
361.2543778562
 30
0.0
 40
0.25
100
AcDbArc
 50
90.0
 51
180.0
  0
LINE
  5
AC
330
1F
100
AcDbEntity
  8
0
  6
Continuous
 62
     7
370
    15
100
AcDbLine
 10
22.7212497942
 20
361.504379306
 30
0.0
 11
17.6212379687
 21
361.504379306
 31
0.0
  0
ARC
  5
AD
330
1F
100
AcDbEntity
  8
0
  6
Continuous
 62
     7
370
    15
100
AcDbCircle
 10
23.9212227099
 20
363.9503906109
 30
0.0
 40
0.2500000000000568
100
AcDbArc
 50
0.0
 51
90.0
  0
ARC
  5
AE
330
1F
100
AcDbEntity
  8
0
  6
Continuous
 62
     7
370
    15
100
AcDbCircle
 10
23.2212227099
 20
363.9503906109
 30
0.0
 40
0.25
100
AcDbArc
 50
90.0
 51
180.0
  0
LINE
  5
AF
330
1F
100
AcDbEntity
  8
0
  6
Continuous
 62
     7
370
    15
100
AcDbLine
 10
23.9212105029
 20
364.2003867962
 30
0.0
 11
23.2212135546
 21
364.2003867962
 31
0.0
  0
LINE
  5
B0
330
1F
100
AcDbEntity
  8
0
  6
Continuous
 62
     7
370
    15
100
AcDbLine
 10
17.6212379687
 20
349.4963977673
 30
0.0
 11
21.7712113612
 21
349.4963977673
 31
0.0
  0
ARC
  5
B1
330
1F
100
AcDbEntity
  8
0
  6
Continuous
 62
     7
370
    15
100
AcDbCircle
 10
17.6212227099
 20
349.7464033655
 30
0.0
 40
0.2499999999999716
100
AcDbArc
 50
180.0
 51
270.0
  0
LINE
  5
B2
330
1F
100
AcDbEntity
  8
0
  6
Continuous
 62
     7
370
    15
100
AcDbLine
 10
24.3759939425
 20
360.8550314047
 30
0.0
 11
24.1712519877
 21
360.5003837683
 31
0.0
  0
LINE
  5
B3
330
1F
100
AcDbEntity
  8
0
  6
Continuous
 62
     7
370
    15
100
AcDbLine
 10
29.3712208025
 20
360.5003837683
 30
0.0
 11
29.1664788477
 21
360.8550314047
 31
0.0
  0
LINE
  5
B4
330
1F
100
AcDbEntity
  8
0
  6
Continuous
 62
     7
370
    15
100
AcDbLine
 10
24.1712519877
 20
350.500393305
 30
0.0
 11
24.3759939425
 21
350.1457456686
 31
0.0
  0
LINE
  5
B5
330
1F
100
AcDbEntity
  8
0
  6
Continuous
 62
     7
370
    15
100
AcDbLine
 10
29.1664788477
 20
350.1457456686
 30
0.0
 11
29.3712208025
 21
350.500393305
 31
0.0
  0
LINE
  5
B6
330
1F
100
AcDbEntity
  8
0
  6
Continuous
 62
     7
370
    15
100
AcDbLine
 10
29.6212026827
 20
350.500393305
 30
0.0
 11
29.6824762576
 21
350.394267235
 31
0.0
  0
LINE
  5
B7
330
1F
100
AcDbEntity
  8
0
  6
Continuous
 62
     7
370
    15
100
AcDbLine
 10
29.6824762576
 20
360.6065247395
 30
0.0
 11
29.6212026827
 21
360.5003837683
 31
0.0
  0
LINE
  5
B8
330
1F
100
AcDbEntity
  8
0
  6
Continuous
 62
     7
370
    15
100
AcDbLine
 10
29.6212026827
 20
358.5003946163
 30
0.0
 11
29.3712208025
 21
358.5003946163
 31
0.0
  0
LINE
  5
B9
330
1F
100
AcDbEntity
  8
0
  6
Continuous
 62
     7
370
    15
100
AcDbLine
 10
29.3712208025
 20
352.5003973581
 30
0.0
 11
29.6212026827
 21
352.5003973581
 31
0.0
  0
LINE
  5
BA
330
1F
100
AcDbEntity
  8
0
  6
Continuous
 62
     7
370
    15
100
AcDbLine
 10
742.1712227609
 20
523.5003862717
 30
0.0
 11
743.8712228999
 21
523.5003862717
 31
0.0
  0
LINE
  5
BB
330
1F
100
AcDbEntity
  8
0
  6
Continuous
 62
     7
370
    15
100
AcDbLine
 10
742.1712227609
 20
522.2003791668
 30
0.0
 11
743.8712228999
 21
522.2003791668
 31
0.0
  0
LINE
  5
BC
330
1F
100
AcDbEntity
  8
0
  6
Continuous
 62
     7
370
    15
100
AcDbLine
 10
749.3712224044
 20
424.5003942587
 30
0.0
 11
743.487717535
 21
424.5003942587
 31
0.0
  0
LINE
  5
BD
330
1F
100
AcDbEntity
  8
0
  6
Continuous
 62
     7
370
    15
100
AcDbLine
 10
749.3712224044
 20
416.5003929474
 30
0.0
 11
743.487717535
 21
416.5003929474
 31
0.0
  0
LINE
  5
BE
330
1F
100
AcDbEntity
  8
0
  6
Continuous
 62
     7
370
    15
100
AcDbLine
 10
743.487717535
 20
424.5003942587
 30
0.0
 11
742.1712227609
 21
424.5003942587
 31
0.0
  0
LINE
  5
BF
330
1F
100
AcDbEntity
  8
0
  6
Continuous
 62
     7
370
    15
100
AcDbLine
 10
743.487717535
 20
416.5003929474
 30
0.0
 11
742.1712227609
 21
416.5003929474
 31
0.0
  0
LINE
  5
C0
330
1F
100
AcDbEntity
  8
0
  6
Continuous
 62
     7
370
    15
100
AcDbLine
 10
749.3712224044
 20
514.5003829338
 30
0.0
 11
743.487717535
 21
514.5003829338
 31
0.0
  0
LINE
  5
C1
330
1F
100
AcDbEntity
  8
0
  6
Continuous
 62
     7
370
    15
100
AcDbLine
 10
749.3712224044
 20
506.5003965237
 30
0.0
 11
743.487717535
 21
506.5003965237
 31
0.0
  0
LINE
  5
C2
330
1F
100
AcDbEntity
  8
0
  6
Continuous
 62
     7
370
    15
100
AcDbLine
 10
743.487717535
 20
514.5003829338
 30
0.0
 11
742.1712227609
 21
514.5003829338
 31
0.0
  0
LINE
  5
C3
330
1F
100
AcDbEntity
  8
0
  6
Continuous
 62
     7
370
    15
100
AcDbLine
 10
743.487717535
 20
506.5003965237
 30
0.0
 11
742.1712227609
 21
506.5003965237
 31
0.0
  0
LINE
  5
C4
330
1F
100
AcDbEntity
  8
0
  6
Continuous
 62
     7
370
    15
100
AcDbLine
 10
742.1712227609
 20
524.5004031994
 30
0.0
 11
749.3712224044
 21
524.5004031994
 31
0.0
  0
LINE
  5
C5
330
1F
100
AcDbEntity
  8
0
  6
Continuous
 62
     7
370
    15
100
AcDbLine
 10
742.1712227609
 20
554.5004043915
 30
0.0
 11
749.3712224044
 21
554.5004043915
 31
0.0
  0
LINE
  5
C6
330
1F
100
AcDbEntity
  8
0
  6
Continuous
 62
     7
370
    15
100
AcDbLine
 10
746.371222844
 20
522.2503874638
 30
0.0
 11
742.1712227609
 21
522.2503874638
 31
0.0
  0
LINE
  5
C7
330
1F
100
AcDbEntity
  8
0
  6
Continuous
 62
     7
370
    15
100
AcDbLine
 10
746.371222844
 20
523.4503779747
 30
0.0
 11
742.1712227609
 21
523.4503779747
 31
0.0
  0
ARC
  5
C8
330
1F
100
AcDbEntity
  8
0
  6
Continuous
 62
     7
370
    15
100
AcDbCircle
 10
743.1712227099
 20
766.9503906109
 30
0.0
 40
1.0
100
AcDbArc
 50
180.0
 51
270.0
  0
LINE
  5
C9
330
1F
100
AcDbEntity
  8
0
  6
Continuous
 62
     7
370
    15
100
AcDbLine
 10
742.1712227609
 20
766.950402055
 30
0.0
 11
742.1712227609
 21
885.6380913593
 31
0.0
  0
ARC
  5
CA
330
1F
100
AcDbEntity
  8
0
  6
Continuous
 62
     7
370
    15
100
AcDbCircle
 10
743.1712227099
 20
885.638065138
 30
0.0
 40
0.9999999999998863
100
AcDbArc
 50
90.0
 51
180.0
  0
ARC
  5
CB
330
1F
100
AcDbEntity
  8
0
  6
Continuous
 62
     7
370
    15
100
AcDbCircle
 10
808.5311052799
 20
787.6248150941
 30
0.0
 40
10.80000000000006
100
AcDbArc
 50
320.0
 51
70.0
  0
ARC
  5
CC
330
1F
100
AcDbEntity
  8
0
  6
Continuous
 62
     7
370
    15
100
AcDbCircle
 10
808.5311052799
 20
787.6248150941
 30
0.0
 40
10.00000000000002
100
AcDbArc
 50
320.0
 51
70.0
  0
LINE
  5
CD
330
1F
100
AcDbEntity
  8
0
  6
Continuous
 62
     7
370
    15
100
AcDbLine
 10
803.7728482835
 20
766.3969133236
 30
0.0
 11
816.1915505283
 21
781.1969254353
 31
0.0
  0
LINE
  5
CE
330
1F
100
AcDbEntity
  8
0
  6
Continuous
 62
     7
370
    15
100
AcDbLine
 10
804.3856808894
 20
765.8827040531
 30
0.0
 11
816.8043831341
 21
780.6827161648
 31
0.0
  0
ARC
  5
CF
330
1F
100
AcDbEntity
  8
0
  6
Continuous
 62
     7
370
    15
100
AcDbCircle
 10
802.8152920107
 20
767.2003906109
 30
0.0
 40
1.25
100
AcDbArc
 50
270.0
 51
320.0
  0
ARC
  5
D0
330
1F
100
AcDbEntity
  8
0
  6
Continuous
 62
     7
370
    15
100
AcDbCircle
 10
802.8152920107
 20
767.2003906109
 30
0.0
 40
2.050000000000053
100
AcDbArc
 50
270.0
 51
320.0
  0
LINE
  5
D1
330
1F
100
AcDbEntity
  8
0
  6
Continuous
 62
     7
370
    15
100
AcDbLine
 10
742.1712227609
 20
765.9504149296
 30
0.0
 11
742.1712227609
 21
765.1504013874
 31
0.0
  0
LINE
  5
D2
330
1F
100
AcDbEntity
  8
0
  6
Continuous
 62
     7
370
    15
100
AcDbLine
 10
742.1712227609
 20
765.1504013874
 30
0.0
 11
802.8152922146
 21
765.1504013874
 31
0.0
  0
LINE
  5
D3
330
1F
100
AcDbEntity
  8
0
  6
Continuous
 62
     7
370
    15
100
AcDbLine
 10
742.1712227609
 20
765.9504149296
 30
0.0
 11
802.8152922146
 21
765.9504149296
 31
0.0
  0
LINE
  5
D4
330
1F
100
AcDbEntity
  8
0
  6
Continuous
 62
     7
370
    15
100
AcDbLine
 10
812.2249210231
 20
797.7735135891
 30
0.0
 11
792.774528449
 21
804.8528764584
 31
0.0
  0
LINE
  5
D5
330
1F
100
AcDbEntity
  8
0
  6
Continuous
 62
     7
370
    15
100
AcDbLine
 10
811.9513059013
 20
797.0217202046
 30
0.0
 11
792.5009133272
 21
804.1010830738
 31
0.0
  0
LINE
  5
D6
330
1F
100
AcDbEntity
  8
0
  6
Continuous
 62
     7
370
    15
100
AcDbLine
 10
786.6841668241
 20
811.1596439221
 30
0.0
 11
762.3600495957
 21
886.0215280392
 31
0.0
  0
LINE
  5
D7
330
1F
100
AcDbEntity
  8
0
  6
Continuous
 62
     7
370
    15
100
AcDbLine
 10
785.9233209841
 20
810.9124038555
 30
0.0
 11
761.5992037557
 21
885.7743475773
 31
0.0
  0
ARC
  5
D8
330
1F
100
AcDbEntity
  8
0
  6
Continuous
 62
     7
370
    15
100
AcDbCircle
 10
796.1947315006
 20
814.249785616
 30
0.0
 40
10.80000000000006
100
AcDbArc
 50
198.0
 51
250.0
  0
ARC
  5
D9
330
1F
100
AcDbEntity
  8
0
  6
Continuous
 62
     7
370
    15
100
AcDbCircle
 10
796.1947315006
 20
814.249785616
 30
0.0
 40
10.00000000000007
100
AcDbArc
 50
198.0
 51
250.0
  0
ARC
  5
DA
330
1F
100
AcDbEntity
  8
0
  6
Continuous
 62
     7
370
    15
100
AcDbCircle
 10
760.4103835257
 20
885.388065138
 30
0.0
 40
1.249999999999886
100
AcDbArc
 50
18.0
 51
90.0
  0
ARC
  5
DB
330
1F
100
AcDbEntity
  8
0
  6
Continuous
 62
     7
370
    15
100
AcDbCircle
 10
760.4103835257
 20
885.388065138
 30
0.0
 40
2.049999999999984
100
AcDbArc
 50
18.0
 51
90.0
  0
LINE
  5
DC
330
1F
100
AcDbEntity
  8
0
  6
Continuous
 62
     7
370
    15
100
AcDbLine
 10
742.1712227609
 20
886.6380784847
 30
0.0
 11
760.4103835277
 21
886.6380784847
 31
0.0
  0
LINE
  5
DD
330
1F
100
AcDbEntity
  8
0
  6
Continuous
 62
     7
370
    15
100
AcDbLine
 10
742.1712227609
 20
887.4380920269
 30
0.0
 11
742.1712227609
 21
886.6380784847
 31
0.0
  0
LINE
  5
DE
330
1F
100
AcDbEntity
  8
0
  6
Continuous
 62
     7
370
    15
100
AcDbLine
 10
742.1712227609
 20
887.4380920269
 30
0.0
 11
760.4103835277
 21
887.4380920269
 31
0.0
  0
LINE
  5
DF
330
1F
100
AcDbEntity
  8
0
  6
Continuous
 62
     7
370
    15
100
AcDbLine
 10
762.6440806292
 20
888.7696597912
 30
0.0
 11
762.9377340876
 21
888.9003727772
 31
0.0
  0
LINE
  5
E0
330
1F
100
AcDbEntity
  8
0
  6
Continuous
 62
     7
370
    15
100
AcDbLine
 10
762.4661607646
 20
889.5661566593
 30
0.0
 11
762.7161612712
 21
889.6774385311
 31
0.0
  0
LINE
  5
E1
330
1F
100
AcDbEntity
  8
0
  6
Continuous
 62
     7
370
    15
100
AcDbLine
 10
761.9636824332
 20
887.2414563038
 30
0.0
 11
762.3600495957
 21
886.0215280392
 31
0.0
  0
LWPOLYLINE
  5
E2
330
1F
100
AcDbEntity
  8
0
  6
Continuous
 62
     7
370
    15
100
AcDbPolyline
 90
        3
 70
   128
 43
0.0
 10
761.1037904374
 20
887.7004120686
 10
761.1200401537
 20
887.3601291515
 10
761.1275019102
 20
887.3085711338
  0
LINE
  5
E3
330
1F
100
AcDbEntity
  8
0
  6
Continuous
 62
     7
370
    15
100
AcDbLine
 10
762.6440806292
 20
888.7696597912
 30
0.0
 11
762.4661607646
 21
888.6724446156
 31
0.0
  0
ARC
  5
E4
330
1F
100
AcDbEntity
  8
0
  6
Continuous
 62
     7
370
    15
100
AcDbCircle
 10
763.152502242
 20
887.6277158339
 30
0.0
 40
1.250000000000175
100
AcDbArc
 50
176.6669540513
 51
198.0
  0
LINE
  5
E5
330
1F
100
AcDbEntity
  8
0
  6
Continuous
 62
     7
370
    15
100
AcDbLine
 10
742.771222673
 20
487.6774583199
 30
0.0
 11
742.771222673
 21
479.7003898956
 31
0.0
  0
LINE
  5
E6
330
1F
100
AcDbEntity
  8
0
  6
Continuous
 62
     7
370
    15
100
AcDbLine
 10
742.771222673
 20
499.7004006245
 30
0.0
 11
742.771222673
 21
487.6774583199
 31
0.0
  0
SPLINE
  5
E7
330
1F
100
AcDbEntity
  8
0
  6
Continuous
 62
     7
370
    15
100
AcDbSpline
210
0.0
220
0.0
230
1.0
 70
     8
 71
     3
 72
    11
 73
     7
 74
     0
 42
0.00000001
 43
0.00000001
 40
0.0
 40
0.0
 40
0.0
 40
0.0
 40
0.271640813808521
 40
0.5432817321595397
 40
0.8149221166568903
 40
0.9999999999999999
 40
0.9999999999999999
 40
0.9999999999999999
 40
0.9999999999999999
 10
749.3712224044086
 20
747.6504180767155
 30
0.0
 10
749.4019393669097
 20
747.7539909779288
 30
0.0
 10
749.4633733037332
 20
747.9611368202158
 30
0.0
 10
749.9388996864838
 20
748.2718572574721
 30
0.0
 10
750.5395604282683
 20
748.5495649623534
 30
0.0
 10
750.9890674375639
 20
748.7237180281327
 30
0.0
 10
751.1712230719806
 20
748.7942908146
 30
0.0
  0
LINE
  5
E8
330
1F
100
AcDbEntity
  8
0
  6
Continuous
 62
     7
370
    15
100
AcDbLine
 10
749.3712224044
 20
231.7503910699
 30
0.0
 11
749.3712224044
 21
747.6504180767
 31
0.0
  0
SPLINE
  5
E9
330
1F
100
AcDbEntity
  8
0
  6
Continuous
 62
     7
370
    15
100
AcDbSpline
210
0.0
220
0.0
230
1.0
 70
     8
 71
     3
 72
    12
 73
     8
 74
     0
 42
0.00000001
 43
0.00000001
 40
0.0
 40
0.0
 40
0.0
 40
0.0
 40
0.1638373137957957
 40
0.4139309898795437
 40
0.6640226742598305
 40
0.9141154676411676
 40
0.9999999999999999
 40
0.9999999999999999
 40
0.9999999999999999
 40
0.9999999999999999
 10
751.1712230719806
 20
230.606094580195
 30
0.0
 10
751.0099806703554
 20
230.6686081548603
 30
0.0
 10
750.6026056629834
 20
230.8265471813411
 30
0.0
 10
750.0347383084486
 20
231.079955539114
 30
0.0
 10
749.5695550447111
 20
231.3660736652682
 30
0.0
 10
749.3870338941815
 20
231.5901867383321
 30
0.0
 10
749.3744413785327
 20
231.7177759522948
 30
0.0
 10
749.3712224044086
 20
231.750391069851
 30
0.0
  0
SPLINE
  5
EA
330
1F
100
AcDbEntity
  8
0
  6
Continuous
 62
     7
370
    15
100
AcDbSpline
210
0.0
220
0.0
230
1.0
 70
     8
 71
     3
 72
     9
 73
     5
 74
     0
 42
0.00000001
 43
0.00000001
 40
0.0
 40
0.0
 40
0.0
 40
0.0
 40
0.3495442091300464
 40
1.0
 40
1.0
 40
1.0
 40
1.0
 10
751.1712230719806
 20
748.8497827388859
 30
0.0
 10
751.0903173242554
 20
748.8389847945353
 30
0.0
 10
750.8588566231132
 20
748.8080932962114
 30
0.0
 10
750.6806438931701
 20
748.6510850316215
 30
0.0
 10
750.5647243909718
 20
748.5489580967046
 30
0.0
  0
SPLINE
  5
EB
330
1F
100
AcDbEntity
  8
0
  6
Continuous
 62
     7
370
    15
100
AcDbSpline
210
0.0
220
0.0
230
1.0
 70
     8
 71
     3
 72
    12
 73
     8
 74
     0
 42
0.00000001
 43
0.00000001
 40
0.0
 40
0.0
 40
0.0
 40
0.0
 40
0.1638385070252961
 40
0.4139314683405134
 40
0.6640280498688627
 40
0.9141222891009685
 40
1.0
 40
1.0
 40
1.0
 40
1.0
 10
751.1712230719806
 20
749.6546838619328
 30
0.0
 10
751.0099811097301
 20
749.6352661543682
 30
0.0
 10
750.6026097084382
 20
749.5862080888992
 30
0.0
 10
750.0347296514942
 20
749.2141401530233
 30
0.0
 10
749.5695593702769
 20
748.6303257590183
 30
0.0
 10
749.3870362024861
 20
748.0653190341565
 30
0.0
 10
749.3744416858376
 20
747.7348812107807
 30
0.0
 10
749.3712224044086
 20
747.6504180767155
 30
0.0
  0
SPLINE
  5
EC
330
1F
100
AcDbEntity
  8
0
  6
Continuous
 62
     7
370
    15
100
AcDbSpline
210
0.0
220
0.0
230
1.0
 70
     8
 71
     3
 72
     9
 73
     5
 74
     0
 42
0.00000001
 43
0.00000001
 40
0.0
 40
0.0
 40
0.0
 40
0.0
 40
0.6742733450356739
 40
1.0
 40
1.0
 40
1.0
 40
1.0
 10
750.5421230547311
 20
230.8633109741426
 30
0.0
 10
750.6676177730127
 20
230.7545292184912
 30
0.0
 10
750.8537362355107
 20
230.5931973840767
 30
0.0
 10
751.0932176061849
 20
230.5607027399167
 30
0.0
 10
751.1712230719806
 20
230.5501183681703
 30
0.0
  0
SPLINE
  5
ED
330
1F
100
AcDbEntity
  8
0
  6
Continuous
 62
     7
370
    15
100
AcDbSpline
210
0.0
220
0.0
230
1.0
 70
     8
 71
     3
 72
    11
 73
     7
 74
     0
 42
0.00000001
 43
0.00000001
 40
0.0
 40
0.0
 40
0.0
 40
0.0
 40
0.2716411236240105
 40
0.5432821232934762
 40
0.8149231229629419
 40
1.0
 40
1.0
 40
1.0
 40
1.0
 10
749.3712224044086
 20
231.750391069851
 30
0.0
 10
749.4019392511357
 20
231.4814739982555
 30
0.0
 10
749.4633729305729
 20
230.9436399777761
 30
0.0
 10
749.9389009335399
 20
230.2703876258252
 30
0.0
 10
750.5395574461457
 20
229.8318595328994
 30
0.0
 10
750.9890671713921
 20
229.7736906936321
 30
0.0
 10
751.1712230719806
 20
229.7501187958336
 30
0.0
  0
LINE
  5
EE
330
1F
100
AcDbEntity
  8
0
  6
Continuous
 62
     7
370
    15
100
AcDbLine
 10
782.6712245099
 20
227.2003904172
 30
0.0
 11
799.6712217085
 21
227.2003904172
 31
0.0
  0
LINE
  5
EF
330
1F
100
AcDbEntity
  8
0
  6
Continuous
 62
     7
370
    15
100
AcDbLine
 10
798.7212242536
 20
227.7003904991
 30
0.0
 11
799.1712244205
 21
227.7003904991
 31
0.0
  0
LWPOLYLINE
  5
F0
330
1F
100
AcDbEntity
  8
0
  6
Continuous
 62
     7
370
    15
100
AcDbPolyline
 90
        3
 70
   128
 43
0.0
 10
797.7570930474
 20
227.7003904991
 10
797.9169564299
 20
227.5094940514
 10
797.9245783739
 20
227.5003908389
  0
LINE
  5
F1
330
1F
100
AcDbEntity
  8
0
  6
Continuous
 62
     7
370
    15
100
AcDbLine
 10
798.1433572225
 20
227.5003908389
 30
0.0
 11
797.9245783739
 21
227.5003908389
 31
0.0
  0
SPLINE
  5
F2
330
1F
100
AcDbEntity
  8
0
  6
Continuous
 62
     7
370
    15
100
AcDbSpline
210
0.0
220
0.0
230
1.0
 70
     8
 71
     3
 72
     9
 73
     5
 74
     0
 42
0.00000001
 43
0.00000001
 40
0.0
 40
0.0
 40
0.0
 40
0.0
 40
0.0455165463545878
 40
1.0
 40
1.0
 40
1.0
 40
1.0
 10
798.1433572225453
 20
227.500390838883
 30
0.0
 10
798.1408153143943
 20
227.5034252424053
 30
0.0
 10
798.0849695098527
 20
227.5700911862297
 30
0.0
 10
798.0291503553685
 20
227.6367580657389
 30
0.0
 10
797.9758718960168
 20
227.7003904991365
 30
0.0
  0
LINE
  5
F3
330
1F
100
AcDbEntity
  8
0
  6
Continuous
 62
     7
370
    15
100
AcDbLine
 10
782.6712245099
 20
225.700390637
 30
0.0
 11
799.6712217085
 21
225.700390637
 31
0.0
  0
LINE
  5
F4
330
1F
100
AcDbEntity
  8
0
  6
Continuous
 62
     7
370
    15
100
AcDbLine
 10
791.1712231092
 20
225.200390555
 30
0.0
 11
799.1712244205
 21
225.200390555
 31
0.0
  0
LINE
  5
F5
330
1F
100
AcDbEntity
  8
0
  6
Continuous
 62
     7
370
    15
100
AcDbLine
 10
797.975871896
 20
227.5003908389
 30
0.0
 11
797.975871896
 21
227.7003904991
 31
0.0
  0
LINE
  5
F6
330
1F
100
AcDbEntity
  8
0
  6
Continuous
 62
     7
370
    15
100
AcDbLine
 10
799.6712217085
 20
752.2003982403
 30
0.0
 11
782.6712245099
 21
752.2003982403
 31
0.0
  0
LINE
  5
F7
330
1F
100
AcDbEntity
  8
0
  6
Continuous
 62
     7
370
    15
100
AcDbLine
 10
799.6712217085
 20
753.7004087307
 30
0.0
 11
782.6712245099
 21
753.7004087307
 31
0.0
  0
LINE
  5
F8
330
1F
100
AcDbEntity
  8
0
  6
Continuous
 62
     7
370
    15
100
AcDbLine
 10
799.1712244205
 20
751.7003748753
 30
0.0
 11
798.7212242536
 21
751.7003748753
 31
0.0
  0
SPLINE
  5
F9
330
1F
100
AcDbEntity
  8
0
  6
Continuous
 62
     7
370
    15
100
AcDbSpline
210
0.0
220
0.0
230
1.0
 70
     8
 71
     3
 72
     9
 73
     5
 74
     0
 42
0.00000001
 43
0.00000001
 40
0.0
 40
0.0
 40
0.0
 40
0.0
 40
0.9544502133730254
 40
1.0
 40
1.0
 40
1.0
 40
1.0
 10
783.1737214677216
 20
751.700374875269
 30
0.0
 10
783.1100418119275
 20
751.7639846836399
 30
0.0
 10
783.0433231346179
 20
751.8306301801567
 30
0.0
 10
782.9766970086453
 20
751.8973681622891
 30
0.0
 10
782.9736622028233
 20
751.9004080631352
 30
0.0
  0
LINE
  5
FA
330
1F
100
AcDbEntity
  8
0
  6
Continuous
 62
     7
370
    15
100
AcDbLine
 10
782.9712221377
 20
751.9004080631
 30
0.0
 11
782.9736622028
 21
751.9004080631
 31
0.0
  0
LINE
  5
FB
330
1F
100
AcDbEntity
  8
0
  6
Continuous
 62
     7
370
    15
100
AcDbLine
 10
799.1712244205
 20
754.2003724911
 30
0.0
 11
783.1712217979
 21
754.2003724911
 31
0.0
  0
LINE
  5
FC
330
1F
100
AcDbEntity
  8
0
  6
Continuous
 62
     7
370
    15
100
AcDbLine
 10
801.1712210231
 20
257.7003907599
 30
0.0
 11
802.7712220304
 21
257.7003907599
 31
0.0
  0
SPLINE
  5
FD
330
1F
100
AcDbEntity
  8
0
  6
Continuous
 62
     7
370
    15
100
AcDbSpline
210
0.0
220
0.0
230
1.0
 70
    24
 71
     3
 72
    11
 73
     7
 74
     0
 42
0.00000001
 43
0.00000001
 40
0.0
 40
0.0
 40
0.0
 40
0.0
 40
0.2832754846827545
 40
0.5580018640345835
 40
0.7754014630044451
 40
1.0
 40
1.0
 40
1.0
 40
1.0
 10
802.7712220303895
 20
257.7003907599068
 30
0.0
 10
802.7712220303895
 20
257.7386740827964
 30
0.0
 10
802.7712220303895
 20
257.8140853580001
 30
0.0
 10
802.7712220303895
 20
258.3470249700106
 30
0.0
 10
802.7712220303895
 20
258.9974494095981
 30
0.0
 10
802.7712220303895
 20
259.4595574745849
 30
0.0
 10
802.7712220303895
 20
259.6943747439003
 30
0.0
  0
LINE
  5
FE
330
1F
100
AcDbEntity
  8
0
  6
Continuous
 62
     7
370
    15
100
AcDbLine
 10
802.7712220304
 20
259.6943747439
 30
0.0
 11
802.7712220304
 21
315.706010554
 31
0.0
  0
LINE
  5
FF
330
1F
100
AcDbEntity
  8
0
  6
Continuous
 62
     7
370
    15
100
AcDbLine
 10
801.1712210231
 20
317.7003894188
 30
0.0
 11
802.7712220304
 21
317.7003894188
 31
0.0
  0
SPLINE
  5
100
330
1F
100
AcDbEntity
  8
0
  6
Continuous
 62
     7
370
    15
100
AcDbSpline
210
0.0
220
0.0
230
1.0
 70
    24
 71
     3
 72
    11
 73
     7
 74
     0
 42
0.00000001
 43
0.00000001
 40
0.0
 40
0.0
 40
0.0
 40
0.0
 40
0.2833540875120776
 40
0.5581124476116066
 40
0.7754838273509587
 40
1.0
 40
1.0
 40
1.0
 40
1.0
 10
802.7712220303895
 20
315.7060105540371
 30
0.0
 10
802.7712220303895
 20
316.0030590309723
 30
0.0
 10
802.7712220303895
 20
316.5881448293711
 30
0.0
 10
802.7712220303895
 20
317.2362580458596
 30
0.0
 10
802.7712220303895
 20
317.6301601313882
 30
0.0
 10
802.7712220303895
 20
317.6767286704816
 30
0.0
 10
802.7712220303895
 20
317.7003894188023
 30
0.0
  0
LINE
  5
101
330
1F
100
AcDbEntity
  8
0
  6
Continuous
 62
     7
370
    15
100
AcDbLine
 10
804.1712233775
 20
315.162676964
 30
0.0
 11
804.1712233775
 21
260.23810694
 31
0.0
  0
SPLINE
  5
102
330
1F
100
AcDbEntity
  8
0
  6
Continuous
 62
     7
370
    15
100
AcDbSpline
210
0.0
220
0.0
230
1.0
 70
     8
 71
     3
 72
    11
 73
     7
 74
     0
 42
0.00000001
 43
0.00000001
 40
0.0
 40
0.0
 40
0.0
 40
0.0
 40
0.2514199975896815
 40
0.5021379387291879
 40
0.7628000571211614
 40
1.0
 40
1.0
 40
1.0
 40
1.0
 10
804.1712233774545
 20
260.2381069399929
 30
0.0
 10
804.1529120459816
 20
259.985962705856
 30
0.0
 10
804.1163405149605
 20
259.4823783163651
 30
0.0
 10
803.8190753244799
 20
258.7666664383988
 30
0.0
 10
803.3754588956281
 20
258.1432967489712
 30
0.0
 10
802.9662055135663
 20
257.8433137714537
 30
0.0
 10
802.7712220303895
 20
257.7003907599068
 30
0.0
  0
SPLINE
  5
103
330
1F
100
AcDbEntity
  8
0
  6
Continuous
 62
     7
370
    15
100
AcDbSpline
210
0.0
220
0.0
230
1.0
 70
    24
 71
     3
 72
    13
 73
     9
 74
     0
 42
0.00000001
 43
0.00000001
 40
0.0
 40
0.0
 40
0.0
 40
0.0
 40
0.1275880527763108
 40
0.2546766603141536
 40
0.5000487830690414
 40
0.7453998956061672
 40
0.872541646895024
 40
1.0
 40
1.0
 40
1.0
 40
1.0
 10
802.7712220303895
 20
259.6943747439003
 30
0.0
 10
802.7712220303895
 20
259.5612026075198
 30
0.0
 10
802.7712220303895
 20
259.2953796389716
 30
0.0
 10
802.7712220303895
 20
258.7956344333476
 30
0.0
 10
802.7712220303895
 20
258.2482318475764
 30
0.0
 10
802.7712220303895
 20
257.8824761939171
 30
0.0
 10
802.7712220303895
 20
257.7222233577222
 30
0.0
 10
802.7712220303895
 20
257.7076743232122
 30
0.0
 10
802.7712220303895
 20
257.7003907599068
 30
0.0
  0
SPLINE
  5
104
330
1F
100
AcDbEntity
  8
0
  6
Continuous
 62
     7
370
    15
100
AcDbSpline
210
0.0
220
0.0
230
1.0
 70
     8
 71
     3
 72
    11
 73
     7
 74
     0
 42
0.00000001
 43
0.00000001
 40
0.0
 40
0.0
 40
0.0
 40
0.0
 40
0.2371934104690108
 40
0.49786153885206
 40
0.7485797408357366
 40
1.0
 40
1.0
 40
1.0
 40
1.0
 10
802.7712220303895
 20
317.7003894188023
 30
0.0
 10
802.966199702191
 20
317.5574707897691
 30
0.0
 10
803.3754517279239
 20
317.2574890641369
 30
0.0
 10
803.8190741081781
 20
316.6341233073436
 30
0.0
 10
804.1163402632576
 20
315.9184054748238
 30
0.0
 10
804.1529119620026
 20
315.4148211605049
 30
0.0
 10
804.1712233774545
 20
315.1626769640064
 30
0.0
  0
SPLINE
  5
105
330
1F
100
AcDbEntity
  8
0
  6
Continuous
 62
     7
370
    15
100
AcDbSpline
210
0.0
220
0.0
230
1.0
 70
    24
 71
     3
 72
    13
 73
     9
 74
     0
 42
0.00000001
 43
0.00000001
 40
0.0
 40
0.0
 40
0.0
 40
0.0
 40
0.1275357290991774
 40
0.2545874118723683
 40
0.4999411006783462
 40
0.7453299899910202
 40
0.8725045367023607
 40
1.0
 40
1.0
 40
1.0
 40
1.0
 10
802.7712220303895
 20
317.7003894188023
 30
0.0
 10
802.7712220303895
 20
317.6931235339333
 30
0.0
 10
802.7712220303895
 20
317.6786193409765
 30
0.0
 10
802.7712220303895
 20
317.5181202080904
 30
0.0
 10
802.7712220303895
 20
317.1523515011418
 30
0.0
 10
802.7712220303895
 20
316.6047707146855
 30
0.0
 10
802.7712220303895
 20
316.1049224310941
 30
0.0
 10
802.7712220303895
 20
315.8390928394154
 30
0.0
 10
802.7712220303895
 20
315.7060105540371
 30
0.0
  0
LINE
  5
106
330
1F
100
AcDbEntity
  8
0
  6
Continuous
 62
     7
370
    15
100
AcDbLine
 10
802.9712254159
 20
682.9191181995
 30
0.0
 11
801.1712210231
 21
682.9191181995
 31
0.0
  0
LINE
  5
107
330
1F
100
AcDbEntity
  8
0
  6
Continuous
 62
     7
370
    15
100
AcDbLine
 10
802.9712254159
 20
684.4190988876
 30
0.0
 11
802.9712254159
 21
682.9191181995
 31
0.0
  0
LINE
  5
108
330
1F
100
AcDbEntity
  8
0
  6
Continuous
 62
     7
370
    15
100
AcDbLine
 10
802.9712254159
 20
684.4190988876
 30
0.0
 11
802.9712254159
 21
721.4190993645
 31
0.0
  0
LINE
  5
109
330
1F
100
AcDbEntity
  8
0
  6
Continuous
 62
     7
370
    15
100
AcDbLine
 10
801.1712210231
 20
722.9191396572
 30
0.0
 11
802.9712254159
 21
722.9191396572
 31
0.0
  0
LINE
  5
10A
330
1F
100
AcDbEntity
  8
0
  6
Continuous
 62
     7
370
    15
100
AcDbLine
 10
802.9712254159
 20
722.9191396572
 30
0.0
 11
802.9712254159
 21
721.4190993645
 31
0.0
  0
LINE
  5
10B
330
1F
100
AcDbEntity
  8
0
  6
Continuous
 62
     7
370
    15
100
AcDbLine
 10
798.7212242536
 20
228.9074618556
 30
0.0
 11
751.171223072
 21
228.9074618556
 31
0.0
  0
LINE
  5
10C
330
1F
100
AcDbEntity
  8
0
  6
Continuous
 62
     7
370
    15
100
AcDbLine
 10
751.171223072
 20
750.4933212139
 30
0.0
 11
751.171223072
 21
228.9074618556
 31
0.0
  0
LINE
  5
10D
330
1F
100
AcDbEntity
  8
0
  6
Continuous
 62
     7
370
    15
100
AcDbLine
 10
798.7212242536
 20
750.4933212139
 30
0.0
 11
751.171223072
 21
750.4933212139
 31
0.0
  0
CIRCLE
  5
10E
330
1F
100
AcDbEntity
  8
0
  6
Continuous
 62
     7
370
    15
100
AcDbCircle
 10
771.1712227099
 20
489.7003906109
 30
0.0
 40
1.600000000000136
  0
CIRCLE
  5
10F
330
1F
100
AcDbEntity
  8
0
  6
Continuous
 62
     7
370
    15
100
AcDbCircle
 10
771.1712227099
 20
257.7003906109
 30
0.0
 40
1.599999999999909
  0
CIRCLE
  5
110
330
1F
100
AcDbEntity
  8
0
  6
Continuous
 62
     7
370
    15
100
AcDbCircle
 10
771.1712227099
 20
721.7003906109
 30
0.0
 40
1.599999999999795
  0
SPLINE
  5
111
330
1F
100
AcDbEntity
  8
0
  6
Continuous
 62
     7
370
    15
100
AcDbSpline
210
0.0
220
0.0
230
1.0
 70
     8
 71
     3
 72
    12
 73
     8
 74
     0
 42
0.00000001
 43
0.00000001
 40
0.0
 40
0.0
 40
0.0
 40
0.0
 40
0.1957839021093672
 40
0.3916181564787098
 40
0.5891582044700469
 40
0.7980621156896103
 40
1.0
 40
1.0
 40
1.0
 40
1.0
 10
798.7212242536427
 20
228.9074618556118
 30
0.0
 10
798.9869108976169
 20
228.9293769599108
 30
0.0
 10
799.5183525156108
 20
228.9732128046974
 30
0.0
 10
800.2229873737788
 20
229.1412820111784
 30
0.0
 10
800.7599449087357
 20
229.4248829690577
 30
0.0
 10
801.1064055959862
 20
229.7759088039646
 30
0.0
 10
801.1498614861172
 20
230.0269823121716
 30
0.0
 10
801.171221023071
 20
230.1503905281938
 30
0.0
  0
SPLINE
  5
112
330
1F
100
AcDbEntity
  8
0
  6
Continuous
 62
     7
370
    15
100
AcDbSpline
210
0.0
220
0.0
230
1.0
 70
     8
 71
     3
 72
    12
 73
     8
 74
     0
 42
0.00000001
 43
0.00000001
 40
0.0
 40
0.0
 40
0.0
 40
0.0
 40
0.2895571455337215
 40
0.5021306638391391
 40
0.7235032040064142
 40
0.8547845879321307
 40
1.0
 40
1.0
 40
1.0
 40
1.0
 10
801.171221023071
 20
749.2503855564213
 30
0.0
 10
801.1279095785139
 20
749.4289686599949
 30
0.0
 10
801.0528017638986
 20
749.7386555516188
 30
0.0
 10
800.5279159463961
 20
750.1351871125377
 30
0.0
 10
799.9210119047984
 20
750.3247471434635
 30
0.0
 10
799.2903260711796
 20
750.4330554694183
 30
0.0
 10
798.9171928629513
 20
750.4725688744016
 30
0.0
 10
798.7212242536427
 20
750.4933212139225
 30
0.0
  0
LINE
  5
113
330
1F
100
AcDbEntity
  8
0
  6
Continuous
 62
     7
370
    15
100
AcDbLine
 10
801.1712210231
 20
749.2503855564
 30
0.0
 11
801.1712210231
 21
230.1503905282
 31
0.0
  0
SPLINE
  5
114
330
1F
100
AcDbEntity
  8
0
  6
Continuous
 62
     7
370
    15
100
AcDbSpline
210
0.0
220
0.0
230
1.0
 70
     8
 71
     3
 72
    12
 73
     8
 74
     0
 42
0.00000001
 43
0.00000001
 40
0.0
 40
0.0
 40
0.0
 40
0.0
 40
0.2256468350450919
 40
0.4513319645733699
 40
0.6770228224127153
 40
0.9027178062012294
 40
1.0
 40
1.0
 40
1.0
 40
1.0
 10
798.7212242536427
 20
751.7003748752691
 30
0.0
 10
799.0107180161552
 20
751.6704272644796
 30
0.0
 10
799.5897546711137
 20
751.6105269604975
 30
0.0
 10
800.3511837394503
 20
751.1451982298801
 30
0.0
 10
800.9062370412248
 20
750.4664152287708
 30
0.0
 10
801.1463698043282
 20
749.7872036457331
 30
0.0
 10
801.1654684301666
 20
749.3746489160387
 30
0.0
 10
801.171221023071
 20
749.2503855564213
 30
0.0
  0
LINE
  5
115
330
1F
100
AcDbEntity
  8
0
  6
Continuous
 62
     7
370
    15
100
AcDbLine
 10
798.7212242536
 20
750.5004141667
 30
0.0
 11
798.7212242536
 21
751.7003748753
 31
0.0
  0
LINE
  5
116
330
1F
100
AcDbEntity
  8
0
  6
Continuous
 62
     7
370
    15
100
AcDbLine
 10
798.7212242536
 20
228.900390789
 30
0.0
 11
798.7212242536
 21
227.7003904991
 31
0.0
  0
LINE
  5
117
330
1F
100
AcDbEntity
  8
0
  6
Continuous
 62
     7
370
    15
100
AcDbLine
 10
798.7212242536
 20
227.7003904991
 30
0.0
 11
751.171223072
 21
227.7003904991
 31
0.0
  0
LINE
  5
118
330
1F
100
AcDbEntity
  8
0
  6
Continuous
 62
     7
370
    15
100
AcDbLine
 10
751.171223072
 20
227.7003904991
 30
0.0
 11
751.171223072
 21
228.900390789
 31
0.0
  0
LINE
  5
119
330
1F
100
AcDbEntity
  8
0
  6
Continuous
 62
     7
370
    15
100
AcDbLine
 10
798.7212242536
 20
228.900390789
 30
0.0
 11
751.171223072
 21
228.900390789
 31
0.0
  0
SPLINE
  5
11A
330
1F
100
AcDbEntity
  8
0
  6
Continuous
 62
     7
370
    15
100
AcDbSpline
210
0.0
220
0.0
230
1.0
 70
     8
 71
     3
 72
    11
 73
     7
 74
     0
 42
0.00000001
 43
0.00000001
 40
0.0
 40
0.0
 40
0.0
 40
0.0
 40
0.2499999680191842
 40
0.5000003430234289
 40
0.7500000761327406
 40
1.0
 40
1.0
 40
1.0
 40
1.0
 10
801.171221023071
 20
230.1503905281938
 30
0.0
 10
801.1343953213577
 20
229.8293495201266
 30
0.0
 10
801.0607438579807
 20
229.1872669813566
 30
0.0
 10
800.4941783366635
 20
228.3774347829823
 30
0.0
 10
799.6843459291952
 20
227.810872623105
 30
0.0
 10
799.0422648938151
 20
227.7372178831595
 30
0.0
 10
798.7212242536427
 20
227.7003904991365
 30
0.0
  0
LINE
  5
11B
330
1F
100
AcDbEntity
  8
0
  6
Continuous
 62
     7
370
    15
100
AcDbLine
 10
751.171223072
 20
751.7003748753
 30
0.0
 11
751.171223072
 21
750.5004141667
 31
0.0
  0
LINE
  5
11C
330
1F
100
AcDbEntity
  8
0
  6
Continuous
 62
     7
370
    15
100
AcDbLine
 10
798.7212242536
 20
751.7003748753
 30
0.0
 11
751.171223072
 21
751.7003748753
 31
0.0
  0
LINE
  5
11D
330
1F
100
AcDbEntity
  8
0
  6
Continuous
 62
     7
370
    15
100
AcDbLine
 10
798.7212242536
 20
750.5004141667
 30
0.0
 11
751.171223072
 21
750.5004141667
 31
0.0
  0
ARC
  5
11E
330
1F
100
AcDbEntity
  8
0
  6
Continuous
 62
     7
370
    15
100
AcDbCircle
 10
747.6712227099
 20
228.2003906109
 30
0.0
 40
5.500000000000114
100
AcDbArc
 50
180.0
 51
270.0
  0
ARC
  5
11F
330
1F
100
AcDbEntity
  8
0
  6
Continuous
 62
     7
370
    15
100
AcDbCircle
 10
747.6712227099
 20
228.2003906109
 30
0.0
 40
3.0
100
AcDbArc
 50
180.0
 51
270.0
  0
LINE
  5
120
330
1F
100
AcDbEntity
  8
0
  6
Continuous
 62
     7
370
    15
100
AcDbLine
 10
742.1712227609
 20
243.2003911771
 30
0.0
 11
744.6712229379
 21
243.2003911771
 31
0.0
  0
LINE
  5
121
330
1F
100
AcDbEntity
  8
0
  6
Continuous
 62
     7
370
    15
100
AcDbLine
 10
744.6712229379
 20
238.2003903576
 30
0.0
 11
744.6712229379
 21
243.2003911771
 31
0.0
  0
LINE
  5
122
330
1F
100
AcDbEntity
  8
0
  6
Continuous
 62
     7
370
    15
100
AcDbLine
 10
744.6712229379
 20
228.2003905811
 30
0.0
 11
744.6712229379
 21
238.2003903576
 31
0.0
  0
LINE
  5
123
330
1F
100
AcDbEntity
  8
0
  6
Continuous
 62
     7
370
    15
100
AcDbLine
 10
747.6712224983
 20
225.200390555
 30
0.0
 11
791.1712231092
 21
225.200390555
 31
0.0
  0
LINE
  5
124
330
1F
100
AcDbEntity
  8
0
  6
Continuous
 62
     7
370
    15
100
AcDbLine
 10
747.6712224983
 20
222.7003906109
 30
0.0
 11
791.1712231092
 21
222.7003906109
 31
0.0
  0
LINE
  5
125
330
1F
100
AcDbEntity
  8
0
  6
Continuous
 62
     7
370
    15
100
AcDbLine
 10
791.1712231092
 20
222.7003906109
 30
0.0
 11
799.1712244205
 21
222.7003906109
 31
0.0
  0
LINE
  5
126
330
1F
100
AcDbEntity
  8
0
  6
Continuous
 62
     7
370
    15
100
AcDbLine
 10
787.2712241464
 20
222.2003905871
 30
0.0
 11
795.0712220721
 21
222.2003905871
 31
0.0
  0
LINE
  5
127
330
1F
100
AcDbEntity
  8
0
  6
Continuous
 62
     7
370
    15
100
AcDbLine
 10
795.0712220721
 20
758.2003805973
 30
0.0
 11
787.2712241464
 21
758.2003805973
 31
0.0
  0
LINE
  5
128
330
1F
100
AcDbEntity
  8
0
  6
Continuous
 62
     7
370
    15
100
AcDbLine
 10
744.6712229379
 20
760.7003782131
 30
0.0
 11
744.6712229379
 21
765.1504013874
 31
0.0
  0
ARC
  5
129
330
1F
100
AcDbEntity
  8
0
  6
Continuous
 62
     7
370
    15
100
AcDbCircle
 10
747.6712227099
 20
760.7003906109
 30
0.0
 40
3.0
100
AcDbArc
 50
180.0
 51
270.0
  0
ARC
  5
12A
330
1F
100
AcDbEntity
  8
0
  6
Continuous
 62
     7
370
    15
100
AcDbCircle
 10
747.6712227099
 20
760.7003906109
 30
0.0
 40
5.5
100
AcDbArc
 50
180.0
 51
270.0
  0
LINE
  5
12B
330
1F
100
AcDbEntity
  8
0
  6
Continuous
 62
     7
370
    15
100
AcDbLine
 10
747.6712224983
 20
755.2004192211
 30
0.0
 11
791.1712231092
 21
755.2004192211
 31
0.0
  0
LINE
  5
12C
330
1F
100
AcDbEntity
  8
0
  6
Continuous
 62
     7
370
    15
100
AcDbLine
 10
747.6712224983
 20
757.7004168369
 30
0.0
 11
791.1712231092
 21
757.7004168369
 31
0.0
  0
LINE
  5
12D
330
1F
100
AcDbEntity
  8
0
  6
Continuous
 62
     7
370
    15
100
AcDbLine
 10
791.1712231092
 20
755.2004192211
 30
0.0
 11
799.1712244205
 21
755.2004192211
 31
0.0
  0
LINE
  5
12E
330
1F
100
AcDbEntity
  8
0
  6
Continuous
 62
     7
370
    15
100
AcDbLine
 10
791.1712231092
 20
757.7004168369
 30
0.0
 11
799.1712244205
 21
757.7004168369
 31
0.0
  0
LINE
  5
12F
330
1F
100
AcDbEntity
  8
0
  6
Continuous
 62
     7
370
    15
100
AcDbLine
 10
34.1712424509
 20
942.8088996746
 30
0.0
 11
33.3712289088
 21
942.8088996746
 31
0.0
  0
LINE
  5
130
330
1F
100
AcDbEntity
  8
0
  6
Continuous
 62
     7
370
    15
100
AcDbLine
 10
33.3712289088
 20
947.8088949062
 30
0.0
 11
33.3712289088
 21
942.8088996746
 31
0.0
  0
LINE
  5
131
330
1F
100
AcDbEntity
  8
0
  6
Continuous
 62
     7
370
    15
100
AcDbLine
 10
33.3712289088
 20
1136.3088820316
 30
0.0
 11
33.3712289088
 21
947.8088949062
 31
0.0
  0
LINE
  5
132
330
1F
100
AcDbEntity
  8
0
  6
Continuous
 62
     7
370
    15
100
AcDbLine
 10
34.1712424509
 20
1130.3088996746
 30
0.0
 11
34.1712424509
 21
1130.2088830807
 31
0.0
  0
LINE
  5
133
330
1F
100
AcDbEntity
  8
0
  6
Continuous
 62
     7
370
    15
100
AcDbLine
 10
34.1712424509
 20
1141.3088772633
 30
0.0
 11
33.3712289088
 21
1141.3088772633
 31
0.0
  0
LINE
  5
134
330
1F
100
AcDbEntity
  8
0
  6
Continuous
 62
     7
370
    15
100
AcDbLine
 10
33.3712289088
 20
1141.3088772633
 30
0.0
 11
33.3712289088
 21
1136.3088820316
 31
0.0
  0
LINE
  5
135
330
1F
100
AcDbEntity
  8
0
  6
Continuous
 62
     7
370
    15
100
AcDbLine
 10
34.1712424509
 20
1141.3088772633
 30
0.0
 11
34.1712424509
 21
1140.679869447
 31
0.0
  0
LINE
  5
136
330
1F
100
AcDbEntity
  8
0
  6
Continuous
 62
     7
370
    15
100
AcDbLine
 10
33.3712289088
 20
942.8088996746
 30
0.0
 11
33.3712289088
 21
940.8088658192
 31
0.0
  0
LINE
  5
137
330
1F
100
AcDbEntity
  8
0
  6
Continuous
 62
     7
370
    15
100
AcDbLine
 10
34.1712424509
 20
942.7004192211
 30
0.0
 11
34.1712424509
 21
941.4933059551
 31
0.0
  0
LINE
  5
138
330
1F
100
AcDbEntity
  8
0
  6
Continuous
 62
     7
370
    15
100
AcDbLine
 10
34.1712424509
 20
927.8088543751
 30
0.0
 11
33.3712289088
 21
927.8088543751
 31
0.0
  0
LINE
  5
139
330
1F
100
AcDbEntity
  8
0
  6
Continuous
 62
     7
370
    15
100
AcDbLine
 10
33.3712289088
 20
929.8088882305
 30
0.0
 11
33.3712289088
 21
927.8088543751
 31
0.0
  0
LINE
  5
13A
330
1F
100
AcDbEntity
  8
0
  6
Continuous
 62
     7
370
    15
100
AcDbLine
 10
33.3712289088
 20
940.8088658192
 30
0.0
 11
33.3712289088
 21
929.8088882305
 31
0.0
  0
LINE
  5
13B
330
1F
100
AcDbEntity
  8
0
  6
Continuous
 62
     7
370
    15
100
AcDbLine
 10
87.0711991541
 20
1108.7003681995
 30
0.0
 11
88.3712360613
 21
1108.7003681995
 31
0.0
  0
LINE
  5
13C
330
1F
100
AcDbEntity
  8
0
  6
Continuous
 62
     7
370
    15
100
AcDbLine
 10
98.8722035639
 20
1092.8988192417
 30
0.0
 11
98.4031746142
 21
1092.4182865955
 31
0.0
  0
LINE
  5
13D
330
1F
100
AcDbEntity
  8
0
  6
Continuous
 62
     7
370
    15
100
AcDbLine
 10
98.4031746142
 20
1092.4182865955
 30
0.0
 11
98.8722035639
 21
1092.8490493633
 31
0.0
  0
LINE
  5
13E
330
1F
100
AcDbEntity
  8
0
  6
Continuous
 62
     7
370
    15
100
AcDbLine
 10
98.8722035639
 20
1092.8487513401
 30
0.0
 11
98.4031746142
 21
1092.3238132336
 31
0.0
  0
LINE
  5
13F
330
1F
100
AcDbEntity
  8
0
  6
Continuous
 62
     7
370
    15
100
AcDbLine
 10
98.4031746142
 20
1092.3238132336
 30
0.0
 11
98.8722035639
 21
1092.6998589375
 31
0.0
  0
LINE
  5
140
330
1F
100
AcDbEntity
  8
0
  6
Continuous
 62
     7
370
    15
100
AcDbLine
 10
98.8722035639
 20
1092.6992032864
 30
0.0
 11
98.4031746142
 21
1092.1352241375
 31
0.0
  0
LINE
  5
141
330
1F
100
AcDbEntity
  8
0
  6
Continuous
 62
     7
370
    15
100
AcDbLine
 10
98.4031746142
 20
1092.1352241375
 30
0.0
 11
98.8722035639
 21
1092.4527380802
 31
0.0
  0
LINE
  5
142
330
1F
100
AcDbEntity
  8
0
  6
Continuous
 62
     7
370
    15
100
AcDbLine
 10
98.8722035639
 20
1092.4518440106
 30
0.0
 11
98.4031746142
 21
1091.8543074467
 31
0.0
  0
LINE
  5
143
330
1F
100
AcDbEntity
  8
0
  6
Continuous
 62
     7
370
    15
100
AcDbLine
 10
98.4031746142
 20
1091.8543074467
 30
0.0
 11
98.8722035639
 21
1092.1101901867
 31
0.0
  0
LINE
  5
144
330
1F
100
AcDbEntity
  8
0
  6
Continuous
 62
     7
370
    15
100
AcDbLine
 10
98.8722035639
 20
1092.1089980938
 30
0.0
 11
98.4031746142
 21
1091.4839837887
 31
0.0
  0
LINE
  5
145
330
1F
100
AcDbEntity
  8
0
  6
Continuous
 62
     7
370
    15
100
AcDbLine
 10
98.4031746142
 20
1091.4839837887
 30
0.0
 11
98.8722035639
 21
1091.6756127216
 31
0.0
  0
LINE
  5
146
330
1F
100
AcDbEntity
  8
0
  6
Continuous
 62
     7
370
    15
100
AcDbLine
 10
98.8722035639
 20
1091.6741226055
 30
0.0
 11
98.4031746142
 21
1091.0278890469
 31
0.0
  0
LINE
  5
147
330
1F
100
AcDbEntity
  8
0
  6
Continuous
 62
     7
370
    15
100
AcDbLine
 10
98.4031746142
 20
1091.0278890469
 30
0.0
 11
98.8722035639
 21
1091.1533568241
 31
0.0
  0
LINE
  5
148
330
1F
100
AcDbEntity
  8
0
  6
Continuous
 62
     7
370
    15
100
AcDbLine
 10
98.8722035639
 20
1091.1516282894
 30
0.0
 11
98.4031746142
 21
1090.4905531742
 31
0.0
  0
LINE
  5
149
330
1F
100
AcDbEntity
  8
0
  6
Continuous
 62
     7
370
    15
100
AcDbLine
 10
98.4031746142
 20
1090.4905531742
 30
0.0
 11
98.8722035639
 21
1090.5486080982
 31
0.0
  0
LINE
  5
14A
330
1F
100
AcDbEntity
  8
0
  6
Continuous
 62
     7
370
    15
100
AcDbLine
 10
98.8722035639
 20
1090.546641145
 30
0.0
 11
98.4031746142
 21
1089.8774001934
 31
0.0
  0
LINE
  5
14B
330
1F
100
AcDbEntity
  8
0
  6
Continuous
 62
     7
370
    15
100
AcDbLine
 10
98.4031746142
 20
1089.8774001934
 30
0.0
 11
98.8722035639
 21
1089.8675058224
 31
0.0
  0
LINE
  5
14C
330
1F
100
AcDbEntity
  8
0
  6
Continuous
 62
     7
370
    15
100
AcDbLine
 10
98.8722035639
 20
1089.8653004505
 30
0.0
 11
98.4031746142
 21
1089.1945693829
 31
0.0
  0
LINE
  5
14D
330
1F
100
AcDbEntity
  8
0
  6
Continuous
 62
     7
370
    15
100
AcDbLine
 10
98.4031746142
 20
1089.1945693829
 30
0.0
 11
98.8722035639
 21
1089.1167257168
 31
0.0
  0
LINE
  5
14E
330
1F
100
AcDbEntity
  8
0
  6
Continuous
 62
     7
370
    15
100
AcDbLine
 10
98.8722035639
 20
1089.114341531
 30
0.0
 11
98.4031746142
 21
1088.4487960674
 31
0.0
  0
LINE
  5
14F
330
1F
100
AcDbEntity
  8
0
  6
Continuous
 62
     7
370
    15
100
AcDbLine
 10
98.4031746142
 20
1088.4487960674
 30
0.0
 11
98.8722035639
 21
1088.303897176
 31
0.0
  0
LINE
  5
150
330
1F
100
AcDbEntity
  8
0
  6
Continuous
 62
     7
370
    15
100
AcDbLine
 10
98.8722035639
 20
1088.3012745716
 30
0.0
 11
98.4031746142
 21
1087.647650037
 31
0.0
  0
LINE
  5
151
330
1F
100
AcDbEntity
  8
0
  6
Continuous
 62
     7
370
    15
100
AcDbLine
 10
98.4031746142
 20
1087.647650037
 30
0.0
 11
98.8722035639
 21
1087.4370072224
 31
0.0
  0
LINE
  5
152
330
1F
100
AcDbEntity
  8
0
  6
Continuous
 62
     7
370
    15
100
AcDbLine
 10
98.8722035639
 20
1087.4343250134
 30
0.0
 11
98.4031746142
 21
1086.7989991047
 31
0.0
  0
LINE
  5
153
330
1F
100
AcDbEntity
  8
0
  6
Continuous
 62
     7
370
    15
100
AcDbLine
 10
98.4031746142
 20
1086.7989991047
 30
0.0
 11
98.8722035639
 21
1086.5248773434
 31
0.0
  0
LINE
  5
154
330
1F
100
AcDbEntity
  8
0
  6
Continuous
 62
     7
370
    15
100
AcDbLine
 10
98.8722035639
 20
1086.5220163204
 30
0.0
 11
98.4031746142
 21
1085.9114263393
 31
0.0
  0
LINE
  5
155
330
1F
100
AcDbEntity
  8
0
  6
Continuous
 62
     7
370
    15
100
AcDbLine
 10
98.4031746142
 20
1085.9114263393
 30
0.0
 11
98.8722035639
 21
1085.5764482357
 31
0.0
  0
LINE
  5
156
330
1F
100
AcDbEntity
  8
0
  6
Continuous
 62
     7
370
    15
100
AcDbLine
 10
98.8722035639
 20
1085.5735276081
 30
0.0
 11
98.4031746142
 21
1084.9937532284
 31
0.0
  0
LINE
  5
157
330
1F
100
AcDbEntity
  8
0
  6
Continuous
 62
     7
370
    15
100
AcDbLine
 10
98.4031746142
 20
1084.9937532284
 30
0.0
 11
98.8722035639
 21
1084.6013162472
 31
0.0
  0
LINE
  5
158
330
1F
100
AcDbEntity
  8
0
  6
Continuous
 62
     7
370
    15
100
AcDbLine
 10
98.8722035639
 20
1084.5982764103
 30
0.0
 11
98.4031746142
 21
1084.0551588871
 31
0.0
  0
LINE
  5
159
330
1F
100
AcDbEntity
  8
0
  6
Continuous
 62
     7
370
    15
100
AcDbLine
 10
98.4031746142
 20
1084.0551588871
 30
0.0
 11
98.8722035639
 21
1083.6091969349
 31
0.0
  0
LINE
  5
15A
330
1F
100
AcDbEntity
  8
0
  6
Continuous
 62
     7
370
    15
100
AcDbLine
 10
98.8722035639
 20
1083.606157098
 30
0.0
 11
98.4031746142
 21
1083.1050608494
 31
0.0
  0
SPLINE
  5
15B
330
1F
100
AcDbEntity
  8
0
  6
Continuous
 62
     7
370
    15
100
AcDbSpline
210
0.0
220
0.0
230
1.0
 70
     8
 71
     3
 72
     9
 73
     5
 74
     0
 42
0.00000001
 43
0.00000001
 40
0.0
 40
0.0
 40
0.0
 40
0.0
 40
0.4113321596877255
 40
1.0
 40
1.0
 40
1.0
 40
1.0
 10
98.4031746141794
 20
1083.10506084939
 30
0.0
 10
98.46655126440179
 20
1083.03671209665
 30
0.0
 10
98.62062783908726
 20
1082.870547717983
 30
0.0
 10
98.77898424213511
 20
1082.706534170603
 30
0.0
 10
98.87220356391695
 20
1082.609984669886
 30
0.0
  0
LINE
  5
15C
330
1F
100
AcDbEntity
  8
0
  6
Continuous
 62
     7
370
    15
100
AcDbLine
 10
98.8722035639
 20
1082.606944833
 30
0.0
 11
98.4031746142
 21
1082.1529362537
 31
0.0
  0
LINE
  5
15D
330
1F
100
AcDbEntity
  8
0
  6
Continuous
 62
     7
370
    15
100
AcDbLine
 10
98.4031746142
 20
1082.1529362537
 30
0.0
 11
98.8722035639
 21
1081.6136930325
 31
0.0
  0
LINE
  5
15E
330
1F
100
AcDbEntity
  8
0
  6
Continuous
 62
     7
370
    15
100
AcDbLine
 10
98.8722035639
 20
1081.6106531956
 30
0.0
 11
98.4031746142
 21
1081.2082026341
 31
0.0
  0
LINE
  5
15F
330
1F
100
AcDbEntity
  8
0
  6
Continuous
 62
     7
370
    15
100
AcDbLine
 10
98.4031746142
 20
1081.2082026341
 30
0.0
 11
98.8722035639
 21
1080.6302163937
 31
0.0
  0
LINE
  5
160
330
1F
100
AcDbEntity
  8
0
  6
Continuous
 62
     7
370
    15
100
AcDbLine
 10
98.8722035639
 20
1080.6272361614
 30
0.0
 11
98.4031746142
 21
1080.2804563381
 31
0.0
  0
LINE
  5
161
330
1F
100
AcDbEntity
  8
0
  6
Continuous
 62
     7
370
    15
100
AcDbLine
 10
98.4031746142
 20
1080.2804563381
 30
0.0
 11
98.8722035639
 21
1079.6694491245
 31
0.0
  0
LINE
  5
162
330
1F
100
AcDbEntity
  8
0
  6
Continuous
 62
     7
370
    15
100
AcDbLine
 10
98.8722035639
 20
1079.6665881016
 30
0.0
 11
98.4031746142
 21
1079.3788168766
 31
0.0
  0
LINE
  5
163
330
1F
100
AcDbEntity
  8
0
  6
Continuous
 62
     7
370
    15
100
AcDbLine
 10
98.4031746142
 20
1079.3788168766
 30
0.0
 11
98.8722035639
 21
1078.7409875729
 31
0.0
  0
LINE
  5
164
330
1F
100
AcDbEntity
  8
0
  6
Continuous
 62
     7
370
    15
100
AcDbLine
 10
98.8722035639
 20
1078.7381861546
 30
0.0
 11
98.4031746142
 21
1078.5124037602
 31
0.0
  0
LINE
  5
165
330
1F
100
AcDbEntity
  8
0
  6
Continuous
 62
     7
370
    15
100
AcDbLine
 10
98.4031746142
 20
1078.5124037602
 30
0.0
 11
98.8722035639
 21
1077.8540704586
 31
0.0
  0
LINE
  5
166
330
1F
100
AcDbEntity
  8
0
  6
Continuous
 62
     7
370
    15
100
AcDbLine
 10
98.8722035639
 20
1077.8513882496
 30
0.0
 11
98.4031746142
 21
1077.6898000576
 31
0.0
  0
LINE
  5
167
330
1F
100
AcDbEntity
  8
0
  6
Continuous
 62
     7
370
    15
100
AcDbLine
 10
98.4031746142
 20
1077.6898000576
 30
0.0
 11
98.8722035639
 21
1077.0175192692
 31
0.0
  0
LINE
  5
168
330
1F
100
AcDbEntity
  8
0
  6
Continuous
 62
     7
370
    15
100
AcDbLine
 10
98.8722035639
 20
1077.0150754788
 30
0.0
 11
98.4031746142
 21
1076.9192908146
 31
0.0
  0
LINE
  5
169
330
1F
100
AcDbEntity
  8
0
  6
Continuous
 62
     7
370
    15
100
AcDbLine
 10
98.4031746142
 20
1076.9192908146
 30
0.0
 11
98.8722035639
 21
1076.2397978642
 31
0.0
  0
LINE
  5
16A
330
1F
100
AcDbEntity
  8
0
  6
Continuous
 62
     7
370
    15
100
AcDbLine
 10
98.8722035639
 20
1076.2375328877
 30
0.0
 11
98.4031746142
 21
1076.2085650303
 31
0.0
  0
LINE
  5
16B
330
1F
100
AcDbEntity
  8
0
  6
Continuous
 62
     7
370
    15
100
AcDbLine
 10
98.4031746142
 20
1076.2085650303
 30
0.0
 11
98.8722035639
 21
1075.5286548473
 31
0.0
  0
LINE
  5
16C
330
1F
100
AcDbEntity
  8
0
  6
Continuous
 62
     7
370
    15
100
AcDbLine
 10
98.8722035639
 20
1075.5265686848
 30
0.0
 11
98.4031746142
 21
1075.5646560528
 31
0.0
  0
LINE
  5
16D
330
1F
100
AcDbEntity
  8
0
  6
Continuous
 62
     7
370
    15
100
AcDbLine
 10
98.4031746142
 20
1075.5646560528
 30
0.0
 11
98.8722035639
 21
1074.8911235668
 31
0.0
  0
LINE
  5
16E
330
1F
100
AcDbEntity
  8
0
  6
Continuous
 62
     7
370
    15
100
AcDbLine
 10
98.8722035639
 20
1074.8892758228
 30
0.0
 11
98.4031746142
 21
1074.9940607884
 31
0.0
  0
LINE
  5
16F
330
1F
100
AcDbEntity
  8
0
  6
Continuous
 62
     7
370
    15
100
AcDbLine
 10
98.4031746142
 20
1074.9940607884
 30
0.0
 11
98.8722035639
 21
1074.3336413242
 31
0.0
  0
LINE
  5
170
330
1F
100
AcDbEntity
  8
0
  6
Continuous
 62
     7
370
    15
100
AcDbLine
 10
98.8722035639
 20
1074.3320319988
 30
0.0
 11
98.4031746142
 21
1074.5025012829
 31
0.0
  0
LINE
  5
171
330
1F
100
AcDbEntity
  8
0
  6
Continuous
 62
     7
370
    15
100
AcDbLine
 10
98.4031746142
 20
1074.5025012829
 30
0.0
 11
98.8722035639
 21
1073.8617513516
 31
0.0
  0
LINE
  5
172
330
1F
100
AcDbEntity
  8
0
  6
Continuous
 62
     7
370
    15
100
AcDbLine
 10
98.8722035639
 20
1073.8604400494
 30
0.0
 11
98.4031746142
 21
1074.0948055126
 31
0.0
  0
LINE
  5
173
330
1F
100
AcDbEntity
  8
0
  6
Continuous
 62
     7
370
    15
100
AcDbLine
 10
98.4031746142
 20
1074.0948055126
 30
0.0
 11
98.8722035639
 21
1073.4801624157
 31
0.0
  0
LINE
  5
174
330
1F
100
AcDbEntity
  8
0
  6
Continuous
 62
     7
370
    15
100
AcDbLine
 10
98.8722035639
 20
1073.4791491367
 30
0.0
 11
98.4031746142
 21
1073.7750861981
 31
0.0
  0
LINE
  5
175
330
1F
100
AcDbEntity
  8
0
  6
Continuous
 62
     7
370
    15
100
AcDbLine
 10
98.4031746142
 20
1073.7750861981
 30
0.0
 11
98.8722035639
 21
1073.192689214
 31
0.0
  0
LINE
  5
176
330
1F
100
AcDbEntity
  8
0
  6
Continuous
 62
     7
370
    15
100
AcDbLine
 10
98.8722035639
 20
1073.1919739582
 30
0.0
 11
98.4031746142
 21
1073.54656199
 31
0.0
  0
LINE
  5
177
330
1F
100
AcDbEntity
  8
0
  6
Continuous
 62
     7
370
    15
100
AcDbLine
 10
98.4031746142
 20
1073.54656199
 30
0.0
 11
98.8722035639
 21
1073.0021927693
 31
0.0
  0
LINE
  5
178
330
1F
100
AcDbEntity
  8
0
  6
Continuous
 62
     7
370
    15
100
AcDbLine
 10
98.8722035639
 20
1073.0017755367
 30
0.0
 11
98.4031746142
 21
1073.4114978649
 31
0.0
  0
LINE
  5
179
330
1F
100
AcDbEntity
  8
0
  6
Continuous
 62
     7
370
    15
100
AcDbLine
 10
98.4031746142
 20
1073.4114978649
 30
0.0
 11
98.8722035639
 21
1072.9106400349
 31
0.0
  0
LINE
  5
17A
330
1F
100
AcDbEntity
  8
0
  6
Continuous
 62
     7
370
    15
100
AcDbLine
 10
98.8722035639
 20
1072.9105208256
 30
0.0
 11
98.4739253275
 21
1073.3017061092
 31
0.0
  0
LINE
  5
17B
330
1F
100
AcDbEntity
  8
0
  6
Continuous
 62
     7
370
    15
100
AcDbLine
 10
98.3712265246
 20
1073.4029147961
 30
0.0
 11
98.3712265246
 21
1092.397901807
 31
0.0
  0
LINE
  5
17C
330
1F
100
AcDbEntity
  8
0
  6
Continuous
 62
     7
370
    15
100
AcDbLine
 10
102.3392269366
 20
1083.1050608494
 30
0.0
 11
98.4031746142
 21
1083.1050608494
 31
0.0
  0
SPLINE
  5
17D
330
1F
100
AcDbEntity
  8
0
  6
Continuous
 62
     7
370
    15
100
AcDbSpline
210
0.0
220
0.0
230
1.0
 70
     8
 71
     3
 72
     9
 73
     5
 74
     0
 42
0.00000001
 43
0.00000001
 40
0.0
 40
0.0
 40
0.0
 40
0.0
 40
0.5886508827212107
 40
1.0
 40
1.0
 40
1.0
 40
1.0
 10
101.8702575914743
 20
1082.609984669886
 30
0.0
 10
101.963453059667
 20
1082.706536190316
 30
0.0
 10
102.121773502103
 20
1082.870557893611
 30
0.0
 10
102.2758483740123
 20
1083.036713065927
 30
0.0
 10
102.3392269365671
 20
1083.10506084939
 30
0.0
  0
LINE
  5
17E
330
1F
100
AcDbEntity
  8
0
  6
Continuous
 62
     7
370
    15
100
AcDbLine
 10
98.8712498896
 20
1082.6083753445
 30
0.0
 11
101.8712112658
 21
1082.6083753445
 31
0.0
  0
LINE
  5
17F
330
1F
100
AcDbEntity
  8
0
  6
Continuous
 62
     7
370
    15
100
AcDbLine
 10
102.3392269366
 20
1082.1529362537
 30
0.0
 11
101.8702575915
 21
1082.606944833
 31
0.0
  0
LINE
  5
180
330
1F
100
AcDbEntity
  8
0
  6
Continuous
 62
     7
370
    15
100
AcDbLine
 10
98.4031746142
 20
1082.1529362537
 30
0.0
 11
102.3392269366
 21
1082.1529362537
 31
0.0
  0
LINE
  5
181
330
1F
100
AcDbEntity
  8
0
  6
Continuous
 62
     7
370
    15
100
AcDbLine
 10
101.8702575915
 20
1083.6091969349
 30
0.0
 11
102.3392269366
 21
1084.0551588871
 31
0.0
  0
LINE
  5
182
330
1F
100
AcDbEntity
  8
0
  6
Continuous
 62
     7
370
    15
100
AcDbLine
 10
102.3392269366
 20
1084.0551588871
 30
0.0
 11
101.8702575915
 21
1084.5982764103
 31
0.0
  0
LINE
  5
183
330
1F
100
AcDbEntity
  8
0
  6
Continuous
 62
     7
370
    15
100
AcDbLine
 10
101.8702575915
 20
1084.6013162472
 30
0.0
 11
102.3392269366
 21
1084.9937532284
 31
0.0
  0
LINE
  5
184
330
1F
100
AcDbEntity
  8
0
  6
Continuous
 62
     7
370
    15
100
AcDbLine
 10
102.3392269366
 20
1084.9937532284
 30
0.0
 11
101.8702575915
 21
1085.5735276081
 31
0.0
  0
LINE
  5
185
330
1F
100
AcDbEntity
  8
0
  6
Continuous
 62
     7
370
    15
100
AcDbLine
 10
101.8702575915
 20
1085.5764482357
 30
0.0
 11
102.3392269366
 21
1085.9114263393
 31
0.0
  0
LINE
  5
186
330
1F
100
AcDbEntity
  8
0
  6
Continuous
 62
     7
370
    15
100
AcDbLine
 10
102.3392269366
 20
1085.9114263393
 30
0.0
 11
101.8702575915
 21
1086.5220163204
 31
0.0
  0
LINE
  5
187
330
1F
100
AcDbEntity
  8
0
  6
Continuous
 62
     7
370
    15
100
AcDbLine
 10
101.8702575915
 20
1086.5248773434
 30
0.0
 11
102.3392269366
 21
1086.7989991047
 31
0.0
  0
LINE
  5
188
330
1F
100
AcDbEntity
  8
0
  6
Continuous
 62
     7
370
    15
100
AcDbLine
 10
102.3392269366
 20
1086.7989991047
 30
0.0
 11
101.8702575915
 21
1087.4343250134
 31
0.0
  0
LINE
  5
189
330
1F
100
AcDbEntity
  8
0
  6
Continuous
 62
     7
370
    15
100
AcDbLine
 10
101.8702575915
 20
1087.4370072224
 30
0.0
 11
102.3392269366
 21
1087.647650037
 31
0.0
  0
LINE
  5
18A
330
1F
100
AcDbEntity
  8
0
  6
Continuous
 62
     7
370
    15
100
AcDbLine
 10
102.3392269366
 20
1087.647650037
 30
0.0
 11
101.8702575915
 21
1088.3012745716
 31
0.0
  0
LINE
  5
18B
330
1F
100
AcDbEntity
  8
0
  6
Continuous
 62
     7
370
    15
100
AcDbLine
 10
101.8702575915
 20
1088.303897176
 30
0.0
 11
102.3392269366
 21
1088.4487960674
 31
0.0
  0
LINE
  5
18C
330
1F
100
AcDbEntity
  8
0
  6
Continuous
 62
     7
370
    15
100
AcDbLine
 10
102.3392269366
 20
1088.4487960674
 30
0.0
 11
101.8702575915
 21
1089.114341531
 31
0.0
  0
LINE
  5
18D
330
1F
100
AcDbEntity
  8
0
  6
Continuous
 62
     7
370
    15
100
AcDbLine
 10
101.8702575915
 20
1089.1167257168
 30
0.0
 11
102.3392269366
 21
1089.1945693829
 31
0.0
  0
LINE
  5
18E
330
1F
100
AcDbEntity
  8
0
  6
Continuous
 62
     7
370
    15
100
AcDbLine
 10
102.3392269366
 20
1089.1945693829
 30
0.0
 11
101.8702575915
 21
1089.8653004505
 31
0.0
  0
LINE
  5
18F
330
1F
100
AcDbEntity
  8
0
  6
Continuous
 62
     7
370
    15
100
AcDbLine
 10
101.8702575915
 20
1089.8675058224
 30
0.0
 11
102.3392269366
 21
1089.8774001934
 31
0.0
  0
LINE
  5
190
330
1F
100
AcDbEntity
  8
0
  6
Continuous
 62
     7
370
    15
100
AcDbLine
 10
102.3392269366
 20
1089.8774001934
 30
0.0
 11
101.8702575915
 21
1090.546641145
 31
0.0
  0
LINE
  5
191
330
1F
100
AcDbEntity
  8
0
  6
Continuous
 62
     7
370
    15
100
AcDbLine
 10
101.8702575915
 20
1090.5486080982
 30
0.0
 11
102.3392269366
 21
1090.4905531742
 31
0.0
  0
LINE
  5
192
330
1F
100
AcDbEntity
  8
0
  6
Continuous
 62
     7
370
    15
100
AcDbLine
 10
102.3392269366
 20
1090.4905531742
 30
0.0
 11
101.8702575915
 21
1091.1516282894
 31
0.0
  0
LINE
  5
193
330
1F
100
AcDbEntity
  8
0
  6
Continuous
 62
     7
370
    15
100
AcDbLine
 10
101.8702575915
 20
1091.1533568241
 30
0.0
 11
102.3392269366
 21
1091.0278890469
 31
0.0
  0
LINE
  5
194
330
1F
100
AcDbEntity
  8
0
  6
Continuous
 62
     7
370
    15
100
AcDbLine
 10
102.3392269366
 20
1091.0278890469
 30
0.0
 11
101.8702575915
 21
1091.6741226055
 31
0.0
  0
LINE
  5
195
330
1F
100
AcDbEntity
  8
0
  6
Continuous
 62
     7
370
    15
100
AcDbLine
 10
101.8702575915
 20
1091.6756127216
 30
0.0
 11
102.3392269366
 21
1091.4839837887
 31
0.0
  0
LINE
  5
196
330
1F
100
AcDbEntity
  8
0
  6
Continuous
 62
     7
370
    15
100
AcDbLine
 10
102.3392269366
 20
1091.4839837887
 30
0.0
 11
101.8702575915
 21
1092.1089980938
 31
0.0
  0
LINE
  5
197
330
1F
100
AcDbEntity
  8
0
  6
Continuous
 62
     7
370
    15
100
AcDbLine
 10
101.8702575915
 20
1092.1101901867
 30
0.0
 11
102.3392269366
 21
1091.8543074467
 31
0.0
  0
LINE
  5
198
330
1F
100
AcDbEntity
  8
0
  6
Continuous
 62
     7
370
    15
100
AcDbLine
 10
102.3392269366
 20
1091.8543074467
 30
0.0
 11
101.8702575915
 21
1092.4518440106
 31
0.0
  0
LINE
  5
199
330
1F
100
AcDbEntity
  8
0
  6
Continuous
 62
     7
370
    15
100
AcDbLine
 10
101.8702575915
 20
1092.4527380802
 30
0.0
 11
102.3392269366
 21
1092.1352241375
 31
0.0
  0
LINE
  5
19A
330
1F
100
AcDbEntity
  8
0
  6
Continuous
 62
     7
370
    15
100
AcDbLine
 10
102.3392269366
 20
1092.1352241375
 30
0.0
 11
101.8702575915
 21
1092.6992032864
 31
0.0
  0
LINE
  5
19B
330
1F
100
AcDbEntity
  8
0
  6
Continuous
 62
     7
370
    15
100
AcDbLine
 10
101.8702575915
 20
1092.6998589375
 30
0.0
 11
102.3392269366
 21
1092.3238132336
 31
0.0
  0
LINE
  5
19C
330
1F
100
AcDbEntity
  8
0
  6
Continuous
 62
     7
370
    15
100
AcDbLine
 10
102.3392269366
 20
1092.3238132336
 30
0.0
 11
101.8702575915
 21
1092.8487513401
 31
0.0
  0
LINE
  5
19D
330
1F
100
AcDbEntity
  8
0
  6
Continuous
 62
     7
370
    15
100
AcDbLine
 10
101.8702575915
 20
1092.8490493633
 30
0.0
 11
102.3392269366
 21
1092.4182865955
 31
0.0
  0
LINE
  5
19E
330
1F
100
AcDbEntity
  8
0
  6
Continuous
 62
     7
370
    15
100
AcDbLine
 10
102.3392269366
 20
1092.4182865955
 30
0.0
 11
101.8702575915
 21
1092.8988192417
 31
0.0
  0
LINE
  5
19F
330
1F
100
AcDbEntity
  8
0
  6
Continuous
 62
     7
370
    15
100
AcDbLine
 10
102.2685358279
 20
1073.3017061092
 30
0.0
 11
101.8702575915
 21
1072.9105208256
 31
0.0
  0
LINE
  5
1A0
330
1F
100
AcDbEntity
  8
0
  6
Continuous
 62
     7
370
    15
100
AcDbLine
 10
101.8702575915
 20
1072.9106400349
 30
0.0
 11
102.3392269366
 21
1073.4114978649
 31
0.0
  0
LINE
  5
1A1
330
1F
100
AcDbEntity
  8
0
  6
Continuous
 62
     7
370
    15
100
AcDbLine
 10
102.3392269366
 20
1073.4114978649
 30
0.0
 11
101.8702575915
 21
1073.0017755367
 31
0.0
  0
LINE
  5
1A2
330
1F
100
AcDbEntity
  8
0
  6
Continuous
 62
     7
370
    15
100
AcDbLine
 10
101.8702575915
 20
1073.0021927693
 30
0.0
 11
102.3392269366
 21
1073.54656199
 31
0.0
  0
LINE
  5
1A3
330
1F
100
AcDbEntity
  8
0
  6
Continuous
 62
     7
370
    15
100
AcDbLine
 10
102.3392269366
 20
1073.54656199
 30
0.0
 11
101.8702575915
 21
1073.1919739582
 31
0.0
  0
LINE
  5
1A4
330
1F
100
AcDbEntity
  8
0
  6
Continuous
 62
     7
370
    15
100
AcDbLine
 10
101.8702575915
 20
1073.192689214
 30
0.0
 11
102.3392269366
 21
1073.7750861981
 31
0.0
  0
LINE
  5
1A5
330
1F
100
AcDbEntity
  8
0
  6
Continuous
 62
     7
370
    15
100
AcDbLine
 10
102.3392269366
 20
1073.7750861981
 30
0.0
 11
101.8702575915
 21
1073.4791491367
 31
0.0
  0
LINE
  5
1A6
330
1F
100
AcDbEntity
  8
0
  6
Continuous
 62
     7
370
    15
100
AcDbLine
 10
101.8702575915
 20
1073.4801624157
 30
0.0
 11
102.3392269366
 21
1074.0948055126
 31
0.0
  0
LINE
  5
1A7
330
1F
100
AcDbEntity
  8
0
  6
Continuous
 62
     7
370
    15
100
AcDbLine
 10
102.3392269366
 20
1074.0948055126
 30
0.0
 11
101.8702575915
 21
1073.8604400494
 31
0.0
  0
LINE
  5
1A8
330
1F
100
AcDbEntity
  8
0
  6
Continuous
 62
     7
370
    15
100
AcDbLine
 10
101.8702575915
 20
1073.8617513516
 30
0.0
 11
102.3392269366
 21
1074.5025012829
 31
0.0
  0
LINE
  5
1A9
330
1F
100
AcDbEntity
  8
0
  6
Continuous
 62
     7
370
    15
100
AcDbLine
 10
102.3392269366
 20
1074.5025012829
 30
0.0
 11
101.8702575915
 21
1074.3320319988
 31
0.0
  0
LINE
  5
1AA
330
1F
100
AcDbEntity
  8
0
  6
Continuous
 62
     7
370
    15
100
AcDbLine
 10
101.8702575915
 20
1074.3336413242
 30
0.0
 11
102.3392269366
 21
1074.9940607884
 31
0.0
  0
LINE
  5
1AB
330
1F
100
AcDbEntity
  8
0
  6
Continuous
 62
     7
370
    15
100
AcDbLine
 10
102.3392269366
 20
1074.9940607884
 30
0.0
 11
101.8702575915
 21
1074.8892758228
 31
0.0
  0
LINE
  5
1AC
330
1F
100
AcDbEntity
  8
0
  6
Continuous
 62
     7
370
    15
100
AcDbLine
 10
101.8702575915
 20
1074.8911235668
 30
0.0
 11
102.3392269366
 21
1075.5646560528
 31
0.0
  0
LINE
  5
1AD
330
1F
100
AcDbEntity
  8
0
  6
Continuous
 62
     7
370
    15
100
AcDbLine
 10
102.3392269366
 20
1075.5646560528
 30
0.0
 11
101.8702575915
 21
1075.5265686848
 31
0.0
  0
LINE
  5
1AE
330
1F
100
AcDbEntity
  8
0
  6
Continuous
 62
     7
370
    15
100
AcDbLine
 10
101.8702575915
 20
1075.5286548473
 30
0.0
 11
102.3392269366
 21
1076.2085650303
 31
0.0
  0
LINE
  5
1AF
330
1F
100
AcDbEntity
  8
0
  6
Continuous
 62
     7
370
    15
100
AcDbLine
 10
102.3392269366
 20
1076.2085650303
 30
0.0
 11
101.8702575915
 21
1076.2375328877
 31
0.0
  0
LINE
  5
1B0
330
1F
100
AcDbEntity
  8
0
  6
Continuous
 62
     7
370
    15
100
AcDbLine
 10
101.8702575915
 20
1076.2397978642
 30
0.0
 11
102.3392269366
 21
1076.9192908146
 31
0.0
  0
LINE
  5
1B1
330
1F
100
AcDbEntity
  8
0
  6
Continuous
 62
     7
370
    15
100
AcDbLine
 10
102.3392269366
 20
1076.9192908146
 30
0.0
 11
101.8702575915
 21
1077.0150754788
 31
0.0
  0
LINE
  5
1B2
330
1F
100
AcDbEntity
  8
0
  6
Continuous
 62
     7
370
    15
100
AcDbLine
 10
101.8702575915
 20
1077.0175192692
 30
0.0
 11
102.3392269366
 21
1077.6898000576
 31
0.0
  0
LINE
  5
1B3
330
1F
100
AcDbEntity
  8
0
  6
Continuous
 62
     7
370
    15
100
AcDbLine
 10
102.3392269366
 20
1077.6898000576
 30
0.0
 11
101.8702575915
 21
1077.8513882496
 31
0.0
  0
LINE
  5
1B4
330
1F
100
AcDbEntity
  8
0
  6
Continuous
 62
     7
370
    15
100
AcDbLine
 10
101.8702575915
 20
1077.8540704586
 30
0.0
 11
102.3392269366
 21
1078.5124037602
 31
0.0
  0
LINE
  5
1B5
330
1F
100
AcDbEntity
  8
0
  6
Continuous
 62
     7
370
    15
100
AcDbLine
 10
102.3392269366
 20
1078.5124037602
 30
0.0
 11
101.8702575915
 21
1078.7381861546
 31
0.0
  0
LINE
  5
1B6
330
1F
100
AcDbEntity
  8
0
  6
Continuous
 62
     7
370
    15
100
AcDbLine
 10
101.8702575915
 20
1078.7409875729
 30
0.0
 11
102.3392269366
 21
1079.3788168766
 31
0.0
  0
LINE
  5
1B7
330
1F
100
AcDbEntity
  8
0
  6
Continuous
 62
     7
370
    15
100
AcDbLine
 10
102.3392269366
 20
1079.3788168766
 30
0.0
 11
101.8702575915
 21
1079.6665881016
 31
0.0
  0
LINE
  5
1B8
330
1F
100
AcDbEntity
  8
0
  6
Continuous
 62
     7
370
    15
100
AcDbLine
 10
101.8702575915
 20
1079.6694491245
 30
0.0
 11
102.3392269366
 21
1080.2804563381
 31
0.0
  0
LINE
  5
1B9
330
1F
100
AcDbEntity
  8
0
  6
Continuous
 62
     7
370
    15
100
AcDbLine
 10
102.3392269366
 20
1080.2804563381
 30
0.0
 11
101.8702575915
 21
1080.6272361614
 31
0.0
  0
LINE
  5
1BA
330
1F
100
AcDbEntity
  8
0
  6
Continuous
 62
     7
370
    15
100
AcDbLine
 10
101.8702575915
 20
1080.6302163937
 30
0.0
 11
102.3392269366
 21
1081.2082026341
 31
0.0
  0
LINE
  5
1BB
330
1F
100
AcDbEntity
  8
0
  6
Continuous
 62
     7
370
    15
100
AcDbLine
 10
102.3392269366
 20
1081.2082026341
 30
0.0
 11
101.8702575915
 21
1081.6106531956
 31
0.0
  0
LINE
  5
1BC
330
1F
100
AcDbEntity
  8
0
  6
Continuous
 62
     7
370
    15
100
AcDbLine
 10
101.8702575915
 20
1081.6136930325
 30
0.0
 11
102.3392269366
 21
1082.1529362537
 31
0.0
  0
LINE
  5
1BD
330
1F
100
AcDbEntity
  8
0
  6
Continuous
 62
     7
370
    15
100
AcDbLine
 10
102.3392269366
 20
1083.1050608494
 30
0.0
 11
101.8702575915
 21
1083.606157098
 31
0.0
  0
LINE
  5
1BE
330
1F
100
AcDbEntity
  8
0
  6
Continuous
 62
     7
370
    15
100
AcDbLine
 10
102.3712346308
 20
1082.9003784992
 30
0.0
 11
102.3712346308
 21
1073.4029147961
 31
0.0
  0
LINE
  5
1BF
330
1F
100
AcDbEntity
  8
0
  6
Continuous
 62
     7
370
    15
100
AcDbLine
 10
102.3712346308
 20
1092.397901807
 30
0.0
 11
102.3712346308
 21
1082.9003784992
 31
0.0
  0
LINE
  5
1C0
330
1F
100
AcDbEntity
  8
0
  6
Continuous
 62
     7
370
    15
100
AcDbLine
 10
101.8712112658
 20
1083.6077664234
 30
0.0
 11
98.8712498896
 21
1083.6077664234
 31
0.0
  0
LINE
  5
1C1
330
1F
100
AcDbEntity
  8
0
  6
Continuous
 62
     7
370
    15
100
AcDbLine
 10
102.3392269366
 20
1084.0551588871
 30
0.0
 11
98.4031746142
 21
1084.0551588871
 31
0.0
  0
LINE
  5
1C2
330
1F
100
AcDbEntity
  8
0
  6
Continuous
 62
     7
370
    15
100
AcDbLine
 10
98.8712498896
 20
1081.6119644978
 30
0.0
 11
101.8712112658
 21
1081.6119644978
 31
0.0
  0
LINE
  5
1C3
330
1F
100
AcDbEntity
  8
0
  6
Continuous
 62
     7
370
    15
100
AcDbLine
 10
98.4031746142
 20
1081.2082026341
 30
0.0
 11
102.3392269366
 21
1081.2082026341
 31
0.0
  0
LINE
  5
1C4
330
1F
100
AcDbEntity
  8
0
  6
Continuous
 62
     7
370
    15
100
AcDbLine
 10
102.3392269366
 20
1084.9937532284
 30
0.0
 11
98.4031746142
 21
1084.9937532284
 31
0.0
  0
LINE
  5
1C5
330
1F
100
AcDbEntity
  8
0
  6
Continuous
 62
     7
370
    15
100
AcDbLine
 10
101.8712112658
 20
1084.6000645496
 30
0.0
 11
98.8712498896
 21
1084.6000645496
 31
0.0
  0
LINE
  5
1C6
330
1F
100
AcDbEntity
  8
0
  6
Continuous
 62
     7
370
    15
100
AcDbLine
 10
98.8712498896
 20
1080.6283686497
 30
0.0
 11
101.8712112658
 21
1080.6283686497
 31
0.0
  0
LINE
  5
1C7
330
1F
100
AcDbEntity
  8
0
  6
Continuous
 62
     7
370
    15
100
AcDbLine
 10
98.4031746142
 20
1080.2804563381
 30
0.0
 11
102.3392269366
 21
1080.2804563381
 31
0.0
  0
LINE
  5
1C8
330
1F
100
AcDbEntity
  8
0
  6
Continuous
 62
     7
370
    15
100
AcDbLine
 10
102.3392269366
 20
1085.9114263393
 30
0.0
 11
98.4031746142
 21
1085.9114263393
 31
0.0
  0
LINE
  5
1C9
330
1F
100
AcDbEntity
  8
0
  6
Continuous
 62
     7
370
    15
100
AcDbLine
 10
101.8712112658
 20
1085.5753753521
 30
0.0
 11
98.8712498896
 21
1085.5753753521
 31
0.0
  0
LINE
  5
1CA
330
1F
100
AcDbEntity
  8
0
  6
Continuous
 62
     7
370
    15
100
AcDbLine
 10
98.8712498896
 20
1079.6674821713
 30
0.0
 11
101.8712112658
 21
1079.6674821713
 31
0.0
  0
LINE
  5
1CB
330
1F
100
AcDbEntity
  8
0
  6
Continuous
 62
     7
370
    15
100
AcDbLine
 10
98.4031746142
 20
1079.3788168766
 30
0.0
 11
102.3392269366
 21
1079.3788168766
 31
0.0
  0
LINE
  5
1CC
330
1F
100
AcDbEntity
  8
0
  6
Continuous
 62
     7
370
    15
100
AcDbLine
 10
101.8712112658
 20
1086.5239832737
 30
0.0
 11
98.8712498896
 21
1086.5239832737
 31
0.0
  0
LINE
  5
1CD
330
1F
100
AcDbEntity
  8
0
  6
Continuous
 62
     7
370
    15
100
AcDbLine
 10
102.3392269366
 20
1086.7989991047
 30
0.0
 11
98.4031746142
 21
1086.7989991047
 31
0.0
  0
LINE
  5
1CE
330
1F
100
AcDbEntity
  8
0
  6
Continuous
 62
     7
370
    15
100
AcDbLine
 10
98.8712498896
 20
1078.7389014103
 30
0.0
 11
101.8712112658
 21
1078.7389014103
 31
0.0
  0
LINE
  5
1CF
330
1F
100
AcDbEntity
  8
0
  6
Continuous
 62
     7
370
    15
100
AcDbLine
 10
98.4031746142
 20
1078.5124037602
 30
0.0
 11
102.3392269366
 21
1078.5124037602
 31
0.0
  0
LINE
  5
1D0
330
1F
100
AcDbEntity
  8
0
  6
Continuous
 62
     7
370
    15
100
AcDbLine
 10
101.8712112658
 20
1087.4363515713
 30
0.0
 11
98.8712498896
 21
1087.4363515713
 31
0.0
  0
LINE
  5
1D1
330
1F
100
AcDbEntity
  8
0
  6
Continuous
 62
     7
370
    15
100
AcDbLine
 10
102.3392269366
 20
1087.647650037
 30
0.0
 11
98.4031746142
 21
1087.647650037
 31
0.0
  0
LINE
  5
1D2
330
1F
100
AcDbEntity
  8
0
  6
Continuous
 62
     7
370
    15
100
AcDbLine
 10
98.8712498896
 20
1077.8519246914
 30
0.0
 11
101.8712112658
 21
1077.8519246914
 31
0.0
  0
LINE
  5
1D3
330
1F
100
AcDbEntity
  8
0
  6
Continuous
 62
     7
370
    15
100
AcDbLine
 10
98.4031746142
 20
1077.6898000576
 30
0.0
 11
102.3392269366
 21
1077.6898000576
 31
0.0
  0
LINE
  5
1D4
330
1F
100
AcDbEntity
  8
0
  6
Continuous
 62
     7
370
    15
100
AcDbLine
 10
101.8712112658
 20
1088.3034203388
 30
0.0
 11
98.8712498896
 21
1088.3034203388
 31
0.0
  0
LINE
  5
1D5
330
1F
100
AcDbEntity
  8
0
  6
Continuous
 62
     7
370
    15
100
AcDbLine
 10
102.3392269366
 20
1088.4487960674
 30
0.0
 11
98.4031746142
 21
1088.4487960674
 31
0.0
  0
LINE
  5
1D6
330
1F
100
AcDbEntity
  8
0
  6
Continuous
 62
     7
370
    15
100
AcDbLine
 10
98.8712498896
 20
1077.015373502
 30
0.0
 11
101.8712112658
 21
1077.015373502
 31
0.0
  0
LINE
  5
1D7
330
1F
100
AcDbEntity
  8
0
  6
Continuous
 62
     7
370
    15
100
AcDbLine
 10
98.4031746142
 20
1076.9192908146
 30
0.0
 11
102.3392269366
 21
1076.9192908146
 31
0.0
  0
LINE
  5
1D8
330
1F
100
AcDbEntity
  8
0
  6
Continuous
 62
     7
370
    15
100
AcDbLine
 10
102.3392269366
 20
1089.1945693829
 30
0.0
 11
98.4031746142
 21
1089.1945693829
 31
0.0
  0
LINE
  5
1D9
330
1F
100
AcDbEntity
  8
0
  6
Continuous
 62
     7
370
    15
100
AcDbLine
 10
101.8712112658
 20
1089.1164872982
 30
0.0
 11
98.8712498896
 21
1089.1164872982
 31
0.0
  0
LINE
  5
1DA
330
1F
100
AcDbEntity
  8
0
  6
Continuous
 62
     7
370
    15
100
AcDbLine
 10
98.8712498896
 20
1076.2376520969
 30
0.0
 11
101.8712112658
 21
1076.2376520969
 31
0.0
  0
LINE
  5
1DB
330
1F
100
AcDbEntity
  8
0
  6
Continuous
 62
     7
370
    15
100
AcDbLine
 10
98.4031746142
 20
1076.2085650303
 30
0.0
 11
102.3392269366
 21
1076.2085650303
 31
0.0
  0
LINE
  5
1DC
330
1F
100
AcDbEntity
  8
0
  6
Continuous
 62
     7
370
    15
100
AcDbLine
 10
101.8712112658
 20
1089.8674462177
 30
0.0
 11
98.8712498896
 21
1089.8674462177
 31
0.0
  0
LINE
  5
1DD
330
1F
100
AcDbEntity
  8
0
  6
Continuous
 62
     7
370
    15
100
AcDbLine
 10
102.3392269366
 20
1089.8774001934
 30
0.0
 11
98.4031746142
 21
1089.8774001934
 31
0.0
  0
LINE
  5
1DE
330
1F
100
AcDbEntity
  8
0
  6
Continuous
 62
     7
370
    15
100
AcDbLine
 10
98.8712498896
 20
1075.5264494755
 30
0.0
 11
101.8712112658
 21
1075.5264494755
 31
0.0
  0
LINE
  5
1DF
330
1F
100
AcDbEntity
  8
0
  6
Continuous
 62
     7
370
    15
100
AcDbLine
 10
101.8712112658
 20
1090.5487869122
 30
0.0
 11
98.8712498896
 21
1090.5487869122
 31
0.0
  0
LINE
  5
1E0
330
1F
100
AcDbEntity
  8
0
  6
Continuous
 62
     7
370
    15
100
AcDbLine
 10
98.8712498896
 20
1074.8889777996
 30
0.0
 11
101.8712112658
 21
1074.8889777996
 31
0.0
  0
LINE
  5
1E1
330
1F
100
AcDbEntity
  8
0
  6
Continuous
 62
     7
370
    15
100
AcDbLine
 10
101.8712112658
 20
1091.1537740566
 30
0.0
 11
98.8712498896
 21
1091.1537740566
 31
0.0
  0
LINE
  5
1E2
330
1F
100
AcDbEntity
  8
0
  6
Continuous
 62
     7
370
    15
100
AcDbLine
 10
98.8712498896
 20
1074.331495557
 30
0.0
 11
101.8712112658
 21
1074.331495557
 31
0.0
  0
LINE
  5
1E3
330
1F
100
AcDbEntity
  8
0
  6
Continuous
 62
     7
370
    15
100
AcDbLine
 10
101.8712112658
 20
1091.6762087681
 30
0.0
 11
98.8712498896
 21
1091.6762087681
 31
0.0
  0
LINE
  5
1E4
330
1F
100
AcDbEntity
  8
0
  6
Continuous
 62
     7
370
    15
100
AcDbLine
 10
98.8712498896
 20
1073.859665189
 30
0.0
 11
101.8712112658
 21
1073.859665189
 31
0.0
  0
LINE
  5
1E5
330
1F
100
AcDbEntity
  8
0
  6
Continuous
 62
     7
370
    15
100
AcDbLine
 10
101.8712112658
 20
1092.1110246517
 30
0.0
 11
98.8712498896
 21
1092.1110246517
 31
0.0
  0
LINE
  5
1E6
330
1F
100
AcDbEntity
  8
0
  6
Continuous
 62
     7
370
    15
100
AcDbLine
 10
98.8712498896
 20
1073.4781954624
 30
0.0
 11
101.8712112658
 21
1073.4781954624
 31
0.0
  0
LINE
  5
1E7
330
1F
100
AcDbEntity
  8
0
  6
Continuous
 62
     7
370
    15
100
AcDbLine
 10
101.8712112658
 20
1092.4537513592
 30
0.0
 11
98.8712498896
 21
1092.4537513592
 31
0.0
  0
LINE
  5
1E8
330
1F
100
AcDbEntity
  8
0
  6
Continuous
 62
     7
370
    15
100
AcDbLine
 10
98.8712498896
 20
1073.1907818653
 30
0.0
 11
101.8712112658
 21
1073.1907818653
 31
0.0
  0
LINE
  5
1E9
330
1F
100
AcDbEntity
  8
0
  6
Continuous
 62
     7
370
    15
100
AcDbLine
 10
101.8712112658
 20
1092.7010510304
 30
0.0
 11
98.8712498896
 21
1092.7010510304
 31
0.0
  0
LINE
  5
1EA
330
1F
100
AcDbEntity
  8
0
  6
Continuous
 62
     7
370
    15
100
AcDbLine
 10
98.8712498896
 20
1073.0004642346
 30
0.0
 11
101.8712112658
 21
1073.0004642346
 31
0.0
  0
LINE
  5
1EB
330
1F
100
AcDbEntity
  8
0
  6
Continuous
 62
     7
370
    15
100
AcDbLine
 10
101.8712112658
 20
1092.8504202702
 30
0.0
 11
98.8712498896
 21
1092.8504202702
 31
0.0
  0
LINE
  5
1EC
330
1F
100
AcDbEntity
  8
0
  6
Continuous
 62
     7
370
    15
100
AcDbLine
 10
98.8712498896
 20
1072.9090307095
 30
0.0
 11
101.8712112658
 21
1072.9090307095
 31
0.0
  0
LINE
  5
1ED
330
1F
100
AcDbEntity
  8
0
  6
Continuous
 62
     7
370
    15
100
AcDbLine
 10
101.8712112658
 20
1092.9003689625
 30
0.0
 11
98.8712498896
 21
1092.9003689625
 31
0.0
  0
LINE
  5
1EE
330
1F
100
AcDbEntity
  8
0
  6
Continuous
 62
     7
370
    15
100
AcDbLine
 10
90.8712336771
 20
947.2173784115
 30
0.0
 11
89.6712133639
 21
947.2173784115
 31
0.0
  0
LINE
  5
1EF
330
1F
100
AcDbEntity
  8
0
  6
Continuous
 62
     7
370
    15
100
AcDbLine
 10
90.8712336771
 20
949.2173526623
 30
0.0
 11
90.8712336771
 21
947.2173784115
 31
0.0
  0
LINE
  5
1F0
330
1F
100
AcDbEntity
  8
0
  6
Continuous
 62
     7
370
    15
100
AcDbLine
 10
89.6712133639
 20
947.2173784115
 30
0.0
 11
89.6712133639
 21
949.2173526623
 31
0.0
  0
LINE
  5
1F1
330
1F
100
AcDbEntity
  8
0
  6
Continuous
 62
     7
370
    15
100
AcDbLine
 10
90.8712336771
 20
995.2584240772
 30
0.0
 11
90.8712336771
 21
949.2173526623
 31
0.0
  0
LINE
  5
1F2
330
1F
100
AcDbEntity
  8
0
  6
Continuous
 62
     7
370
    15
100
AcDbLine
 10
89.6712133639
 20
995.2584240772
 30
0.0
 11
89.6712133639
 21
949.2173526623
 31
0.0
  0
ARC
  5
1F3
330
1F
100
AcDbEntity
  8
0
  6
Continuous
 62
     7
370
    15
100
AcDbCircle
 10
92.12122271
 20
995.2584283892
 30
0.0
 40
1.250000000000024
100
AcDbArc
 50
105.0
 51
180.0
  0
ARC
  5
1F4
330
1F
100
AcDbEntity
  8
0
  6
Continuous
 62
     7
370
    15
100
AcDbCircle
 10
92.12122271
 20
995.2584283892
 30
0.0
 40
2.450000000000003
100
AcDbArc
 50
105.0
 51
180.0
  0
LINE
  5
1F5
330
1F
100
AcDbEntity
  8
0
  6
Continuous
 62
     7
370
    15
100
AcDbLine
 10
137.2752973788
 20
1008.6515281536
 30
0.0
 11
91.7977282755
 21
996.4658353664
 31
0.0
  0
LINE
  5
1F6
330
1F
100
AcDbEntity
  8
0
  6
Continuous
 62
     7
370
    15
100
AcDbLine
 10
136.9647571795
 20
1009.8106596806
 30
0.0
 11
91.4871284716
 21
997.6249668934
 31
0.0
  0
ARC
  5
1F7
330
1F
100
AcDbEntity
  8
0
  6
Continuous
 62
     7
370
    15
100
AcDbCircle
 10
136.6412058842
 20
1011.0180437953
 30
0.0
 40
2.44999999999996
100
AcDbArc
 50
285.0
 51
0.0
  0
ARC
  5
1F8
330
1F
100
AcDbEntity
  8
0
  6
Continuous
 62
     7
370
    15
100
AcDbCircle
 10
136.6412058842
 20
1011.0180437953
 30
0.0
 40
1.250000000000031
100
AcDbArc
 50
285.0
 51
0.0
  0
LINE
  5
1F9
330
1F
100
AcDbEntity
  8
0
  6
Continuous
 62
     7
370
    15
100
AcDbLine
 10
139.0912124865
 20
1029.0997360088
 30
0.0
 11
139.0912124865
 21
1011.0180709698
 31
0.0
  0
LINE
  5
1FA
330
1F
100
AcDbEntity
  8
0
  6
Continuous
 62
     7
370
    15
100
AcDbLine
 10
137.8911921732
 20
1029.0997360088
 30
0.0
 11
137.8911921732
 21
1011.0180709698
 31
0.0
  0
LINE
  5
1FB
330
1F
100
AcDbEntity
  8
0
  6
Continuous
 62
     7
370
    15
100
AcDbLine
 10
91.4871284716
 20
1042.4928400852
 30
0.0
 11
136.9647571795
 21
1030.3071472981
 31
0.0
  0
LINE
  5
1FC
330
1F
100
AcDbEntity
  8
0
  6
Continuous
 62
     7
370
    15
100
AcDbLine
 10
91.7977282755
 20
1043.6519120075
 30
0.0
 11
137.2752973788
 21
1031.4662192204
 31
0.0
  0
ARC
  5
1FD
330
1F
100
AcDbEntity
  8
0
  6
Continuous
 62
     7
370
    15
100
AcDbCircle
 10
92.12122271
 20
1044.8593417314
 30
0.0
 40
1.249999999999972
100
AcDbArc
 50
180.0
 51
255.0
  0
ARC
  5
1FE
330
1F
100
AcDbEntity
  8
0
  6
Continuous
 62
     7
370
    15
100
AcDbCircle
 10
92.12122271
 20
1044.8593417314
 30
0.0
 40
2.44999999999996
100
AcDbArc
 50
180.0
 51
255.0
  0
LINE
  5
1FF
330
1F
100
AcDbEntity
  8
0
  6
Continuous
 62
     7
370
    15
100
AcDbLine
 10
90.8712336771
 20
1102.9004190304
 30
0.0
 11
90.8712336771
 21
1044.8593232967
 31
0.0
  0
LINE
  5
200
330
1F
100
AcDbEntity
  8
0
  6
Continuous
 62
     7
370
    15
100
AcDbLine
 10
89.6712133639
 20
1102.9004190304
 30
0.0
 11
89.6712133639
 21
1044.8593232967
 31
0.0
  0
ARC
  5
201
330
1F
100
AcDbEntity
  8
0
  6
Continuous
 62
     7
370
    15
100
AcDbCircle
 10
136.6412058842
 20
1029.0997263254
 30
0.0
 40
1.250000000000031
100
AcDbArc
 50
0.0
 51
75.0
  0
ARC
  5
202
330
1F
100
AcDbEntity
  8
0
  6
Continuous
 62
     7
370
    15
100
AcDbCircle
 10
136.6412058842
 20
1029.0997263254
 30
0.0
 40
2.45000000000001
100
AcDbArc
 50
0.0
 51
75.0
  0
LINE
  5
203
330
1F
100
AcDbEntity
  8
0
  6
Continuous
 62
     7
370
    15
100
AcDbLine
 10
89.6712133639
 20
1107.900414262
 30
0.0
 11
90.8712336771
 21
1107.900414262
 31
0.0
  0
LINE
  5
204
330
1F
100
AcDbEntity
  8
0
  6
Continuous
 62
     7
370
    15
100
AcDbLine
 10
90.8712336771
 20
1107.900414262
 30
0.0
 11
90.8712336771
 21
1102.9004190304
 31
0.0
  0
LINE
  5
205
330
1F
100
AcDbEntity
  8
0
  6
Continuous
 62
     7
370
    15
100
AcDbLine
 10
89.6712133639
 20
1102.9004190304
 30
0.0
 11
89.6712133639
 21
1107.900414262
 31
0.0
  0
LINE
  5
206
330
1F
100
AcDbEntity
  8
0
  6
Continuous
 62
     7
370
    15
100
AcDbLine
 10
34.1712424509
 20
942.7004192211
 30
0.0
 11
34.1712424509
 21
1130.2088830807
 31
0.0
  0
LINE
  5
207
330
1F
100
AcDbEntity
  8
0
  6
Continuous
 62
     7
370
    15
100
AcDbLine
 10
34.1712424509
 20
1130.2088830807
 30
0.0
 11
36.2212249987
 21
1130.2088830807
 31
0.0
  0
LINE
  5
208
330
1F
100
AcDbEntity
  8
0
  6
Continuous
 62
     7
370
    15
100
AcDbLine
 10
36.2212249987
 20
942.7004192211
 30
0.0
 11
34.1712424509
 21
942.7004192211
 31
0.0
  0
LINE
  5
209
330
1F
100
AcDbEntity
  8
0
  6
Continuous
 62
     7
370
    15
100
AcDbLine
 10
36.2212249987
 20
1130.2088830807
 30
0.0
 11
36.6212317698
 21
1130.2088830807
 31
0.0
  0
LINE
  5
20A
330
1F
100
AcDbEntity
  8
0
  6
Continuous
 62
     7
370
    15
100
AcDbLine
 10
36.6212317698
 20
1130.2088830807
 30
0.0
 11
36.6212317698
 21
1130.6088898518
 31
0.0
  0
LINE
  5
20B
330
1F
100
AcDbEntity
  8
0
  6
Continuous
 62
     7
370
    15
100
AcDbLine
 10
36.6212317698
 20
1130.6088898518
 30
0.0
 11
35.0712129824
 21
1130.6088898518
 31
0.0
  0
LINE
  5
20C
330
1F
100
AcDbEntity
  8
0
  6
Continuous
 62
     7
370
    15
100
AcDbLine
 10
35.0712129824
 20
1130.6088898518
 30
0.0
 11
35.0712129824
 21
1140.679869447
 31
0.0
  0
ARC
  5
20D
330
1F
100
AcDbEntity
  8
0
  6
Continuous
 62
     7
370
    15
100
AcDbCircle
 10
36.22122271
 20
1140.6798457707
 30
0.0
 40
1.150000000000153
100
AcDbArc
 50
75.0
 51
180.0
  0
LINE
  5
20E
330
1F
100
AcDbEntity
  8
0
  6
Continuous
 62
     7
370
    15
100
AcDbLine
 10
36.5188905947
 20
1141.790661607
 30
0.0
 11
69.8158333056
 21
1132.8687403538
 31
0.0
  0
ARC
  5
20F
330
1F
100
AcDbEntity
  8
0
  6
Continuous
 62
     7
370
    15
100
AcDbCircle
 10
63.37122271
 20
1108.8172159114
 30
0.0
 40
24.90000000000064
100
AcDbArc
 50
0.0
 51
75.0
  0
LINE
  5
210
330
1F
100
AcDbEntity
  8
0
  6
Continuous
 62
     7
370
    15
100
AcDbLine
 10
88.2712194674
 20
1108.8171933033
 30
0.0
 11
87.0711991541
 21
1108.8171933033
 31
0.0
  0
LINE
  5
211
330
1F
100
AcDbEntity
  8
0
  6
Continuous
 62
     7
370
    15
100
AcDbLine
 10
87.0711991541
 20
1108.8171933033
 30
0.0
 11
87.0711991541
 21
1108.3172295429
 31
0.0
  0
LINE
  5
212
330
1F
100
AcDbEntity
  8
0
  6
Continuous
 62
     7
370
    15
100
AcDbLine
 10
87.0711991541
 20
1108.3172295429
 30
0.0
 11
87.1212074511
 21
1108.3172295429
 31
0.0
  0
LINE
  5
213
330
1F
100
AcDbEntity
  8
0
  6
Continuous
 62
     7
370
    15
100
AcDbLine
 10
36.2212249987
 20
942.7004192211
 30
0.0
 11
87.1212074511
 21
942.7004192211
 31
0.0
  0
LINE
  5
214
330
1F
100
AcDbEntity
  8
0
  6
Continuous
 62
     7
370
    15
100
AcDbLine
 10
87.1212074511
 20
1108.3172295429
 30
0.0
 11
89.1712496035
 21
1108.3172295429
 31
0.0
  0
LINE
  5
215
330
1F
100
AcDbEntity
  8
0
  6
Continuous
 62
     7
370
    15
100
AcDbLine
 10
89.1712496035
 20
1108.3172295429
 30
0.0
 11
89.1712496035
 21
942.7004192211
 31
0.0
  0
LINE
  5
216
330
1F
100
AcDbEntity
  8
0
  6
Continuous
 62
     7
370
    15
100
AcDbLine
 10
89.1712496035
 20
942.7004192211
 30
0.0
 11
87.1212074511
 21
942.7004192211
 31
0.0
  0
ARC
  5
217
330
1F
100
AcDbEntity
  8
0
  6
Continuous
 62
     7
370
    15
100
AcDbCircle
 10
63.37122271
 20
1108.8172159114
 30
0.0
 40
25.00000000000044
100
AcDbArc
 50
0.0
 51
75.0
  0
ARC
  5
218
330
1F
100
AcDbEntity
  8
0
  6
Continuous
 62
     7
370
    15
100
AcDbCircle
 10
63.37122271
 20
1108.8172159114
 30
0.0
 40
25.80000000000028
100
AcDbArc
 50
0.0
 51
75.0
  0
LINE
  5
219
330
1F
100
AcDbEntity
  8
0
  6
Continuous
 62
     7
370
    15
100
AcDbLine
 10
88.3712360613
 20
1108.717236314
 30
0.0
 11
89.1712496035
 21
1108.717236314
 31
0.0
  0
LINE
  5
21A
330
1F
100
AcDbEntity
  8
0
  6
Continuous
 62
     7
370
    15
100
AcDbLine
 10
89.1712496035
 20
1108.8171933033
 30
0.0
 11
89.1712496035
 21
1108.717236314
 31
0.0
  0
LINE
  5
21B
330
1F
100
AcDbEntity
  8
0
  6
Continuous
 62
     7
370
    15
100
AcDbLine
 10
88.3712360613
 20
1108.8171933033
 30
0.0
 11
88.3712360613
 21
1108.717236314
 31
0.0
  0
LINE
  5
21C
330
1F
100
AcDbEntity
  8
0
  6
Continuous
 62
     7
370
    15
100
AcDbLine
 10
34.1712424509
 20
1130.3088996746
 30
0.0
 11
34.1712424509
 21
1140.679869447
 31
0.0
  0
LINE
  5
21D
330
1F
100
AcDbEntity
  8
0
  6
Continuous
 62
     7
370
    15
100
AcDbLine
 10
34.9711963885
 20
1130.3088996746
 30
0.0
 11
34.9711963885
 21
1140.679869447
 31
0.0
  0
LINE
  5
21E
330
1F
100
AcDbEntity
  8
0
  6
Continuous
 62
     7
370
    15
100
AcDbLine
 10
34.1712424509
 20
1130.3088996746
 30
0.0
 11
34.9711963885
 21
1130.3088996746
 31
0.0
  0
LINE
  5
21F
330
1F
100
AcDbEntity
  8
0
  6
Continuous
 62
     7
370
    15
100
AcDbLine
 10
36.7518255465
 20
1142.659995351
 30
0.0
 11
70.0487682574
 21
1133.7380740978
 31
0.0
  0
LINE
  5
220
330
1F
100
AcDbEntity
  8
0
  6
Continuous
 62
     7
370
    15
100
AcDbLine
 10
36.5447590105
 20
1141.8872807362
 30
0.0
 11
69.8417017214
 21
1132.965359483
 31
0.0
  0
ARC
  5
221
330
1F
100
AcDbEntity
  8
0
  6
Continuous
 62
     7
370
    15
100
AcDbCircle
 10
36.22122271
 20
1140.6798457707
 30
0.0
 40
2.050000000000085
100
AcDbArc
 50
75.0
 51
180.0
  0
ARC
  5
222
330
1F
100
AcDbEntity
  8
0
  6
Continuous
 62
     7
370
    15
100
AcDbCircle
 10
36.22122271
 20
1140.6798457707
 30
0.0
 40
1.250000000000025
100
AcDbArc
 50
75.0
 51
180.0
  0
LINE
  5
223
330
1F
100
AcDbEntity
  8
0
  6
Continuous
 62
     7
370
    15
100
AcDbLine
 10
89.1712496035
 20
1108.3172295429
 30
0.0
 11
89.1712496035
 21
1108.717236314
 31
0.0
  0
LINE
  5
224
330
1F
100
AcDbEntity
  8
0
  6
Continuous
 62
     7
370
    15
100
AcDbLine
 10
88.3712360613
 20
1108.717236314
 30
0.0
 11
88.3712360613
 21
1108.3172295429
 31
0.0
  0
LWPOLYLINE
  5
225
330
1F
100
AcDbEntity
  8
0
  6
Continuous
 62
     7
370
    15
100
AcDbPolyline
 90
       31
 70
   128
 43
0.0
 10
787.504721617
 20
815.1063654759
 10
787.4497028046
 20
815.275642667
 10
787.2852535896
 20
815.7818053104
 10
787.0131770127
 20
816.6191313603
 10
786.6364533059
 20
817.7786205151
 10
786.1592063658
 20
819.2473981716
 10
785.5866664998
 20
821.0094902851
 10
784.9251108222
 20
823.0455849506
 10
784.1817812972
 20
825.3333304264
 10
783.3648251347
 20
827.847633157
 10
782.4831942074
 20
830.5610154011
 10
781.5465444677
 20
833.443734441
 10
780.5651428156
 20
836.464199815
 10
779.5497367136
 20
839.5892713406
 10
778.511453604
 20
842.7847955563
 10
777.4616667979
 20
846.0156653263
 10
776.411883717
 20
849.246594701
 10
775.3736006074
 20
852.4421189167
 10
774.3581945054
 20
855.5671904423
 10
773.3767891281
 20
858.5876558163
 10
772.4401431136
 20
861.4703748562
 10
771.558508461
 20
864.1837571003
 10
770.7415541612
 20
866.6980598309
 10
769.9982246362
 20
868.9858053066
 10
769.3366670959
 20
871.0218403675
 10
768.7641290926
 20
872.783932481
 10
768.2868821524
 20
874.2527697422
 10
767.9101565831
 20
875.4121992924
 10
767.6380800061
 20
876.2495849468
 10
767.4736326538
 20
876.7556879856
 10
767.418615704
 20
876.9250247814
  0
LWPOLYLINE
  5
226
330
1F
100
AcDbEntity
  8
0
  6
Continuous
 62
     7
370
    15
100
AcDbPolyline
 90
        6
 70
   128
 43
0.0
 10
779.6485984676
 20
871.6456625797
 10
779.1245693319
 20
873.2585046627
 10
778.7092627935
 20
874.5366666653
 10
778.4084344261
 20
875.4625056126
 10
778.2262565546
 20
876.023206506
 10
778.1652474754
 20
876.210961137
  0
LWPOLYLINE
  5
227
330
1F
100
AcDbEntity
  8
0
  6
Continuous
 62
     7
370
    15
100
AcDbPolyline
 90
        6
 70
   128
 43
0.0
 10
795.7792172186
 20
822.0007155277
 10
795.7182081394
 20
822.1885297634
 10
795.5360302679
 20
822.7491710522
 10
795.2352019005
 20
823.6750696041
 10
794.8198990874
 20
824.9532316067
 10
794.2958662264
 20
826.566014085
  0
LINE
  5
228
330
1F
100
AcDbEntity
  8
0
  6
Continuous
 62
     7
370
    15
100
AcDbLine
 10
773.274935966
 20
873.4388087132
 30
0.0
 11
772.2203621619
 21
873.4516833164
 31
0.0
  0
SPLINE
  5
229
330
1F
100
AcDbEntity
  8
0
  6
Continuous
 62
     7
370
    15
100
AcDbSpline
210
0.0
220
0.0
230
1.0
 70
     8
 71
     3
 72
     9
 73
     5
 74
     0
 42
0.00000001
 43
0.00000001
 40
0.0
 40
0.0
 40
0.0
 40
0.0
 40
0.8739132386690974
 40
1.0
 40
1.0
 40
1.0
 40
1.0
 10
771.4684458427312
 20
873.3646009304142
 30
0.0
 10
771.4380569332775
 20
873.4408126311572
 30
0.0
 10
771.4032835620674
 20
873.5280200304398
 30
0.0
 10
771.4220702373882
 20
873.6075899358174
 30
0.0
 10
771.4244389884354
 20
873.6176226474857
 30
0.0
  0
LINE
  5
22A
330
1F
100
AcDbEntity
  8
0
  6
Continuous
 62
     7
370
    15
100
AcDbLine
 10
771.9270030014
 20
872.0934722759
 30
0.0
 11
771.4684458427
 21
873.3646009304
 31
0.0
  0
SPLINE
  5
22B
330
1F
100
AcDbEntity
  8
0
  6
Continuous
 62
     7
370
    15
100
AcDbSpline
210
0.0
220
0.0
230
1.0
 70
     8
 71
     3
 72
    13
 73
     9
 74
     0
 42
0.00000001
 43
0.00000001
 40
0.0
 40
0.0
 40
0.0
 40
0.0
 40
0.2501924923766643
 40
0.3752644374070346
 40
0.4998700338479234
 40
0.6245983355132113
 40
0.7497506473509261
 40
1.0
 40
1.0
 40
1.0
 40
1.0
 10
773.3012439660909
 20
871.4386556484318
 30
0.0
 10
773.135242828856
 20
871.4438114409019
 30
0.0
 10
772.8862572466684
 20
871.4515446288257
 30
0.0
 10
772.5542480306726
 20
871.5089116204438
 30
0.0
 10
772.3208502713028
 20
871.5876422728682
 30
0.0
 10
772.1562438525692
 20
871.7064826236788
 30
0.0
 10
772.0119011072354
 20
871.8775802543283
 30
0.0
 10
771.9609607437508
 20
872.0071192817422
 30
0.0
 10
771.9270030014397
 20
872.0934722759342
 30
0.0
  0
LINE
  5
22C
330
1F
100
AcDbEntity
  8
0
  6
Continuous
 62
     7
370
    15
100
AcDbLine
 10
775.8707219713
 20
871.4099858143
 30
0.0
 11
773.3012439661
 21
871.4386556484
 31
0.0
  0
SPLINE
  5
22D
330
1F
100
AcDbEntity
  8
0
  6
Continuous
 62
     7
370
    15
100
AcDbSpline
210
0.0
220
0.0
230
1.0
 70
     8
 71
     3
 72
    12
 73
     8
 74
     0
 42
0.00000001
 43
0.00000001
 40
0.0
 40
0.0
 40
0.0
 40
0.0
 40
0.1697818469648432
 40
0.333227515171915
 40
0.4995246851211683
 40
0.666340499372823
 40
0.9999999999999999
 40
0.9999999999999999
 40
0.9999999999999999
 40
0.9999999999999999
 10
776.8895776920201
 20
871.7811439373112
 30
0.0
 10
776.8826204078898
 20
871.7377512741625
 30
0.0
 10
776.8689654822039
 20
871.652585341666
 30
0.0
 10
776.7717582299153
 20
871.5366280851155
 30
0.0
 10
776.5840930065617
 20
871.4634410659241
 30
0.0
 10
776.2822911183813
 20
871.4139417164238
 30
0.0
 10
776.0353523805777
 20
871.4115682015833
 30
0.0
 10
775.8707219712617
 20
871.4099858142949
 30
0.0
  0
LINE
  5
22E
330
1F
100
AcDbEntity
  8
0
  6
Continuous
 62
     7
370
    15
100
AcDbLine
 10
774.3295060449
 20
873.4258149006
 30
0.0
 11
774.3423471205
 21
873.870227132
 31
0.0
  0
LINE
  5
22F
330
1F
100
AcDbEntity
  8
0
  6
Continuous
 62
     7
370
    15
100
AcDbLine
 10
775.5598055177
 20
873.4103772976
 30
0.0
 11
774.3295060449
 21
873.4258149006
 31
0.0
  0
LINE
  5
230
330
1F
100
AcDbEntity
  8
0
  6
Continuous
 62
     7
370
    15
100
AcDbLine
 10
776.0832535081
 20
871.9731304981
 30
0.0
 11
775.5598055177
 21
873.4103772976
 31
0.0
  0
SPLINE
  5
231
330
1F
100
AcDbEntity
  8
0
  6
Continuous
 62
     7
370
    15
100
AcDbSpline
210
0.0
220
0.0
230
1.0
 70
     8
 71
     3
 72
    16
 73
    12
 74
     0
 42
0.00000001
 43
0.00000001
 40
0.0
 40
0.0
 40
0.0
 40
0.0
 40
0.0000597256150845
 40
0.1251209337574402
 40
0.2500907867167517
 40
0.3750583928706576
 40
0.5000243693824121
 40
0.6249880119014154
 40
0.749951574306156
 40
0.8749147344497943
 40
0.9999999999999999
 40
0.9999999999999999
 40
0.9999999999999999
 40
0.9999999999999999
 10
769.9132768415095
 20
876.759264264307
 30
0.0
 10
769.9132470260511
 20
876.759264265012
 30
0.0
 10
769.8507857518846
 20
876.7592657415724
 30
0.0
 10
770.0716370559384
 20
876.7407211236188
 30
0.0
 10
770.5875688041242
 20
876.667611780719
 30
0.0
 10
771.4252331617629
 20
876.5754530776372
 30
0.0
 10
772.4002285374305
 20
876.4939696851055
 30
0.0
 10
773.3824743799553
 20
876.4432113677065
 30
0.0
 10
774.2092303977661
 20
876.4248143659689
 30
0.0
 10
774.7882718771729
 20
876.4261368146796
 30
0.0
 10
774.8641535847272
 20
876.4272473139384
 30
0.0
 10
774.9021129660489
 20
876.4278028347111
 30
0.0
  0
SPLINE
  5
232
330
1F
100
AcDbEntity
  8
0
  6
Continuous
 62
     7
370
    15
100
AcDbSpline
210
0.0
220
0.0
230
1.0
 70
     8
 71
     3
 72
    17
 73
    13
 74
     0
 42
0.00000001
 43
0.00000001
 40
0.0
 40
0.0
 40
0.0
 40
0.0
 40
0.1239513944859281
 40
0.2494625882478037
 40
0.3120405657429339
 40
0.3745374292337799
 40
0.4998298182970285
 40
0.6248453257040137
 40
0.7497729801012641
 40
0.8749686048650746
 40
0.9373873515129287
 40
1.0
 40
1.0
 40
1.0
 40
1.0
 10
773.2708828501584
 20
870.4284761287786
 30
0.0
 10
773.2617207924267
 20
870.4927666826238
 30
0.0
 10
773.2432813820036
 20
870.622156820013
 30
0.0
 10
773.095989920233
 20
870.7752923301914
 30
0.0
 10
772.935125310527
 20
870.8770876758186
 30
0.0
 10
772.7443198166686
 20
870.9597261069304
 30
0.0
 10
772.4702293623775
 20
871.0242869295184
 30
0.0
 10
772.1347907637635
 20
871.0325463303176
 30
0.0
 10
771.847567596994
 20
870.962259390281
 30
0.0
 10
771.6803763583664
 20
870.8531733306118
 30
0.0
 10
771.6030223397408
 20
870.7437653316584
 30
0.0
 10
771.5927381476129
 20
870.6823774570523
 30
0.0
 10
771.5875880770566
 20
870.6516359188175
 30
0.0
  0
LWPOLYLINE
  5
233
330
1F
100
AcDbEntity
  8
0
  6
Continuous
 62
     7
370
    15
100
AcDbPolyline
 90
       17
 70
   128
 43
0.0
 10
780.2154535406
 20
869.9010942318
 10
780.8581406228
 20
867.9231140949
 10
781.5788390093
 20
865.7050464489
 10
782.3683472328
 20
863.2751438953
 10
783.2165921085
 20
860.6645200588
 10
784.1127553933
 20
857.9064343311
 10
785.0454041712
 20
855.0360534527
 10
786.0026324146
 20
852.0899746754
 10
786.972232347
 20
849.1058681347
 10
787.9418322794
 20
846.1217019894
 10
788.8990642481
 20
843.1756828167
 10
789.8317093007
 20
840.3053019383
 10
790.7278725855
 20
837.5471566059
 10
791.5761211865
 20
834.9365327694
 10
792.36562941
 20
832.5066898205
 10
793.0863240712
 20
830.2886221745
 10
793.7290111534
 20
828.3106420376
  0
SPLINE
  5
234
330
1F
100
AcDbEntity
  8
0
  6
Continuous
 62
     7
370
    15
100
AcDbSpline
210
0.0
220
0.0
230
1.0
 70
    11
 71
     3
 72
    27
 73
    23
 74
     0
 42
0.00000001
 43
0.00000001
 40
0.0
 40
0.0
 40
0.0
 40
0.0
 40
0.0620949906206543
 40
0.1249691534902828
 40
0.1563165232576945
 40
0.1876183549569396
 40
0.2503688268761756
 40
0.3129776330319303
 40
0.3755439883942626
 40
0.4382534379552106
 40
0.4695212758428244
 40
0.5008866307175622
 40
0.5636209184093751
 40
0.6261785537065767
 40
0.6888268382416167
 40
0.7515513796449904
 40
0.7827656125820518
 40
0.8141969899736915
 40
0.8770700246852985
 40
0.9390427273107267
 40
0.9695171925745945
 40
1.0
 40
1.0
 40
1.0
 40
1.0
 10
773.2721531741502
 20
870.4365823604679
 30
0.0
 10
773.2629818594106
 20
870.5008891967676
 30
0.0
 10
773.244524147638
 20
870.6303097960088
 30
0.0
 10
773.0972428922347
 20
870.7835369598246
 30
0.0
 10
772.9363316245842
 20
870.8852857504228
 30
0.0
 10
772.7455599717845
 20
870.9680575170914
 30
0.0
 10
772.4714606921281
 20
871.032553571318
 30
0.0
 10
772.135924312493
 20
871.0408406021064
 30
0.0
 10
771.8490403394713
 20
870.9705206467585
 30
0.0
 10
771.6807868540874
 20
870.8614969460745
 30
0.0
 10
771.605661885671
 20
870.7517946904453
 30
0.0
 10
771.5760193556263
 20
870.6301903886963
 30
0.0
 10
771.6198889783706
 20
870.4660088943442
 30
0.0
 10
771.7906961632104
 20
870.2777474709922
 30
0.0
 10
772.0657534852866
 20
870.1326028967411
 30
0.0
 10
772.338528293916
 20
870.0620339775726
 30
0.0
 10
772.5595474817226
 20
870.0453440326687
 30
0.0
 10
772.7730836656133
 20
870.0576910110868
 30
0.0
 10
773.011184903392
 20
870.1207505226645
 30
0.0
 10
773.1805784463072
 20
870.2336214581499
 30
0.0
 10
773.2570562980771
 20
870.3450174516482
 30
0.0
 10
773.2671204230253
 20
870.4060579396781
 30
0.0
 10
773.2721531741502
 20
870.4365823604679
 30
0.0
  0
SPLINE
  5
235
330
1F
100
AcDbEntity
  8
0
  6
Continuous
 62
     7
370
    15
100
AcDbSpline
210
0.0
220
0.0
230
1.0
 70
    11
 71
     3
 72
    23
 73
    19
 74
     0
 42
0.00000001
 43
0.00000001
 40
0.0
 40
0.0
 40
0.0
 40
0.0
 40
0.0624996781039575
 40
0.1250049427302053
 40
0.1875025446173
 40
0.2500024556184342
 40
0.3124985966154433
 40
0.3749976138284353
 40
0.4374958395033654
 40
0.5000011592969702
 40
0.5625005857596269
 40
0.6250012695801702
 40
0.6874952993553752
 40
0.749991600838091
 40
0.812489186847863
 40
0.8749838089456267
 40
0.9374856976716753
 40
1.0
 40
1.0
 40
1.0
 40
1.0
 10
772.8217134230019
 20
870.4974983074285
 30
0.0
 10
772.8185093425138
 20
870.5275329601459
 30
0.0
 10
772.8121008951413
 20
870.5876049502222
 30
0.0
 10
772.7283713530712
 20
870.6735283841454
 30
0.0
 10
772.6033240940267
 20
870.7396585465258
 30
0.0
 10
772.4508572767612
 20
870.7772600877508
 30
0.0
 10
772.2955454668112
 20
870.7803039086012
 30
0.0
 10
772.1606319301997
 20
870.748766998034
 30
0.0
 10
772.0669039783313
 20
870.6869772265877
 30
0.0
 10
772.0283156618722
 20
870.604096598799
 30
0.0
 10
772.0509065210832
 20
870.5124972270122
 30
0.0
 10
772.1310274350433
 20
870.4260351190286
 30
0.0
 10
772.2567359884335
 20
870.3581707434078
 30
0.0
 10
772.4087156418002
 20
870.3194609039689
 30
0.0
 10
772.564328571729
 20
870.3161447762528
 30
0.0
 10
772.6984119240472
 20
870.3488082654719
 30
0.0
 10
772.7959522750067
 20
870.4117454603826
 30
0.0
 10
772.8131258052496
 20
870.4689121329401
 30
0.0
 10
772.8217134230019
 20
870.4974983074284
 30
0.0
  0
SPLINE
  5
236
330
1F
100
AcDbEntity
  8
0
  6
Continuous
 62
     7
370
    15
100
AcDbSpline
210
0.0
220
0.0
230
1.0
 70
    11
 71
     3
 72
    23
 73
    19
 74
     0
 42
0.00000001
 43
0.00000001
 40
0.0
 40
0.0
 40
0.0
 40
0.0
 40
0.0625180027644393
 40
0.125015616121793
 40
0.187518186646626
 40
0.2500167892553355
 40
0.3125170200613177
 40
0.3750178650160226
 40
0.4375199375116376
 40
0.5000172080471575
 40
0.5625208147162185
 40
0.6250264480471708
 40
0.6875280576993342
 40
0.7500251689445044
 40
0.8125248831773191
 40
0.8750272005081671
 40
0.9375309781060779
 40
1.0
 40
1.0
 40
1.0
 40
1.0
 10
772.8204505495908
 20
870.4893324710941
 30
0.0
 10
772.8172523836445
 20
870.5193960401833
 30
0.0
 10
772.8108570947904
 20
870.5795133735324
 30
0.0
 10
772.727071822656
 20
870.6653435803773
 30
0.0
 10
772.6020436233505
 20
870.7315160266226
 30
0.0
 10
772.4495646978341
 20
870.7690133370784
 30
0.0
 10
772.2942832185965
 20
870.7720835854594
 30
0.0
 10
772.1593802415397
 20
870.7405433470751
 30
0.0
 10
772.0656617531333
 20
870.6787402909741
 30
0.0
 10
772.0270519223158
 20
870.5959413968827
 30
0.0
 10
772.0496700579617
 20
870.5043250102866
 30
0.0
 10
772.1298203235524
 20
870.417874424681
 30
0.0
 10
772.2555424758424
 20
870.3499852382995
 30
0.0
 10
772.4075343346337
 20
870.311380840065
 30
0.0
 10
772.5631238087633
 20
870.3080134112355
 30
0.0
 10
772.6971750106194
 20
870.3407784166682
 30
0.0
 10
772.7946829571981
 20
870.4036912407191
 30
0.0
 10
772.8118629447467
 20
870.4607906875382
 30
0.0
 10
772.8204505495908
 20
870.4893324710941
 30
0.0
  0
LINE
  5
237
330
1F
100
AcDbEntity
  8
0
  6
Continuous
 62
     7
370
    15
100
AcDbLine
 10
772.2213381879
 20
873.4607432224
 30
0.0
 11
772.7443279676
 21
872.0177743771
 31
0.0
  0
LINE
  5
238
330
1F
100
AcDbEntity
  8
0
  6
Continuous
 62
     7
370
    15
100
AcDbLine
 10
772.7443279676
 20
872.0177743771
 30
0.0
 11
776.0843710952
 21
871.981713567
 31
0.0
  0
LINE
  5
239
330
1F
100
AcDbEntity
  8
0
  6
Continuous
 62
     7
370
    15
100
AcDbLine
 10
776.0843710952
 20
871.981713567
 30
0.0
 11
775.5607740931
 21
873.419377599
 31
0.0
  0
LINE
  5
23A
330
1F
100
AcDbEntity
  8
0
  6
Continuous
 62
     7
370
    15
100
AcDbLine
 10
775.5607740931
 20
873.419377599
 30
0.0
 11
774.3304783456
 21
873.4348748066
 31
0.0
  0
LINE
  5
23B
330
1F
100
AcDbEntity
  8
0
  6
Continuous
 62
     7
370
    15
100
AcDbLine
 10
774.3304783456
 20
873.4348748066
 30
0.0
 11
774.3432747178
 21
873.8794062473
 31
0.0
  0
LINE
  5
23C
330
1F
100
AcDbEntity
  8
0
  6
Continuous
 62
     7
370
    15
100
AcDbLine
 10
774.3432747178
 20
873.8794062473
 30
0.0
 11
774.9789210014
 21
873.8704655506
 31
0.0
  0
SPLINE
  5
23D
330
1F
100
AcDbEntity
  8
0
  6
Continuous
 62
     7
370
    15
100
AcDbSpline
210
0.0
220
0.0
230
1.0
 70
     8
 71
     3
 72
    13
 73
     9
 74
     0
 42
0.00000001
 43
0.00000001
 40
0.0
 40
0.0
 40
0.0
 40
0.0
 40
0.2500245067323272
 40
0.3750933466983471
 40
0.4996747675855358
 40
0.62444517158387
 40
0.7496445530012734
 40
1.0
 40
1.0
 40
1.0
 40
1.0
 10
774.9789210014226
 20
873.870465550623
 30
0.0
 10
775.1509639474973
 20
873.8653196015421
 30
0.0
 10
775.4090673040937
 20
873.857599513268
 30
0.0
 10
775.753261131499
 20
873.8071069601015
 30
0.0
 10
775.9913299527585
 20
873.7399956927907
 30
0.0
 10
776.1553666571795
 20
873.6425004180134
 30
0.0
 10
776.2996880294053
 20
873.5011316140477
 30
0.0
 10
776.3543645580933
 20
873.3886334260292
 30
0.0
 10
776.3908134751202
 20
873.3136389591313
 30
0.0
  0
LINE
  5
23E
330
1F
100
AcDbEntity
  8
0
  6
Continuous
 62
     7
370
    15
100
AcDbLine
 10
776.3908134751
 20
873.3136389591
 30
0.0
 11
776.8502609782
 21
872.0486495831
 31
0.0
  0
SPLINE
  5
23F
330
1F
100
AcDbEntity
  8
0
  6
Continuous
 62
     7
370
    15
100
AcDbSpline
210
0.0
220
0.0
230
1.0
 70
     8
 71
     3
 72
    13
 73
     9
 74
     0
 42
0.00000001
 43
0.00000001
 40
0.0
 40
0.0
 40
0.0
 40
0.0
 40
0.2502747718985034
 40
0.3767420628274314
 40
0.5001300956272087
 40
0.6248053401194624
 40
0.7498667570247861
 40
1.0
 40
1.0
 40
1.0
 40
1.0
 10
776.8502609782101
 20
872.0486495830631
 30
0.0
 10
776.8732012821578
 20
871.9619753574925
 30
0.0
 10
776.9077336377983
 20
871.831503451404
 30
0.0
 10
776.8682419306147
 20
871.6614301804073
 30
0.0
 10
776.773879861443
 20
871.5452386238721
 30
0.0
 10
776.5851204069041
 20
871.471929135593
 30
0.0
 10
776.2835554002761
 20
871.4223004840836
 30
0.0
 10
776.0365607932265
 20
871.419954248177
 30
0.0
 10
775.8718954377057
 20
871.4183900692082
 30
0.0
  0
LINE
  5
240
330
1F
100
AcDbEntity
  8
0
  6
Continuous
 62
     7
370
    15
100
AcDbLine
 10
775.8718954377
 20
871.4183900692
 30
0.0
 11
773.3024137072
 21
871.447119508
 31
0.0
  0
SPLINE
  5
241
330
1F
100
AcDbEntity
  8
0
  6
Continuous
 62
     7
370
    15
100
AcDbSpline
210
0.0
220
0.0
230
1.0
 70
     8
 71
     3
 72
    13
 73
     9
 74
     0
 42
0.00000001
 43
0.00000001
 40
0.0
 40
0.0
 40
0.0
 40
0.0
 40
0.2501529374560149
 40
0.3752090107316335
 40
0.4998161718894357
 40
0.6245452318247608
 40
0.7497185318705227
 40
1.0
 40
1.0
 40
1.0
 40
1.0
 10
773.3024137072446
 20
871.4471195079899
 30
0.0
 10
773.1364132759942
 20
871.452253019667
 30
0.0
 10
772.8874261634542
 20
871.4599528686372
 30
0.0
 10
772.5553952891369
 20
871.517300411192
 30
0.0
 10
772.3220091575105
 20
871.5961297627953
 30
0.0
 10
772.1573732830938
 20
871.7149355241875
 30
0.0
 10
772.0130377234198
 20
871.8861356642691
 30
0.0
 10
771.9620812042023
 20
872.0156919675289
 30
0.0
 10
771.9281131379487
 20
872.1020553447819
 30
0.0
  0
LINE
  5
242
330
1F
100
AcDbEntity
  8
0
  6
Continuous
 62
     7
370
    15
100
AcDbLine
 10
771.9281131379
 20
872.1020553448
 30
0.0
 11
771.4694330447
 21
873.3735416271
 31
0.0
  0
SPLINE
  5
243
330
1F
100
AcDbEntity
  8
0
  6
Continuous
 62
     7
370
    15
100
AcDbSpline
210
0.0
220
0.0
230
1.0
 70
     8
 71
     3
 72
    13
 73
     9
 74
     0
 42
0.00000001
 43
0.00000001
 40
0.0
 40
0.0
 40
0.0
 40
0.0
 40
0.2503616531026363
 40
0.3755533852685347
 40
0.5003414355393935
 40
0.6232921336061433
 40
0.7499917534827018
 40
1.0
 40
1.0
 40
1.0
 40
1.0
 10
771.4694330446603
 20
873.3736012317753
 30
0.0
 10
771.4445523818181
 20
873.4490045886339
 30
0.0
 10
771.4072303037667
 20
873.56211290845
 30
0.0
 10
771.4305273795632
 20
873.702767069096
 30
0.0
 10
771.5089966719606
 20
873.7978930665331
 30
0.0
 10
771.6867786343402
 20
873.8609866882886
 30
0.0
 10
771.987478781252
 20
873.9041740670949
 30
0.0
 10
772.241564017653
 20
873.9052655432013
 30
0.0
 10
772.4101917796017
 20
873.9059899189091
 30
0.0
  0
LINE
  5
244
330
1F
100
AcDbEntity
  8
0
  6
Continuous
 62
     7
370
    15
100
AcDbLine
 10
772.4101917796
 20
873.9059899189
 30
0.0
 11
772.9099357479
 21
873.8990757801
 31
0.0
  0
LINE
  5
245
330
1F
100
AcDbEntity
  8
0
  6
Continuous
 62
     7
370
    15
100
AcDbLine
 10
772.9099357479
 20
873.8990757801
 30
0.0
 11
773.2759119921
 21
873.4478090145
 31
0.0
  0
LINE
  5
246
330
1F
100
AcDbEntity
  8
0
  6
Continuous
 62
     7
370
    15
100
AcDbLine
 10
773.2759119921
 20
873.4478090145
 30
0.0
 11
772.2213419132
 21
873.4607432224
 31
0.0
  0
SPLINE
  5
247
330
1F
100
AcDbEntity
  8
0
  6
Continuous
 62
     7
370
    15
100
AcDbSpline
210
0.0
220
0.0
230
1.0
 70
     8
 71
     3
 72
    12
 73
     8
 74
     0
 42
0.00000001
 43
0.00000001
 40
0.0
 40
0.0
 40
0.0
 40
0.0
 40
0.0304567009954866
 40
0.0888181034284918
 40
0.3925369816220842
 40
0.6962995569982751
 40
1.0
 40
1.0
 40
1.0
 40
1.0
 10
794.42626256274
 20
827.6426527835941
 30
0.0
 10
794.429771616598
 20
827.6326511787724
 30
0.0
 10
794.4400047507952
 20
827.6034844094744
 30
0.0
 10
794.4789491274497
 20
827.4709895549507
 30
0.0
 10
794.5066221075278
 20
827.2276726972269
 30
0.0
 10
794.4560623282722
 20
826.8860979282175
 30
0.0
 10
794.3518218892733
 20
826.6930074318597
 30
0.0
 10
794.2997070007207
 20
826.5964720584965
 30
0.0
  0
SPLINE
  5
248
330
1F
100
AcDbEntity
  8
0
  6
Continuous
 62
     7
370
    15
100
AcDbSpline
210
0.0
220
0.0
230
1.0
 70
     8
 71
     3
 72
    10
 73
     6
 74
     0
 42
0.00000001
 43
0.00000001
 40
0.0
 40
0.0
 40
0.0
 40
0.0
 40
0.2114209230294983
 40
0.4883977917656942
 40
1.0
 40
1.0
 40
1.0
 40
1.0
 10
794.2997070007207
 20
826.5964720584965
 30
0.0
 10
794.2982673755861
 20
826.5938954601424
 30
0.0
 10
794.2949417362565
 20
826.587943329538
 30
0.0
 10
794.2931935677871
 20
826.5768532928846
 30
0.0
 10
794.2948145745682
 20
826.5702791538525
 30
0.0
 10
794.295866226423
 20
826.5660140850163
 30
0.0
  0
SPLINE
  5
249
330
1F
100
AcDbEntity
  8
0
  6
Continuous
 62
     7
370
    15
100
AcDbSpline
210
0.0
220
0.0
230
1.0
 70
     8
 71
     3
 72
    12
 73
     8
 74
     0
 42
0.00000001
 43
0.00000001
 40
0.0
 40
0.0
 40
0.0
 40
0.0
 40
0.0304726895980578
 40
0.0888333344968973
 40
0.3925461902600608
 40
0.6962712052442442
 40
0.9999999999999999
 40
0.9999999999999999
 40
0.9999999999999999
 40
0.9999999999999999
 10
780.3869174771191
 20
870.8513114788152
 30
0.0
 10
780.3838736855525
 20
870.8614709994832
 30
0.0
 10
780.375000489325
 20
870.8910878173533
 30
0.0
 10
780.3286818132707
 20
871.0211886015978
 30
0.0
 10
780.2079834114397
 20
871.2342621382422
 30
0.0
 10
779.9663268785697
 20
871.4808751687889
 30
0.0
 10
779.7685055056252
 20
871.5758320846096
 30
0.0
 10
779.6695942036988
 20
871.623310837946
 30
0.0
  0
SPLINE
  5
24A
330
1F
100
AcDbEntity
  8
0
  6
Continuous
 62
     7
370
    15
100
AcDbSpline
210
0.0
220
0.0
230
1.0
 70
     8
 71
     3
 72
    11
 73
     7
 74
     0
 42
0.00000001
 43
0.00000001
 40
0.0
 40
0.0
 40
0.0
 40
0.0
 40
0.3701544136224699
 40
0.7443850702913655
 40
0.9443524115847192
 40
1.0
 40
1.0
 40
1.0
 40
1.0
 10
779.6485984675767
 20
871.6456625797368
 30
0.0
 10
779.6497388253946
 20
871.6427281674354
 30
0.0
 10
779.6520320989667
 20
871.6368270282709
 30
0.0
 10
779.6584135186262
 20
871.6292470052425
 30
0.0
 10
779.6654709237125
 20
871.624941778023
 30
0.0
 10
779.6688570427037
 20
871.6236024178081
 30
0.0
 10
779.6695942036988
 20
871.623310837946
 30
0.0
  0
SPLINE
  5
24B
330
1F
100
AcDbEntity
  8
0
  6
Continuous
 62
     7
370
    15
100
AcDbSpline
210
0.0
220
0.0
230
1.0
 70
     8
 71
     3
 72
    12
 73
     8
 74
     0
 42
0.00000001
 43
0.00000001
 40
0.0
 40
0.0
 40
0.0
 40
0.0
 40
0.2238969850769615
 40
0.4477845389534633
 40
0.6716853387501731
 40
0.895583981530982
 40
0.9999999999999999
 40
0.9999999999999999
 40
0.9999999999999999
 40
0.9999999999999999
 10
778.8946593158128
 20
876.1301968433476
 30
0.0
 10
778.8669593522145
 20
876.133277042198
 30
0.0
 10
778.8115605918217
 20
876.1394373101518
 30
0.0
 10
778.7400606492218
 20
876.1475937180619
 30
0.0
 10
778.6880164328109
 20
876.1536512952143
 30
0.0
 10
778.6648418548073
 20
876.1564261399315
 30
0.0
 10
778.6629118655915
 20
876.1566497834799
 30
0.0
 10
778.6622980587365
 20
876.1567209102727
 30
0.0
  0
LINE
  5
24C
330
1F
100
AcDbEntity
  8
0
  6
Continuous
 62
     7
370
    15
100
AcDbLine
 10
778.8946593158
 20
876.1301968433
 30
0.0
 11
797.8725211673
 21
874.0097020008
 31
0.0
  0
LINE
  5
24D
330
1F
100
AcDbEntity
  8
0
  6
Continuous
 62
     7
370
    15
100
AcDbLine
 10
797.8725211673
 20
874.0097020008
 30
0.0
 11
799.3423754327
 21
873.847756181
 31
0.0
  0
LINE
  5
24E
330
1F
100
AcDbEntity
  8
0
  6
Continuous
 62
     7
370
    15
100
AcDbLine
 10
775.5607740931
 20
873.419377599
 30
0.0
 11
775.5598055177
 21
873.4103772976
 31
0.0
  0
LINE
  5
24F
330
1F
100
AcDbEntity
  8
0
  6
Continuous
 62
     7
370
    15
100
AcDbLine
 10
773.2759119921
 20
873.4478090145
 30
0.0
 11
773.274935966
 21
873.4388087132
 31
0.0
  0
LINE
  5
250
330
1F
100
AcDbEntity
  8
0
  6
Continuous
 62
     7
370
    15
100
AcDbLine
 10
774.3304783456
 20
873.4348748066
 30
0.0
 11
774.3295060449
 21
873.4258149006
 31
0.0
  0
LINE
  5
251
330
1F
100
AcDbEntity
  8
0
  6
Continuous
 62
     7
370
    15
100
AcDbLine
 10
774.3432747178
 20
873.8794062473
 30
0.0
 11
774.3423471205
 21
873.870227132
 31
0.0
  0
LWPOLYLINE
  5
252
330
1F
100
AcDbEntity
  8
0
  6
Continuous
 62
     7
370
    15
100
AcDbPolyline
 90
        9
 70
   128
 43
0.0
 10
801.1826911919
 20
870.0919483044
 10
802.3686112814
 20
866.4420578816
 10
803.5688662879
 20
862.748000417
 10
804.778713917
 20
859.0244982578
 10
805.99335972
 20
855.2862141468
 10
807.2080129735
 20
851.5478704311
 10
808.4178606026
 20
847.824368272
 10
809.6181193344
 20
844.1303704121
 10
810.8040356986
 20
840.4804799893
  0
LWPOLYLINE
  5
253
330
1F
100
AcDbEntity
  8
0
  6
Continuous
 62
     7
370
    15
100
AcDbPolyline
 90
        5
 70
   128
 43
0.0
 10
810.8040356986
 20
840.4804799893
 10
811.2406918757
 20
839.1365740635
 10
811.5597629897
 20
838.1545875408
 10
811.7541188352
 20
837.5563953259
 10
811.8193859212
 20
837.355527673
  0
LWPOLYLINE
  5
254
330
1F
100
AcDbEntity
  8
0
  6
Continuous
 62
     7
370
    15
100
AcDbPolyline
 90
        9
 70
   128
 43
0.0
 10
800.1858072333
 20
873.1600377895
 10
800.2281451576
 20
873.0297420361
 10
800.2948017769
 20
872.8245828487
 10
800.3854939692
 20
872.5454542973
 10
800.4998417549
 20
872.1934888699
 10
800.6373645716
 20
871.7702362873
 10
800.7974775486
 20
871.277484689
 10
800.9795101337
 20
870.7172606327
 10
801.1826911919
 20
870.0919483044
  0
SPLINE
  5
255
330
1F
100
AcDbEntity
  8
0
  6
Continuous
 62
     7
370
    15
100
AcDbSpline
210
0.0
220
0.0
230
1.0
 70
     8
 71
     3
 72
    11
 73
     7
 74
     0
 42
0.00000001
 43
0.00000001
 40
0.0
 40
0.0
 40
0.0
 40
0.0
 40
0.2933227582827584
 40
0.5866038190698099
 40
0.8805285706173896
 40
1.0
 40
1.0
 40
1.0
 40
1.0
 10
799.342375432718
 20
873.8477561809635
 30
0.0
 10
799.4530548725895
 20
873.8244065944949
 30
0.0
 10
799.6743980186216
 20
873.7777107408334
 30
0.0
 10
799.9523278476759
 20
873.5731531020003
 30
0.0
 10
800.114882870905
 20
873.3510596703294
 30
0.0
 10
800.1699056570355
 20
873.2028657954118
 30
0.0
 10
800.1858072333218
 20
873.1600377895451
 30
0.0
  0
SPLINE
  5
256
330
1F
100
AcDbEntity
  8
0
  6
Continuous
 62
     7
370
    15
100
AcDbSpline
210
0.0
220
0.0
230
1.0
 70
     8
 71
     3
 72
    15
 73
    11
 74
     0
 42
0.00000001
 43
0.00000001
 40
0.0
 40
0.0
 40
0.0
 40
0.0
 40
0.0013083782017801
 40
0.003111763955062
 40
0.0058983454413202
 40
0.0102776786006949
 40
0.0184860214303812
 40
0.0492190309154916
 40
0.1106101948146915
 40
1.0
 40
1.0
 40
1.0
 40
1.0
 10
775.1732842974545
 20
846.5864990093327
 30
0.0
 10
775.1733608883495
 20
846.5865243020527
 30
0.0
 10
775.1735430472891
 20
846.5865844566583
 30
0.0
 10
775.175379001287
 20
846.5871630700809
 30
0.0
 10
775.1793902362065
 20
846.5884028861262
 30
0.0
 10
775.1876484633262
 20
846.5911639900123
 30
0.0
 10
775.2130629492873
 20
846.5994044732341
 30
0.0
 10
775.2756369581522
 20
846.6197575986778
 30
0.0
 10
775.895094234318
 20
846.8208873408573
 30
0.0
 10
776.504933106413
 20
847.0190822982562
 30
0.0
 10
777.0753951721074
 20
847.2044799663639
 30
0.0
  0
LINE
  5
257
330
1F
100
AcDbEntity
  8
0
  6
Continuous
 62
     7
370
    15
100
AcDbLine
 10
777.8587268643
 20
844.7936508991
 30
0.0
 11
775.945827549
 21
844.2088101246
 31
0.0
  0
LINE
  5
258
330
1F
100
AcDbEntity
  8
0
  6
Continuous
 62
     7
370
    15
100
AcDbLine
 10
778.7784004562
 20
841.9632051327
 30
0.0
 11
776.8751459174
 21
841.3486812451
 31
0.0
  0
SPLINE
  5
259
330
1F
100
AcDbEntity
  8
0
  6
Continuous
 62
     7
370
    15
100
AcDbSpline
210
0.0
220
0.0
230
1.0
 70
     8
 71
     3
 72
    16
 73
    12
 74
     0
 42
0.00000001
 43
0.00000001
 40
0.0
 40
0.0
 40
0.0
 40
0.0
 40
0.0000120987544148
 40
0.1250716581230639
 40
0.2501212393101427
 40
0.3751563342768048
 40
0.5001806549827824
 40
0.6252036373710325
 40
0.7502249472123553
 40
0.8753399101023253
 40
1.0
 40
1.0
 40
1.0
 40
1.0
 10
769.9138635747315
 20
876.7692182399846
 30
0.0
 10
769.9138586071979
 20
876.7692381093384
 30
0.0
 10
769.8625064051739
 20
876.9746388408572
 30
0.0
 10
770.0675580753468
 20
876.6553472721065
 30
0.0
 10
770.5902286985771
 20
876.7030498158948
 30
0.0
 10
771.4268340715025
 20
876.5784320453846
 30
0.0
 10
772.4029214726271
 20
876.5056455937323
 30
0.0
 10
773.3853581874359
 20
876.452538017022
 30
0.0
 10
774.2121278595824
 20
876.4348369467009
 30
0.0
 10
774.7896054493007
 20
876.4360697623636
 30
0.0
 10
774.8650983557291
 20
876.4371951442026
 30
0.0
 10
774.902776067722
 20
876.4377568103886
 30
0.0
  0
LINE
  5
25A
330
1F
100
AcDbEntity
  8
0
  6
Continuous
 62
     7
370
    15
100
AcDbLine
 10
685.6712216489
 20
915.0004122593
 30
0.0
 11
685.6712216489
 21
918.5003970005
 31
0.0
  0
LINE
  5
25B
330
1F
100
AcDbEntity
  8
0
  6
Continuous
 62
     7
370
    15
100
AcDbLine
 10
685.6712216489
 20
918.5003970005
 30
0.0
 11
685.6612229698
 21
918.5003970005
 31
0.0
  0
LINE
  5
25C
330
1F
100
AcDbEntity
  8
0
  6
Continuous
 62
     7
370
    15
100
AcDbLine
 10
741.9880311448
 20
907.5503681042
 30
0.0
 11
741.9880311448
 21
905.1003787853
 31
0.0
  0
LINE
  5
25D
330
1F
100
AcDbEntity
  8
0
  6
Continuous
 62
     7
370
    15
100
AcDbLine
 10
686.1380303256
 20
905.1003787853
 30
0.0
 11
741.9880311448
 21
905.1003787853
 31
0.0
  0
LINE
  5
25E
330
1F
100
AcDbEntity
  8
0
  6
Continuous
 62
     7
370
    15
100
AcDbLine
 10
686.1380303256
 20
905.1003787853
 30
0.0
 11
686.1380303256
 21
907.5503681042
 31
0.0
  0
LINE
  5
25F
330
1F
100
AcDbEntity
  8
0
  6
Continuous
 62
     7
370
    15
100
AcDbLine
 10
686.1380303256
 20
942.4003694393
 30
0.0
 11
686.1380303256
 21
907.5503681042
 31
0.0
  0
LINE
  5
260
330
1F
100
AcDbEntity
  8
0
  6
Continuous
 62
     7
370
    15
100
AcDbLine
 10
777.4380298309
 20
942.4003694393
 30
0.0
 11
686.1380303256
 21
942.4003694393
 31
0.0
  0
ARC
  5
261
330
1F
100
AcDbEntity
  8
0
  6
Continuous
 62
     7
370
    15
100
AcDbCircle
 10
777.4380312085
 20
919.4003906109
 30
0.0
 40
23.0
100
AcDbArc
 50
293.5
 51
90.0
  0
LINE
  5
262
330
1F
100
AcDbEntity
  8
0
  6
Continuous
 62
     7
370
    15
100
AcDbLine
 10
764.9732196681
 20
888.9003727772
 30
0.0
 11
786.6092586868
 21
898.3080122807
 31
0.0
  0
LINE
  5
263
330
1F
100
AcDbEntity
  8
0
  6
Continuous
 62
     7
370
    15
100
AcDbLine
 10
762.7161612712
 20
888.9003727772
 30
0.0
 11
764.9732196681
 21
888.9003727772
 31
0.0
  0
LINE
  5
264
330
1F
100
AcDbEntity
  8
0
  6
Continuous
 62
     7
370
    15
100
AcDbLine
 10
762.7161612712
 20
890.1504013874
 30
0.0
 11
762.7161612712
 21
888.9003727772
 31
0.0
  0
ARC
  5
265
330
1F
100
AcDbEntity
  8
0
  6
Continuous
 62
     7
370
    15
100
AcDbCircle
 10
765.4380312085
 20
909.7058315472
 30
0.0
 40
0.2503511010933102
100
AcDbArc
 50
79.8945592916
 51
263.994223505
  0
ARC
  5
266
330
1F
100
AcDbEntity
  8
0
  6
Continuous
 62
     7
370
    15
100
AcDbCircle
 10
765.4380312085
 20
904.0949496746
 30
0.0
 40
0.2503511010932417
100
AcDbArc
 50
96.005776495
 51
280.1054407084
  0
ARC
  5
267
330
1F
100
AcDbEntity
  8
0
  6
Continuous
 62
     7
370
    15
100
AcDbCircle
 10
764.9380312085
 20
906.9003906109
 30
0.0
 40
3.100000000000077
100
AcDbArc
 50
280.1054407084
 51
79.8945592916
  0
ARC
  5
268
330
1F
100
AcDbEntity
  8
0
  6
Continuous
 62
     7
370
    15
100
AcDbCircle
 10
764.9380312085
 20
906.9003906109
 30
0.0
 40
3.100000000000021
100
AcDbArc
 50
100.8891073053
 51
259.1110070997
  0
ARC
  5
269
330
1F
100
AcDbEntity
  8
0
  6
Continuous
 62
     7
370
    15
100
AcDbCircle
 10
764.9380312085
 20
906.9003906109
 30
0.0
 40
2.600000000000097
100
AcDbArc
 50
101.3148497955
 51
258.700947069
  0
ARC
  5
26A
330
1F
100
AcDbEntity
  8
0
  6
Continuous
 62
     7
370
    15
100
AcDbCircle
 10
764.3997185315
 20
909.6986736387
 30
0.0
 40
0.2504090746769164
100
AcDbArc
 50
276.4642622073
 51
100.8891073053
  0
ARC
  5
26B
330
1F
100
AcDbEntity
  8
0
  6
Continuous
 62
     7
370
    15
100
AcDbCircle
 10
764.9380312085
 20
906.9003906109
 30
0.0
 40
2.600000000000053
100
AcDbArc
 50
280.4998591652
 51
79.5001408348
  0
ARC
  5
26C
330
1F
100
AcDbEntity
  8
0
  6
Continuous
 62
     7
370
    15
100
AcDbCircle
 10
764.3997185315
 20
904.102077463
 30
0.0
 40
0.2503794968157122
100
AcDbArc
 50
259.1110070997
 51
83.3730607602
  0
LINE
  5
26D
330
1F
100
AcDbEntity
  8
0
  6
Continuous
 62
     7
370
    15
100
AcDbLine
 10
742.2380311858
 20
907.5503681042
 30
0.0
 11
742.2380311858
 21
890.1504013874
 31
0.0
  0
ARC
  5
26E
330
1F
100
AcDbEntity
  8
0
  6
Continuous
 62
     7
370
    15
100
AcDbCircle
 10
762.5911604225
 20
890.1503906109
 30
0.0
 40
0.1250000000002274
100
AcDbArc
 50
0.0
 51
180.0
  0
ARC
  5
26F
330
1F
100
AcDbEntity
  8
0
  6
Continuous
 62
     7
370
    15
100
AcDbCircle
 10
742.1130312085
 20
907.5503906109
 30
0.0
 40
0.1250000000001137
100
AcDbArc
 50
0.0
 51
180.0
  0
LINE
  5
270
330
1F
100
AcDbEntity
  8
0
  6
Continuous
 62
     7
370
    15
100
AcDbLine
 10
762.4661607646
 20
890.1504013874
 30
0.0
 11
762.4661607646
 21
887.7004120686
 31
0.0
  0
LINE
  5
271
330
1F
100
AcDbEntity
  8
0
  6
Continuous
 62
     7
370
    15
100
AcDbLine
 10
742.2380311858
 20
887.7004120686
 30
0.0
 11
762.4661607646
 21
887.7004120686
 31
0.0
  0
LINE
  5
272
330
1F
100
AcDbEntity
  8
0
  6
Continuous
 62
     7
370
    15
100
AcDbLine
 10
742.2380311858
 20
887.7004120686
 30
0.0
 11
742.2380311858
 21
890.1504013874
 31
0.0
  0
SPLINE
  5
273
330
1F
100
AcDbEntity
  8
0
  6
Continuous
 62
     7
370
    15
100
AcDbSpline
210
0.0
220
0.0
230
1.0
 70
     8
 71
     3
 72
    12
 73
     8
 74
     0
 42
0.00000001
 43
0.00000001
 40
0.0
 40
0.0
 40
0.0
 40
0.0
 40
0.2256422350139008
 40
0.4513327799185669
 40
0.6770235811406223
 40
0.9027032333491177
 40
1.0
 40
1.0
 40
1.0
 40
1.0
 10
35.37829611228732
 20
942.7004192211247
 30
0.0
 10
35.47181328508603
 20
942.6704759624722
 30
0.0
 10
35.65886765266374
 20
942.6105830343304
 30
0.0
 10
35.93950459994583
 20
942.1451706629799
 30
0.0
 10
36.21997315492636
 20
941.4664186571146
 30
0.0
 10
36.4478131900427
 20
940.7872130332553
 30
0.0
 10
36.58108391437415
 20
940.3746538926295
 30
0.0
 10
36.62123176978854
 20
940.2503702976322
 30
0.0
  0
SPLINE
  5
274
330
1F
100
AcDbEntity
  8
0
  6
Continuous
 62
     7
370
    15
100
AcDbSpline
210
0.0
220
0.0
230
1.0
 70
     8
 71
     3
 72
    11
 73
     7
 74
     0
 42
0.00000001
 43
0.00000001
 40
0.0
 40
0.0
 40
0.0
 40
0.0
 40
0.2684683787959189
 40
0.5229953591442646
 40
0.7774844876704798
 40
1.0
 40
1.0
 40
1.0
 40
1.0
 10
35.37829611228732
 20
941.5003989078617
 30
0.0
 10
35.4896197318007
 20
941.4787094562186
 30
0.0
 10
35.70648600346254
 20
941.4364568728694
 30
0.0
 10
36.02850892450532
 20
941.1220046317472
 30
0.0
 10
36.33183325734329
 20
940.7081696305155
 30
0.0
 10
36.52917486768087
 20
940.3959950557422
 30
0.0
 10
36.62123176978854
 20
940.2503702976322
 30
0.0
  0
LINE
  5
275
330
1F
100
AcDbEntity
  8
0
  6
Continuous
 62
     7
370
    15
100
AcDbLine
 10
35.3782961123
 20
941.5003989079
 30
0.0
 11
35.3782961123
 21
942.7004192211
 31
0.0
  0
SPLINE
  5
276
330
1F
100
AcDbEntity
  8
0
  6
Continuous
 62
     7
370
    15
100
AcDbSpline
210
0.0
220
0.0
230
1.0
 70
     8
 71
     3
 72
    13
 73
     9
 74
     0
 42
0.00000001
 43
0.00000001
 40
0.0
 40
0.0
 40
0.0
 40
0.0
 40
0.2927128243924131
 40
0.4989130293415898
 40
0.6164451416606235
 40
0.7386691021001581
 40
0.8663087101907955
 40
1.0
 40
1.0
 40
1.0
 40
1.0
 10
36.62123176978854
 20
940.2503702976322
 30
0.0
 10
36.26388437479927
 20
940.4293193876983
 30
0.0
 10
35.65480524841808
 20
940.7343283424927
 30
0.0
 10
35.00983425402199
 20
941.0746466737712
 30
0.0
 10
34.62524952548579
 20
941.260063774512
 30
0.0
 10
34.37878206220851
 20
941.3721046280057
 30
0.0
 10
34.20564039089962
 20
941.4539436535716
 30
0.0
 10
34.1828840880512
 20
941.479984179726
 30
0.0
 10
34.17124245094089
 20
941.4933059551335
 30
0.0
  0
LINE
  5
277
330
1F
100
AcDbEntity
  8
0
  6
Continuous
 62
     7
370
    15
100
AcDbLine
 10
34.1712424509
 20
941.4933059551
 30
0.0
 11
35.3712031596
 21
941.4933059551
 31
0.0
  0
SPLINE
  5
278
330
1F
100
AcDbEntity
  8
0
  6
Continuous
 62
     7
370
    15
100
AcDbSpline
210
0.0
220
0.0
230
1.0
 70
     8
 71
     3
 72
    13
 73
     9
 74
     0
 42
0.00000001
 43
0.00000001
 40
0.0
 40
0.0
 40
0.0
 40
0.0
 40
0.3196020538385356
 40
0.5359175929697825
 40
0.6516238151080127
 40
0.7662290713274091
 40
0.8817088017397836
 40
1.0
 40
1.0
 40
1.0
 40
1.0
 10
36.62123176978854
 20
940.2503702976322
 30
0.0
 10
36.44013341813629
 20
940.4279890440644
 30
0.0
 10
36.13646267652898
 20
940.7258250870782
 30
0.0
 10
35.80696071014305
 20
941.0668037263339
 30
0.0
 10
35.6063791038061
 20
941.2569274980304
 30
0.0
 10
35.47898669778976
 20
941.3704108797409
 30
0.0
 10
35.38930439031779
 20
941.4533332183616
 30
0.0
 10
35.37728508690269
 20
941.4798753059135
 30
0.0
 10
35.37120315955905
 20
941.4933059551335
 30
0.0
  0
LINE
  5
279
330
1F
100
AcDbEntity
  8
0
  6
Continuous
 62
     7
370
    15
100
AcDbLine
 10
89.1712496035
 20
942.7004192211
 30
0.0
 11
685.6612229698
 21
942.7004192211
 31
0.0
  0
LINE
  5
27A
330
1F
100
AcDbEntity
  8
0
  6
Continuous
 62
     7
370
    15
100
AcDbLine
 10
685.6612229698
 20
940.2503702976
 30
0.0
 11
685.6612229698
 21
942.7004192211
 31
0.0
  0
LINE
  5
27B
330
1F
100
AcDbEntity
  8
0
  6
Continuous
 62
     7
370
    15
100
AcDbLine
 10
34.1712424509
 20
905.1003787853
 30
0.0
 11
36.6212317698
 21
905.1003787853
 31
0.0
  0
LINE
  5
27C
330
1F
100
AcDbEntity
  8
0
  6
Continuous
 62
     7
370
    15
100
AcDbLine
 10
34.1712424509
 20
941.4933059551
 30
0.0
 11
34.1712424509
 21
905.1003787853
 31
0.0
  0
LINE
  5
27D
330
1F
100
AcDbEntity
  8
0
  6
Continuous
 62
     7
370
    15
100
AcDbLine
 10
685.6612229698
 20
905.1003787853
 30
0.0
 11
685.6612229698
 21
940.2503702976
 31
0.0
  0
LINE
  5
27E
330
1F
100
AcDbEntity
  8
0
  6
Continuous
 62
     7
370
    15
100
AcDbLine
 10
36.6212317698
 20
905.1003787853
 30
0.0
 11
685.6612229698
 21
905.1003787853
 31
0.0
  0
LINE
  5
27F
330
1F
100
AcDbEntity
  8
0
  6
Continuous
 62
     7
370
    15
100
AcDbLine
 10
686.1380303256
 20
941.5003989079
 30
0.0
 11
686.1212218158
 21
941.5003989079
 31
0.0
  0
LINE
  5
280
330
1F
100
AcDbEntity
  8
0
  6
Continuous
 62
     7
370
    15
100
AcDbLine
 10
686.1212218158
 20
942.7004192211
 30
0.0
 11
686.1212218158
 21
941.5003989079
 31
0.0
  0
LINE
  5
281
330
1F
100
AcDbEntity
  8
0
  6
Continuous
 62
     7
370
    15
100
AcDbLine
 10
777.4380298309
 20
942.7004192211
 30
0.0
 11
686.1212218158
 21
942.7004192211
 31
0.0
  0
LWPOLYLINE
  5
282
330
1F
100
AcDbEntity
  8
0
  6
Continuous
 62
     7
370
    15
100
AcDbPolyline
 90
        9
 70
   128
 43
0.0
 10
765.3919013195
 20
888.7552950718
 10
765.034083461
 20
888.5997269489
 10
764.6900137864
 20
888.4501192906
 10
764.3729189389
 20
888.3122537472
 10
764.0949824803
 20
888.1913755276
 10
763.8668866806
 20
888.0921933987
 10
763.6973952852
 20
888.0185220577
 10
763.5930238269
 20
887.9731033184
 10
763.5577825807
 20
887.9577849247
  0
LINE
  5
283
330
1F
100
AcDbEntity
  8
0
  6
Continuous
 62
     7
370
    15
100
AcDbLine
 10
763.5577825807
 20
887.9577849247
 30
0.0
 11
763.1479354553
 21
888.9003727772
 31
0.0
  0
LINE
  5
284
330
1F
100
AcDbEntity
  8
0
  6
Continuous
 62
     7
370
    15
100
AcDbLine
 10
765.3919013195
 20
888.7552950718
 30
0.0
 11
786.7288852088
 21
898.0328772404
 31
0.0
  0
ARC
  5
285
330
1F
100
AcDbEntity
  8
0
  6
Continuous
 62
     7
370
    15
100
AcDbCircle
 10
777.4380312085
 20
919.4003906109
 30
0.0
 40
23.29999999999996
100
AcDbArc
 50
293.5
 51
90.0
  0
LINE
  5
286
330
1F
100
AcDbEntity
  8
0
  6
Continuous
 62
     7
370
    15
100
AcDbLine
 10
686.1212218158
 20
942.7004192211
 30
0.0
 11
685.6612229698
 21
942.6568482258
 31
0.0
  0
LWPOLYLINE
  5
287
330
1F
100
AcDbEntity
  8
0
  6
Continuous
 62
     7
370
    15
100
AcDbPolyline
 90
        3
 70
   128
 43
0.0
 10
686.1212218158
 20
941.5003989079
 10
685.8773605876
 20
941.476378236
 10
685.6612229698
 20
941.4126608708
  0
SPLINE
  5
288
330
1F
100
AcDbEntity
  8
0
  6
Continuous
 62
     7
370
    15
100
AcDbSpline
210
0.0
220
0.0
230
1.0
 70
     8
 71
     3
 72
    12
 73
     8
 74
     0
 42
0.00000001
 43
0.00000001
 40
0.0
 40
0.0
 40
0.0
 40
0.0
 40
0.2301769830812725
 40
0.4604259643757677
 40
0.6906741928417854
 40
0.9209283030601253
 40
1.0
 40
1.0
 40
1.0
 40
1.0
 10
36.2212249987009
 20
223.9503905829555
 30
0.0
 10
35.97413565380031
 20
223.8550022127737
 30
0.0
 10
35.47987967568383
 20
223.6641956354031
 30
0.0
 10
34.83376958763712
 20
223.3778961049873
 30
0.0
 10
34.36985358406491
 20
223.091775759237
 30
0.0
 10
34.18704274927858
 20
222.8676662844873
 30
0.0
 10
34.17445914617828
 20
222.7400768473549
 30
0.0
 10
34.17124245094089
 20
222.7074616789072
 30
0.0
  0
LINE
  5
289
330
1F
100
AcDbEntity
  8
0
  6
Continuous
 62
     7
370
    15
100
AcDbLine
 10
34.1712424509
 20
222.7074616789
 30
0.0
 11
34.1712424509
 21
904.1933153011
 31
0.0
  0
SPLINE
  5
28A
330
1F
100
AcDbEntity
  8
0
  6
Continuous
 62
     7
370
    15
100
AcDbSpline
210
0.0
220
0.0
230
1.0
 70
     8
 71
     3
 72
    12
 73
     8
 74
     0
 42
0.00000001
 43
0.00000001
 40
0.0
 40
0.0
 40
0.0
 40
0.0
 40
0.2301716000790516
 40
0.4604221121684268
 40
0.6906785894941079
 40
0.9209173198091688
 40
1.0
 40
1.0
 40
1.0
 40
1.0
 10
34.17124245094089
 20
904.1933153011418
 30
0.0
 10
34.19732010257287
 20
904.0979330857405
 30
0.0
 10
34.24948434629643
 20
903.9071359541078
 30
0.0
 10
34.65419349180582
 20
903.6208298766962
 30
0.0
 10
35.24222161922658
 20
903.3347356325306
 30
0.0
 10
35.80623004322597
 20
903.1106098187826
 30
0.0
 10
36.13672817147712
 20
902.9830039954462
 30
0.0
 10
36.2212249987009
 20
902.9503796436405
 30
0.0
  0
ARC
  5
28B
330
1F
100
AcDbEntity
  8
0
  6
Continuous
 62
     7
370
    15
100
AcDbCircle
 10
738.6212227099
 20
225.4503906109
 30
0.0
 40
1.5
100
AcDbArc
 50
270.0
 51
0.0
  0
LINE
  5
28C
330
1F
100
AcDbEntity
  8
0
  6
Continuous
 62
     7
370
    15
100
AcDbLine
 10
738.6212227378
 20
223.950390583
 30
0.0
 11
738.3712226968
 21
223.950390583
 31
0.0
  0
LINE
  5
28D
330
1F
100
AcDbEntity
  8
0
  6
Continuous
 62
     7
370
    15
100
AcDbLine
 10
740.1212227218
 20
225.700390637
 30
0.0
 11
740.1212227218
 21
225.450390596
 31
0.0
  0
SPLINE
  5
28E
330
1F
100
AcDbEntity
  8
0
  6
Continuous
 62
     7
370
    15
100
AcDbSpline
210
0.0
220
0.0
230
1.0
 70
     8
 71
     3
 72
    11
 73
     7
 74
     0
 42
0.00000001
 43
0.00000001
 40
0.0
 40
0.0
 40
0.0
 40
0.0
 40
0.2500076099967094
 40
0.499990569789952
 40
0.7500009268193644
 40
1.0
 40
1.0
 40
1.0
 40
1.0
 10
36.2212249987009
 20
902.9503796436405
 30
0.0
 10
36.11765385040139
 20
903.1141894696004
 30
0.0
 10
35.91052176569082
 20
903.4417929702298
 30
0.0
 10
35.59978398739288
 20
903.8549586463796
 30
0.0
 10
35.28899954288784
 20
904.1439858210564
 30
0.0
 10
35.08185785022139
 20
904.1816010592232
 30
0.0
 10
34.97828934119956
 20
904.2004082538701
 30
0.0
  0
LINE
  5
28F
330
1F
100
AcDbEntity
  8
0
  6
Continuous
 62
     7
370
    15
100
AcDbLine
 10
34.9782893412
 20
905.0003621914
 30
0.0
 11
34.9782893412
 21
904.2004082539
 31
0.0
  0
SPLINE
  5
290
330
1F
100
AcDbEntity
  8
0
  6
Continuous
 62
     7
370
    15
100
AcDbSpline
210
0.0
220
0.0
230
1.0
 70
     8
 71
     3
 72
    11
 73
     7
 74
     0
 42
0.00000001
 43
0.00000001
 40
0.0
 40
0.0
 40
0.0
 40
0.0
 40
0.250003163814288
 40
0.5000014830799733
 40
0.7500015946039984
 40
0.9999999999999999
 40
0.9999999999999999
 40
0.9999999999999999
 40
0.9999999999999999
 10
36.2212249987009
 20
902.9503796436405
 30
0.0
 10
36.11765082358936
 20
903.2190098022688
 30
0.0
 10
35.9105044804216
 20
903.7562649140239
 30
0.0
 10
35.59980629897647
 20
904.4339046494291
 30
0.0
 10
35.28898967301192
 20
904.9079082925131
 30
0.0
 10
35.08185588287177
 20
904.9695442952108
 30
0.0
 10
34.97828934119956
 20
905.0003621914007
 30
0.0
  0
LINE
  5
291
330
1F
100
AcDbEntity
  8
0
  6
Continuous
 62
     7
370
    15
100
AcDbLine
 10
741.3641516563
 20
905.0003621914
 30
0.0
 11
34.9782893412
 21
905.0003621914
 31
0.0
  0
SPLINE
  5
292
330
1F
100
AcDbEntity
  8
0
  6
Continuous
 62
     7
370
    15
100
AcDbSpline
210
0.0
220
0.0
230
1.0
 70
     8
 71
     3
 72
    11
 73
     7
 74
     0
 42
0.00000001
 43
0.00000001
 40
0.0
 40
0.0
 40
0.0
 40
0.0
 40
0.2499999829107897
 40
0.4999953711243019
 40
0.7499952679051964
 40
0.9999999999999999
 40
0.9999999999999999
 40
0.9999999999999999
 40
0.9999999999999999
 10
741.3641516562732
 20
905.0003621914005
 30
0.0
 10
741.2605748219685
 20
904.9695458456708
 30
0.0
 10
741.0534230569756
 20
904.9079137205782
 30
0.0
 10
740.7426838036499
 20
904.4338956112567
 30
0.0
 10
740.4319517744082
 20
903.7562657664073
 30
0.0
 10
740.2247997403979
 20
903.2190100830801
 30
0.0
 10
740.1212227217568
 20
902.9503796436405
 30
0.0
  0
SPLINE
  5
293
330
1F
100
AcDbEntity
  8
0
  6
Continuous
 62
     7
370
    15
100
AcDbSpline
210
0.0
220
0.0
230
1.0
 70
     8
 71
     3
 72
    11
 73
     7
 74
     0
 42
0.00000001
 43
0.00000001
 40
0.0
 40
0.0
 40
0.0
 40
0.0
 40
0.254303800614207
 40
0.5087679828861105
 40
0.7632434637101441
 40
0.9999999999999999
 40
0.9999999999999999
 40
0.9999999999999999
 40
0.9999999999999999
 10
34.97119638847141
 20
904.1933153011418
 30
0.0
 10
34.99066978907944
 20
904.0879318087094
 30
0.0
 10
35.02962887157618
 20
903.8770983616871
 30
0.0
 10
35.32853491420057
 20
903.5608549599257
 30
0.0
 10
35.7445616605046
 20
903.2518280433563
 30
0.0
 10
36.06620448306225
 20
903.0484167331705
 30
0.0
 10
36.2212249987009
 20
902.9503796436405
 30
0.0
  0
LINE
  5
294
330
1F
100
AcDbEntity
  8
0
  6
Continuous
 62
     7
370
    15
100
AcDbLine
 10
34.1712424509
 20
904.1933153011
 30
0.0
 11
34.9711963885
 21
904.1933153011
 31
0.0
  0
SPLINE
  5
295
330
1F
100
AcDbEntity
  8
0
  6
Continuous
 62
     7
370
    15
100
AcDbSpline
210
0.0
220
0.0
230
1.0
 70
     8
 71
     3
 72
    12
 73
     8
 74
     0
 42
0.00000001
 43
0.00000001
 40
0.0
 40
0.0
 40
0.0
 40
0.0
 40
0.2301672570487276
 40
0.460421014040489
 40
0.6906729864150744
 40
0.9209320978453948
 40
1.0
 40
1.0
 40
1.0
 40
1.0
 10
740.1212227217568
 20
902.9503796436405
 30
0.0
 10
740.3683023220237
 20
903.0457623630681
 30
0.0
 10
740.8625543783862
 20
903.2365636480287
 30
0.0
 10
741.5086708816693
 20
903.5228652426108
 30
0.0
 10
741.9726295244628
 20
903.8089449309429
 30
0.0
 10
742.1554289528079
 20
904.0331694047512
 30
0.0
 10
742.168007519875
 20
904.1607134323913
 30
0.0
 10
742.1712227609189
 20
904.1933153011418
 30
0.0
  0
LINE
  5
296
330
1F
100
AcDbEntity
  8
0
  6
Continuous
 62
     7
370
    15
100
AcDbLine
 10
742.1712227609
 20
225.700390637
 30
0.0
 11
742.1712227609
 21
765.1504013874
 31
0.0
  0
LINE
  5
297
330
1F
100
AcDbEntity
  8
0
  6
Continuous
 62
     7
370
    15
100
AcDbLine
 10
742.1712227609
 20
765.9504149296
 30
0.0
 11
742.1712227609
 21
766.950402055
 31
0.0
  0
LINE
  5
298
330
1F
100
AcDbEntity
  8
0
  6
Continuous
 62
     7
370
    15
100
AcDbLine
 10
742.1712227609
 20
885.6380913593
 30
0.0
 11
742.1712227609
 21
886.6380784847
 31
0.0
  0
LINE
  5
299
330
1F
100
AcDbEntity
  8
0
  6
Continuous
 62
     7
370
    15
100
AcDbLine
 10
742.1712227609
 20
887.4380920269
 30
0.0
 11
742.1712227609
 21
904.1933153011
 31
0.0
  0
LINE
  5
29A
330
1F
100
AcDbEntity
  8
0
  6
Continuous
 62
     7
370
    15
100
AcDbLine
 10
742.1712227609
 20
225.700390637
 30
0.0
 11
740.1212227218
 21
225.700390637
 31
0.0
  0
SPLINE
  5
29B
330
1F
100
AcDbEntity
  8
0
  6
Continuous
 62
     7
370
    15
100
AcDbSpline
210
0.0
220
0.0
230
1.0
 70
     8
 71
     3
 72
    11
 73
     7
 74
     0
 42
0.00000001
 43
0.00000001
 40
0.0
 40
0.0
 40
0.0
 40
0.0
 40
0.2543067675602845
 40
0.5087756403403078
 40
0.7632619397182392
 40
1.0
 40
1.0
 40
1.0
 40
1.0
 10
740.1212227217568
 20
902.9503796436405
 30
0.0
 10
740.2878548541902
 20
903.0557650952614
 30
0.0
 10
740.6212253369872
 20
903.2666031753699
 30
0.0
 10
741.0392062956441
 20
903.5828211304865
 30
0.0
 10
741.3193239095203
 20
903.8919398594232
 30
0.0
 10
741.3543448950568
 20
904.0953060694361
 30
0.0
 10
741.371222722921
 20
904.1933153011418
 30
0.0
  0
LINE
  5
29C
330
1F
100
AcDbEntity
  8
0
  6
Continuous
 62
     7
370
    15
100
AcDbLine
 10
742.1712227609
 20
904.1933153011
 30
0.0
 11
741.3712227229
 21
904.1933153011
 31
0.0
  0
SPLINE
  5
29D
330
1F
100
AcDbEntity
  8
0
  6
Continuous
 62
     7
370
    15
100
AcDbSpline
210
0.0
220
0.0
230
1.0
 70
     8
 71
     3
 72
    11
 73
     7
 74
     0
 42
0.00000001
 43
0.00000001
 40
0.0
 40
0.0
 40
0.0
 40
0.0
 40
0.2500025463830869
 40
0.5000025040035437
 40
0.7499889371727598
 40
1.0
 40
1.0
 40
1.0
 40
1.0
 10
741.3641516562732
 20
904.20040825387
 30
0.0
 10
741.2605739191988
 20
904.1816031406937
 30
0.0
 10
741.0534195175919
 20
904.1439931090674
 30
0.0
 10
740.7426996145299
 20
903.8549465127201
 30
0.0
 10
740.4319353375954
 20
903.4417941151812
 30
0.0
 10
740.2247969948845
 20
903.1141898467018
 30
0.0
 10
740.1212227217568
 20
902.9503796436405
 30
0.0
  0
LINE
  5
29E
330
1F
100
AcDbEntity
  8
0
  6
Continuous
 62
     7
370
    15
100
AcDbLine
 10
741.3641516563
 20
904.2004082539
 30
0.0
 11
741.3641516563
 21
905.0003621914
 31
0.0
  0
SPLINE
  5
29F
330
1F
100
AcDbEntity
  8
0
  6
Continuous
 62
     7
370
    15
100
AcDbSpline
210
0.0
220
0.0
230
1.0
 70
     8
 71
     3
 72
    11
 73
     7
 74
     0
 42
0.00000001
 43
0.00000001
 40
0.0
 40
0.0
 40
0.0
 40
0.0
 40
0.2499968568297931
 40
0.5000083560486024
 40
0.75000355691382
 40
1.0
 40
1.0
 40
1.0
 40
1.0
 10
34.97828934119968
 20
222.7003906108949
 30
0.0
 10
35.08185772136901
 20
222.719182355657
 30
0.0
 10
35.28900054773815
 20
222.7567669458193
 30
0.0
 10
35.59979430836041
 20
223.045806110052
 30
0.0
 10
35.91050336407492
 20
223.4590043433429
 30
0.0
 10
36.11765094894054
 20
223.7865948984535
 30
0.0
 10
36.22122499870078
 20
223.9503905829555
 30
0.0
  0
SPLINE
  5
2A0
330
1F
100
AcDbEntity
  8
0
  6
Continuous
 62
     7
370
    15
100
AcDbSpline
210
0.0
220
0.0
230
1.0
 70
     8
 71
     3
 72
    11
 73
     7
 74
     0
 42
0.00000001
 43
0.00000001
 40
0.0
 40
0.0
 40
0.0
 40
0.0
 40
0.2499983592360471
 40
0.50000307500494
 40
0.7500010723966712
 40
1.0
 40
1.0
 40
1.0
 40
1.0
 10
34.97828934119956
 20
221.9003906311049
 30
0.0
 10
35.0818565158913
 20
221.9312069531657
 30
0.0
 10
35.28899349860443
 20
221.9928403808324
 30
0.0
 10
35.59980244311539
 20
222.4668858245987
 30
0.0
 10
35.91050209637642
 20
223.1445153697739
 30
0.0
 10
36.1176505694642
 20
223.6817651787222
 30
0.0
 10
36.2212249987009
 20
223.9503905829555
 30
0.0
  0
LINE
  5
2A1
330
1F
100
AcDbEntity
  8
0
  6
Continuous
 62
     7
370
    15
100
AcDbLine
 10
34.9782893412
 20
222.7003906109
 30
0.0
 11
34.9782893412
 21
221.9003906311
 31
0.0
  0
SPLINE
  5
2A2
330
1F
100
AcDbEntity
  8
0
  6
Continuous
 62
     7
370
    15
100
AcDbSpline
210
0.0
220
0.0
230
1.0
 70
     8
 71
     3
 72
    11
 73
     7
 74
     0
 42
0.00000001
 43
0.00000001
 40
0.0
 40
0.0
 40
0.0
 40
0.0
 40
0.2542963079541009
 40
0.5087790231979709
 40
0.763252279764678
 40
1.0
 40
1.0
 40
1.0
 40
1.0
 10
36.2212249987009
 20
223.9503905829555
 30
0.0
 10
36.05460198045113
 20
223.8450119261837
 30
0.0
 10
35.72123380397424
 20
223.6341773667298
 30
0.0
 10
35.30323963207132
 20
223.3179431204693
 30
0.0
 10
35.02316616697792
 20
223.0088582469365
 30
0.0
 10
34.98809783853724
 20
222.8054809353094
 30
0.0
 10
34.97119638847141
 20
222.7074616789072
 30
0.0
  0
LINE
  5
2A3
330
1F
100
AcDbEntity
  8
0
  6
Continuous
 62
     7
370
    15
100
AcDbLine
 10
34.1712424509
 20
222.7074616789
 30
0.0
 11
34.9711963885
 21
222.7074616789
 31
0.0
  0
LINE
  5
2A4
330
1F
100
AcDbEntity
  8
0
  6
Continuous
 62
     7
370
    15
100
AcDbLine
 10
738.3712226968
 20
223.950390583
 30
0.0
 11
738.3712226968
 21
221.9003906311
 31
0.0
  0
LINE
  5
2A5
330
1F
100
AcDbEntity
  8
0
  6
Continuous
 62
     7
370
    15
100
AcDbLine
 10
34.9782893412
 20
221.9003906311
 30
0.0
 11
738.3712226968
 21
221.9003906311
 31
0.0
  0
LINE
  5
2A6
330
1F
100
AcDbEntity
  8
0
  6
Continuous
 62
     7
370
    15
100
AcDbLine
 10
62.9711935274
 20
905.1003787853
 30
0.0
 11
62.9711935274
 21
905.0003621914
 31
0.0
  0
LINE
  5
2A7
330
1F
100
AcDbEntity
  8
0
  6
Continuous
 62
     7
370
    15
100
AcDbLine
 10
741.3641516563
 20
905.0003621914
 30
0.0
 11
741.3641516563
 21
905.1003787853
 31
0.0
  0
LINE
  5
2A8
330
1F
100
AcDbEntity
  8
0
  6
Continuous
 62
     7
370
    15
100
AcDbLine
 10
685.6612229698
 20
915.0004122593
 30
0.0
 11
686.1380303256
 21
915.0004122593
 31
0.0
  0
LINE
  5
2A9
330
1F
100
AcDbEntity
  8
0
  6
Continuous
 62
     7
370
    15
100
AcDbLine
 10
719.6712234967
 20
52.7003888228
 30
0.0
 11
666.6712203972
 21
52.7003888228
 31
0.0
  0
LINE
  5
2AA
330
1F
100
AcDbEntity
  8
0
  6
Continuous
 62
     7
370
    15
100
AcDbLine
 10
721.6712219618
 20
58.7003860809
 30
0.0
 11
664.6712237947
 21
58.7003860809
 31
0.0
  0
LINE
  5
2AB
330
1F
100
AcDbEntity
  8
0
  6
Continuous
 62
     7
370
    15
100
AcDbLine
 10
134.6712300532
 20
52.7003888228
 30
0.0
 11
81.6711971514
 21
52.7003888228
 31
0.0
  0
LINE
  5
2AC
330
1F
100
AcDbEntity
  8
0
  6
Continuous
 62
     7
370
    15
100
AcDbLine
 10
136.671204304
 20
58.7003860809
 30
0.0
 11
79.6712229006
 21
58.7003860809
 31
0.0
  0
LINE
  5
2AD
330
1F
100
AcDbEntity
  8
0
  6
Continuous
 62
     7
370
    15
100
AcDbLine
 10
738.1712226873
 20
220.7003905159
 30
0.0
 11
738.1712226873
 21
221.9003906311
 31
0.0
  0
LINE
  5
2AE
330
1F
100
AcDbEntity
  8
0
  6
Continuous
 62
     7
370
    15
100
AcDbLine
 10
648.1712201588
 20
220.7003905159
 30
0.0
 11
738.1712226873
 21
220.7003905159
 31
0.0
  0
LINE
  5
2AF
330
1F
100
AcDbEntity
  8
0
  6
Continuous
 62
     7
370
    15
100
AcDbLine
 10
648.1712201588
 20
220.7003905159
 30
0.0
 11
648.1712201588
 21
221.9003906311
 31
0.0
  0
LINE
  5
2B0
330
1F
100
AcDbEntity
  8
0
  6
Continuous
 62
     7
370
    15
100
AcDbLine
 10
724.1308728211
 20
126.7003897764
 30
0.0
 11
662.2115710728
 21
126.7003897764
 31
0.0
  0
LINE
  5
2B1
330
1F
100
AcDbEntity
  8
0
  6
Continuous
 62
     7
370
    15
100
AcDbLine
 10
63.1712267153
 20
220.7003905159
 30
0.0
 11
153.1712004893
 21
220.7003905159
 31
0.0
  0
LINE
  5
2B2
330
1F
100
AcDbEntity
  8
0
  6
Continuous
 62
     7
370
    15
100
AcDbLine
 10
63.1712267153
 20
220.7003905159
 30
0.0
 11
63.1712267153
 21
221.9003906311
 31
0.0
  0
LINE
  5
2B3
330
1F
100
AcDbEntity
  8
0
  6
Continuous
 62
     7
370
    15
100
AcDbLine
 10
153.1712004893
 20
220.7003905159
 30
0.0
 11
153.1712004893
 21
221.9003906311
 31
0.0
  0
LINE
  5
2B4
330
1F
100
AcDbEntity
  8
0
  6
Continuous
 62
     7
370
    15
100
AcDbLine
 10
139.1308495753
 20
126.7003897764
 30
0.0
 11
77.2115776293
 21
126.7003897764
 31
0.0
  0
SPLINE
  5
2B5
330
1F
100
AcDbEntity
  8
0
  6
Continuous
 62
     7
370
    15
100
AcDbSpline
210
0.0
220
0.0
230
1.0
 70
     8
 71
     3
 72
    10
 73
     6
 74
     0
 42
0.00000001
 43
0.00000001
 40
0.0
 40
0.0
 40
0.0
 40
0.0
 40
0.3483549268036231
 40
0.6961224468501005
 40
1.0
 40
1.0
 40
1.0
 40
1.0
 10
22.72124979423312
 20
364.2002228834248
 30
0.0
 10
22.74576078832519
 20
364.1980243473815
 30
0.0
 10
22.79474144531995
 20
364.1936309825338
 30
0.0
 10
22.85803314705398
 20
364.1640372103324
 30
0.0
 10
22.88767264101804
 20
364.1349973302128
 30
0.0
 10
22.90149424003391
 20
364.1214553453541
 30
0.0
  0
SPLINE
  5
2B6
330
1F
100
AcDbEntity
  8
0
  6
Continuous
 62
     7
370
    15
100
AcDbSpline
210
0.0
220
0.0
230
1.0
 70
     8
 71
     3
 72
    13
 73
     9
 74
     0
 42
0.00000001
 43
0.00000001
 40
0.0
 40
0.0
 40
0.0
 40
0.0
 40
0.1694546974772702
 40
0.3386422260187132
 40
0.5184724132116789
 40
0.7277179973177503
 40
0.9924442104553558
 40
1.0
 40
1.0
 40
1.0
 40
1.0
 10
22.72124979423312
 20
349.191281590662
 30
0.0
 10
22.74584692667864
 20
349.1918410436127
 30
0.0
 10
22.79500241076421
 20
349.1929590674584
 30
0.0
 10
22.86114461255101
 20
349.2014466106932
 30
0.0
 10
22.91683709685682
 20
349.2143921385087
 30
0.0
 10
22.95947226355172
 20
349.2332867018152
 30
0.0
 10
22.97129582626195
 20
349.2488092948328
 30
0.0
 10
22.97123340655954
 20
349.2577605931444
 30
0.0
 10
22.97123167442111
 20
349.2580089904881
 30
0.0
  0
LINE
  5
2B7
330
1F
100
AcDbEntity
  8
0
  6
Continuous
 62
     7
370
    15
100
AcDbLine
 10
22.9712316744
 20
363.9496002533
 30
0.0
 11
22.9712316744
 21
361.4007417299
 31
0.0
  0
LINE
  5
2B8
330
1F
100
AcDbEntity
  8
0
  6
Continuous
 62
     7
370
    15
100
AcDbLine
 10
22.9712316744
 20
355.0288561918
 30
0.0
 11
22.9712316744
 21
349.2580089905
 31
0.0
  0
SPLINE
  5
2B9
330
1F
100
AcDbEntity
  8
0
  6
Continuous
 62
     7
370
    15
100
AcDbSpline
210
0.0
220
0.0
230
1.0
 70
     8
 71
     3
 72
    13
 73
     9
 74
     0
 42
0.00000001
 43
0.00000001
 40
0.0
 40
0.0
 40
0.0
 40
0.0
 40
0.0075557895446443
 40
0.2722820026822498
 40
0.4815275867883212
 40
0.6613577739812869
 40
0.8305453025227298
 40
1.0
 40
1.0
 40
1.0
 40
1.0
 10
21.77121136115817
 20
349.2580089904881
 30
0.0
 10
21.77120962901974
 20
349.2577605931444
 30
0.0
 10
21.77114720931766
 20
349.2488092948329
 30
0.0
 10
21.78297077202756
 20
349.2332867018151
 30
0.0
 10
21.82560593872235
 20
349.2143921385087
 30
0.0
 10
21.88129842302872
 20
349.2014466106933
 30
0.0
 10
21.94744062481474
 20
349.1929590674584
 30
0.0
 10
21.99659610890042
 20
349.1918410436127
 30
0.0
 10
22.02119324134605
 20
349.191281590662
 30
0.0
  0
LINE
  5
2BA
330
1F
100
AcDbEntity
  8
0
  6
Continuous
 62
     7
370
    15
100
AcDbLine
 10
21.7712113612
 20
349.2580089905
 30
0.0
 11
21.7712113612
 21
355.0659600832
 31
0.0
  0
LINE
  5
2BB
330
1F
100
AcDbEntity
  8
0
  6
Continuous
 62
     7
370
    15
100
AcDbLine
 10
21.7712113612
 20
361.504379306
 30
0.0
 11
21.7712113612
 21
363.9496002533
 31
0.0
  0
LINE
  5
2BC
330
1F
100
AcDbEntity
  8
0
  6
Continuous
 62
     7
370
    15
100
AcDbLine
 10
22.7212497942
 20
364.2002228834
 30
0.0
 11
22.0211932413
 21
364.2002228834
 31
0.0
  0
LINE
  5
2BD
330
1F
100
AcDbEntity
  8
0
  6
Continuous
 62
     7
370
    15
100
AcDbLine
 10
22.7212497942
 20
349.1912815907
 30
0.0
 11
22.0211932413
 21
349.1912815907
 31
0.0
  0
SPLINE
  5
2BE
330
1F
100
AcDbEntity
  8
0
  6
Continuous
 62
     7
370
    15
100
AcDbSpline
210
0.0
220
0.0
230
1.0
 70
     8
 71
     3
 72
    12
 73
     8
 74
     0
 42
0.00000001
 43
0.00000001
 40
0.0
 40
0.0
 40
0.0
 40
0.0
 40
0.2289450893753357
 40
0.4594182414068509
 40
0.6825478993230198
 40
0.894719530458396
 40
1.0
 40
1.0
 40
1.0
 40
1.0
 10
21.77121136115817
 20
346.7535037734127
 30
0.0
 10
21.78855923492423
 20
346.5852637773563
 30
0.0
 10
21.8233707684648
 20
346.2476608904221
 30
0.0
 10
22.09718735273419
 20
345.8037850230396
 30
0.0
 10
22.49426995200493
 20
345.4848946946648
 30
0.0
 10
22.89512697626434
 20
345.3418360084919
 30
0.0
 10
23.1400025231015
 20
345.329671513221
 30
0.0
 10
23.2212135546091
 20
345.3256372549153
 30
0.0
  0
SPLINE
  5
2BF
330
1F
100
AcDbEntity
  8
0
  6
Continuous
 62
     7
370
    15
100
AcDbSpline
210
0.0
220
0.0
230
1.0
 70
     8
 71
     3
 72
    12
 73
     8
 74
     0
 42
0.00000001
 43
0.00000001
 40
0.0
 40
0.0
 40
0.0
 40
0.0
 40
0.2028068753344911
 40
0.4049482660486404
 40
0.6098303777713656
 40
0.8226902888033113
 40
1.0
 40
1.0
 40
1.0
 40
1.0
 10
23.22121355460899
 20
347.5879091956234
 30
0.0
 10
23.06408555853007
 20
347.6020170244034
 30
0.0
 10
22.75034516163793
 20
347.6301863889414
 30
0.0
 10
22.32994273014593
 20
347.8487435144489
 30
0.0
 10
22.00284458168261
 20
348.1729548835766
 30
0.0
 10
21.80469788936262
 20
348.561899041841
 30
0.0
 10
21.78167427371741
 20
348.8358386541075
 30
0.0
 10
21.77121136115817
 20
348.9603284933186
 30
0.0
  0
LINE
  5
2C0
330
1F
100
AcDbEntity
  8
0
  6
Continuous
 62
     7
370
    15
100
AcDbLine
 10
21.7712113612
 20
346.7535037734
 30
0.0
 11
21.7712113612
 21
348.9603284933
 31
0.0
  0
LINE
  5
2C1
330
1F
100
AcDbEntity
  8
0
  6
Continuous
 62
     7
370
    15
100
AcDbLine
 10
28.5712072604
 20
347.781840358
 30
0.0
 11
28.5712072604
 21
345.5750156381
 31
0.0
  0
LINE
  5
2C2
330
1F
100
AcDbEntity
  8
0
  6
Continuous
 62
     7
370
    15
100
AcDbLine
 10
28.5712072604
 20
348.4671447613
 30
0.0
 11
28.5712072604
 21
347.781840358
 31
0.0
  0
LINE
  5
2C3
330
1F
100
AcDbEntity
  8
0
  6
Continuous
 62
     7
370
    15
100
AcDbLine
 10
22.9712316744
 20
349.2580089905
 30
0.0
 11
22.9712316744
 21
348.9603284933
 31
0.0
  0
LINE
  5
2C4
330
1F
100
AcDbEntity
  8
0
  6
Continuous
 62
     7
370
    15
100
AcDbLine
 10
21.7712113612
 20
348.9603284933
 30
0.0
 11
21.7712113612
 21
349.2580089905
 31
0.0
  0
LINE
  5
2C5
330
1F
100
AcDbEntity
  8
0
  6
Continuous
 62
     7
370
    15
100
AcDbLine
 10
23.2212135546
 20
345.3256372549
 30
0.0
 11
23.2212135546
 21
345.3250188567
 31
0.0
  0
LINE
  5
2C6
330
1F
100
AcDbEntity
  8
0
  6
Continuous
 62
     7
370
    15
100
AcDbLine
 10
22.9712316744
 20
364.2472807505
 30
0.0
 11
22.9712316744
 21
363.9503900148
 31
0.0
  0
LINE
  5
2C7
330
1F
100
AcDbEntity
  8
0
  6
Continuous
 62
     7
370
    15
100
AcDbLine
 10
21.7712113612
 20
363.9496002533
 30
0.0
 11
21.7712113612
 21
364.2472807505
 31
0.0
  0
SPLINE
  5
2C8
330
1F
100
AcDbEntity
  8
0
  6
Continuous
 62
     7
370
    15
100
AcDbSpline
210
0.0
220
0.0
230
1.0
 70
     8
 71
     3
 72
    12
 73
     8
 74
     0
 42
0.00000001
 43
0.00000001
 40
0.0
 40
0.0
 40
0.0
 40
0.0
 40
0.2289461448584224
 40
0.4594166915311192
 40
0.6825483628862542
 40
0.8947196811219167
 40
1.0
 40
1.0
 40
1.0
 40
1.0
 10
21.77121136115806
 20
364.2472807504749
 30
0.0
 10
21.78855857583511
 20
364.4155209891252
 30
0.0
 10
21.82336850888317
 20
364.7531216675333
 30
0.0
 10
22.09719210744815
 20
365.1969926200142
 30
0.0
 10
22.49426668132309
 20
365.5158891537391
 30
0.0
 10
22.89512715075431
 20
365.6589526885028
 30
0.0
 10
23.14000256477738
 20
365.6711084548474
 30
0.0
 10
23.22121355460899
 20
365.6751398183918
 30
0.0
  0
SPLINE
  5
2C9
330
1F
100
AcDbEntity
  8
0
  6
Continuous
 62
     7
370
    15
100
AcDbSpline
210
0.0
220
0.0
230
1.0
 70
     8
 71
     3
 72
    12
 73
     8
 74
     0
 42
0.00000001
 43
0.00000001
 40
0.0
 40
0.0
 40
0.0
 40
0.0
 40
0.2476830193667119
 40
0.4874508900194929
 40
0.7077134570687327
 40
0.9064454183559612
 40
1.0
 40
1.0
 40
1.0
 40
1.0
 10
22.97123167442111
 20
364.2472807504749
 30
0.0
 10
22.9741486613641
 20
364.2758848952722
 30
0.0
 10
22.97988941777601
 20
364.332179088856
 30
0.0
 10
23.02616079944236
 20
364.4078125739292
 30
0.0
 10
23.09469691016836
 20
364.4630543110268
 30
0.0
 10
23.16517528040124
 20
364.4880620167418
 30
0.0
 10
23.20762600013232
 20
364.4900762943374
 30
0.0
 10
23.2212135546091
 20
364.4907210208988
 30
0.0
  0
LINE
  5
2CA
330
1F
100
AcDbEntity
  8
0
  6
Continuous
 62
     7
370
    15
100
AcDbLine
 10
28.5712072604
 20
365.4257688858
 30
0.0
 11
28.5712072604
 21
364.7404495813
 31
0.0
  0
LINE
  5
2CB
330
1F
100
AcDbEntity
  8
0
  6
Continuous
 62
     7
370
    15
100
AcDbLine
 10
28.5712072604
 20
364.7404495813
 30
0.0
 11
28.5712072604
 21
362.533632312
 31
0.0
  0
SPLINE
  5
2CC
330
1F
100
AcDbEntity
  8
0
  6
Continuous
 62
     7
370
    15
100
AcDbSpline
210
0.0
220
0.0
230
1.0
 70
     8
 71
     3
 72
    12
 73
     8
 74
     0
 42
0.00000001
 43
0.00000001
 40
0.0
 40
0.0
 40
0.0
 40
0.0
 40
0.2289478055713269
 40
0.4594340839772006
 40
0.6825461739834041
 40
0.8947191045275532
 40
1.0
 40
1.0
 40
1.0
 40
1.0
 10
24.17125198768405
 20
360.8673397638416
 30
0.0
 10
24.15390987623228
 20
360.9307085057969
 30
0.0
 10
24.11910911861309
 20
361.0578718120375
 30
0.0
 10
23.84520521102801
 20
361.2227358701431
 30
0.0
 10
23.44819367402057
 20
361.3404516581169
 30
0.0
 10
23.04733527781183
 20
361.3930071720048
 30
0.0
 10
22.8024604683667
 20
361.3974726517397
 30
0.0
 10
22.72124979423312
 20
361.3989535905934
 30
0.0
  0
LINE
  5
2CD
330
1F
100
AcDbEntity
  8
0
  6
Continuous
 62
     7
370
    15
100
AcDbLine
 10
24.1712519877
 20
360.8673397638
 30
0.0
 11
24.1712519877
 21
355.1539961435
 31
0.0
  0
LINE
  5
2CE
330
1F
100
AcDbEntity
  8
0
  6
Continuous
 62
     7
370
    15
100
AcDbLine
 10
17.3711964838
 20
355.5410389044
 30
0.0
 11
17.3711964838
 21
361.2543825247
 31
0.0
  0
SPLINE
  5
2CF
330
1F
100
AcDbEntity
  8
0
  6
Continuous
 62
     7
370
    15
100
AcDbSpline
210
0.0
220
0.0
230
1.0
 70
     8
 71
     3
 72
    13
 73
     9
 74
     0
 42
0.00000001
 43
0.00000001
 40
0.0
 40
0.0
 40
0.0
 40
0.0
 40
0.1695916246560984
 40
0.3386484933382797
 40
0.5184811626889742
 40
0.7277195762288255
 40
0.9924480865877061
 40
1.0
 40
1.0
 40
1.0
 40
1.0
 10
23.92121050285117
 20
354.8702780344105
 30
0.0
 10
23.94582862525058
 20
354.8718819330883
 30
0.0
 10
23.9949872442346
 20
354.8750846730339
 30
0.0
 10
24.06112797194521
 20
354.8993729821686
 30
0.0
 10
24.11674690368987
 20
354.9360109546714
 30
0.0
 10
24.15968038378297
 20
354.9886903158348
 30
0.0
 10
24.17056795412203
 20
355.0315690891753
 30
0.0
 10
24.17123352747935
 20
355.0555641041844
 30
0.0
 10
24.17125198768405
 20
355.0562296249485
 30
0.0
  0
LINE
  5
2D0
330
1F
100
AcDbEntity
  8
0
  6
Continuous
 62
     7
370
    15
100
AcDbLine
 10
24.1712519877
 20
355.0562296249
 30
0.0
 11
24.1712519877
 21
348.7171415426
 31
0.0
  0
SPLINE
  5
2D1
330
1F
100
AcDbEntity
  8
0
  6
Continuous
 62
     7
370
    15
100
AcDbSpline
210
0.0
220
0.0
230
1.0
 70
     8
 71
     3
 72
    13
 73
     9
 74
     0
 42
0.00000001
 43
0.00000001
 40
0.0
 40
0.0
 40
0.0
 40
0.0
 40
0.0075507871844994
 40
0.2722837171989224
 40
0.4815256239844121
 40
0.6613612956503945
 40
0.8305409290446689
 40
0.9999999999999999
 40
0.9999999999999999
 40
0.9999999999999999
 40
0.9999999999999999
 10
22.97123167442111
 20
355.0562296249485
 30
0.0
 10
22.97122994481876
 20
355.0555641024695
 30
0.0
 10
22.97116757483003
 20
355.0315651563932
 30
0.0
 10
22.98298957388273
 20
354.9886910331861
 30
0.0
 10
23.02562838707084
 20
354.9360123498908
 30
0.0
 10
23.08131535260743
 20
354.899360009778
 30
0.0
 10
23.14746425313513
 20
354.8750989670791
 30
0.0
 10
23.196616934197
 20
354.8718858957531
 30
0.0
 10
23.2212135546091
 20
354.8702780344105
 30
0.0
  0
LINE
  5
2D2
330
1F
100
AcDbEntity
  8
0
  6
Continuous
 62
     7
370
    15
100
AcDbLine
 10
22.9712316744
 20
349.227923546
 30
0.0
 11
22.9712316744
 21
355.0562296249
 31
0.0
  0
LINE
  5
2D3
330
1F
100
AcDbEntity
  8
0
  6
Continuous
 62
     7
370
    15
100
AcDbLine
 10
23.2212135546
 20
354.8702780344
 30
0.0
 11
23.9212105029
 21
354.8702780344
 31
0.0
  0
LINE
  5
2D4
330
1F
100
AcDbEntity
  8
0
  6
Continuous
 62
     7
370
    15
100
AcDbLine
 10
17.3711964838
 20
355.3159568646
 30
0.0
 11
17.3711964838
 21
355.5410389044
 31
0.0
  0
LINE
  5
2D5
330
1F
100
AcDbEntity
  8
0
  6
Continuous
 62
     7
370
    15
100
AcDbLine
 10
24.1712519877
 20
355.1539961435
 30
0.0
 11
24.1712519877
 21
355.0562296249
 31
0.0
  0
LINE
  5
2D6
330
1F
100
AcDbEntity
  8
0
  6
Continuous
 62
     7
370
    15
100
AcDbLine
 10
22.7212497942
 20
361.3989535906
 30
0.0
 11
22.7212497942
 21
361.504379306
 31
0.0
  0
LINE
  5
2D7
330
1F
100
AcDbEntity
  8
0
  6
Continuous
 62
     7
370
    15
100
AcDbLine
 10
24.1712519877
 20
363.9503900148
 30
0.0
 11
24.1712519877
 21
360.7695732452
 31
0.0
  0
LINE
  5
2D8
330
1F
100
AcDbEntity
  8
0
  6
Continuous
 62
     7
370
    15
100
AcDbLine
 10
22.9712316744
 20
361.4942763188
 30
0.0
 11
22.9712316744
 21
363.9503900148
 31
0.0
  0
LINE
  5
2D9
330
1F
100
AcDbEntity
  8
0
  6
Continuous
 62
     7
370
    15
100
AcDbLine
 10
17.3711964838
 20
349.9714765884
 30
0.0
 11
17.3711964838
 21
350.4755530693
 31
0.0
  0
LINE
  5
2DA
330
1F
100
AcDbEntity
  8
0
  6
Continuous
 62
     7
370
    15
100
AcDbLine
 10
17.3711964838
 20
349.7464094498
 30
0.0
 11
17.3711964838
 21
349.9714765884
 31
0.0
  0
LINE
  5
2DB
330
1F
100
AcDbEntity
  8
0
  6
Continuous
 62
     7
370
    15
100
AcDbLine
 10
21.4107820742
 20
355.0659600832
 30
0.0
 11
21.7712113612
 21
353.0380163529
 31
0.0
  0
SPLINE
  5
2DC
330
1F
100
AcDbEntity
  8
0
  6
Continuous
 62
     7
370
    15
100
AcDbSpline
210
0.0
220
0.0
230
1.0
 70
     8
 71
     3
 72
     9
 73
     5
 74
     0
 42
0.00000001
 43
0.00000001
 40
0.0
 40
0.0
 40
0.0
 40
0.0
 40
0.070198798392711
 40
1.0
 40
1.0
 40
1.0
 40
1.0
 10
21.77121136115817
 20
353.0380163528538
 30
0.0
 10
21.77076046739507
 20
352.9784582644111
 30
0.0
 10
21.76433736937317
 20
352.1300379238017
 30
0.0
 10
21.53649835336163
 20
351.298632723172
 30
0.0
 10
21.32465336250095
 20
350.5255911686039
 30
0.0
  0
LINE
  5
2DD
330
1F
100
AcDbEntity
  8
0
  6
Continuous
 62
     7
370
    15
100
AcDbLine
 10
21.3246533625
 20
350.5255911686
 30
0.0
 11
17.017800545
 21
350.5255911686
 31
0.0
  0
SPLINE
  5
2DE
330
1F
100
AcDbEntity
  8
0
  6
Continuous
 62
     7
370
    15
100
AcDbSpline
210
0.0
220
0.0
230
1.0
 70
     8
 71
     3
 72
     9
 73
     5
 74
     0
 42
0.00000001
 43
0.00000001
 40
0.0
 40
0.0
 40
0.0
 40
0.0
 40
0.0701983415002609
 40
0.9999999999999999
 40
0.9999999999999999
 40
0.9999999999999999
 40
0.9999999999999999
 10
16.57124254630832
 20
353.0380163528538
 30
0.0
 10
16.57167282696254
 20
352.9784582501626
 30
0.0
 10
16.5778023258229
 20
352.1300321845549
 30
0.0
 10
16.80580410891014
 20
351.2986301547741
 30
0.0
 10
17.01780054496543
 20
350.5255911686039
 30
0.0
  0
LINE
  5
2DF
330
1F
100
AcDbEntity
  8
0
  6
Continuous
 62
     7
370
    15
100
AcDbLine
 10
17.017800545
 20
355.5504266359
 30
0.0
 11
16.5712425463
 21
353.0380163529
 31
0.0
  0
LINE
  5
2E0
330
1F
100
AcDbEntity
  8
0
  6
Continuous
 62
     7
370
    15
100
AcDbLine
 10
17.3711964838
 20
355.5504266359
 30
0.0
 11
17.017800545
 21
355.5504266359
 31
0.0
  0
SPLINE
  5
2E1
330
1F
100
AcDbEntity
  8
0
  6
Continuous
 62
     7
370
    15
100
AcDbSpline
210
0.0
220
0.0
230
1.0
 70
     8
 71
     3
 72
     9
 73
     5
 74
     0
 42
0.00000001
 43
0.00000001
 40
0.0
 40
0.0
 40
0.0
 40
0.0
 40
0.2575544593823592
 40
1.0
 40
1.0
 40
1.0
 40
1.0
 10
17.01780054496555
 20
355.5504266359425
 30
0.0
 10
16.95038050021852
 20
355.759248590917
 30
0.0
 10
16.68861044619302
 20
356.5700361636707
 30
0.0
 10
16.621252300903
 20
357.4124049330244
 30
0.0
 10
16.57124254630832
 20
358.0378178693867
 30
0.0
  0
LINE
  5
2E2
330
1F
100
AcDbEntity
  8
0
  6
Continuous
 62
     7
370
    15
100
AcDbLine
 10
16.5712425463
 20
353.0380163529
 30
0.0
 11
16.5712425463
 21
358.0378178694
 31
0.0
  0
SPLINE
  5
2E3
330
1F
100
AcDbEntity
  8
0
  6
Continuous
 62
     7
370
    15
100
AcDbSpline
210
0.0
220
0.0
230
1.0
 70
     8
 71
     3
 72
     9
 73
     5
 74
     0
 42
0.00000001
 43
0.00000001
 40
0.0
 40
0.0
 40
0.0
 40
0.0
 40
0.2686357966203585
 40
1.0
 40
1.0
 40
1.0
 40
1.0
 10
16.57124254630832
 20
358.0378178693867
 30
0.0
 10
16.57786790054366
 20
358.263995228746
 30
0.0
 10
16.60253086176794
 20
359.1059431828338
 30
0.0
 10
16.84238200480698
 20
359.9256903038543
 30
0.0
 10
17.01780054496543
 20
360.5252240039921
 30
0.0
  0
LINE
  5
2E4
330
1F
100
AcDbEntity
  8
0
  6
Continuous
 62
     7
370
    15
100
AcDbLine
 10
17.3711964838
 20
360.525224004
 30
0.0
 11
17.017800545
 21
360.525224004
 31
0.0
  0
LINE
  5
2E5
330
1F
100
AcDbEntity
  8
0
  6
Continuous
 62
     7
370
    15
100
AcDbLine
 10
21.3246533625
 20
350.5255911686
 30
0.0
 11
21.7712113612
 21
350.500572119
 31
0.0
  0
LINE
  5
2E6
330
1F
100
AcDbEntity
  8
0
  6
Continuous
 62
     7
370
    15
100
AcDbLine
 10
17.017800545
 20
350.5255911686
 30
0.0
 11
16.5712425463
 21
350.500572119
 31
0.0
  0
LINE
  5
2E7
330
1F
100
AcDbEntity
  8
0
  6
Continuous
 62
     7
370
    15
100
AcDbLine
 10
16.5712425463
 20
350.500572119
 30
0.0
 11
16.5712425463
 21
353.0380163529
 31
0.0
  0
SPLINE
  5
2E8
330
1F
100
AcDbEntity
  8
0
  6
Continuous
 62
     7
370
    15
100
AcDbSpline
210
0.0
220
0.0
230
1.0
 70
     8
 71
     3
 72
     9
 73
     5
 74
     0
 42
0.00000001
 43
0.00000001
 40
0.0
 40
0.0
 40
0.0
 40
0.0
 40
0.0702006525488722
 40
1.0
 40
1.0
 40
1.0
 40
1.0
 10
16.57124254630832
 20
360.5002049543476
 30
0.0
 10
16.57167280107191
 20
360.5007962462083
 30
0.0
 10
16.57780172933837
 20
360.5092191288904
 30
0.0
 10
16.80580409456261
 20
360.5175126725289
 30
0.0
 10
17.01780054496555
 20
360.5252240039921
 30
0.0
  0
LINE
  5
2E9
330
1F
100
AcDbEntity
  8
0
  6
Continuous
 62
     7
370
    15
100
AcDbLine
 10
16.5712425463
 20
358.0378178694
 30
0.0
 11
16.5712425463
 21
360.5002049543
 31
0.0
  0
SPLINE
  5
2EA
330
1F
100
AcDbEntity
  8
0
  6
Continuous
 62
     7
370
    15
100
AcDbSpline
210
0.0
220
0.0
230
1.0
 70
     8
 71
     3
 72
     9
 73
     5
 74
     0
 42
0.00000001
 43
0.00000001
 40
0.0
 40
0.0
 40
0.0
 40
0.0
 40
0.0701987399232133
 40
1.0
 40
1.0
 40
1.0
 40
1.0
 10
21.77121136115817
 20
350.5005721189594
 30
0.0
 10
21.7707604667407
 20
350.4999808265029
 30
0.0
 10
21.76433735404953
 20
350.491557705843
 30
0.0
 10
21.53649835288157
 20
350.4832642940502
 30
0.0
 10
21.32465336250095
 20
350.475553069315
 30
0.0
  0
LINE
  5
2EB
330
1F
100
AcDbEntity
  8
0
  6
Continuous
 62
     7
370
    15
100
AcDbLine
 10
21.3246533625
 20
350.4755530693
 30
0.0
 11
17.017800545
 21
350.4755530693
 31
0.0
  0
SPLINE
  5
2EC
330
1F
100
AcDbEntity
  8
0
  6
Continuous
 62
     7
370
    15
100
AcDbSpline
210
0.0
220
0.0
230
1.0
 70
     8
 71
     3
 72
     9
 73
     5
 74
     0
 42
0.00000001
 43
0.00000001
 40
0.0
 40
0.0
 40
0.0
 40
0.0
 40
0.0701982830269417
 40
1.0
 40
1.0
 40
1.0
 40
1.0
 10
16.57124254630832
 20
350.5005721189594
 30
0.0
 10
16.57167282761768
 20
350.4999808263606
 30
0.0
 10
16.57780234091438
 20
350.4915576488499
 30
0.0
 10
16.80580410927296
 20
350.4832642685538
 30
0.0
 10
17.01780054496555
 20
350.475553069315
 30
0.0
  0
LINE
  5
2ED
330
1F
100
AcDbEntity
  8
0
  6
Continuous
 62
     7
370
    15
100
AcDbLine
 10
28.9246628039
 20
357.4644807913
 30
0.0
 11
29.3712208025
 21
354.6225611307
 31
0.0
  0
SPLINE
  5
2EE
330
1F
100
AcDbEntity
  8
0
  6
Continuous
 62
     7
370
    15
100
AcDbSpline
210
0.0
220
0.0
230
1.0
 70
     8
 71
     3
 72
     9
 73
     5
 74
     0
 42
0.00000001
 43
0.00000001
 40
0.0
 40
0.0
 40
0.0
 40
0.0
 40
0.0702005990323821
 40
1.0
 40
1.0
 40
1.0
 40
1.0
 10
29.37122080253391
 20
354.622561130724
 30
0.0
 10
29.37076992892268
 20
354.5551911783292
 30
0.0
 10
29.36434728271392
 20
353.5955134359261
 30
0.0
 10
29.13650780954541
 20
352.6550752413143
 30
0.0
 10
28.92466280387656
 20
351.7806563713169
 30
0.0
  0
LINE
  5
2EF
330
1F
100
AcDbEntity
  8
0
  6
Continuous
 62
     7
370
    15
100
AcDbLine
 10
28.9246628039
 20
351.7806563713
 30
0.0
 11
24.6178099863
 21
351.7806563713
 31
0.0
  0
SPLINE
  5
2F0
330
1F
100
AcDbEntity
  8
0
  6
Continuous
 62
     7
370
    15
100
AcDbSpline
210
0.0
220
0.0
230
1.0
 70
     8
 71
     3
 72
     9
 73
     5
 74
     0
 42
0.00000001
 43
0.00000001
 40
0.0
 40
0.0
 40
0.0
 40
0.0
 40
0.0702001421344728
 40
1.0
 40
1.0
 40
1.0
 40
1.0
 10
24.17125198768405
 20
354.622561130724
 30
0.0
 10
24.17168224816596
 20
354.5551911622115
 30
0.0
 10
24.17781130245083
 20
353.5955069441441
 30
0.0
 10
24.40581353910615
 20
352.655072336156
 30
0.0
 10
24.61780998634128
 20
351.7806563713169
 30
0.0
  0
LINE
  5
2F1
330
1F
100
AcDbEntity
  8
0
  6
Continuous
 62
     7
370
    15
100
AcDbLine
 10
24.6178099863
 20
357.4644807913
 30
0.0
 11
24.1712519877
 21
354.6225611307
 31
0.0
  0
LINE
  5
2F2
330
1F
100
AcDbEntity
  8
0
  6
Continuous
 62
     7
370
    15
100
AcDbLine
 10
28.9246628039
 20
357.4644807913
 30
0.0
 11
24.6178099863
 21
357.4644807913
 31
0.0
  0
SPLINE
  5
2F3
330
1F
100
AcDbEntity
  8
0
  6
Continuous
 62
     7
370
    15
100
AcDbSpline
210
0.0
220
0.0
230
1.0
 70
     8
 71
     3
 72
     9
 73
     5
 74
     0
 42
0.00000001
 43
0.00000001
 40
0.0
 40
0.0
 40
0.0
 40
0.0
 40
0.2575529745663881
 40
1.0
 40
1.0
 40
1.0
 40
1.0
 10
24.61780998634128
 20
357.4644807912922
 30
0.0
 10
24.5503899366381
 20
357.620619392407
 30
0.0
 10
24.28861835424217
 20
358.2268581725166
 30
0.0
 10
24.22126114633544
 20
358.8567172936291
 30
0.0
 10
24.17125198768405
 20
359.3243543245411
 30
0.0
  0
SPLINE
  5
2F4
330
1F
100
AcDbEntity
  8
0
  6
Continuous
 62
     7
370
    15
100
AcDbSpline
210
0.0
220
0.0
230
1.0
 70
     8
 71
     3
 72
     9
 73
     5
 74
     0
 42
0.00000001
 43
0.00000001
 40
0.0
 40
0.0
 40
0.0
 40
0.0
 40
0.2575485541446934
 40
1.0
 40
1.0
 40
1.0
 40
1.0
 10
28.92466280387668
 20
357.4644807912922
 30
0.0
 10
28.99205955408008
 20
357.6206198798012
 30
0.0
 10
29.25374516294382
 20
358.2268709574961
 30
0.0
 10
29.3211649122111
 20
358.8567211433682
 30
0.0
 10
29.37122080253391
 20
359.3243543245411
 30
0.0
  0
LINE
  5
2F5
330
1F
100
AcDbEntity
  8
0
  6
Continuous
 62
     7
370
    15
100
AcDbLine
 10
29.3712208025
 20
359.3243543245
 30
0.0
 11
29.3712208025
 21
354.6225611307
 31
0.0
  0
LINE
  5
2F6
330
1F
100
AcDbEntity
  8
0
  6
Continuous
 62
     7
370
    15
100
AcDbLine
 10
24.6178099863
 20
351.7806563713
 30
0.0
 11
24.1712519877
 21
350.798610244
 31
0.0
  0
LINE
  5
2F7
330
1F
100
AcDbEntity
  8
0
  6
Continuous
 62
     7
370
    15
100
AcDbLine
 10
28.9246628039
 20
351.7806563713
 30
0.0
 11
29.3712208025
 21
350.798610244
 31
0.0
  0
LINE
  5
2F8
330
1F
100
AcDbEntity
  8
0
  6
Continuous
 62
     7
370
    15
100
AcDbLine
 10
29.3712208025
 20
354.6225611307
 30
0.0
 11
29.3712208025
 21
350.798610244
 31
0.0
  0
SPLINE
  5
2F9
330
1F
100
AcDbEntity
  8
0
  6
Continuous
 62
     7
370
    15
100
AcDbSpline
210
0.0
220
0.0
230
1.0
 70
     8
 71
     3
 72
     9
 73
     5
 74
     0
 42
0.00000001
 43
0.00000001
 40
0.0
 40
0.0
 40
0.0
 40
0.0
 40
0.2686321411868391
 40
1.0
 40
1.0
 40
1.0
 40
1.0
 10
24.17125198768405
 20
359.3243543245411
 30
0.0
 10
24.17787753815598
 20
359.49346410135
 30
0.0
 10
24.2025415654859
 20
360.1229858557527
 30
0.0
 10
24.44239147302668
 20
360.7359272913201
 30
0.0
 10
24.61780998634128
 20
361.1842129566288
 30
0.0
  0
LINE
  5
2FA
330
1F
100
AcDbEntity
  8
0
  6
Continuous
 62
     7
370
    15
100
AcDbLine
 10
28.9246628039
 20
361.1842129566
 30
0.0
 11
24.6178099863
 21
361.1842129566
 31
0.0
  0
SPLINE
  5
2FB
330
1F
100
AcDbEntity
  8
0
  6
Continuous
 62
     7
370
    15
100
AcDbSpline
210
0.0
220
0.0
230
1.0
 70
     8
 71
     3
 72
     9
 73
     5
 74
     0
 42
0.00000001
 43
0.00000001
 40
0.0
 40
0.0
 40
0.0
 40
0.0
 40
0.2686321411868391
 40
1.0
 40
1.0
 40
1.0
 40
1.0
 10
29.37122080253391
 20
359.3243543245411
 30
0.0
 10
29.36459525206197
 20
359.49346410135
 30
0.0
 10
29.33993122473216
 20
360.1229858557527
 30
0.0
 10
29.10008131719139
 20
360.7359272913201
 30
0.0
 10
28.92466280387668
 20
361.1842129566288
 30
0.0
  0
SPLINE
  5
2FC
330
1F
100
AcDbEntity
  8
0
  6
Continuous
 62
     7
370
    15
100
AcDbSpline
210
0.0
220
0.0
230
1.0
 70
     8
 71
     3
 72
     9
 73
     5
 74
     0
 42
0.00000001
 43
0.00000001
 40
0.0
 40
0.0
 40
0.0
 40
0.0
 40
0.0702008103309915
 40
1.0
 40
1.0
 40
1.0
 40
1.0
 10
29.37122080253391
 20
350.7986102439976
 30
0.0
 10
29.37076993128746
 20
350.7753286306609
 30
0.0
 10
29.36434733809695
 20
350.4436855452463
 30
0.0
 10
29.13650781128291
 20
350.1187183507707
 30
0.0
 10
28.92466280387668
 20
349.8165641166783
 30
0.0
  0
LINE
  5
2FD
330
1F
100
AcDbEntity
  8
0
  6
Continuous
 62
     7
370
    15
100
AcDbLine
 10
28.9246628039
 20
349.8165641167
 30
0.0
 11
24.6178099863
 21
349.8165641167
 31
0.0
  0
LINE
  5
2FE
330
1F
100
AcDbEntity
  8
0
  6
Continuous
 62
     7
370
    15
100
AcDbLine
 10
24.4396517031
 20
350.1825068333
 30
0.0
 11
24.6178099863
 21
349.8165641167
 31
0.0
  0
LINE
  5
2FF
330
1F
100
AcDbEntity
  8
0
  6
Continuous
 62
     7
370
    15
100
AcDbLine
 10
24.4396517031
 20
360.81827024
 30
0.0
 11
24.6178099863
 21
361.1842129566
 31
0.0
  0
LINE
  5
300
330
1F
100
AcDbEntity
  8
0
  6
Continuous
 62
     7
370
    15
100
AcDbLine
 10
29.1028210871
 20
360.81827024
 30
0.0
 11
28.9246628039
 21
361.1842129566
 31
0.0
  0
LINE
  5
301
330
1F
100
AcDbEntity
  8
0
  6
Continuous
 62
     7
370
    15
100
AcDbLine
 10
29.3712208025
 20
359.3243543245
 30
0.0
 11
29.3712208025
 21
360.5003837683
 31
0.0
  0
LINE
  5
302
330
1F
100
AcDbEntity
  8
0
  6
Continuous
 62
     7
370
    15
100
AcDbLine
 10
29.3712208025
 20
350.798610244
 30
0.0
 11
29.3712208025
 21
350.500393305
 31
0.0
  0
LINE
  5
303
330
1F
100
AcDbEntity
  8
0
  6
Continuous
 62
     7
370
    15
100
AcDbLine
 10
34.1712424509
 20
354.3293956854
 30
0.0
 11
30.067820286
 21
354.3293956854
 31
0.0
  0
SPLINE
  5
304
330
1F
100
AcDbEntity
  8
0
  6
Continuous
 62
     7
370
    15
100
AcDbSpline
210
0.0
220
0.0
230
1.0
 70
     8
 71
     3
 72
     9
 73
     5
 74
     0
 42
0.00000001
 43
0.00000001
 40
0.0
 40
0.0
 40
0.0
 40
0.0
 40
0.0702023754855359
 40
1.0
 40
1.0
 40
1.0
 40
1.0
 10
29.62120268272189
 20
357.0701811649418
 30
0.0
 10
29.62165348379592
 20
357.0052064464423
 30
0.0
 10
29.62807493422187
 20
356.0796719748508
 30
0.0
 10
29.85594616082937
 20
355.1726979651305
 30
0.0
 10
30.0678202860239
 20
354.3293956853962
 30
0.0
  0
LINE
  5
305
330
1F
100
AcDbEntity
  8
0
  6
Continuous
 62
     7
370
    15
100
AcDbLine
 10
30.067820286
 20
359.8109666445
 30
0.0
 11
29.6212026827
 21
357.0701811649
 31
0.0
  0
LINE
  5
306
330
1F
100
AcDbEntity
  8
0
  6
Continuous
 62
     7
370
    15
100
AcDbLine
 10
34.1712424509
 20
359.8109666445
 30
0.0
 11
30.067820286
 21
359.8109666445
 31
0.0
  0
LINE
  5
307
330
1F
100
AcDbEntity
  8
0
  6
Continuous
 62
     7
370
    15
100
AcDbLine
 10
30.067820286
 20
354.3293956854
 30
0.0
 11
29.6212026827
 21
352.1741066315
 31
0.0
  0
LINE
  5
308
330
1F
100
AcDbEntity
  8
0
  6
Continuous
 62
     7
370
    15
100
AcDbLine
 10
29.6212026827
 20
352.1741066315
 30
0.0
 11
29.6212026827
 21
357.0701811649
 31
0.0
  0
LINE
  5
309
330
1F
100
AcDbEntity
  8
0
  6
Continuous
 62
     7
370
    15
100
AcDbLine
 10
34.1712424509
 20
350.0188175776
 30
0.0
 11
30.067820286
 21
350.0188175776
 31
0.0
  0
SPLINE
  5
30A
330
1F
100
AcDbEntity
  8
0
  6
Continuous
 62
     7
370
    15
100
AcDbSpline
210
0.0
220
0.0
230
1.0
 70
     8
 71
     3
 72
     9
 73
     5
 74
     0
 42
0.00000001
 43
0.00000001
 40
0.0
 40
0.0
 40
0.0
 40
0.0
 40
0.0702014358125594
 40
0.9999999999999999
 40
0.9999999999999999
 40
0.9999999999999999
 40
0.9999999999999999
 10
29.62120268272189
 20
352.1741066314793
 30
0.0
 10
29.62165349431406
 20
352.1230113584235
 30
0.0
 10
29.62807518052296
 20
351.3951733524856
 30
0.0
 10
29.85594616854309
 20
350.6819612066869
 30
0.0
 10
30.0678202860239
 20
350.0188175775623
 30
0.0
  0
SPLINE
  5
30B
330
1F
100
AcDbEntity
  8
0
  6
Continuous
 62
     7
370
    15
100
AcDbSpline
210
0.0
220
0.0
230
1.0
 70
     8
 71
     3
 72
     9
 73
     5
 74
     0
 42
0.00000001
 43
0.00000001
 40
0.0
 40
0.0
 40
0.0
 40
0.0
 40
0.2575535482256434
 40
1.0
 40
1.0
 40
1.0
 40
1.0
 10
30.0678202860239
 20
359.8109666444874
 30
0.0
 10
30.00040112579766
 20
359.860120145891
 30
0.0
 10
29.73863358001699
 20
360.050967842388
 30
0.0
 10
29.67123931537513
 20
360.2492495326954
 30
0.0
 10
29.62120268272189
 20
360.3964630701161
 30
0.0
  0
LINE
  5
30C
330
1F
100
AcDbEntity
  8
0
  6
Continuous
 62
     7
370
    15
100
AcDbLine
 10
29.6212026827
 20
357.0701811649
 30
0.0
 11
29.6212026827
 21
360.3964630701
 31
0.0
  0
SPLINE
  5
30D
330
1F
100
AcDbEntity
  8
0
  6
Continuous
 62
     7
370
    15
100
AcDbSpline
210
0.0
220
0.0
230
1.0
 70
     8
 71
     3
 72
     9
 73
     5
 74
     0
 42
0.00000001
 43
0.00000001
 40
0.0
 40
0.0
 40
0.0
 40
0.0
 40
0.2686337757569783
 40
1.0
 40
1.0
 40
1.0
 40
1.0
 10
29.62120268272189
 20
360.3964630701161
 30
0.0
 10
29.62785068229662
 20
360.4497012711036
 30
0.0
 10
29.65259812723747
 20
360.647882608642
 30
0.0
 10
29.89242154123989
 20
360.8408468605639
 30
0.0
 10
30.0678202860239
 20
360.9819743969059
 30
0.0
  0
LINE
  5
30E
330
1F
100
AcDbEntity
  8
0
  6
Continuous
 62
     7
370
    15
100
AcDbLine
 10
34.1712424509
 20
360.9819743969
 30
0.0
 11
30.067820286
 21
360.9819743969
 31
0.0
  0
SPLINE
  5
30F
330
1F
100
AcDbEntity
  8
0
  6
Continuous
 62
     7
370
    15
100
AcDbSpline
210
0.0
220
0.0
230
1.0
 70
     8
 71
     3
 72
     9
 73
     5
 74
     0
 42
0.00000001
 43
0.00000001
 40
0.0
 40
0.0
 40
0.0
 40
0.0
 40
0.2575511188958803
 40
1.0
 40
1.0
 40
1.0
 40
1.0
 10
30.0678202860239
 20
350.0188175775623
 30
0.0
 10
30.00040111767005
 20
350.0679711632891
 30
0.0
 10
29.73863107123059
 20
350.2588209873452
 30
0.0
 10
29.67123834035484
 20
350.4571011317974
 30
0.0
 10
29.62120268272178
 20
350.604314003191
 30
0.0
  0
LINE
  5
310
330
1F
100
AcDbEntity
  8
0
  6
Continuous
 62
     7
370
    15
100
AcDbLine
 10
29.6212026827
 20
352.1741066315
 30
0.0
 11
29.6212026827
 21
350.5086783506
 31
0.0
  0
LINE
  5
311
330
1F
100
AcDbEntity
  8
0
  6
Continuous
 62
     7
370
    15
100
AcDbLine
 10
56.5712043993
 20
905.0003621914
 30
0.0
 11
56.5712043993
 21
905.1003787853
 31
0.0
  0
LINE
  5
312
330
1F
100
AcDbEntity
  8
0
  6
Continuous
 62
     7
370
    15
100
AcDbLine
 10
35.3712031596
 20
903.5445783474
 30
0.0
 11
35.3712031596
 21
904.0335748531
 31
0.0
  0
LINE
  5
313
330
1F
100
AcDbEntity
  8
0
  6
Continuous
 62
     7
370
    15
100
AcDbLine
 10
35.3712031596
 20
905.0003621914
 30
0.0
 11
35.3712031596
 21
905.1003787853
 31
0.0
  0
LINE
  5
314
330
1F
100
AcDbEntity
  8
0
  6
Continuous
 62
     7
370
    15
100
AcDbLine
 10
738.6212227378
 20
223.950390583
 30
0.0
 11
738.6212227378
 21
222.7003906109
 31
0.0
  0
LINE
  5
315
330
1F
100
AcDbEntity
  8
0
  6
Continuous
 62
     7
370
    15
100
AcDbLine
 10
738.6212227378
 20
222.7003906109
 30
0.0
 11
738.3712226968
 21
222.7003906109
 31
0.0
  0
LINE
  5
316
330
1F
100
AcDbEntity
  8
0
  6
Continuous
 62
     7
370
    15
100
AcDbLine
 10
741.3712227229
 20
225.700390637
 30
0.0
 11
741.3712227229
 21
225.450390596
 31
0.0
  0
LINE
  5
317
330
1F
100
AcDbEntity
  8
0
  6
Continuous
 62
     7
370
    15
100
AcDbLine
 10
741.3712227229
 20
225.450390596
 30
0.0
 11
740.1212227218
 21
225.450390596
 31
0.0
  0
ARC
  5
318
330
1F
100
AcDbEntity
  8
0
  6
Continuous
 62
     7
370
    15
100
AcDbCircle
 10
738.6212227099
 20
225.4503906109
 30
0.0
 40
2.75
100
AcDbArc
 50
270.0
 51
0.0
  0
LINE
  5
319
330
1F
100
AcDbEntity
  8
0
  6
Continuous
 62
     7
370
    15
100
AcDbLine
 10
190.821249222
 20
221.9003906311
 30
0.0
 11
190.821249222
 21
221.4503906388
 31
0.0
  0
LINE
  5
31A
330
1F
100
AcDbEntity
  8
0
  6
Continuous
 62
     7
370
    15
100
AcDbLine
 10
537.1212253325
 20
221.4503906388
 30
0.0
 11
537.1212253325
 21
221.9003906311
 31
0.0
  0
LINE
  5
31B
330
1F
100
AcDbEntity
  8
0
  6
Continuous
 62
     7
370
    15
100
AcDbLine
 10
526.6212264054
 20
210.7003905066
 30
0.0
 11
201.3212034457
 21
210.7003905066
 31
0.0
  0
LINE
  5
31C
330
1F
100
AcDbEntity
  8
0
  6
Continuous
 62
     7
370
    15
100
AcDbLine
 10
537.1212253325
 20
221.2003905979
 30
0.0
 11
526.6212264054
 21
210.7003905066
 31
0.0
  0
LINE
  5
31D
330
1F
100
AcDbEntity
  8
0
  6
Continuous
 62
     7
370
    15
100
AcDbLine
 10
537.1212253325
 20
221.4503906388
 30
0.0
 11
537.1212253325
 21
221.2003905979
 31
0.0
  0
LINE
  5
31E
330
1F
100
AcDbEntity
  8
0
  6
Continuous
 62
     7
370
    15
100
AcDbLine
 10
201.3212034457
 20
210.7003905066
 30
0.0
 11
190.821249222
 21
221.2003905979
 31
0.0
  0
LINE
  5
31F
330
1F
100
AcDbEntity
  8
0
  6
Continuous
 62
     7
370
    15
100
AcDbLine
 10
190.821249222
 20
221.2003905979
 30
0.0
 11
190.821249222
 21
221.4503906388
 31
0.0
  0
LINE
  5
320
330
1F
100
AcDbEntity
  8
0
  6
Continuous
 62
     7
370
    15
100
AcDbLine
 10
189.5712206118
 20
221.2003905979
 30
0.0
 11
188.0712101214
 21
221.2003905979
 31
0.0
  0
LINE
  5
321
330
1F
100
AcDbEntity
  8
0
  6
Continuous
 62
     7
370
    15
100
AcDbLine
 10
188.0712101214
 20
221.4503906388
 30
0.0
 11
188.0712101214
 21
221.2003905979
 31
0.0
  0
LINE
  5
322
330
1F
100
AcDbEntity
  8
0
  6
Continuous
 62
     7
370
    15
100
AcDbLine
 10
189.5712206118
 20
221.4503906388
 30
0.0
 11
189.5712206118
 21
221.2003905979
 31
0.0
  0
LINE
  5
323
330
1F
100
AcDbEntity
  8
0
  6
Continuous
 62
     7
370
    15
100
AcDbLine
 10
189.5712206118
 20
221.4503906388
 30
0.0
 11
189.5341465227
 21
221.9003906311
 31
0.0
  0
LWPOLYLINE
  5
324
330
1F
100
AcDbEntity
  8
0
  6
Continuous
 62
     7
370
    15
100
AcDbPolyline
 90
        3
 70
   128
 43
0.0
 10
188.0712101214
 20
221.4503906388
 10
188.0471894495
 20
221.6942534969
 10
187.9874059908
 20
221.9003906311
  0
LINE
  5
325
330
1F
100
AcDbEntity
  8
0
  6
Continuous
 62
     7
370
    15
100
AcDbLine
 10
189.5712206118
 20
210.7003905066
 30
0.0
 11
188.0712101214
 21
210.7003905066
 31
0.0
  0
LINE
  5
326
330
1F
100
AcDbEntity
  8
0
  6
Continuous
 62
     7
370
    15
100
AcDbLine
 10
188.0712101214
 20
221.2003905979
 30
0.0
 11
188.0712101214
 21
210.7003905066
 31
0.0
  0
LINE
  5
327
330
1F
100
AcDbEntity
  8
0
  6
Continuous
 62
     7
370
    15
100
AcDbLine
 10
189.5712206118
 20
221.2003905979
 30
0.0
 11
189.5712206118
 21
210.7003905066
 31
0.0
  0
LINE
  5
328
330
1F
100
AcDbEntity
  8
0
  6
Continuous
 62
     7
370
    15
100
AcDbLine
 10
538.3712241404
 20
210.7003905066
 30
0.0
 11
539.8712197297
 21
210.7003905066
 31
0.0
  0
LINE
  5
329
330
1F
100
AcDbEntity
  8
0
  6
Continuous
 62
     7
370
    15
100
AcDbLine
 10
538.3712241404
 20
221.2003905979
 30
0.0
 11
539.8712197297
 21
221.2003905979
 31
0.0
  0
LINE
  5
32A
330
1F
100
AcDbEntity
  8
0
  6
Continuous
 62
     7
370
    15
100
AcDbLine
 10
538.3712241404
 20
210.7003905066
 30
0.0
 11
538.3712241404
 21
221.2003905979
 31
0.0
  0
LINE
  5
32B
330
1F
100
AcDbEntity
  8
0
  6
Continuous
 62
     7
370
    15
100
AcDbLine
 10
539.8712197297
 20
210.7003905066
 30
0.0
 11
539.8712197297
 21
221.2003905979
 31
0.0
  0
LINE
  5
32C
330
1F
100
AcDbEntity
  8
0
  6
Continuous
 62
     7
370
    15
100
AcDbLine
 10
538.3712241404
 20
221.2003905979
 30
0.0
 11
538.3712241404
 21
221.4503906388
 31
0.0
  0
LINE
  5
32D
330
1F
100
AcDbEntity
  8
0
  6
Continuous
 62
     7
370
    15
100
AcDbLine
 10
539.8712197297
 20
221.2003905979
 30
0.0
 11
539.8712197297
 21
221.4503906388
 31
0.0
  0
LWPOLYLINE
  5
32E
330
1F
100
AcDbEntity
  8
0
  6
Continuous
 62
     7
370
    15
100
AcDbPolyline
 90
        3
 70
   128
 43
0.0
 10
539.9550387614
 20
221.9003906311
 10
539.8952404015
 20
221.6942534969
 10
539.8712197297
 20
221.4503906388
  0
LINE
  5
32F
330
1F
100
AcDbEntity
  8
0
  6
Continuous
 62
     7
370
    15
100
AcDbLine
 10
538.4082833283
 20
221.9003906311
 30
0.0
 11
538.3712241404
 21
221.4503906388
 31
0.0
  0
ENDSEC
  0
SECTION
  2
OBJECTS
  0
DICTIONARY
  5
C
330
0
100
AcDbDictionary
281
     1
  3
ACAD_GROUP
350
D
  3
ACAD_LAYOUT
350
1A
  3
ACAD_MLINESTYLE
350
17
  3
ACAD_PLOTSETTINGS
350
19
  3
ACAD_PLOTSTYLENAME
350
E
  0
DICTIONARY
  5
D
102
{ACAD_REACTORS
330
C
102
}
330
C
100
AcDbDictionary
281
     1
  0
DICTIONARY
  5
1A
102
{ACAD_REACTORS
330
C
102
}
330
C
100
AcDbDictionary
281
     1
  3
Layout1
350
1E
  3
Layout2
350
26
  3
Model
350
22
  0
DICTIONARY
  5
17
102
{ACAD_REACTORS
330
C
102
}
330
C
100
AcDbDictionary
281
     1
  3
Standard
350
18
  0
DICTIONARY
  5
19
102
{ACAD_REACTORS
330
C
102
}
330
C
100
AcDbDictionary
281
     1
  0
ACDBDICTIONARYWDFLT
  5
E
102
{ACAD_REACTORS
330
C
102
}
330
C
100
AcDbDictionary
281
     1
  3
Normal
350
F
100
AcDbDictionaryWithDefault
340
F
  0
LAYOUT
  5
1E
102
{ACAD_REACTORS
330
1A
102
}
330
1A
100
AcDbPlotSettings
  1

  2
none_device
  4

  6

 40
0.0
 41
0.0
 42
0.0
 43
0.0
 44
0.0
 45
0.0
 46
0.0
 47
0.0
 48
0.0
 49
0.0
140
0.0
141
0.0
142
1.0
143
1.0
 70
   688
 72
     0
 73
     0
 74
     5
  7

 75
    16
147
1.0
148
0.0
149
0.0
100
AcDbLayout
  1
Layout1
 70
     1
 71
     1
 10
0.0
 20
0.0
 11
420.0
 21
297.0
 12
0.0
 22
0.0
 32
0.0
 14
1.0000000000E+20
 24
1.0000000000E+20
 34
1.0000000000E+20
 15
-1.0000000000E+20
 25
-1.0000000000E+20
 35
-1.0000000000E+20
146
0.0
 13
0.0
 23
0.0
 33
0.0
 16
1.0
 26
0.0
 36
0.0
 17
0.0
 27
1.0
 37
0.0
 76
     0
330
1B
  0
LAYOUT
  5
26
102
{ACAD_REACTORS
330
1A
102
}
330
1A
100
AcDbPlotSettings
  1

  2
none_device
  4

  6

 40
0.0
 41
0.0
 42
0.0
 43
0.0
 44
0.0
 45
0.0
 46
0.0
 47
0.0
 48
0.0
 49
0.0
140
0.0
141
0.0
142
1.0
143
1.0
 70
   688
 72
     0
 73
     0
 74
     5
  7

 75
    16
147
1.0
148
0.0
149
0.0
100
AcDbLayout
  1
Layout2
 70
     1
 71
     2
 10
0.0
 20
0.0
 11
0.0
 21
0.0
 12
0.0
 22
0.0
 32
0.0
 14
0.0
 24
0.0
 34
0.0
 15
0.0
 25
0.0
 35
0.0
146
0.0
 13
0.0
 23
0.0
 33
0.0
 16
1.0
 26
0.0
 36
0.0
 17
0.0
 27
1.0
 37
0.0
 76
     0
330
23
  0
LAYOUT
  5
22
102
{ACAD_REACTORS
330
1A
102
}
330
1A
100
AcDbPlotSettings
  1

  2
none_device
  4

  6

 40
0.0
 41
0.0
 42
0.0
 43
0.0
 44
0.0
 45
0.0
 46
0.0
 47
0.0
 48
0.0
 49
0.0
140
0.0
141
0.0
142
1.0
143
1.0
 70
  1712
 72
     0
 73
     0
 74
     0
  7

 75
     0
147
1.0
148
0.0
149
0.0
100
AcDbLayout
  1
Model
 70
     1
 71
     0
 10
0.0
 20
0.0
 11
841.0
 21
1200.0
 12
0.0
 22
0.0
 32
0.0
 14
0.0
 24
0.0
 34
0.0
 15
841.0
 25
1200.0
 35
0.0
146
0.0
 13
0.0
 23
0.0
 33
0.0
 16
1.0
 26
0.0
 36
0.0
 17
0.0
 27
1.0
 37
0.0
 76
     0
330
1F
331
29
  0
MLINESTYLE
  5
18
102
{ACAD_REACTORS
330
17
102
}
330
17
100
AcDbMlineStyle
  2
Standard
 70
     0
  3

 62
   256
 51
90.0
 52
90.0
 71
     2
 49
0.5
 62
   256
  6
BYLAYER
 49
-0.5
 62
   256
  6
BYLAYER
  0
ACDBPLACEHOLDER
  5
F
102
{ACAD_REACTORS
330
E
102
}
330
E
  0
ENDSEC
  0
EOF
