  0
SECTION
  2
HEADER
  9
$ACADVER
  1
AC1015
  9
$ACADMAINTVER
 70
     6
  9
$DWGCODEPAGE
  3
ANSI_1252
  9
$INSBASE
 10
0.0
 20
0.0
 30
0.0
  9
$EXTMIN
 10
0.0
 20
0.0
 30
0.0
  9
$EXTMAX
 10
900.0
 20
1200.0
 30
0.0
  9
$LIMMIN
 10
0.0
 20
0.0
  9
$LIMMAX
 10
900.0
 20
1200.0
  9
$ORTHOMODE
 70
     0
  9
$REGENMODE
 70
     1
  9
$FILLMODE
 70
     1
  9
$QTEXTMODE
 70
     0
  9
$MIRRTEXT
 70
     1
  9
$LTSCALE
 40
1.0
  9
$ATTMODE
 70
     1
  9
$TEXTSIZE
 40
3.5
  9
$TRACEWID
 40
1.0
  9
$TEXTSTYLE
  7
Standard
  9
$CLAYER
  8
0
  9
$CELTYPE
  6
ByLayer
  9
$CECOLOR
 62
   256
  9
$CELTSCALE
 40
1.0
  9
$DISPSILH
 70
     0
  9
$DIMSCALE
 40
1.0
  9
$DIMASZ
 40
3.302
  9
$DIMEXO
 40
1.0
  9
$DIMDLI
 40
3.75
  9
$DIMRND
 40
0.0
  9
$DIMDLE
 40
0.0
  9
$DIMEXE
 40
1.0
  9
$DIMTP
 40
0.0
  9
$DIMTM
 40
0.0
  9
$DIMTXT
 40
3.5
  9
$DIMCEN
 40
2.5
  9
$DIMTSZ
 40
0.0
  9
$DIMTOL
 70
     0
  9
$DIMLIM
 70
     0
  9
$DIMTIH
 70
     1
  9
$DIMTOH
 70
     1
  9
$DIMSE1
 70
     0
  9
$DIMSE2
 70
     0
  9
$DIMTAD
 70
     1
  9
$DIMZIN
 70
     0
  9
$DIMBLK
  1

  9
$DIMASO
 70
     1
  9
$DIMSHO
 70
     1
  9
$DIMPOST
  1

  9
$DIMAPOST
  1

  9
$DIMALT
 70
     0
  9
$DIMALTD
 70
     3
  9
$DIMALTF
 40
0.0393700787
  9
$DIMLFAC
 40
1.0
  9
$DIMTOFL
 70
     1
  9
$DIMTVP
 40
0.0
  9
$DIMTIX
 70
     0
  9
$DIMSOXD
 70
     0
  9
$DIMSAH
 70
     0
  9
$DIMBLK1
  1

  9
$DIMBLK2
  1

  9
$DIMSTYLE
  2
ISO-25
  9
$DIMCLRD
 70
     0
  9
$DIMCLRE
 70
     0
  9
$DIMCLRT
 70
     0
  9
$DIMTFAC
 40
1.0
  9
$DIMGAP
 40
1.524
  9
$DIMJUST
 70
     0
  9
$DIMSD1
 70
     0
  9
$DIMSD2
 70
     0
  9
$DIMTOLJ
 70
     0
  9
$DIMTZIN
 70
     0
  9
$DIMALTZ
 70
     0
  9
$DIMALTTZ
 70
     0
  9
$DIMUPT
 70
     0
  9
$DIMDEC
 70
     3
  9
$DIMTDEC
 70
     3
  9
$DIMALTU
 70
     2
  9
$DIMALTTD
 70
     3
  9
$DIMTXSTY
  7
Standard
  9
$DIMAUNIT
 70
     0
  9
$DIMADEC
 70
     2
  9
$DIMALTRND
 40
0.0
  9
$DIMAZIN
 70
     0
  9
$DIMDSEP
 70
    44
  9
$DIMATFIT
 70
     3
  9
$DIMFRAC
 70
     0
  9
$DIMLDRBLK
  1

  9
$DIMLUNIT
 70
     2
  9
$DIMLWD
 70
    -2
  9
$DIMLWE
 70
    -2
  9
$DIMTMOVE
 70
     0
  9
$LUNITS
 70
     2
  9
$LUPREC
 70
     8
  9
$SKETCHINC
 40
1.0
  9
$FILLETRAD
 40
10.0
  9
$AUNITS
 70
     0
  9
$AUPREC
 70
     8
  9
$MENU
  1
.
  9
$ELEVATION
 40
0.0
  9
$PELEVATION
 40
0.0
  9
$THICKNESS
 40
0.0
  9
$LIMCHECK
 70
     0
  9
$CHAMFERA
 40
0.0
  9
$CHAMFERB
 40
0.0
  9
$CHAMFERC
 40
0.0
  9
$CHAMFERD
 40
0.0
  9
$SKPOLY
 70
     0
  9
$TDCREATE
 40
2458432.427446308
  9
$TDUCREATE
 40
2458432.427446308
  9
$TDUPDATE
 40
2458432.427447211
  9
$TDUUPDATE
 40
2458432.427447211
  9
$TDINDWG
 40
0.0000000116
  9
$TDUSRTIMER
 40
0.0000000116
  9
$USRTIMER
 70
     1
  9
$ANGBASE
 50
0.0
  9
$ANGDIR
 70
     0
  9
$PDMODE
 70
     0
  9
$PDSIZE
 40
-1.0
  9
$PLINEWID
 40
0.0
  9
$SPLFRAME
 70
     0
  9
$SPLINETYPE
 70
     6
  9
$SPLINESEGS
 70
     8
  9
$HANDSEED
  5
4C4
  9
$SURFTAB1
 70
     6
  9
$SURFTAB2
 70
     6
  9
$SURFTYPE
 70
     6
  9
$SURFU
 70
     6
  9
$SURFV
 70
     6
  9
$UCSBASE
  2

  9
$UCSNAME
  2

  9
$UCSORG
 10
0.0
 20
0.0
 30
0.0
  9
$UCSXDIR
 10
1.0
 20
0.0
 30
0.0
  9
$UCSYDIR
 10
0.0
 20
1.0
 30
0.0
  9
$UCSORTHOREF
  2

  9
$UCSORTHOVIEW
 70
     0
  9
$UCSORGTOP
 10
0.0
 20
0.0
 30
0.0
  9
$UCSORGBOTTOM
 10
0.0
 20
0.0
 30
0.0
  9
$UCSORGLEFT
 10
0.0
 20
0.0
 30
0.0
  9
$UCSORGRIGHT
 10
0.0
 20
0.0
 30
0.0
  9
$UCSORGFRONT
 10
0.0
 20
0.0
 30
0.0
  9
$UCSORGBACK
 10
0.0
 20
0.0
 30
0.0
  9
$PUCSBASE
  2

  9
$PUCSNAME
  2

  9
$PUCSORG
 10
0.0
 20
0.0
 30
0.0
  9
$PUCSXDIR
 10
1.0
 20
0.0
 30
0.0
  9
$PUCSYDIR
 10
0.0
 20
1.0
 30
0.0
  9
$PUCSORTHOREF
  2

  9
$PUCSORTHOVIEW
 70
     0
  9
$PUCSORGTOP
 10
0.0
 20
0.0
 30
0.0
  9
$PUCSORGBOTTOM
 10
0.0
 20
0.0
 30
0.0
  9
$PUCSORGLEFT
 10
0.0
 20
0.0
 30
0.0
  9
$PUCSORGRIGHT
 10
0.0
 20
0.0
 30
0.0
  9
$PUCSORGFRONT
 10
0.0
 20
0.0
 30
0.0
  9
$PUCSORGBACK
 10
0.0
 20
0.0
 30
0.0
  9
$USERI1
 70
     0
  9
$USERI2
 70
     0
  9
$USERI3
 70
     0
  9
$USERI4
 70
     0
  9
$USERI5
 70
     0
  9
$USERR1
 40
0.0
  9
$USERR2
 40
0.0
  9
$USERR3
 40
0.0
  9
$USERR4
 40
0.0
  9
$USERR5
 40
0.0
  9
$WORLDVIEW
 70
     1
  9
$SHADEDGE
 70
     3
  9
$SHADEDIF
 70
    70
  9
$TILEMODE
 70
     1
  9
$MAXACTVP
 70
    64
  9
$PINSBASE
 10
0.0
 20
0.0
 30
0.0
  9
$PLIMCHECK
 70
     0
  9
$PEXTMIN
 10
1.0000000000E+20
 20
1.0000000000E+20
 30
1.0000000000E+20
  9
$PEXTMAX
 10
-1.0000000000E+20
 20
-1.0000000000E+20
 30
-1.0000000000E+20
  9
$PLIMMIN
 10
0.0
 20
0.0
  9
$PLIMMAX
 10
420.0
 20
297.0
  9
$UNITMODE
 70
     0
  9
$VISRETAIN
 70
     1
  9
$PLINEGEN
 70
     0
  9
$PSLTSCALE
 70
     1
  9
$TREEDEPTH
 70
  3020
  9
$CMLSTYLE
  2
Standard
  9
$CMLJUST
 70
     0
  9
$CMLSCALE
 40
20.0
  9
$PROXYGRAPHICS
 70
     1
  9
$MEASUREMENT
 70
     1
  9
$CELWEIGHT
370
    -1
  9
$ENDCAPS
280
     0
  9
$JOINSTYLE
280
     0
  9
$LWDISPLAY
290
     1
  9
$INSUNITS
 70
     4
  9
$HYPERLINKBASE
  1

  9
$STYLESHEET
  1

  9
$XEDIT
290
     1
  9
$CEPSNTYPE
380
     0
  9
$PSTYLEMODE
290
     1
  9
$FINGERPRINTGUID
  2
{0C2968F6-8257-4570-81C4-B550DE266AB2}
  9
$VERSIONGUID
  2
{FAEB1C32-E019-11D5-929B-00C0DF256EC4}
  9
$EXTNAMES
290
     1
  9
$PSVPSCALE
 40
0.0
  9
$OLESTARTUP
290
     0
  0
ENDSEC
  0
SECTION
  2
CLASSES
  0
CLASS
  1
ACDBDICTIONARYWDFLT
  2
AcDbDictionaryWithDefault
  3
ObjectDBX Classes
 90
        0
280
     0
281
     0
  0
CLASS
  1
VISUALSTYLE
  2
AcDbVisualStyle
  3
ObjectDBX Classes
 90
     4095
280
     0
281
     0
  0
CLASS
  1
MATERIAL
  2
AcDbMaterial
  3
ObjectDBX Classes
 90
     1153
280
     0
281
     0
  0
CLASS
  1
SCALE
  2
AcDbScale
  3
ObjectDBX Classes
 90
     1153
280
     0
281
     0
  0
CLASS
  1
TABLESTYLE
  2
AcDbTableStyle
  3
ObjectDBX Classes
 90
     4095
280
     0
281
     0
  0
CLASS
  1
MLEADERSTYLE
  2
AcDbMLeaderStyle
  3
ACDB_MLEADERSTYLE_CLASS
 90
     4095
280
     0
281
     0
  0
CLASS
  1
SUN
  2
AcDbSun
  3
SCENEOE
 90
     1153
280
     0
281
     0
  0
CLASS
  1
ACDBPLACEHOLDER
  2
AcDbPlaceHolder
  3
ObjectDBX Classes
 90
        0
280
     0
281
     0
  0
CLASS
  1
LAYOUT
  2
AcDbLayout
  3
ObjectDBX Classes
 90
        0
280
     0
281
     0
  0
ENDSEC
  0
SECTION
  2
TABLES
  0
TABLE
  2
VPORT
  5
8
330
0
100
AcDbSymbolTable
 70
     1
  0
VPORT
  5
29
330
8
100
AcDbSymbolTableRecord
100
AcDbViewportTableRecord
  2
*Active
 70
     0
 10
0.0
 20
0.0
 11
1.0
 21
1.0
 12
450.0
 22
600.0
 13
0.0
 23
0.0
 14
10.0
 24
10.0
 15
10.0
 25
10.0
 16
0.0
 26
0.0
 36
1.0
 17
0.0
 27
0.0
 37
0.0
 40
1200.0
 41
0.75
 42
50.0
 43
0.0
 44
0.0
 50
0.0
 51
0.0
 71
     0
 72
  2000
 73
     1
 74
     3
 75
     0
 76
     0
 77
     0
 78
     0
281
     0
 65
     1
110
0.0
120
0.0
130
0.0
111
1.0
121
0.0
131
0.0
112
0.0
122
1.0
132
0.0
 79
     0
146
0.0
  0
ENDTAB
  0
TABLE
  2
LTYPE
  5
5
330
0
100
AcDbSymbolTable
 70
     6
  0
LTYPE
  5
14
330
5
100
AcDbSymbolTableRecord
100
AcDbLinetypeTableRecord
  2
ByBlock
 70
     0
  3

 72
    65
 73
     0
 40
0.0
  0
LTYPE
  5
15
330
5
100
AcDbSymbolTableRecord
100
AcDbLinetypeTableRecord
  2
ByLayer
 70
     0
  3

 72
    65
 73
     0
 40
0.0
  0
LTYPE
  5
16
330
5
100
AcDbSymbolTableRecord
100
AcDbLinetypeTableRecord
  2
Continuous
 70
     0
  3
Solid line
 72
    65
 73
     0
 40
0.0
  0
LTYPE
  5
6E
330
5
100
AcDbSymbolTableRecord
100
AcDbLinetypeTableRecord
  2
HIDDEN
 70
     0
  3
Hidden __ __ __ __ __ __ __ __ __ __ __ __ __ __
 72
    65
 73
     2
 40
1.905
 49
1.27
 74
     0
 49
-0.635
 74
     0
  0
LTYPE
  5
6F
330
5
100
AcDbSymbolTableRecord
100
AcDbLinetypeTableRecord
  2
PHANTOM
 70
     0
  3
Phantom ______  __  __  ______  __  __  ______
 72
    65
 73
     6
 40
12.7
 49
6.35
 74
     0
 49
-1.27
 74
     0
 49
1.27
 74
     0
 49
-1.27
 74
     0
 49
1.27
 74
     0
 49
-1.27
 74
     0
  0
LTYPE
  5
70
330
5
100
AcDbSymbolTableRecord
100
AcDbLinetypeTableRecord
  2
CENTER
 70
     0
  3
Center ____ _ ____ _ ____ _ ____ _ ____ _ ____
 72
    65
 73
     4
 40
10.16
 49
6.35
 74
     0
 49
-1.27
 74
     0
 49
1.27
 74
     0
 49
-1.27
 74
     0
  0
LTYPE
  5
71
330
5
100
AcDbSymbolTableRecord
100
AcDbLinetypeTableRecord
  2
CENTERX2
 70
     0
  3
Center (2x) ________  __  ________  __  _____
 72
    65
 73
     4
 40
20.32
 49
12.7
 74
     0
 49
-2.54
 74
     0
 49
2.54
 74
     0
 49
-2.54
 74
     0
  0
LTYPE
  5
72
330
5
100
AcDbSymbolTableRecord
100
AcDbLinetypeTableRecord
  2
DOT2
 70
     0
  3
Dot (.5x) ........................................
 72
    65
 73
     2
 40
0.635
 49
0.0
 74
     0
 49
-0.635
 74
     0
  0
ENDTAB
  0
TABLE
  2
LAYER
  5
2
330
0
100
AcDbSymbolTable
 70
     4
  0
LAYER
  5
10
330
2
100
AcDbSymbolTableRecord
100
AcDbLayerTableRecord
  2
0
 70
     0
 62
     7
  6
Continuous
370
    -3
390
F
  0
LAYER
  5
73
330
2
100
AcDbSymbolTableRecord
100
AcDbLayerTableRecord
  2
FORMAT
 70
     0
 62
     7
  6
Continuous
370
    -3
390
F
  0
LAYER
  5
74
330
2
100
AcDbSymbolTableRecord
100
AcDbLayerTableRecord
  2
SLD-0
 70
     0
 62
     1
  6
Continuous
370
    -3
390
F
  0
LAYER
  5
75
330
2
100
AcDbSymbolTableRecord
100
AcDbLayerTableRecord
  2
WATERMARK
 70
     0
 62
     1
  6
Continuous
370
    -3
390
F
  0
ENDTAB
  0
TABLE
  2
STYLE
  5
3
330
0
100
AcDbSymbolTable
 70
     1
  0
STYLE
  5
11
330
3
100
AcDbSymbolTableRecord
100
AcDbTextStyleTableRecord
  2
Standard
 70
     0
 40
0.0
 41
1.0
 50
0.0
 71
     0
 42
3.5
  3
txt
  4

  0
ENDTAB
  0
TABLE
  2
VIEW
  5
6
330
0
100
AcDbSymbolTable
 70
     0
  0
ENDTAB
  0
TABLE
  2
UCS
  5
7
330
0
100
AcDbSymbolTable
 70
     0
  0
ENDTAB
  0
TABLE
  2
APPID
  5
9
330
0
100
AcDbSymbolTable
 70
     1
  0
APPID
  5
12
330
9
100
AcDbSymbolTableRecord
100
AcDbRegAppTableRecord
  2
ACAD
 70
     0
  0
ENDTAB
  0
TABLE
  2
DIMSTYLE
  5
A
330
0
100
AcDbSymbolTable
 70
     1
100
AcDbDimStyleTable
  0
DIMSTYLE
105
27
330
A
100
AcDbSymbolTableRecord
100
AcDbDimStyleTableRecord
  2
ISO-25
 70
     0
 41
2.5
 42
0.625
 43
3.75
 44
1.25
 73
     0
 74
     0
 77
     1
 78
     8
140
2.5
141
2.5
143
0.0393700787
147
0.625
171
     3
172
     1
178
     0
271
     2
272
     2
274
     3
278
    44
283
     0
284
     8
340
11
  0
ENDTAB
  0
TABLE
  2
BLOCK_RECORD
  5
1
330
0
100
AcDbSymbolTable
 70
     1
  0
BLOCK_RECORD
  5
1F
330
1
100
AcDbSymbolTableRecord
100
AcDbBlockTableRecord
  2
*Model_Space
340
22
  0
BLOCK_RECORD
  5
1B
330
1
100
AcDbSymbolTableRecord
100
AcDbBlockTableRecord
  2
*Paper_Space
340
1E
  0
BLOCK_RECORD
  5
23
330
1
100
AcDbSymbolTableRecord
100
AcDbBlockTableRecord
  2
*Paper_Space0
340
26
  0
ENDTAB
  0
ENDSEC
  0
SECTION
  2
BLOCKS
  0
BLOCK
  5
20
330
1F
100
AcDbEntity
  8
0
100
AcDbBlockBegin
  2
*Model_Space
 70
     0
 10
0.0
 20
0.0
 30
0.0
  3
*Model_Space
  1

  0
ENDBLK
  5
21
330
1F
100
AcDbEntity
  8
0
100
AcDbBlockEnd
  0
BLOCK
  5
1C
330
1B
100
AcDbEntity
 67
     1
  8
0
100
AcDbBlockBegin
  2
*Paper_Space
 70
     0
 10
0.0
 20
0.0
 30
0.0
  3
*Paper_Space
  1

  0
ENDBLK
  5
1D
330
1B
100
AcDbEntity
 67
     1
  8
0
100
AcDbBlockEnd
  0
BLOCK
  5
24
330
23
100
AcDbEntity
  8
0
100
AcDbBlockBegin
  2
*Paper_Space0
 70
     0
 10
0.0
 20
0.0
 30
0.0
  3
*Paper_Space0
  1

  0
ENDBLK
  5
25
330
23
100
AcDbEntity
  8
0
100
AcDbBlockEnd
  0
ENDSEC
  0
SECTION
  2
ENTITIES
  0
LINE
  5
76
330
1F
100
AcDbEntity
  8
0
  6
Continuous
 62
     7
370
    25
100
AcDbLine
 10
232.2989067617
 20
912.5266404858
 30
0.0
 11
232.2989067617
 21
928.7266404799
 31
0.0
  0
LINE
  5
77
330
1F
100
AcDbEntity
  8
0
  6
Continuous
 62
     7
370
    25
100
AcDbLine
 10
232.2989067617
 20
928.7266404799
 30
0.0
 11
232.1520824989
 21
928.8734647427
 31
0.0
  0
LINE
  5
78
330
1F
100
AcDbEntity
  8
0
  6
Continuous
 62
     7
370
    25
100
AcDbLine
 10
643.7989067611
 20
939.7266404859
 30
0.0
 11
643.7989067611
 21
938.7266404858
 31
0.0
  0
LINE
  5
79
330
1F
100
AcDbEntity
  8
0
  6
Continuous
 62
     7
370
    25
100
AcDbLine
 10
643.79890676
 20
883.7266404858
 30
0.0
 11
643.7989067593
 21
844.4766404859
 31
0.0
  0
LINE
  5
7A
330
1F
100
AcDbEntity
  8
0
  6
Continuous
 62
     7
370
    25
100
AcDbLine
 10
655.7989067593
 20
844.4766404857
 30
0.0
 11
655.79890676
 21
883.7266404858
 31
0.0
  0
LINE
  5
7B
330
1F
100
AcDbEntity
  8
0
  6
Continuous
 62
     7
370
    25
100
AcDbLine
 10
655.7989067611
 20
938.7266404858
 30
0.0
 11
655.7989067611
 21
939.7266404857
 31
0.0
  0
LINE
  5
7C
330
1F
100
AcDbEntity
  8
0
  6
Continuous
 62
     7
370
    25
100
AcDbLine
 10
643.7989067593
 20
844.4766404859
 30
0.0
 11
643.7989067586
 21
809.4766404859
 31
0.0
  0
LINE
  5
7D
330
1F
100
AcDbEntity
  8
0
  6
Continuous
 62
     7
370
    25
100
AcDbLine
 10
655.7989067586
 20
809.4766404857
 30
0.0
 11
655.7989067593
 21
844.4766404857
 31
0.0
  0
LINE
  5
7E
330
1F
100
AcDbEntity
  8
0
  6
Continuous
 62
     7
370
    25
100
AcDbLine
 10
639.5686602989
 20
803.4408767836
 30
0.0
 11
649.8198604449
 21
803.476677074
 31
0.0
  0
LINE
  5
7F
330
1F
100
AcDbEntity
  8
0
  6
Continuous
 62
     7
370
    25
100
AcDbLine
 10
643.7989067587
 20
815.4557232601
 30
0.0
 11
639.5267529262
 21
815.4408036072
 31
0.0
  0
LINE
  5
80
330
1F
100
AcDbEntity
  8
0
  6
Continuous
 62
     7
370
    25
100
AcDbLine
 10
625.1200110662
 20
803.3904177319
 30
0.0
 11
639.5686602989
 21
803.4408767836
 31
0.0
  0
LINE
  5
81
330
1F
100
AcDbEntity
  8
0
  6
Continuous
 62
     7
370
    25
100
AcDbLine
 10
639.5267529262
 20
815.4408036072
 30
0.0
 11
615.35674795
 21
815.3563946419
 31
0.0
  0
SPLINE
  5
82
330
1F
100
AcDbEntity
  8
0
  6
Continuous
 62
     7
370
    25
100
AcDbSpline
210
0.0
220
0.0
230
1.0
 70
     8
 71
     3
 72
    14
 73
    10
 74
     0
 42
0.000000001
 43
0.00000001
 40
0.0
 40
0.0
 40
0.0
 40
0.0
 40
0.0905614544259073
 40
0.2627880502112005
 40
0.4350451456166016
 40
0.6072709998809126
 40
0.7794366954454298
 40
0.9514693254275719
 40
1.0
 40
1.0
 40
1.0
 40
1.0
 10
615.3567479499523
 20
815.356394641937
 30
0.0
 10
614.9511276980546
 20
815.3549842702719
 30
0.0
 10
613.7741130862852
 20
815.3508917032709
 30
0.0
 10
612.0020240459929
 20
815.3449019877338
 30
0.0
 10
610.1417414077474
 20
815.338851202427
 30
0.0
 10
608.5487415710984
 20
815.3339489762548
 30
0.0
 10
607.2643295902769
 20
815.3303455900091
 30
0.0
 10
606.4461889427984
 20
815.3282746969169
 30
0.0
 10
606.1615385551995
 20
815.3278229408836
 30
0.0
 10
606.0989067617768
 20
815.327723540736
 30
0.0
  0
LINE
  5
83
330
1F
100
AcDbEntity
  8
0
  6
Continuous
 62
     7
370
    25
100
AcDbLine
 10
609.0084003981
 20
815.3664317773
 30
0.0
 11
606.0989067618
 21
815.3382871112
 31
0.0
  0
LINE
  5
84
330
1F
100
AcDbEntity
  8
0
  6
Continuous
 62
     7
370
    25
100
AcDbLine
 10
218.7989067667
 20
939.7266404863
 30
0.0
 11
218.7989067667
 21
938.7266404858
 31
0.0
  0
LINE
  5
85
330
1F
100
AcDbEntity
  8
0
  6
Continuous
 62
     7
370
    25
100
AcDbLine
 10
218.7989067667
 20
883.7266404858
 30
0.0
 11
218.7989067667
 21
847.7266404863
 31
0.0
  0
LINE
  5
86
330
1F
100
AcDbEntity
  8
0
  6
Continuous
 62
     7
370
    25
100
AcDbLine
 10
230.7989067667
 20
847.7266404863
 30
0.0
 11
230.7989067667
 21
883.7266404858
 31
0.0
  0
LINE
  5
87
330
1F
100
AcDbEntity
  8
0
  6
Continuous
 62
     7
370
    25
100
AcDbLine
 10
230.7989067667
 20
938.7266404858
 30
0.0
 11
230.7989067667
 21
939.7266404863
 31
0.0
  0
LINE
  5
88
330
1F
100
AcDbEntity
  8
0
  6
Continuous
 62
     7
370
    25
100
AcDbLine
 10
218.7989067667
 20
847.7266404863
 30
0.0
 11
218.7989067667
 21
812.7266404863
 31
0.0
  0
LINE
  5
89
330
1F
100
AcDbEntity
  8
0
  6
Continuous
 62
     7
370
    25
100
AcDbLine
 10
230.7989067667
 20
812.7266404863
 30
0.0
 11
230.7989067667
 21
847.7266404863
 31
0.0
  0
LINE
  5
8A
330
1F
100
AcDbEntity
  8
0
  6
Continuous
 62
     7
370
    25
100
AcDbLine
 10
235.0501694252
 20
818.7266404863
 30
0.0
 11
230.7989067667
 21
818.7266404863
 31
0.0
  0
LINE
  5
8B
330
1F
100
AcDbEntity
  8
0
  6
Continuous
 62
     7
370
    25
100
AcDbLine
 10
224.7989067667
 20
806.7266404863
 30
0.0
 11
235.0501694252
 21
806.7266404863
 31
0.0
  0
LINE
  5
8C
330
1F
100
AcDbEntity
  8
0
  6
Continuous
 62
     7
370
    25
100
AcDbLine
 10
259.2203217918
 20
818.7266404863
 30
0.0
 11
235.0501694252
 21
818.7266404863
 31
0.0
  0
LINE
  5
8D
330
1F
100
AcDbEntity
  8
0
  6
Continuous
 62
     7
370
    25
100
AcDbLine
 10
235.0501694252
 20
806.7266404863
 30
0.0
 11
259.2203217918
 21
806.7266404863
 31
0.0
  0
LINE
  5
8E
330
1F
100
AcDbEntity
  8
0
  6
Continuous
 62
     7
370
    25
100
AcDbLine
 10
259.2203217918
 20
806.7266404863
 30
0.0
 11
268.0593343714
 21
806.7266404863
 31
0.0
  0
LINE
  5
8F
330
1F
100
AcDbEntity
  8
0
  6
Continuous
 62
     7
370
    25
100
AcDbLine
 10
268.4989067618
 20
818.7266404863
 30
0.0
 11
259.2203217918
 21
818.7266404863
 31
0.0
  0
LINE
  5
90
330
1F
100
AcDbEntity
  8
0
  6
Continuous
 62
     7
370
    25
100
AcDbLine
 10
642.2989067618
 20
929.1072942577
 30
0.0
 11
642.2989067618
 21
912.5266404858
 31
0.0
  0
LINE
  5
91
330
1F
100
AcDbEntity
  8
0
  6
Continuous
 62
     7
370
    25
100
AcDbLine
 10
234.2989067618
 20
930.8237993841
 30
0.0
 11
234.2989067618
 21
903.5213086003
 31
0.0
  0
LINE
  5
92
330
1F
100
AcDbEntity
  8
0
  6
Continuous
 62
     7
370
    25
100
AcDbLine
 10
640.2989067618
 20
903.5213086003
 30
0.0
 11
640.2989067618
 21
930.8237993841
 31
0.0
  0
LINE
  5
93
330
1F
100
AcDbEntity
  8
0
  6
Continuous
 62
     7
370
    25
100
AcDbLine
 10
217.7889067667
 20
969.2266404863
 30
0.0
 11
217.7889067667
 21
967.2266404863
 31
0.0
  0
LINE
  5
94
330
1F
100
AcDbEntity
  8
0
  6
Continuous
 62
     7
370
    25
100
AcDbLine
 10
231.8089067667
 20
967.2266404863
 30
0.0
 11
231.8089067667
 21
969.2266404863
 31
0.0
  0
ARC
  5
95
330
1F
100
AcDbEntity
  8
0
  6
Continuous
 62
     7
370
    25
100
AcDbCircle
 10
232.3089067667
 20
969.2266404863
 30
0.0
 40
0.5000000000000159
100
AcDbArc
 50
156.4547969315
 51
180.0
  0
LINE
  5
96
330
1F
100
AcDbEntity
  8
0
  6
Continuous
 62
     7
370
    25
100
AcDbLine
 10
642.7889067617
 20
969.2266404859
 30
0.0
 11
642.7889067616
 21
967.2266404859
 31
0.0
  0
LINE
  5
97
330
1F
100
AcDbEntity
  8
0
  6
Continuous
 62
     7
370
    25
100
AcDbLine
 10
656.8089067616
 20
967.2266404857
 30
0.0
 11
656.8089067617
 21
969.2266404857
 31
0.0
  0
ARC
  5
98
330
1F
100
AcDbEntity
  8
0
  6
Continuous
 62
     7
370
    25
100
AcDbCircle
 10
657.3089067617
 20
969.2266404857
 30
0.0
 40
0.5000000000001137
100
AcDbArc
 50
156.4547969304
 51
179.9999999989
  0
LINE
  5
99
330
1F
100
AcDbEntity
  8
0
  6
Continuous
 62
     7
370
    25
100
AcDbLine
 10
234.2989067667
 20
959.4766404863
 30
0.0
 11
233.7989067667
 21
960.2266404863
 31
0.0
  0
LINE
  5
9A
330
1F
100
AcDbEntity
  8
0
  6
Continuous
 62
     7
370
    25
100
AcDbLine
 10
215.7989067667
 20
960.2266404863
 30
0.0
 11
215.2989067667
 21
959.4766404863
 31
0.0
  0
LINE
  5
9B
330
1F
100
AcDbEntity
  8
0
  6
Continuous
 62
     7
370
    25
100
AcDbLine
 10
234.2989067667
 20
954.9766404863
 30
0.0
 11
233.7989067667
 21
955.7266404863
 31
0.0
  0
LINE
  5
9C
330
1F
100
AcDbEntity
  8
0
  6
Continuous
 62
     7
370
    25
100
AcDbLine
 10
215.7989067667
 20
955.7266404863
 30
0.0
 11
215.2989067667
 21
954.9766404863
 31
0.0
  0
LINE
  5
9D
330
1F
100
AcDbEntity
  8
0
  6
Continuous
 62
     7
370
    25
100
AcDbLine
 10
234.2989067667
 20
957.9766404863
 30
0.0
 11
233.7989067667
 21
958.7266404863
 31
0.0
  0
LINE
  5
9E
330
1F
100
AcDbEntity
  8
0
  6
Continuous
 62
     7
370
    25
100
AcDbLine
 10
215.7989067667
 20
958.7266404863
 30
0.0
 11
215.2989067667
 21
957.9766404863
 31
0.0
  0
LINE
  5
9F
330
1F
100
AcDbEntity
  8
0
  6
Continuous
 62
     7
370
    25
100
AcDbLine
 10
215.2989067667
 20
959.4766404863
 30
0.0
 11
215.7989067667
 21
958.7266404863
 31
0.0
  0
LINE
  5
A0
330
1F
100
AcDbEntity
  8
0
  6
Continuous
 62
     7
370
    25
100
AcDbLine
 10
233.7989067667
 20
958.7266404863
 30
0.0
 11
234.2989067667
 21
959.4766404863
 31
0.0
  0
LINE
  5
A1
330
1F
100
AcDbEntity
  8
0
  6
Continuous
 62
     7
370
    25
100
AcDbLine
 10
215.2989067667
 20
962.4766404863
 30
0.0
 11
215.7989067667
 21
961.7266404863
 31
0.0
  0
LINE
  5
A2
330
1F
100
AcDbEntity
  8
0
  6
Continuous
 62
     7
370
    25
100
AcDbLine
 10
233.7989067667
 20
961.7266404863
 30
0.0
 11
234.2989067667
 21
962.4766404863
 31
0.0
  0
LINE
  5
A3
330
1F
100
AcDbEntity
  8
0
  6
Continuous
 62
     7
370
    25
100
AcDbLine
 10
215.2989067667
 20
954.9766404863
 30
0.0
 11
215.4655734334
 21
954.7266404863
 31
0.0
  0
LINE
  5
A4
330
1F
100
AcDbEntity
  8
0
  6
Continuous
 62
     7
370
    25
100
AcDbLine
 10
234.1322401001
 20
954.7266404863
 30
0.0
 11
234.2989067667
 21
954.9766404863
 31
0.0
  0
LINE
  5
A5
330
1F
100
AcDbEntity
  8
0
  6
Continuous
 62
     7
370
    25
100
AcDbLine
 10
234.2989067667
 20
962.4766404863
 30
0.0
 11
234.1322401001
 21
962.7266404863
 31
0.0
  0
LINE
  5
A6
330
1F
100
AcDbEntity
  8
0
  6
Continuous
 62
     7
370
    25
100
AcDbLine
 10
215.4655734334
 20
962.7266404863
 30
0.0
 11
215.2989067667
 21
962.4766404863
 31
0.0
  0
LINE
  5
A7
330
1F
100
AcDbEntity
  8
0
  6
Continuous
 62
     7
370
    25
100
AcDbLine
 10
234.2989067667
 20
956.4766404863
 30
0.0
 11
233.7989067667
 21
957.2266404863
 31
0.0
  0
LINE
  5
A8
330
1F
100
AcDbEntity
  8
0
  6
Continuous
 62
     7
370
    25
100
AcDbLine
 10
215.7989067667
 20
957.2266404863
 30
0.0
 11
215.2989067667
 21
956.4766404863
 31
0.0
  0
LINE
  5
A9
330
1F
100
AcDbEntity
  8
0
  6
Continuous
 62
     7
370
    25
100
AcDbLine
 10
215.2989067667
 20
956.4766404863
 30
0.0
 11
215.7989067667
 21
955.7266404863
 31
0.0
  0
LINE
  5
AA
330
1F
100
AcDbEntity
  8
0
  6
Continuous
 62
     7
370
    25
100
AcDbLine
 10
233.7989067667
 20
955.7266404863
 30
0.0
 11
234.2989067667
 21
956.4766404863
 31
0.0
  0
LINE
  5
AB
330
1F
100
AcDbEntity
  8
0
  6
Continuous
 62
     7
370
    25
100
AcDbLine
 10
215.2989067667
 20
957.9766404863
 30
0.0
 11
215.7989067667
 21
957.2266404863
 31
0.0
  0
LINE
  5
AC
330
1F
100
AcDbEntity
  8
0
  6
Continuous
 62
     7
370
    25
100
AcDbLine
 10
233.7989067667
 20
957.2266404863
 30
0.0
 11
234.2989067667
 21
957.9766404863
 31
0.0
  0
LINE
  5
AD
330
1F
100
AcDbEntity
  8
0
  6
Continuous
 62
     7
370
    25
100
AcDbLine
 10
215.2989067667
 20
960.9766404863
 30
0.0
 11
215.7989067667
 21
960.2266404863
 31
0.0
  0
LINE
  5
AE
330
1F
100
AcDbEntity
  8
0
  6
Continuous
 62
     7
370
    25
100
AcDbLine
 10
233.7989067667
 20
960.2266404863
 30
0.0
 11
234.2989067667
 21
960.9766404863
 31
0.0
  0
LINE
  5
AF
330
1F
100
AcDbEntity
  8
0
  6
Continuous
 62
     7
370
    25
100
AcDbLine
 10
234.2989067667
 20
960.9766404863
 30
0.0
 11
233.7989067667
 21
961.7266404863
 31
0.0
  0
LINE
  5
B0
330
1F
100
AcDbEntity
  8
0
  6
Continuous
 62
     7
370
    25
100
AcDbLine
 10
215.7989067667
 20
961.7266404863
 30
0.0
 11
215.2989067667
 21
960.9766404863
 31
0.0
  0
ARC
  5
B1
330
1F
100
AcDbEntity
  8
0
  6
Continuous
 62
     7
370
    25
100
AcDbCircle
 10
217.2989067667
 20
963.2266404863
 30
0.0
 40
0.5
100
AcDbArc
 50
270.0
 51
0.0
  0
ARC
  5
B2
330
1F
100
AcDbEntity
  8
0
  6
Continuous
 62
     7
370
    25
100
AcDbCircle
 10
232.2989067667
 20
963.2266404863
 30
0.0
 40
0.5
100
AcDbArc
 50
180.0
 51
270.0
  0
LINE
  5
B3
330
1F
100
AcDbEntity
  8
0
  6
Continuous
 62
     7
370
    25
100
AcDbLine
 10
217.7989067667
 20
968.7266404863
 30
0.0
 11
217.7989067667
 21
963.2266404863
 31
0.0
  0
LINE
  5
B4
330
1F
100
AcDbEntity
  8
0
  6
Continuous
 62
     7
370
    25
100
AcDbLine
 10
231.7989067667
 20
963.2266404863
 30
0.0
 11
231.7989067667
 21
968.7266404863
 31
0.0
  0
LINE
  5
B5
330
1F
100
AcDbEntity
  8
0
  6
Continuous
 62
     7
370
    25
100
AcDbLine
 10
659.2989067615
 20
957.9766404856
 30
0.0
 11
658.7989067615
 21
958.7266404856
 31
0.0
  0
LINE
  5
B6
330
1F
100
AcDbEntity
  8
0
  6
Continuous
 62
     7
370
    25
100
AcDbLine
 10
640.7989067615
 20
958.726640486
 30
0.0
 11
640.2989067615
 21
957.976640486
 31
0.0
  0
LINE
  5
B7
330
1F
100
AcDbEntity
  8
0
  6
Continuous
 62
     7
370
    25
100
AcDbLine
 10
659.2989067615
 20
962.4766404856
 30
0.0
 11
659.1322400949
 21
962.7266404856
 31
0.0
  0
LINE
  5
B8
330
1F
100
AcDbEntity
  8
0
  6
Continuous
 62
     7
370
    25
100
AcDbLine
 10
640.4655734282
 20
962.726640486
 30
0.0
 11
640.2989067615
 21
962.476640486
 31
0.0
  0
LINE
  5
B9
330
1F
100
AcDbEntity
  8
0
  6
Continuous
 62
     7
370
    25
100
AcDbLine
 10
640.2989067614
 20
956.476640486
 30
0.0
 11
640.7989067614
 21
955.726640486
 31
0.0
  0
LINE
  5
BA
330
1F
100
AcDbEntity
  8
0
  6
Continuous
 62
     7
370
    25
100
AcDbLine
 10
658.7989067614
 20
955.7266404856
 30
0.0
 11
659.2989067614
 21
956.4766404856
 31
0.0
  0
LINE
  5
BB
330
1F
100
AcDbEntity
  8
0
  6
Continuous
 62
     7
370
    25
100
AcDbLine
 10
640.2989067614
 20
954.976640486
 30
0.0
 11
640.4655734281
 21
954.726640486
 31
0.0
  0
LINE
  5
BC
330
1F
100
AcDbEntity
  8
0
  6
Continuous
 62
     7
370
    25
100
AcDbLine
 10
659.1322400948
 20
954.7266404858
 30
0.0
 11
659.2989067614
 21
954.9766404856
 31
0.0
  0
LINE
  5
BD
330
1F
100
AcDbEntity
  8
0
  6
Continuous
 62
     7
370
    25
100
AcDbLine
 10
659.2989067615
 20
959.4766404856
 30
0.0
 11
658.7989067615
 21
960.2266404856
 31
0.0
  0
LINE
  5
BE
330
1F
100
AcDbEntity
  8
0
  6
Continuous
 62
     7
370
    25
100
AcDbLine
 10
640.7989067615
 20
960.226640486
 30
0.0
 11
640.2989067615
 21
959.476640486
 31
0.0
  0
LINE
  5
BF
330
1F
100
AcDbEntity
  8
0
  6
Continuous
 62
     7
370
    25
100
AcDbLine
 10
640.2989067615
 20
959.476640486
 30
0.0
 11
640.7989067615
 21
958.726640486
 31
0.0
  0
LINE
  5
C0
330
1F
100
AcDbEntity
  8
0
  6
Continuous
 62
     7
370
    25
100
AcDbLine
 10
658.7989067615
 20
958.7266404856
 30
0.0
 11
659.2989067615
 21
959.4766404856
 31
0.0
  0
LINE
  5
C1
330
1F
100
AcDbEntity
  8
0
  6
Continuous
 62
     7
370
    25
100
AcDbLine
 10
659.2989067614
 20
954.9766404856
 30
0.0
 11
658.7989067614
 21
955.7266404856
 31
0.0
  0
LINE
  5
C2
330
1F
100
AcDbEntity
  8
0
  6
Continuous
 62
     7
370
    25
100
AcDbLine
 10
640.7989067614
 20
955.726640486
 30
0.0
 11
640.2989067614
 21
954.976640486
 31
0.0
  0
LINE
  5
C3
330
1F
100
AcDbEntity
  8
0
  6
Continuous
 62
     7
370
    25
100
AcDbLine
 10
659.2989067614
 20
956.4766404856
 30
0.0
 11
658.7989067614
 21
957.2266404856
 31
0.0
  0
LINE
  5
C4
330
1F
100
AcDbEntity
  8
0
  6
Continuous
 62
     7
370
    25
100
AcDbLine
 10
640.7989067614
 20
957.226640486
 30
0.0
 11
640.2989067614
 21
956.476640486
 31
0.0
  0
LINE
  5
C5
330
1F
100
AcDbEntity
  8
0
  6
Continuous
 62
     7
370
    25
100
AcDbLine
 10
640.2989067615
 20
962.476640486
 30
0.0
 11
640.7989067615
 21
961.726640486
 31
0.0
  0
LINE
  5
C6
330
1F
100
AcDbEntity
  8
0
  6
Continuous
 62
     7
370
    25
100
AcDbLine
 10
658.7989067615
 20
961.7266404856
 30
0.0
 11
659.2989067615
 21
962.4766404856
 31
0.0
  0
LINE
  5
C7
330
1F
100
AcDbEntity
  8
0
  6
Continuous
 62
     7
370
    25
100
AcDbLine
 10
640.2989067615
 20
957.976640486
 30
0.0
 11
640.7989067614
 21
957.226640486
 31
0.0
  0
LINE
  5
C8
330
1F
100
AcDbEntity
  8
0
  6
Continuous
 62
     7
370
    25
100
AcDbLine
 10
658.7989067614
 20
957.2266404856
 30
0.0
 11
659.2989067615
 21
957.9766404856
 31
0.0
  0
LINE
  5
C9
330
1F
100
AcDbEntity
  8
0
  6
Continuous
 62
     7
370
    25
100
AcDbLine
 10
640.2989067615
 20
960.976640486
 30
0.0
 11
640.7989067615
 21
960.226640486
 31
0.0
  0
LINE
  5
CA
330
1F
100
AcDbEntity
  8
0
  6
Continuous
 62
     7
370
    25
100
AcDbLine
 10
658.7989067615
 20
960.2266404856
 30
0.0
 11
659.2989067615
 21
960.9766404856
 31
0.0
  0
LINE
  5
CB
330
1F
100
AcDbEntity
  8
0
  6
Continuous
 62
     7
370
    25
100
AcDbLine
 10
659.2989067615
 20
960.9766404856
 30
0.0
 11
658.7989067615
 21
961.7266404856
 31
0.0
  0
LINE
  5
CC
330
1F
100
AcDbEntity
  8
0
  6
Continuous
 62
     7
370
    25
100
AcDbLine
 10
640.7989067615
 20
961.726640486
 30
0.0
 11
640.2989067615
 21
960.976640486
 31
0.0
  0
ARC
  5
CD
330
1F
100
AcDbEntity
  8
0
  6
Continuous
 62
     7
370
    25
100
AcDbCircle
 10
642.2989067616
 20
963.2266404859
 30
0.0
 40
0.5
100
AcDbArc
 50
269.9999999989
 51
359.9999999989
  0
ARC
  5
CE
330
1F
100
AcDbEntity
  8
0
  6
Continuous
 62
     7
370
    25
100
AcDbCircle
 10
657.2989067616
 20
963.2266404857
 30
0.0
 40
0.5000000000001137
100
AcDbArc
 50
179.9999999989
 51
269.9999999989
  0
LINE
  5
CF
330
1F
100
AcDbEntity
  8
0
  6
Continuous
 62
     7
370
    25
100
AcDbLine
 10
642.7989067617
 20
968.7266404859
 30
0.0
 11
642.7989067616
 21
963.2266404859
 31
0.0
  0
LINE
  5
D0
330
1F
100
AcDbEntity
  8
0
  6
Continuous
 62
     7
370
    25
100
AcDbLine
 10
656.7989067616
 20
963.2266404857
 30
0.0
 11
656.7989067617
 21
968.7266404857
 31
0.0
  0
SPLINE
  5
D1
330
1F
100
AcDbEntity
  8
0
  6
Continuous
 62
     7
370
    25
100
AcDbSpline
210
0.0
220
0.0
230
1.0
 70
     8
 71
     3
 72
    37
 73
    33
 74
     0
 42
0.000000001
 43
0.00000001
 40
0.0
 40
0.0
 40
0.0
 40
0.0
 40
0.0171747033817926
 40
0.0523185151715664
 40
0.0875364115560336
 40
0.1227896807708509
 40
0.1579977631490129
 40
0.1931089764100317
 40
0.2280944542029471
 40
0.2629483428806292
 40
0.2976815345450892
 40
0.332313636598157
 40
0.3668664016412803
 40
0.4013596803349304
 40
0.4358096312957171
 40
0.4702284926858175
 40
0.5046252734324156
 40
0.5390069216850198
 40
0.5733784176643666
 40
0.6077457898072326
 40
0.6421175954453624
 40
0.6765055748590869
 40
0.7109257821613078
 40
0.7453991377051357
 40
0.779950894944653
 40
0.8146083495185772
 40
0.8493961545526186
 40
0.884329160422749
 40
0.9194040875701374
 40
0.9545933720435197
 40
0.9898457402866436
 40
1.0
 40
1.0
 40
1.0
 40
1.0
 10
555.7363449377194
 20
180.7834356232573
 30
0.0
 10
555.8163293933115
 20
180.4323459410127
 30
0.0
 10
556.0599823904178
 20
179.3628374634126
 30
0.0
 10
556.2407614387193
 20
177.5423232601414
 30
0.0
 10
556.1582203487698
 20
175.34187083512
 30
0.0
 10
555.7564711716398
 20
173.1633926160846
 30
0.0
 10
555.0459396291837
 20
171.0430728200044
 30
0.0
 10
554.0366566630164
 20
169.0152627773415
 30
0.0
 10
552.7455106406238
 20
167.1123640755441
 30
0.0
 10
551.1933572711819
 20
165.3640214313047
 30
0.0
 10
549.4048991810488
 20
163.7969760212405
 30
0.0
 10
547.4080421909607
 20
162.4349321164659
 30
0.0
 10
545.2335986308586
 20
161.2984496392274
 30
0.0
 10
542.9149688008268
 20
160.4047363855838
 30
0.0
 10
540.4877744828414
 20
159.767374922249
 30
0.0
 10
537.9893886912316
 20
159.3960372424474
 30
0.0
 10
535.4583686328392
 20
159.2962429625886
 30
0.0
 10
532.9338449855892
 20
159.4691976843068
 30
0.0
 10
530.454825686216
 20
159.9117219242753
 30
0.0
 10
528.0594771355289
 20
160.616304820101
 30
0.0
 10
525.7844101936026
 20
161.5712996179479
 30
0.0
 10
523.6640546014152
 20
162.7612339899374
 30
0.0
 10
521.7301157290686
 20
164.1672251331147
 30
0.0
 10
520.0111444631951
 20
165.7674873916582
 30
0.0
 10
518.5322637629373
 20
167.5378780436759
 30
0.0
 10
517.3151095588189
 20
169.4523822436538
 30
0.0
 10
516.3777771432539
 20
171.4834713669111
 30
0.0
 10
515.7352783910543
 20
173.6020807672056
 30
0.0
 10
515.3979616898978
 20
175.777838534186
 30
0.0
 10
515.3765709878228
 20
177.9774082220986
 30
0.0
 10
515.5933129744822
 20
179.649377448326
 30
0.0
 10
515.8124606985655
 20
180.5761761333352
 30
0.0
 10
515.8614685858736
 20
180.7834356232624
 30
0.0
  0
SPLINE
  5
D2
330
1F
100
AcDbEntity
  8
0
  6
Continuous
 62
     7
370
    25
100
AcDbSpline
210
0.0
220
0.0
230
1.0
 70
     8
 71
     3
 72
    40
 73
    36
 74
     0
 42
0.000000001
 43
0.00000001
 40
0.0
 40
0.0
 40
0.0
 40
0.0
 40
0.0173555485805789
 40
0.0483482788837449
 40
0.0793224863401562
 40
0.1102781048454275
 40
0.1412325670292743
 40
0.1722098961119848
 40
0.2032301670876584
 40
0.2343072862253348
 40
0.2654481699588707
 40
0.2966532715142889
 40
0.3279180718267808
 40
0.359234990599597
 40
0.3905952104048723
 40
0.4219900766183053
 40
0.453411939180662
 40
0.4848544607494588
 40
0.5163125002478509
 40
0.5477816776097966
 40
0.5792564905261924
 40
0.6107320873589016
 40
0.642202305366045
 40
0.6736591891854684
 40
0.7050927948556168
 40
0.736491440742537
 40
0.7678425572896154
 40
0.7991342029735191
 40
0.8303571347456149
 40
0.8615070759150996
 40
0.8925866079961996
 40
0.9236060560739384
 40
0.9545829246071414
 40
0.9855397986655428
 40
1.0
 40
1.0
 40
1.0
 40
1.0
 10
511.0107132822969
 20
181.9959425242005
 30
0.0
 10
510.9050146373135
 20
181.5323817854069
 30
0.0
 10
510.6105642751394
 20
180.2410158700802
 30
0.0
 10
510.3754524614764
 20
178.0818772798568
 30
0.0
 10
510.4005304432747
 20
175.542879143196
 30
0.0
 10
510.7457204298982
 20
173.0233373985014
 30
0.0
 10
511.4005854443202
 20
170.5559616578797
 30
0.0
 10
512.3581240928196
 20
168.1702991748916
 30
0.0
 10
513.6062331118478
 20
165.8951572273089
 30
0.0
 10
515.1300339345208
 20
163.7580896110348
 30
0.0
 10
516.9112263675728
 20
161.7853115669262
 30
0.0
 10
518.9282935544474
 20
160.0013248618101
 30
0.0
 10
521.1565997931071
 20
158.4285352795705
 30
0.0
 10
523.5686697479288
 20
157.0868533671918
 30
0.0
 10
526.1345572013856
 20
155.9933470958053
 30
0.0
 10
528.8222845841601
 20
155.1619716806191
 30
0.0
 10
531.5983079923288
 20
154.6033842683937
 30
0.0
 10
534.4279793229524
 20
154.3248327253956
 30
0.0
 10
537.2759883496548
 20
154.3301007020266
 30
0.0
 10
540.1067425232351
 20
154.6194864496419
 30
0.0
 10
542.8848028954885
 20
155.1897944637982
 30
0.0
 10
545.5752743900628
 20
156.0343529689764
 30
0.0
 10
548.1442286687237
 20
157.1430608240141
 30
0.0
 10
550.5590703742082
 20
158.5024240395697
 30
0.0
 10
552.7889678901903
 20
160.0956242607569
 30
0.0
 10
554.8053147533385
 20
161.902636302233
 30
0.0
 10
556.5822100065224
 20
163.900421360292
 30
0.0
 10
558.0969503909482
 20
166.0632284362017
 30
0.0
 10
559.3304245332574
 20
168.3630034673907
 30
0.0
 10
560.2675970921778
 20
170.7699583462484
 30
0.0
 10
560.8971258021631
 20
173.2530262587581
 30
0.0
 10
561.2134681753996
 20
175.7809890139131
 30
0.0
 10
561.2089366895752
 20
178.321012405711
 30
0.0
 10
560.956992398266
 20
180.3978172693992
 30
0.0
 10
560.6764282026561
 20
181.6099995721245
 30
0.0
 10
560.5871002412964
 20
181.9959425241938
 30
0.0
  0
LINE
  5
D3
330
1F
100
AcDbEntity
  8
0
  6
Continuous
 62
     7
370
    25
100
AcDbLine
 10
560.5896518585
 20
181.985641643
 30
0.0
 11
549.908020675
 21
225.5029387038
 31
0.0
  0
LINE
  5
D4
330
1F
100
AcDbEntity
  8
0
  6
Continuous
 62
     7
370
    25
100
AcDbLine
 10
545.052162137
 20
224.3110335653
 30
0.0
 11
555.7337933205
 21
180.7937365045
 31
0.0
  0
LINE
  5
D5
330
1F
100
AcDbEntity
  8
0
  6
Continuous
 62
     7
370
    25
100
AcDbLine
 10
521.6897928486
 20
225.5029387038
 30
0.0
 11
511.0101517495
 21
181.9937493087
 31
0.0
  0
LINE
  5
D6
330
1F
100
AcDbEntity
  8
0
  6
Continuous
 62
     7
370
    25
100
AcDbLine
 10
515.8620301186
 20
180.7856288388
 30
0.0
 11
526.5456513865
 21
224.3110335653
 31
0.0
  0
SPLINE
  5
D7
330
1F
100
AcDbEntity
  8
0
  6
Continuous
 62
     7
370
    25
100
AcDbSpline
210
0.0
220
0.0
230
1.0
 70
     8
 71
     3
 72
     9
 73
     5
 74
     0
 42
0.000000001
 43
0.00000001
 40
0.0
 40
0.0
 40
0.0
 40
0.0
 40
0.4880376354344073
 40
1.0
 40
1.0
 40
1.0
 40
1.0
 10
544.7989067617959
 20
226.4003949868283
 30
0.0
 10
544.809075327684
 20
226.0571676357378
 30
0.0
 10
544.8299109459842
 20
225.3538871381488
 30
0.0
 10
544.9769061333454
 20
224.664151998353
 30
0.0
 10
545.0521621370468
 20
224.3110335652591
 30
0.0
  0
SPLINE
  5
D8
330
1F
100
AcDbEntity
  8
0
  6
Continuous
 62
     7
370
    25
100
AcDbSpline
210
0.0
220
0.0
230
1.0
 70
     8
 71
     3
 72
     9
 73
     5
 74
     0
 42
0.000000001
 43
0.00000001
 40
0.0
 40
0.0
 40
0.0
 40
0.0
 40
0.4878793174723425
 40
1.0
 40
1.0
 40
1.0
 40
1.0
 10
549.9080206750136
 20
225.5029387037891
 30
0.0
 10
549.8768393468508
 20
225.6482755156056
 30
0.0
 10
549.8129273771359
 20
225.9461705208079
 30
0.0
 10
549.8036552234634
 20
226.2465595514381
 30
0.0
 10
549.798906761796
 20
226.4003949868281
 30
0.0
  0
SPLINE
  5
D9
330
1F
100
AcDbEntity
  8
0
  6
Continuous
 62
     7
370
    25
100
AcDbSpline
210
0.0
220
0.0
230
1.0
 70
     8
 71
     3
 72
     9
 73
     5
 74
     0
 42
0.000000001
 43
0.00000001
 40
0.0
 40
0.0
 40
0.0
 40
0.0
 40
0.4875287468288742
 40
1.0
 40
1.0
 40
1.0
 40
1.0
 10
526.5456513865478
 20
224.3110335652592
 30
0.0
 10
526.6178056481946
 20
224.6471644109921
 30
0.0
 10
526.7658056627912
 20
225.3366229258371
 30
0.0
 10
526.7876911028867
 20
226.0399566644195
 30
0.0
 10
526.7989067617987
 20
226.4003949868284
 30
0.0
  0
SPLINE
  5
DA
330
1F
100
AcDbEntity
  8
0
  6
Continuous
 62
     7
370
    25
100
AcDbSpline
210
0.0
220
0.0
230
1.0
 70
     8
 71
     3
 72
     9
 73
     5
 74
     0
 42
0.000000001
 43
0.00000001
 40
0.0
 40
0.0
 40
0.0
 40
0.0
 40
0.4876837601819573
 40
1.0
 40
1.0
 40
1.0
 40
1.0
 10
521.7989067617988
 20
226.4003949868284
 30
0.0
 10
521.7946015700979
 20
226.2539080237603
 30
0.0
 10
521.7857737352339
 20
225.9535351694059
 30
0.0
 10
521.7223075869999
 20
225.6555839514314
 30
0.0
 10
521.689792848581
 20
225.5029387037895
 30
0.0
  0
LINE
  5
DB
330
1F
100
AcDbEntity
  8
0
  6
Continuous
 62
     7
370
    25
100
AcDbLine
 10
549.7989067618
 20
226.4003949868
 30
0.0
 11
549.7989067618
 21
392.1766404904
 31
0.0
  0
LINE
  5
DC
330
1F
100
AcDbEntity
  8
0
  6
Continuous
 62
     7
370
    25
100
AcDbLine
 10
544.7989067618
 20
392.1766404904
 30
0.0
 11
544.7989067618
 21
226.4003949868
 31
0.0
  0
LINE
  5
DD
330
1F
100
AcDbEntity
  8
0
  6
Continuous
 62
     7
370
    25
100
AcDbLine
 10
521.7989067618
 20
392.1766404904
 30
0.0
 11
521.7989067618
 21
226.4003949868
 31
0.0
  0
LINE
  5
DE
330
1F
100
AcDbEntity
  8
0
  6
Continuous
 62
     7
370
    25
100
AcDbLine
 10
526.7989067618
 20
226.4003949868
 30
0.0
 11
526.7989067618
 21
392.1766404904
 31
0.0
  0
LINE
  5
DF
330
1F
100
AcDbEntity
  8
0
  6
Continuous
 62
     7
370
    25
100
AcDbLine
 10
534.6989067618
 20
228.2915185982
 30
0.0
 11
534.6989067618
 21
392.1766404904
 31
0.0
  0
LINE
  5
E0
330
1F
100
AcDbEntity
  8
0
  6
Continuous
 62
     7
370
    25
100
AcDbLine
 10
529.6989067618
 20
392.1766404904
 30
0.0
 11
529.6989067618
 21
228.2915185982
 31
0.0
  0
LINE
  5
E1
330
1F
100
AcDbEntity
  8
0
  6
Continuous
 62
     7
370
    25
100
AcDbLine
 10
536.8989067618
 20
392.1766404904
 30
0.0
 11
536.8989067618
 21
228.2915185982
 31
0.0
  0
LINE
  5
E2
330
1F
100
AcDbEntity
  8
0
  6
Continuous
 62
     7
370
    25
100
AcDbLine
 10
541.8989067618
 20
228.2915185982
 30
0.0
 11
541.8989067618
 21
392.1766404904
 31
0.0
  0
SPLINE
  5
E3
330
1F
100
AcDbEntity
  8
0
  6
Continuous
 62
     7
370
    25
100
AcDbSpline
210
0.0
220
0.0
230
1.0
 70
     8
 71
     3
 72
    37
 73
    33
 74
     0
 42
0.000000001
 43
0.00000001
 40
0.0
 40
0.0
 40
0.0
 40
0.0
 40
0.017174703381792
 40
0.0523185151715652
 40
0.0875364115560324
 40
0.1227896807708482
 40
0.1579977631490109
 40
0.1931089764100297
 40
0.228094454202947
 40
0.2629483428806277
 40
0.2976815345450868
 40
0.3323136365981546
 40
0.3668664016412774
 40
0.4013596803349285
 40
0.4358096312957127
 40
0.4702284926858104
 40
0.5046252734324128
 40
0.5390069216850147
 40
0.5733784176643606
 40
0.6077457898072258
 40
0.6421175954453563
 40
0.6765055748590828
 40
0.7109257821612982
 40
0.7453991377051324
 40
0.7799508949446489
 40
0.8146083495185721
 40
0.8493961545526201
 40
0.8843291604227519
 40
0.9194040875701376
 40
0.9545933720435192
 40
0.9898457402866438
 40
1.0
 40
1.0
 40
1.0
 40
1.0
 10
358.7363449376937
 20
180.7834356232602
 30
0.0
 10
358.8163293932858
 20
180.4323459410157
 30
0.0
 10
359.0599823903921
 20
179.3628374634156
 30
0.0
 10
359.2407614386937
 20
177.5423232601445
 30
0.0
 10
359.1582203487441
 20
175.3418708351229
 30
0.0
 10
358.7564711716141
 20
173.1633926160876
 30
0.0
 10
358.0459396291582
 20
171.0430728200077
 30
0.0
 10
357.0366566629907
 20
169.0152627773443
 30
0.0
 10
355.7455106405983
 20
167.1123640755473
 30
0.0
 10
354.1933572711563
 20
165.3640214313076
 30
0.0
 10
352.4048991810233
 20
163.7969760212433
 30
0.0
 10
350.4080421909353
 20
162.434932116469
 30
0.0
 10
348.2335986308332
 20
161.2984496392302
 30
0.0
 10
345.9149688008013
 20
160.4047363855865
 30
0.0
 10
343.487774482816
 20
159.767374922252
 30
0.0
 10
340.9893886912063
 20
159.3960372424501
 30
0.0
 10
338.4583686328141
 20
159.2962429625914
 30
0.0
 10
335.9338449855638
 20
159.4691976843095
 30
0.0
 10
333.454825686191
 20
159.9117219242777
 30
0.0
 10
331.0594771355038
 20
160.6163048201035
 30
0.0
 10
328.7844101935775
 20
161.5712996179505
 30
0.0
 10
326.66405460139
 20
162.7612339899398
 30
0.0
 10
324.7301157290433
 20
164.1672251331167
 30
0.0
 10
323.0111444631698
 20
165.7674873916608
 30
0.0
 10
321.5322637629119
 20
167.5378780436782
 30
0.0
 10
320.3151095587933
 20
169.4523822436563
 30
0.0
 10
319.3777771432282
 20
171.4834713669137
 30
0.0
 10
318.7352783910286
 20
173.6020807672082
 30
0.0
 10
318.3979616898722
 20
175.7778385341886
 30
0.0
 10
318.3765709877971
 20
177.9774082221011
 30
0.0
 10
318.5933129744564
 20
179.6493774483286
 30
0.0
 10
318.8124606985397
 20
180.5761761333376
 30
0.0
 10
318.8614685858478
 20
180.783435623265
 30
0.0
  0
SPLINE
  5
E4
330
1F
100
AcDbEntity
  8
0
  6
Continuous
 62
     7
370
    25
100
AcDbSpline
210
0.0
220
0.0
230
1.0
 70
     8
 71
     3
 72
    40
 73
    36
 74
     0
 42
0.000000001
 43
0.00000001
 40
0.0
 40
0.0
 40
0.0
 40
0.0
 40
0.0173555485805788
 40
0.0483482788837438
 40
0.0793224863401557
 40
0.1102781048454269
 40
0.1412325670292727
 40
0.1722098961119849
 40
0.2032301670876588
 40
0.2343072862253322
 40
0.2654481699588664
 40
0.2966532715142895
 40
0.3279180718267788
 40
0.3592349905995942
 40
0.3905952104048692
 40
0.4219900766183031
 40
0.4534119391806565
 40
0.4848544607494548
 40
0.5163125002478449
 40
0.5477816776097846
 40
0.5792564905261857
 40
0.6107320873588941
 40
0.6422023053660428
 40
0.6736591891854641
 40
0.7050927948556125
 40
0.7364914407425346
 40
0.7678425572896131
 40
0.799134202973515
 40
0.8303571347456074
 40
0.8615070759150961
 40
0.8925866079961962
 40
0.923606056073935
 40
0.954582924607137
 40
0.9855397986655389
 40
1.0
 40
1.0
 40
1.0
 40
1.0
 10
314.0107132822711
 20
181.995942524203
 30
0.0
 10
313.9050146372879
 20
181.5323817854093
 30
0.0
 10
313.6105642751137
 20
180.2410158700828
 30
0.0
 10
313.3754524614506
 20
178.0818772798591
 30
0.0
 10
313.4005304432491
 20
175.5428791431987
 30
0.0
 10
313.7457204298724
 20
173.023337398504
 30
0.0
 10
314.4005854442946
 20
170.5559616578823
 30
0.0
 10
315.3581240927938
 20
168.170299174894
 30
0.0
 10
316.6062331118222
 20
165.8951572273115
 30
0.0
 10
318.1300339344952
 20
163.7580896110374
 30
0.0
 10
319.911226367547
 20
161.7853115669289
 30
0.0
 10
321.9282935544217
 20
160.0013248618128
 30
0.0
 10
324.1565997930814
 20
158.4285352795731
 30
0.0
 10
326.5686697479031
 20
157.0868533671944
 30
0.0
 10
329.1345572013599
 20
155.9933470958081
 30
0.0
 10
331.8222845841343
 20
155.1619716806218
 30
0.0
 10
334.598307992303
 20
154.6033842683964
 30
0.0
 10
337.4279793229264
 20
154.3248327253984
 30
0.0
 10
340.2759883496285
 20
154.3301007020292
 30
0.0
 10
343.1067425232089
 20
154.6194864496445
 30
0.0
 10
345.8848028954623
 20
155.189794463801
 30
0.0
 10
348.5752743900367
 20
156.0343529689789
 30
0.0
 10
351.1442286686978
 20
157.1430608240167
 30
0.0
 10
353.5590703741825
 20
158.5024240395722
 30
0.0
 10
355.7889678901644
 20
160.0956242607596
 30
0.0
 10
357.8053147533127
 20
161.9026363022357
 30
0.0
 10
359.5822100064967
 20
163.9004213602948
 30
0.0
 10
361.0969503909224
 20
166.0632284362043
 30
0.0
 10
362.3304245332316
 20
168.3630034673931
 30
0.0
 10
363.2675970921521
 20
170.7699583462507
 30
0.0
 10
363.8971258021374
 20
173.2530262587609
 30
0.0
 10
364.2134681753739
 20
175.7809890139156
 30
0.0
 10
364.2089366895495
 20
178.3210124057136
 30
0.0
 10
363.9569923982403
 20
180.397817269402
 30
0.0
 10
363.6764282026304
 20
181.6099995721274
 30
0.0
 10
363.5871002412707
 20
181.9959425241967
 30
0.0
  0
LINE
  5
E5
330
1F
100
AcDbEntity
  8
0
  6
Continuous
 62
     7
370
    25
100
AcDbLine
 10
363.5896518585
 20
181.985641643
 30
0.0
 11
352.908020675
 21
225.5029387038
 31
0.0
  0
LINE
  5
E6
330
1F
100
AcDbEntity
  8
0
  6
Continuous
 62
     7
370
    25
100
AcDbLine
 10
348.052162137
 20
224.3110335653
 30
0.0
 11
358.7337933205
 21
180.7937365045
 31
0.0
  0
LINE
  5
E7
330
1F
100
AcDbEntity
  8
0
  6
Continuous
 62
     7
370
    25
100
AcDbLine
 10
324.6897928486
 20
225.5029387038
 30
0.0
 11
314.0101517495
 21
181.9937493087
 31
0.0
  0
LINE
  5
E8
330
1F
100
AcDbEntity
  8
0
  6
Continuous
 62
     7
370
    25
100
AcDbLine
 10
318.8620301186
 20
180.7856288388
 30
0.0
 11
329.5456513865
 21
224.3110335653
 31
0.0
  0
SPLINE
  5
E9
330
1F
100
AcDbEntity
  8
0
  6
Continuous
 62
     7
370
    25
100
AcDbSpline
210
0.0
220
0.0
230
1.0
 70
     8
 71
     3
 72
     9
 73
     5
 74
     0
 42
0.000000001
 43
0.00000001
 40
0.0
 40
0.0
 40
0.0
 40
0.0
 40
0.4880376354344073
 40
1.0
 40
1.0
 40
1.0
 40
1.0
 10
347.7989067617701
 20
226.4003949868311
 30
0.0
 10
347.8090753276581
 20
226.0571676357405
 30
0.0
 10
347.8299109459583
 20
225.3538871381516
 30
0.0
 10
347.9769061333197
 20
224.6641519983558
 30
0.0
 10
348.052162137021
 20
224.3110335652618
 30
0.0
  0
SPLINE
  5
EA
330
1F
100
AcDbEntity
  8
0
  6
Continuous
 62
     7
370
    25
100
AcDbSpline
210
0.0
220
0.0
230
1.0
 70
     8
 71
     3
 72
     9
 73
     5
 74
     0
 42
0.000000001
 43
0.00000001
 40
0.0
 40
0.0
 40
0.0
 40
0.0
 40
0.4878793174722828
 40
1.0
 40
1.0
 40
1.0
 40
1.0
 10
352.9080206749878
 20
225.5029387037919
 30
0.0
 10
352.8768393468249
 20
225.6482755156084
 30
0.0
 10
352.8129273771099
 20
225.9461705208109
 30
0.0
 10
352.8036552234374
 20
226.2465595514408
 30
0.0
 10
352.7989067617701
 20
226.4003949868309
 30
0.0
  0
SPLINE
  5
EB
330
1F
100
AcDbEntity
  8
0
  6
Continuous
 62
     7
370
    25
100
AcDbSpline
210
0.0
220
0.0
230
1.0
 70
     8
 71
     3
 72
     9
 73
     5
 74
     0
 42
0.000000001
 43
0.00000001
 40
0.0
 40
0.0
 40
0.0
 40
0.0
 40
0.4875287468288652
 40
1.0
 40
1.0
 40
1.0
 40
1.0
 10
329.5456513865218
 20
224.3110335652619
 30
0.0
 10
329.6178056481688
 20
224.6471644109948
 30
0.0
 10
329.7658056627653
 20
225.3366229258399
 30
0.0
 10
329.7876911028608
 20
226.0399566644222
 30
0.0
 10
329.7989067617727
 20
226.4003949868311
 30
0.0
  0
SPLINE
  5
EC
330
1F
100
AcDbEntity
  8
0
  6
Continuous
 62
     7
370
    25
100
AcDbSpline
210
0.0
220
0.0
230
1.0
 70
     8
 71
     3
 72
     9
 73
     5
 74
     0
 42
0.000000001
 43
0.00000001
 40
0.0
 40
0.0
 40
0.0
 40
0.0
 40
0.4876837601819866
 40
0.9999999999999999
 40
0.9999999999999999
 40
0.9999999999999999
 40
0.9999999999999999
 10
324.7989067617727
 20
226.400394986831
 30
0.0
 10
324.794601570072
 20
226.2539080237628
 30
0.0
 10
324.7857737352079
 20
225.9535351694085
 30
0.0
 10
324.722307586974
 20
225.6555839514339
 30
0.0
 10
324.689792848555
 20
225.5029387037921
 30
0.0
  0
LINE
  5
ED
330
1F
100
AcDbEntity
  8
0
  6
Continuous
 62
     7
370
    25
100
AcDbLine
 10
352.7989067618
 20
226.4003949868
 30
0.0
 11
352.7989067618
 21
392.1766404904
 31
0.0
  0
LINE
  5
EE
330
1F
100
AcDbEntity
  8
0
  6
Continuous
 62
     7
370
    25
100
AcDbLine
 10
347.7989067618
 20
392.1766404904
 30
0.0
 11
347.7989067618
 21
226.4003949868
 31
0.0
  0
LINE
  5
EF
330
1F
100
AcDbEntity
  8
0
  6
Continuous
 62
     7
370
    25
100
AcDbLine
 10
324.7989067618
 20
392.1766404904
 30
0.0
 11
324.7989067618
 21
226.4003949868
 31
0.0
  0
LINE
  5
F0
330
1F
100
AcDbEntity
  8
0
  6
Continuous
 62
     7
370
    25
100
AcDbLine
 10
329.7989067618
 20
226.4003949868
 30
0.0
 11
329.7989067618
 21
392.1766404904
 31
0.0
  0
LINE
  5
F1
330
1F
100
AcDbEntity
  8
0
  6
Continuous
 62
     7
370
    25
100
AcDbLine
 10
337.6989067618
 20
228.2915185982
 30
0.0
 11
337.6989067618
 21
392.1766404904
 31
0.0
  0
LINE
  5
F2
330
1F
100
AcDbEntity
  8
0
  6
Continuous
 62
     7
370
    25
100
AcDbLine
 10
332.6989067618
 20
392.1766404904
 30
0.0
 11
332.6989067618
 21
228.2915185982
 31
0.0
  0
LINE
  5
F3
330
1F
100
AcDbEntity
  8
0
  6
Continuous
 62
     7
370
    25
100
AcDbLine
 10
339.8989067618
 20
392.1766404904
 30
0.0
 11
339.8989067618
 21
228.2915185982
 31
0.0
  0
LINE
  5
F4
330
1F
100
AcDbEntity
  8
0
  6
Continuous
 62
     7
370
    25
100
AcDbLine
 10
344.8989067618
 20
228.2915185982
 30
0.0
 11
344.8989067618
 21
392.1766404904
 31
0.0
  0
LINE
  5
F5
330
1F
100
AcDbEntity
  8
0
  6
Continuous
 62
     7
370
    25
100
AcDbLine
 10
254.2989067618
 20
883.2266404858
 30
0.0
 11
254.2989067618
 21
883.7266404858
 31
0.0
  0
LINE
  5
F6
330
1F
100
AcDbEntity
  8
0
  6
Continuous
 62
     7
370
    25
100
AcDbLine
 10
246.2989067618
 20
883.7266404858
 30
0.0
 11
246.2989067618
 21
883.2266404858
 31
0.0
  0
LINE
  5
F7
330
1F
100
AcDbEntity
  8
0
  6
Continuous
 62
     7
370
    25
100
AcDbLine
 10
628.2989067618
 20
883.2266404858
 30
0.0
 11
628.2989067618
 21
883.7266404858
 31
0.0
  0
LINE
  5
F8
330
1F
100
AcDbEntity
  8
0
  6
Continuous
 62
     7
370
    25
100
AcDbLine
 10
620.2989067618
 20
883.7266404858
 30
0.0
 11
620.2989067618
 21
883.2266404858
 31
0.0
  0
LINE
  5
F9
330
1F
100
AcDbEntity
  8
0
  6
Continuous
 62
     7
370
    25
100
AcDbLine
 10
236.2989067618
 20
826.4221113674
 30
0.0
 11
638.2989067618
 21
826.4221113674
 31
0.0
  0
LINE
  5
FA
330
1F
100
AcDbEntity
  8
0
  6
Continuous
 62
     7
370
    25
100
AcDbLine
 10
614.578590636
 20
870.4494723085
 30
0.0
 11
614.8014224587
 21
870.2266404858
 31
0.0
  0
LINE
  5
FB
330
1F
100
AcDbEntity
  8
0
  6
Continuous
 62
     7
370
    25
100
AcDbLine
 10
633.7963910648
 20
870.2266404858
 30
0.0
 11
634.1741024139
 21
870.6043518349
 31
0.0
  0
LINE
  5
FC
330
1F
100
AcDbEntity
  8
0
  6
Continuous
 62
     7
370
    25
100
AcDbLine
 10
634.1741024139
 20
873.8489291367
 30
0.0
 11
633.7963910648
 21
874.2266404858
 31
0.0
  0
LINE
  5
FD
330
1F
100
AcDbEntity
  8
0
  6
Continuous
 62
     7
370
    25
100
AcDbLine
 10
614.8014224587
 20
874.2266404858
 30
0.0
 11
614.578590636
 21
874.0038086631
 31
0.0
  0
ARC
  5
FE
330
1F
100
AcDbEntity
  8
0
  6
Continuous
 62
     7
370
    25
100
AcDbCircle
 10
629.6989067618
 20
874.6266404858
 30
0.0
 40
0.4000000000000909
100
AcDbArc
 50
180.0
 51
270.0
  0
ARC
  5
FF
330
1F
100
AcDbEntity
  8
0
  6
Continuous
 62
     7
370
    25
100
AcDbCircle
 10
618.8989067618
 20
874.6266404858
 30
0.0
 40
0.4000000000000909
100
AcDbArc
 50
270.0
 51
0.0
  0
ARC
  5
100
330
1F
100
AcDbEntity
  8
0
  6
Continuous
 62
     7
370
    25
100
AcDbCircle
 10
619.4989067618
 20
881.5266404858
 30
0.0
 40
0.2000000000000455
100
AcDbArc
 50
90.0
 51
180.0000000003
  0
ARC
  5
101
330
1F
100
AcDbEntity
  8
0
  6
Continuous
 62
     7
370
    25
100
AcDbCircle
 10
629.0989067618
 20
881.5266404858
 30
0.0
 40
0.1999999999999318
100
AcDbArc
 50
359.9999999997
 51
90.0
  0
LINE
  5
102
330
1F
100
AcDbEntity
  8
0
  6
Continuous
 62
     7
370
    25
100
AcDbLine
 10
629.2989067618
 20
874.6266404858
 30
0.0
 11
629.2989067618
 21
881.5266404858
 31
0.0
  0
LINE
  5
103
330
1F
100
AcDbEntity
  8
0
  6
Continuous
 62
     7
370
    25
100
AcDbLine
 10
619.2989067618
 20
881.5266404858
 30
0.0
 11
619.2989067618
 21
874.6266404858
 31
0.0
  0
LINE
  5
104
330
1F
100
AcDbEntity
  8
0
  6
Continuous
 62
     7
370
    25
100
AcDbLine
 10
260.1741024139
 20
873.8489291367
 30
0.0
 11
259.7963910648
 21
874.2266404858
 31
0.0
  0
LINE
  5
105
330
1F
100
AcDbEntity
  8
0
  6
Continuous
 62
     7
370
    25
100
AcDbLine
 10
240.8014224587
 20
874.2266404858
 30
0.0
 11
240.578590636
 21
874.0038086631
 31
0.0
  0
LINE
  5
106
330
1F
100
AcDbEntity
  8
0
  6
Continuous
 62
     7
370
    25
100
AcDbLine
 10
240.578590636
 20
870.4494723085
 30
0.0
 11
240.8014224587
 21
870.2266404858
 31
0.0
  0
LINE
  5
107
330
1F
100
AcDbEntity
  8
0
  6
Continuous
 62
     7
370
    25
100
AcDbLine
 10
259.7963910648
 20
870.2266404858
 30
0.0
 11
260.1741024139
 21
870.6043518349
 31
0.0
  0
ARC
  5
108
330
1F
100
AcDbEntity
  8
0
  6
Continuous
 62
     7
370
    25
100
AcDbCircle
 10
255.6989067618
 20
874.6266404858
 30
0.0
 40
0.4000000000000909
100
AcDbArc
 50
180.0
 51
270.0
  0
ARC
  5
109
330
1F
100
AcDbEntity
  8
0
  6
Continuous
 62
     7
370
    25
100
AcDbCircle
 10
244.8989067618
 20
874.6266404858
 30
0.0
 40
0.4000000000000909
100
AcDbArc
 50
270.0
 51
0.0
  0
ARC
  5
10A
330
1F
100
AcDbEntity
  8
0
  6
Continuous
 62
     7
370
    25
100
AcDbCircle
 10
245.4989067618
 20
881.5266404858
 30
0.0
 40
0.1999999999999602
100
AcDbArc
 50
90.0
 51
180.0000000003
  0
ARC
  5
10B
330
1F
100
AcDbEntity
  8
0
  6
Continuous
 62
     7
370
    25
100
AcDbCircle
 10
255.0989067618
 20
881.5266404858
 30
0.0
 40
0.1999999999999886
100
AcDbArc
 50
359.9999999997
 51
90.0
  0
LINE
  5
10C
330
1F
100
AcDbEntity
  8
0
  6
Continuous
 62
     7
370
    25
100
AcDbLine
 10
255.2989067618
 20
874.6266404858
 30
0.0
 11
255.2989067618
 21
881.5266404858
 31
0.0
  0
LINE
  5
10D
330
1F
100
AcDbEntity
  8
0
  6
Continuous
 62
     7
370
    25
100
AcDbLine
 10
245.2989067618
 20
881.5266404858
 30
0.0
 11
245.2989067618
 21
874.6266404858
 31
0.0
  0
LINE
  5
10E
330
1F
100
AcDbEntity
  8
0
  6
Continuous
 62
     7
370
    25
100
AcDbLine
 10
519.9040109206
 20
392.1766404904
 30
0.0
 11
520.3591776119
 21
392.0119336994
 31
0.0
  0
LINE
  5
10F
330
1F
100
AcDbEntity
  8
0
  6
Continuous
 62
     7
370
    25
100
AcDbLine
 10
212.2989067618
 20
153.1667579099
 30
0.0
 11
662.2989067618
 21
153.1667579099
 31
0.0
  0
LINE
  5
110
330
1F
100
AcDbEntity
  8
0
  6
Continuous
 62
     7
370
    25
100
AcDbLine
 10
213.5089067618
 20
172.1598319873
 30
0.0
 11
314.0288388758
 21
172.1598319873
 31
0.0
  0
LINE
  5
111
330
1F
100
AcDbEntity
  8
0
  6
Continuous
 62
     7
370
    25
100
AcDbLine
 10
319.2264096406
 20
172.1598319873
 30
0.0
 11
358.365259322
 21
172.1598319873
 31
0.0
  0
LINE
  5
112
330
1F
100
AcDbEntity
  8
0
  6
Continuous
 62
     7
370
    25
100
AcDbLine
 10
363.5657003554
 20
172.1598319873
 30
0.0
 11
511.0288388758
 21
172.1598319873
 31
0.0
  0
LINE
  5
113
330
1F
100
AcDbEntity
  8
0
  6
Continuous
 62
     7
370
    25
100
AcDbLine
 10
516.2264096406
 20
172.1598319873
 30
0.0
 11
555.3652593221
 21
172.1598319873
 31
0.0
  0
LINE
  5
114
330
1F
100
AcDbEntity
  8
0
  6
Continuous
 62
     7
370
    25
100
AcDbLine
 10
560.5657003554
 20
172.1598319873
 30
0.0
 11
661.0889067618
 21
172.1598319873
 31
0.0
  0
LINE
  5
115
330
1F
100
AcDbEntity
  8
0
  6
Continuous
 62
     7
370
    25
100
AcDbLine
 10
212.2989067618
 20
173.3698319873
 30
0.0
 11
213.4989067618
 21
173.3698319873
 31
0.0
  0
LINE
  5
116
330
1F
100
AcDbEntity
  8
0
  6
Continuous
 62
     7
370
    25
100
AcDbLine
 10
661.0989067618
 20
173.3698319873
 30
0.0
 11
662.2989067618
 21
173.3698319873
 31
0.0
  0
LINE
  5
117
330
1F
100
AcDbEntity
  8
0
  6
Continuous
 62
     7
370
    25
100
AcDbLine
 10
644.2989067618
 20
286.7766404858
 30
0.0
 11
644.2989067618
 21
287.0266404858
 31
0.0
  0
LINE
  5
118
330
1F
100
AcDbEntity
  8
0
  6
Continuous
 62
     7
370
    25
100
AcDbLine
 10
650.2989067618
 20
286.7766404858
 30
0.0
 11
650.2989067618
 21
287.0266404858
 31
0.0
  0
ARC
  5
119
330
1F
100
AcDbEntity
  8
0
  6
Continuous
 62
     7
370
    25
100
AcDbCircle
 10
459.3145932785
 20
1011.0266404862
 30
0.0
 40
2.000000000000036
100
AcDbArc
 50
270.0
 51
352.8192442185
  0
ARC
  5
11A
330
1F
100
AcDbEntity
  8
0
  6
Continuous
 62
     7
370
    25
100
AcDbCircle
 10
459.3145932785
 20
979.0266404862
 30
0.0
 40
2.000000000000036
100
AcDbArc
 50
7.1807557815
 51
90.0
  0
LINE
  5
11B
330
1F
100
AcDbEntity
  8
0
  6
Continuous
 62
     7
370
    25
100
AcDbLine
 10
461.2989067618
 20
979.2766404862
 30
0.0
 11
468.7989067618
 21
979.2766404862
 31
0.0
  0
LINE
  5
11C
330
1F
100
AcDbEntity
  8
0
  6
Continuous
 62
     7
370
    25
100
AcDbLine
 10
468.7989067618
 20
1010.7766404862
 30
0.0
 11
461.2989067618
 21
1010.7766404862
 31
0.0
  0
ARC
  5
11D
330
1F
100
AcDbEntity
  8
0
  6
Continuous
 62
     7
370
    25
100
AcDbCircle
 10
415.2832202451
 20
979.0266404862
 30
0.0
 40
2.0
100
AcDbArc
 50
90.0
 51
172.8192442185
  0
ARC
  5
11E
330
1F
100
AcDbEntity
  8
0
  6
Continuous
 62
     7
370
    25
100
AcDbCircle
 10
415.2832202451
 20
1011.0266404862
 30
0.0
 40
2.0
100
AcDbArc
 50
187.1807557815
 51
270.0
  0
LINE
  5
11F
330
1F
100
AcDbEntity
  8
0
  6
Continuous
 62
     7
370
    25
100
AcDbLine
 10
405.7989067618
 20
979.2766404862
 30
0.0
 11
413.2989067618
 21
979.2766404862
 31
0.0
  0
LINE
  5
120
330
1F
100
AcDbEntity
  8
0
  6
Continuous
 62
     7
370
    25
100
AcDbLine
 10
413.2989067618
 20
1010.7766404862
 30
0.0
 11
405.7989067618
 21
1010.7766404862
 31
0.0
  0
LINE
  5
121
330
1F
100
AcDbEntity
  8
0
  6
Continuous
 62
     7
370
    25
100
AcDbLine
 10
449.3922933842
 20
981.0266404862
 30
0.0
 11
459.3145932785
 21
981.0266404862
 31
0.0
  0
LINE
  5
122
330
1F
100
AcDbEntity
  8
0
  6
Continuous
 62
     7
370
    25
100
AcDbLine
 10
459.3145932785
 20
1009.0266404862
 30
0.0
 11
449.3922933842
 21
1009.0266404862
 31
0.0
  0
LINE
  5
123
330
1F
100
AcDbEntity
  8
0
  6
Continuous
 62
     7
370
    25
100
AcDbLine
 10
415.2832202451
 20
981.0266404862
 30
0.0
 11
425.2055201393
 21
981.0266404862
 31
0.0
  0
LINE
  5
124
330
1F
100
AcDbEntity
  8
0
  6
Continuous
 62
     7
370
    25
100
AcDbLine
 10
425.2055201393
 20
1009.0266404862
 30
0.0
 11
415.2832202451
 21
1009.0266404862
 31
0.0
  0
LINE
  5
125
330
1F
100
AcDbEntity
  8
0
  6
Continuous
 62
     7
370
    25
100
AcDbLine
 10
317.2989067618
 20
984.2766404813
 30
0.0
 11
405.7989067618
 21
984.2766404813
 31
0.0
  0
LINE
  5
126
330
1F
100
AcDbEntity
  8
0
  6
Continuous
 62
     7
370
    25
100
AcDbLine
 10
405.7989067618
 20
1005.7766404813
 30
0.0
 11
317.2989067618
 21
1005.7766404813
 31
0.0
  0
LINE
  5
127
330
1F
100
AcDbEntity
  8
0
  6
Continuous
 62
     7
370
    25
100
AcDbLine
 10
468.7989067618
 20
984.2766404862
 30
0.0
 11
557.2989067618
 21
984.2766404862
 31
0.0
  0
LINE
  5
128
330
1F
100
AcDbEntity
  8
0
  6
Continuous
 62
     7
370
    25
100
AcDbLine
 10
557.2989067618
 20
1005.7766404862
 30
0.0
 11
468.7989067618
 21
1005.7766404862
 31
0.0
  0
ARC
  5
129
330
1F
100
AcDbEntity
  8
0
  6
Continuous
 62
     7
370
    25
100
AcDbCircle
 10
559.7989067618
 20
1010.0266404862
 30
0.0
 40
2.500000000000049
100
AcDbArc
 50
6.3793702084
 51
180.0
  0
ARC
  5
12A
330
1F
100
AcDbEntity
  8
0
  6
Continuous
 62
     7
370
    25
100
AcDbCircle
 10
559.7989067618
 20
980.0266404862
 30
0.0
 40
2.5
100
AcDbArc
 50
180.0
 51
233.1301023683
  0
ARC
  5
12B
330
1F
100
AcDbEntity
  8
0
  6
Continuous
 62
     7
370
    25
100
AcDbCircle
 10
559.7989067618
 20
980.0266404862
 30
0.0
 40
2.500000000000036
100
AcDbArc
 50
306.8698976317
 51
353.6206297916
  0
ARC
  5
12C
330
1F
100
AcDbEntity
  8
0
  6
Continuous
 62
     7
370
    25
100
AcDbCircle
 10
602.7989067618
 20
973.0266404862
 30
0.0
 40
2.0
100
AcDbArc
 50
180.0
 51
255.3362515429
  0
ARC
  5
12D
330
1F
100
AcDbEntity
  8
0
  6
Continuous
 62
     7
370
    25
100
AcDbCircle
 10
564.2710427168
 20
979.5266404862
 30
0.0
 40
2.000000000000029
100
AcDbArc
 50
90.0
 51
173.6206297916
  0
ARC
  5
12E
330
1F
100
AcDbEntity
  8
0
  6
Continuous
 62
     7
370
    25
100
AcDbCircle
 10
564.2710427168
 20
1010.5266404862
 30
0.0
 40
2.000000000000054
100
AcDbArc
 50
186.3793702084
 51
270.0
  0
LINE
  5
12F
330
1F
100
AcDbEntity
  8
0
  6
Continuous
 62
     7
370
    25
100
AcDbLine
 10
600.7989067618
 20
973.0266404862
 30
0.0
 11
600.7989067618
 21
975.0266404862
 31
0.0
  0
ARC
  5
130
330
1F
100
AcDbEntity
  8
0
  6
Continuous
 62
     7
370
    25
100
AcDbCircle
 10
567.2989067618
 20
975.0266404862
 30
0.0
 40
6.5
100
AcDbArc
 50
27.4864262467
 51
90.0
  0
ARC
  5
131
330
1F
100
AcDbEntity
  8
0
  6
Continuous
 62
     7
370
    25
100
AcDbCircle
 10
567.2989067618
 20
975.0266404862
 30
0.0
 40
33.5
100
AcDbArc
 50
0.0
 51
90.0
  0
LINE
  5
132
330
1F
100
AcDbEntity
  8
0
  6
Continuous
 62
     7
370
    25
100
AcDbLine
 10
564.2710427168
 20
981.5266404862
 30
0.0
 11
567.2989067618
 21
981.5266404862
 31
0.0
  0
LINE
  5
133
330
1F
100
AcDbEntity
  8
0
  6
Continuous
 62
     7
370
    25
100
AcDbLine
 10
567.2989067618
 20
1008.5266404862
 30
0.0
 11
564.2710427168
 21
1008.5266404862
 31
0.0
  0
ARC
  5
134
330
1F
100
AcDbEntity
  8
0
  6
Continuous
 62
     7
370
    25
100
AcDbCircle
 10
314.7989067618
 20
980.0266404813
 30
0.0
 40
2.499999999999967
100
AcDbArc
 50
186.3793702084
 51
233.1301021838
  0
ARC
  5
135
330
1F
100
AcDbEntity
  8
0
  6
Continuous
 62
     7
370
    25
100
AcDbCircle
 10
314.7989067618
 20
980.0266404813
 30
0.0
 40
2.5
100
AcDbArc
 50
306.8698978162
 51
360.0
  0
ARC
  5
136
330
1F
100
AcDbEntity
  8
0
  6
Continuous
 62
     7
370
    25
100
AcDbCircle
 10
314.7989067618
 20
1010.0266404813
 30
0.0
 40
2.5
100
AcDbArc
 50
0.0
 51
173.6206297916
  0
ARC
  5
137
330
1F
100
AcDbEntity
  8
0
  6
Continuous
 62
     7
370
    25
100
AcDbCircle
 10
271.7989067618
 20
973.0266404813
 30
0.0
 40
2.000000000000072
100
AcDbArc
 50
284.6637487237
 51
0.0
  0
ARC
  5
138
330
1F
100
AcDbEntity
  8
0
  6
Continuous
 62
     7
370
    25
100
AcDbCircle
 10
310.3267708068
 20
1010.5266404813
 30
0.0
 40
2.0
100
AcDbArc
 50
270.0
 51
353.6206297916
  0
ARC
  5
139
330
1F
100
AcDbEntity
  8
0
  6
Continuous
 62
     7
370
    25
100
AcDbCircle
 10
310.3267708068
 20
979.5266404813
 30
0.0
 40
2.0
100
AcDbArc
 50
6.3793702084
 51
90.0
  0
LINE
  5
13A
330
1F
100
AcDbEntity
  8
0
  6
Continuous
 62
     7
370
    25
100
AcDbLine
 10
273.7989067618
 20
975.0266404813
 30
0.0
 11
273.7989067618
 21
973.0266404813
 31
0.0
  0
ARC
  5
13B
330
1F
100
AcDbEntity
  8
0
  6
Continuous
 62
     7
370
    25
100
AcDbCircle
 10
307.2989067618
 20
975.0266404813
 30
0.0
 40
6.499999999999958
100
AcDbArc
 50
90.0
 51
152.5135737053
  0
ARC
  5
13C
330
1F
100
AcDbEntity
  8
0
  6
Continuous
 62
     7
370
    25
100
AcDbCircle
 10
307.2989067618
 20
975.0266404813
 30
0.0
 40
33.50000000000011
100
AcDbArc
 50
90.0
 51
180.0
  0
LINE
  5
13D
330
1F
100
AcDbEntity
  8
0
  6
Continuous
 62
     7
370
    25
100
AcDbLine
 10
310.3267708068
 20
1008.5266404813
 30
0.0
 11
307.2989067618
 21
1008.5266404813
 31
0.0
  0
LINE
  5
13E
330
1F
100
AcDbEntity
  8
0
  6
Continuous
 62
     7
370
    25
100
AcDbLine
 10
307.2989067618
 20
981.5266404813
 30
0.0
 11
310.3267708068
 21
981.5266404813
 31
0.0
  0
LINE
  5
13F
330
1F
100
AcDbEntity
  8
0
  6
Continuous
 62
     7
370
    25
100
AcDbLine
 10
588.5989067617
 20
940.4766404858
 30
0.0
 11
588.5989067617
 21
938.7266404858
 31
0.0
  0
LINE
  5
140
330
1F
100
AcDbEntity
  8
0
  6
Continuous
 62
     7
370
    25
100
AcDbLine
 10
588.5989067617
 20
961.0266404858
 30
0.0
 11
588.4574854055
 21
961.0266404858
 31
0.0
  0
LINE
  5
141
330
1F
100
AcDbEntity
  8
0
  6
Continuous
 62
     7
370
    25
100
AcDbLine
 10
285.9989067617
 20
938.7266404858
 30
0.0
 11
285.9989067617
 21
940.4766404858
 31
0.0
  0
LINE
  5
142
330
1F
100
AcDbEntity
  8
0
  6
Continuous
 62
     7
370
    25
100
AcDbLine
 10
285.9989067617
 20
961.0266404858
 30
0.0
 11
286.140328118
 21
961.0266404858
 31
0.0
  0
LINE
  5
143
330
1F
100
AcDbEntity
  8
0
  6
Continuous
 62
     7
370
    25
100
AcDbLine
 10
586.4574854055
 20
939.2266404858
 30
0.0
 11
288.140328118
 21
939.2266404858
 31
0.0
  0
LINE
  5
144
330
1F
100
AcDbEntity
  8
0
  6
Continuous
 62
     7
370
    25
100
AcDbLine
 10
586.4574854055
 20
939.2266404858
 30
0.0
 11
588.4574854055
 21
939.2266404858
 31
0.0
  0
LINE
  5
145
330
1F
100
AcDbEntity
  8
0
  6
Continuous
 62
     7
370
    25
100
AcDbLine
 10
588.4574854055
 20
939.2266404858
 30
0.0
 11
588.4574854055
 21
938.7266404858
 31
0.0
  0
LINE
  5
146
330
1F
100
AcDbEntity
  8
0
  6
Continuous
 62
     7
370
    25
100
AcDbLine
 10
286.140328118
 20
938.7266404858
 30
0.0
 11
286.140328118
 21
939.2266404858
 31
0.0
  0
LINE
  5
147
330
1F
100
AcDbEntity
  8
0
  6
Continuous
 62
     7
370
    25
100
AcDbLine
 10
286.140328118
 20
939.2266404858
 30
0.0
 11
288.140328118
 21
939.2266404858
 31
0.0
  0
LINE
  5
148
330
1F
100
AcDbEntity
  8
0
  6
Continuous
 62
     7
370
    25
100
AcDbLine
 10
286.140328118
 20
940.4766404858
 30
0.0
 11
286.140328118
 21
939.2266404858
 31
0.0
  0
LINE
  5
149
330
1F
100
AcDbEntity
  8
0
  6
Continuous
 62
     7
370
    25
100
AcDbLine
 10
588.4574854055
 20
939.2266404858
 30
0.0
 11
588.4574854055
 21
940.4766404858
 31
0.0
  0
LINE
  5
14A
330
1F
100
AcDbEntity
  8
0
  6
Continuous
 62
     7
370
    25
100
AcDbLine
 10
286.140328118
 20
975.5766404858
 30
0.0
 11
286.140328118
 21
940.4766404858
 31
0.0
  0
LINE
  5
14B
330
1F
100
AcDbEntity
  8
0
  6
Continuous
 62
     7
370
    25
100
AcDbLine
 10
588.4574854055
 20
975.5766404858
 30
0.0
 11
588.4574854055
 21
940.4766404858
 31
0.0
  0
SPLINE
  5
14C
330
1F
100
AcDbEntity
  8
0
  6
Continuous
 62
     7
370
    25
100
AcDbSpline
210
0.0
220
0.0
230
1.0
 70
     8
 71
     3
 72
    12
 73
     8
 74
     0
 42
0.000000001
 43
0.00000001
 40
0.0
 40
0.0
 40
0.0
 40
0.0
 40
0.2234479110493562
 40
0.446928729570515
 40
0.6704096803451136
 40
0.893890426153197
 40
1.0
 40
1.0
 40
1.0
 40
1.0
 10
587.3489067617269
 20
978.0266404857978
 30
0.0
 10
587.4315065354738
 20
977.997281939534
 30
0.0
 10
587.5967182475466
 20
977.9385605233338
 30
0.0
 10
587.844578226936
 20
977.4819513093876
 30
0.0
 10
588.0923058300363
 20
976.8147466608004
 30
0.0
 10
588.2971159222373
 20
976.1332919472356
 30
0.0
 10
588.4184293079791
 20
975.7122063884647
 30
0.0
 10
588.4574854054896
 20
975.5766404857978
 30
0.0
  0
SPLINE
  5
14D
330
1F
100
AcDbEntity
  8
0
  6
Continuous
 62
     7
370
    25
100
AcDbSpline
210
0.0
220
0.0
230
1.0
 70
     8
 71
     3
 72
    12
 73
     8
 74
     0
 42
0.000000001
 43
0.00000001
 40
0.0
 40
0.0
 40
0.0
 40
0.0
 40
0.2234479110493428
 40
0.4469287295704957
 40
0.6704096803451006
 40
0.8938904261531858
 40
1.0
 40
1.0
 40
1.0
 40
1.0
 10
286.1403281179642
 20
975.5766404857978
 30
0.0
 10
286.2229278917112
 20
975.8633179816031
 30
0.0
 10
286.3881396037841
 20
976.4367151925906
 30
0.0
 10
286.6359995831733
 20
977.1927894054626
 30
0.0
 10
286.8837271862735
 20
977.7479331172387
 30
0.0
 10
287.0885372784746
 20
977.9986687028251
 30
0.0
 10
287.2098506642164
 20
978.019828287734
 30
0.0
 10
287.2489067617269
 20
978.0266404857978
 30
0.0
  0
LINE
  5
14E
330
1F
100
AcDbEntity
  8
0
  6
Continuous
 62
     7
370
    25
100
AcDbLine
 10
287.2489067617
 20
978.0266404858
 30
0.0
 11
587.3489067617
 21
978.0266404858
 31
0.0
  0
SPLINE
  5
14F
330
1F
100
AcDbEntity
  8
0
  6
Continuous
 62
     7
370
    25
100
AcDbSpline
210
0.0
220
0.0
230
1.0
 70
     8
 71
     3
 72
    12
 73
     8
 74
     0
 42
0.000000001
 43
0.00000001
 40
0.0
 40
0.0
 40
0.0
 40
0.0
 40
0.2234479110493527
 40
0.4469287295705068
 40
0.6704096803451027
 40
0.8938904261532019
 40
1.0
 40
1.0
 40
1.0
 40
1.0
 10
287.2489067617269
 20
978.0266404857978
 30
0.0
 10
286.9622292659217
 20
977.997281939534
 30
0.0
 10
286.3888320549341
 20
977.9385605233338
 30
0.0
 10
285.6327578420622
 20
977.4819513093876
 30
0.0
 10
285.077614130286
 20
976.8147466608006
 30
0.0
 10
284.8268785446998
 20
976.1332919472356
 30
0.0
 10
284.8057189597909
 20
975.7122063884647
 30
0.0
 10
284.7989067617269
 20
975.5766404857978
 30
0.0
  0
SPLINE
  5
150
330
1F
100
AcDbEntity
  8
0
  6
Continuous
 62
     7
370
    25
100
AcDbSpline
210
0.0
220
0.0
230
1.0
 70
     8
 71
     3
 72
    10
 73
     6
 74
     0
 42
0.000000001
 43
0.00000001
 40
0.0
 40
0.0
 40
0.0
 40
0.0
 40
0.0939637825371255
 40
0.5643787421062999
 40
1.0
 40
1.0
 40
1.0
 40
1.0
 10
286.4092501008465
 20
976.4823814346508
 30
0.0
 10
286.3827566275303
 20
976.4641616687682
 30
0.0
 10
286.223627729773
 20
976.354727498786
 30
0.0
 10
286.052439709554
 20
976.0303391231956
 30
0.0
 10
286.0162883143955
 20
975.7239513864995
 30
0.0
 10
285.9989067617269
 20
975.5766404857978
 30
0.0
  0
LINE
  5
151
330
1F
100
AcDbEntity
  8
0
  6
Continuous
 62
     7
370
    25
100
AcDbLine
 10
284.7989067617
 20
975.5766404858
 30
0.0
 11
285.9989067617
 21
975.5766404858
 31
0.0
  0
LINE
  5
152
330
1F
100
AcDbEntity
  8
0
  6
Continuous
 62
     7
370
    25
100
AcDbLine
 10
589.7989067617
 20
975.5766404858
 30
0.0
 11
588.5989067617
 21
975.5766404858
 31
0.0
  0
SPLINE
  5
153
330
1F
100
AcDbEntity
  8
0
  6
Continuous
 62
     7
370
    25
100
AcDbSpline
210
0.0
220
0.0
230
1.0
 70
     8
 71
     3
 72
    10
 73
     6
 74
     0
 42
0.000000001
 43
0.00000001
 40
0.0
 40
0.0
 40
0.0
 40
0.0
 40
0.5178389736506015
 40
0.9790042206164341
 40
1.0
 40
1.0
 40
1.0
 40
1.0
 10
588.598906761727
 20
975.5766404857978
 30
0.0
 10
588.5732194793175
 20
975.7544192839142
 30
0.0
 10
588.524656201591
 20
976.0905202777524
 30
0.0
 10
588.3291730643984
 20
976.4145899779176
 30
0.0
 10
588.1855308762196
 20
976.5017680810713
 30
0.0
 10
588.1792759540498
 20
976.505564265584
 30
0.0
  0
SPLINE
  5
154
330
1F
100
AcDbEntity
  8
0
  6
Continuous
 62
     7
370
    25
100
AcDbSpline
210
0.0
220
0.0
230
1.0
 70
     8
 71
     3
 72
    12
 73
     8
 74
     0
 42
0.000000001
 43
0.00000001
 40
0.0
 40
0.0
 40
0.0
 40
0.0
 40
0.2234479110493472
 40
0.4469287295704974
 40
0.670409680345096
 40
0.8938904261531391
 40
1.0
 40
1.0
 40
1.0
 40
1.0
 10
589.7989067617268
 20
975.5766404857978
 30
0.0
 10
589.769548215463
 20
975.863317981603
 30
0.0
 10
589.7108267992628
 20
976.4367151925906
 30
0.0
 10
589.2542175853167
 20
977.1927894054626
 30
0.0
 10
588.5870129367297
 20
977.7479331172387
 30
0.0
 10
587.9055582231649
 20
977.9986687028251
 30
0.0
 10
587.4844726643937
 20
978.019828287734
 30
0.0
 10
587.348906761727
 20
978.0266404857978
 30
0.0
  0
LINE
  5
155
330
1F
100
AcDbEntity
  8
0
  6
Continuous
 62
     7
370
    25
100
AcDbLine
 10
588.5989067617
 20
975.5766404858
 30
0.0
 11
588.5989067617
 21
940.4766404858
 31
0.0
  0
LINE
  5
156
330
1F
100
AcDbEntity
  8
0
  6
Continuous
 62
     7
370
    25
100
AcDbLine
 10
589.7989067617
 20
975.5766404858
 30
0.0
 11
589.7989067617
 21
940.4766404858
 31
0.0
  0
LINE
  5
157
330
1F
100
AcDbEntity
  8
0
  6
Continuous
 62
     7
370
    25
100
AcDbLine
 10
285.9989067617
 20
975.5766404858
 30
0.0
 11
285.9989067617
 21
940.4766404858
 31
0.0
  0
LINE
  5
158
330
1F
100
AcDbEntity
  8
0
  6
Continuous
 62
     7
370
    25
100
AcDbLine
 10
284.7989067617
 20
975.5766404858
 30
0.0
 11
284.7989067617
 21
940.4766404858
 31
0.0
  0
ARC
  5
159
330
1F
100
AcDbEntity
  8
0
  6
Continuous
 62
     7
370
    25
100
AcDbCircle
 10
591.0489067617
 20
940.4766404858
 30
0.0
 40
2.450000000000045
100
AcDbArc
 50
180.0
 51
225.5846914027
  0
ARC
  5
15A
330
1F
100
AcDbEntity
  8
0
  6
Continuous
 62
     7
370
    25
100
AcDbCircle
 10
591.0489067617
 20
940.4766404858
 30
0.0
 40
1.25
100
AcDbArc
 50
180.0
 51
270.0
  0
LINE
  5
15B
330
1F
100
AcDbEntity
  8
0
  6
Continuous
 62
     7
370
    25
100
AcDbLine
 10
283.5489067617
 20
939.2266404858
 30
0.0
 11
278.7989067618
 21
939.2266404858
 31
0.0
  0
ARC
  5
15C
330
1F
100
AcDbEntity
  8
0
  6
Continuous
 62
     7
370
    25
100
AcDbCircle
 10
283.5489067617
 20
940.4766404858
 30
0.0
 40
1.250000000000057
100
AcDbArc
 50
270.0
 51
0.0
  0
ARC
  5
15D
330
1F
100
AcDbEntity
  8
0
  6
Continuous
 62
     7
370
    25
100
AcDbCircle
 10
283.5489067617
 20
940.4766404858
 30
0.0
 40
2.450000000000045
100
AcDbArc
 50
314.4153085973
 51
0.0
  0
LINE
  5
15E
330
1F
100
AcDbEntity
  8
0
  6
Continuous
 62
     7
370
    25
100
AcDbLine
 10
595.7989067618
 20
939.2266404858
 30
0.0
 11
591.0489067617
 21
939.2266404858
 31
0.0
  0
LINE
  5
15F
330
1F
100
AcDbEntity
  8
0
  6
Continuous
 62
     7
370
    25
100
AcDbLine
 10
232.0691286939
 20
928.7266404799
 30
0.0
 11
232.2989067617
 21
928.7266404799
 31
0.0
  0
ARC
  5
160
330
1F
100
AcDbEntity
  8
0
  6
Continuous
 62
     7
370
    25
100
AcDbCircle
 10
649.7989067586
 20
809.4766404858
 30
0.0
 40
6.0
100
AcDbArc
 50
179.9999999989
 51
359.9999999989
  0
ARC
  5
161
330
1F
100
AcDbEntity
  8
0
  6
Continuous
 62
     7
370
    25
100
AcDbCircle
 10
224.7989067667
 20
812.7266404863
 30
0.0
 40
6.000000000000028
100
AcDbArc
 50
180.0
 51
0.0
  0
LINE
  5
162
330
1F
100
AcDbEntity
  8
0
  6
Continuous
 62
     7
370
    25
100
AcDbLine
 10
218.2489067667
 20
979.7266404863
 30
0.0
 11
219.6851899189
 21
979.7266404863
 31
0.0
  0
LINE
  5
163
330
1F
100
AcDbEntity
  8
0
  6
Continuous
 62
     7
370
    25
100
AcDbLine
 10
219.1953275534
 20
969.7266404863
 30
0.0
 11
218.2489067667
 21
969.7266404863
 31
0.0
  0
LINE
  5
164
330
1F
100
AcDbEntity
  8
0
  6
Continuous
 62
     7
370
    25
100
AcDbLine
 10
217.7889067667
 20
967.2266404863
 30
0.0
 11
231.8089067667
 21
967.2266404863
 31
0.0
  0
LINE
  5
165
330
1F
100
AcDbEntity
  8
0
  6
Continuous
 62
     7
370
    25
100
AcDbLine
 10
220.0256504281
 20
969.2266404863
 30
0.0
 11
217.7889067667
 21
969.2266404863
 31
0.0
  0
LINE
  5
166
330
1F
100
AcDbEntity
  8
0
  6
Continuous
 62
     7
370
    25
100
AcDbLine
 10
220.0256504281
 20
979.8604620575
 30
0.0
 11
220.0256504281
 21
969.2266404863
 31
0.0
  0
ARC
  5
167
330
1F
100
AcDbEntity
  8
0
  6
Continuous
 62
     7
370
    25
100
AcDbCircle
 10
224.7989067667
 20
974.7266404863
 30
0.0
 40
7.010000000000121
100
AcDbArc
 50
47.0843433442
 51
132.9156566558
  0
ARC
  5
168
330
1F
100
AcDbEntity
  8
0
  6
Continuous
 62
     7
370
    25
100
AcDbCircle
 10
219.6851899189
 20
980.2266404863
 30
0.0
 40
0.5000000000003411
100
AcDbArc
 50
270.0
 51
312.9156566558
  0
SPLINE
  5
169
330
1F
100
AcDbEntity
  8
0
  6
Continuous
 62
     7
370
    25
100
AcDbSpline
210
0.0
220
0.0
230
1.0
 70
    24
 71
     3
 72
    10
 73
     6
 74
     0
 42
0.000000001
 43
0.00000001
 40
0.0
 40
0.0
 40
0.0
 40
0.0
 40
0.3652495334839798
 40
0.7291325659328369
 40
1.0
 40
1.0
 40
1.0
 40
1.0
 10
217.748906766735
 20
969.7266404862607
 30
0.0
 10
217.748906766734
 20
969.7067774567978
 30
0.0
 10
217.7489067667319
 20
969.667125711041
 30
0.0
 10
217.7489067667365
 20
969.4571758387293
 30
0.0
 10
217.7489067667333
 20
969.4352523731849
 30
0.0
 10
217.748906766732
 20
969.4258969600404
 30
0.0
  0
SPLINE
  5
16A
330
1F
100
AcDbEntity
  8
0
  6
Continuous
 62
     7
370
    25
100
AcDbSpline
210
0.0
220
0.0
230
1.0
 70
     8
 71
     3
 72
     9
 73
     5
 74
     0
 42
0.000000001
 43
0.00000001
 40
0.0
 40
0.0
 40
0.0
 40
0.0
 40
0.516912869905061
 40
1.0
 40
1.0
 40
1.0
 40
1.0
 10
229.5721631054087
 20
969.2266404862609
 30
0.0
 10
229.6209891359841
 20
969.2906739469424
 30
0.0
 10
229.7154461197778
 20
969.4145506472718
 30
0.0
 10
229.8483988628234
 20
969.5231510602634
 30
0.0
 10
229.9126266218996
 20
969.5756145221026
 30
0.0
  0
SPLINE
  5
16B
330
1F
100
AcDbEntity
  8
0
  6
Continuous
 62
     7
370
    25
100
AcDbSpline
210
0.0
220
0.0
230
1.0
 70
     8
 71
     3
 72
     9
 73
     5
 74
     0
 42
0.000000001
 43
0.00000001
 40
0.0
 40
0.0
 40
0.0
 40
0.0
 40
0.4866861859071968
 40
1.0
 40
1.0
 40
1.0
 40
1.0
 10
230.4024859800593
 20
969.7266404862606
 30
0.0
 10
230.3173210875926
 20
969.7208889958479
 30
0.0
 10
230.1423317516861
 20
969.7090713388458
 30
0.0
 10
229.9905400748097
 20
969.6208854386728
 30
0.0
 10
229.9126233102048
 20
969.5756183979057
 30
0.0
  0
SPLINE
  5
16C
330
1F
100
AcDbEntity
  8
0
  6
Continuous
 62
     7
370
    25
100
AcDbSpline
210
0.0
220
0.0
230
1.0
 70
    24
 71
     3
 72
    10
 73
     6
 74
     0
 42
0.000000001
 43
0.00000001
 40
0.0
 40
0.0
 40
0.0
 40
0.0
 40
0.0254894080963463
 40
0.7267152624663015
 40
1.0
 40
1.0
 40
1.0
 40
1.0
 10
231.8489067667348
 20
969.4266366463436
 30
0.0
 10
231.8489067667348
 20
969.4254342276831
 30
0.0
 10
231.8489067667349
 20
969.3911526943864
 30
0.0
 10
231.8489067667348
 20
969.6831091215751
 30
0.0
 10
231.8489067667348
 20
969.717106504772
 30
0.0
 10
231.8489067667348
 20
969.7266404862607
 30
0.0
  0
ARC
  5
16D
330
1F
100
AcDbEntity
  8
0
  6
Continuous
 62
     7
370
    25
100
AcDbCircle
 10
229.9126236146
 20
980.2266404863
 30
0.0
 40
0.5000000000002274
100
AcDbArc
 50
227.0843433442
 51
270.0
  0
LINE
  5
16E
330
1F
100
AcDbEntity
  8
0
  6
Continuous
 62
     7
370
    25
100
AcDbLine
 10
229.9126236146
 20
979.7266404863
 30
0.0
 11
231.8489067667
 21
979.7266404863
 31
0.0
  0
LINE
  5
16F
330
1F
100
AcDbEntity
  8
0
  6
Continuous
 62
     7
370
    25
100
AcDbLine
 10
231.8489067667
 20
979.7266404863
 30
0.0
 11
231.8489067667
 21
969.7266404863
 31
0.0
  0
LINE
  5
170
330
1F
100
AcDbEntity
  8
0
  6
Continuous
 62
     7
370
    25
100
AcDbLine
 10
231.8489067667
 20
969.7266404863
 30
0.0
 11
230.4024859801
 21
969.7266404863
 31
0.0
  0
LINE
  5
171
330
1F
100
AcDbEntity
  8
0
  6
Continuous
 62
     7
370
    25
100
AcDbLine
 10
218.2489067667
 20
979.7266404863
 30
0.0
 11
217.7489067667
 21
979.7266404863
 31
0.0
  0
LINE
  5
172
330
1F
100
AcDbEntity
  8
0
  6
Continuous
 62
     7
370
    25
100
AcDbLine
 10
217.7489067667
 20
979.7266404863
 30
0.0
 11
217.7489067667
 21
969.7266404863
 31
0.0
  0
ARC
  5
173
330
1F
100
AcDbEntity
  8
0
  6
Continuous
 62
     7
370
    25
100
AcDbCircle
 10
644.685189914
 20
980.2266404859
 30
0.0
 40
0.5000000000001137
100
AcDbArc
 50
269.9999999989
 51
312.9156566547
  0
LINE
  5
174
330
1F
100
AcDbEntity
  8
0
  6
Continuous
 62
     7
370
    25
100
AcDbLine
 10
645.0256504232
 20
979.8604620571
 30
0.0
 11
645.025650423
 21
969.2266404859
 31
0.0
  0
LINE
  5
175
330
1F
100
AcDbEntity
  8
0
  6
Continuous
 62
     7
370
    25
100
AcDbLine
 10
642.7889067616
 20
967.2266404859
 30
0.0
 11
656.8089067616
 21
967.2266404857
 31
0.0
  0
LINE
  5
176
330
1F
100
AcDbEntity
  8
0
  6
Continuous
 62
     7
370
    25
100
AcDbLine
 10
645.025650423
 20
969.2266404859
 30
0.0
 11
642.7889067617
 21
969.2266404859
 31
0.0
  0
ARC
  5
177
330
1F
100
AcDbEntity
  8
0
  6
Continuous
 62
     7
370
    25
100
AcDbCircle
 10
649.7989067618
 20
974.7266404858
 30
0.0
 40
7.010000000000155
100
AcDbArc
 50
47.0843433431
 51
132.9156566547
  0
LINE
  5
178
330
1F
100
AcDbEntity
  8
0
  6
Continuous
 62
     7
370
    25
100
AcDbLine
 10
643.2489067619
 20
979.7266404859
 30
0.0
 11
644.685189914
 21
979.7266404859
 31
0.0
  0
LINE
  5
179
330
1F
100
AcDbEntity
  8
0
  6
Continuous
 62
     7
370
    25
100
AcDbLine
 10
644.1953275484
 20
969.7266404859
 30
0.0
 11
643.2489067617
 21
969.7266404859
 31
0.0
  0
SPLINE
  5
17A
330
1F
100
AcDbEntity
  8
0
  6
Continuous
 62
     7
370
    25
100
AcDbSpline
210
0.0
220
0.0
230
1.0
 70
    24
 71
     3
 72
    10
 73
     6
 74
     0
 42
0.000000001
 43
0.00000001
 40
0.0
 40
0.0
 40
0.0
 40
0.0
 40
0.3652495334839798
 40
0.7291325659328369
 40
1.0
 40
1.0
 40
1.0
 40
1.0
 10
642.7489067616759
 20
969.7266404859313
 30
0.0
 10
642.7489067616746
 20
969.7067774564683
 30
0.0
 10
642.7489067616716
 20
969.6671257107115
 30
0.0
 10
642.7489067616721
 20
969.4571758384
 30
0.0
 10
642.7489067616686
 20
969.4352523728554
 30
0.0
 10
642.7489067616672
 20
969.4258969597109
 30
0.0
  0
SPLINE
  5
17B
330
1F
100
AcDbEntity
  8
0
  6
Continuous
 62
     7
370
    25
100
AcDbSpline
210
0.0
220
0.0
230
1.0
 70
     8
 71
     3
 72
     9
 73
     5
 74
     0
 42
0.000000001
 43
0.00000001
 40
0.0
 40
0.0
 40
0.0
 40
0.0
 40
0.5169128699051141
 40
1.0
 40
1.0
 40
1.0
 40
1.0
 10
654.57216310034
 20
969.2266404857062
 30
0.0
 10
654.6209891309167
 20
969.2906739463867
 30
0.0
 10
654.7154461147127
 20
969.4145506467142
 30
0.0
 10
654.8483988577605
 20
969.5231510597033
 30
0.0
 10
654.9126266168377
 20
969.5756145215413
 30
0.0
  0
SPLINE
  5
17C
330
1F
100
AcDbEntity
  8
0
  6
Continuous
 62
     7
370
    25
100
AcDbSpline
210
0.0
220
0.0
230
1.0
 70
     8
 71
     3
 72
     9
 73
     5
 74
     0
 42
0.000000001
 43
0.00000001
 40
0.0
 40
0.0
 40
0.0
 40
0.0
 40
0.4866861859071973
 40
1.0
 40
1.0
 40
1.0
 40
1.0
 10
655.4024859750003
 20
969.7266404856902
 30
0.0
 10
655.3173210825333
 20
969.7208889952791
 30
0.0
 10
655.1423317466267
 20
969.7090713382802
 30
0.0
 10
654.9905400697487
 20
969.6208854381101
 30
0.0
 10
654.9126233051428
 20
969.5756183973446
 30
0.0
  0
SPLINE
  5
17D
330
1F
100
AcDbEntity
  8
0
  6
Continuous
 62
     7
370
    25
100
AcDbSpline
210
0.0
220
0.0
230
1.0
 70
    24
 71
     3
 72
    10
 73
     6
 74
     0
 42
0.000000001
 43
0.00000001
 40
0.0
 40
0.0
 40
0.0
 40
0.0
 40
0.0254894080963473
 40
0.7267152624663018
 40
1.0
 40
1.0
 40
1.0
 40
1.0
 10
656.8489067616699
 20
969.4266366457454
 30
0.0
 10
656.8489067616698
 20
969.4254342270849
 30
0.0
 10
656.848906761669
 20
969.3911526937868
 30
0.0
 10
656.8489067616748
 20
969.6831091209772
 30
0.0
 10
656.8489067616755
 20
969.7171065041739
 30
0.0
 10
656.8489067616757
 20
969.7266404856626
 30
0.0
  0
ARC
  5
17E
330
1F
100
AcDbEntity
  8
0
  6
Continuous
 62
     7
370
    25
100
AcDbCircle
 10
654.9126236097
 20
980.2266404857
 30
0.0
 40
0.5000000000001137
100
AcDbArc
 50
227.0843433431
 51
269.9999999989
  0
LINE
  5
17F
330
1F
100
AcDbEntity
  8
0
  6
Continuous
 62
     7
370
    25
100
AcDbLine
 10
654.9126236097
 20
979.7266404857
 30
0.0
 11
656.8489067619
 21
979.7266404857
 31
0.0
  0
LINE
  5
180
330
1F
100
AcDbEntity
  8
0
  6
Continuous
 62
     7
370
    25
100
AcDbLine
 10
656.8489067619
 20
979.7266404857
 30
0.0
 11
656.8489067617
 21
969.7266404857
 31
0.0
  0
LINE
  5
181
330
1F
100
AcDbEntity
  8
0
  6
Continuous
 62
     7
370
    25
100
AcDbLine
 10
656.8489067617
 20
969.7266404857
 30
0.0
 11
655.402485975
 21
969.7266404857
 31
0.0
  0
LINE
  5
182
330
1F
100
AcDbEntity
  8
0
  6
Continuous
 62
     7
370
    25
100
AcDbLine
 10
643.2489067619
 20
979.7266404859
 30
0.0
 11
642.7489067619
 21
979.7266404859
 31
0.0
  0
LINE
  5
183
330
1F
100
AcDbEntity
  8
0
  6
Continuous
 62
     7
370
    25
100
AcDbLine
 10
642.7489067619
 20
979.7266404859
 30
0.0
 11
642.7489067617
 21
969.7266404859
 31
0.0
  0
LINE
  5
184
330
1F
100
AcDbEntity
  8
0
  6
Continuous
 62
     7
370
    25
100
AcDbLine
 10
215.2989067667
 20
959.4766404863
 30
0.0
 11
234.2989067667
 21
959.4766404863
 31
0.0
  0
LINE
  5
185
330
1F
100
AcDbEntity
  8
0
  6
Continuous
 62
     7
370
    25
100
AcDbLine
 10
215.7989067667
 20
960.2266404863
 30
0.0
 11
233.7989067667
 21
960.2266404863
 31
0.0
  0
LINE
  5
186
330
1F
100
AcDbEntity
  8
0
  6
Continuous
 62
     7
370
    25
100
AcDbLine
 10
234.2989067667
 20
954.9766404863
 30
0.0
 11
215.2989067667
 21
954.9766404863
 31
0.0
  0
LINE
  5
187
330
1F
100
AcDbEntity
  8
0
  6
Continuous
 62
     7
370
    25
100
AcDbLine
 10
233.7989067667
 20
955.7266404863
 30
0.0
 11
215.7989067667
 21
955.7266404863
 31
0.0
  0
LINE
  5
188
330
1F
100
AcDbEntity
  8
0
  6
Continuous
 62
     7
370
    25
100
AcDbLine
 10
234.2989067667
 20
957.9766404863
 30
0.0
 11
215.2989067667
 21
957.9766404863
 31
0.0
  0
LINE
  5
189
330
1F
100
AcDbEntity
  8
0
  6
Continuous
 62
     7
370
    25
100
AcDbLine
 10
215.7989067667
 20
958.7266404863
 30
0.0
 11
233.7989067667
 21
958.7266404863
 31
0.0
  0
LINE
  5
18A
330
1F
100
AcDbEntity
  8
0
  6
Continuous
 62
     7
370
    25
100
AcDbLine
 10
215.7989067667
 20
961.7266404863
 30
0.0
 11
233.7989067667
 21
961.7266404863
 31
0.0
  0
LINE
  5
18B
330
1F
100
AcDbEntity
  8
0
  6
Continuous
 62
     7
370
    25
100
AcDbLine
 10
215.2989067667
 20
962.4766404863
 30
0.0
 11
234.2989067667
 21
962.4766404863
 31
0.0
  0
LINE
  5
18C
330
1F
100
AcDbEntity
  8
0
  6
Continuous
 62
     7
370
    25
100
AcDbLine
 10
215.4655734334
 20
962.7266404863
 30
0.0
 11
234.1322401001
 21
962.7266404863
 31
0.0
  0
LINE
  5
18D
330
1F
100
AcDbEntity
  8
0
  6
Continuous
 62
     7
370
    25
100
AcDbLine
 10
234.2989067667
 20
956.4766404863
 30
0.0
 11
215.2989067667
 21
956.4766404863
 31
0.0
  0
LINE
  5
18E
330
1F
100
AcDbEntity
  8
0
  6
Continuous
 62
     7
370
    25
100
AcDbLine
 10
233.7989067667
 20
957.2266404863
 30
0.0
 11
215.7989067667
 21
957.2266404863
 31
0.0
  0
LINE
  5
18F
330
1F
100
AcDbEntity
  8
0
  6
Continuous
 62
     7
370
    25
100
AcDbLine
 10
215.2989067667
 20
960.9766404863
 30
0.0
 11
234.2989067667
 21
960.9766404863
 31
0.0
  0
LINE
  5
190
330
1F
100
AcDbEntity
  8
0
  6
Continuous
 62
     7
370
    25
100
AcDbLine
 10
217.7989067667
 20
968.7266404863
 30
0.0
 11
231.7989067667
 21
968.7266404863
 31
0.0
  0
LINE
  5
191
330
1F
100
AcDbEntity
  8
0
  6
Continuous
 62
     7
370
    25
100
AcDbLine
 10
659.2989067615
 20
957.9766404856
 30
0.0
 11
640.2989067615
 21
957.976640486
 31
0.0
  0
LINE
  5
192
330
1F
100
AcDbEntity
  8
0
  6
Continuous
 62
     7
370
    25
100
AcDbLine
 10
640.7989067615
 20
958.726640486
 30
0.0
 11
658.7989067615
 21
958.7266404856
 31
0.0
  0
LINE
  5
193
330
1F
100
AcDbEntity
  8
0
  6
Continuous
 62
     7
370
    25
100
AcDbLine
 10
640.2989067615
 20
962.476640486
 30
0.0
 11
659.2989067615
 21
962.4766404856
 31
0.0
  0
LINE
  5
194
330
1F
100
AcDbEntity
  8
0
  6
Continuous
 62
     7
370
    25
100
AcDbLine
 10
640.4655734282
 20
962.726640486
 30
0.0
 11
659.1322400949
 21
962.7266404856
 31
0.0
  0
LINE
  5
195
330
1F
100
AcDbEntity
  8
0
  6
Continuous
 62
     7
370
    25
100
AcDbLine
 10
658.7989067614
 20
955.7266404856
 30
0.0
 11
640.7989067614
 21
955.726640486
 31
0.0
  0
LINE
  5
196
330
1F
100
AcDbEntity
  8
0
  6
Continuous
 62
     7
370
    25
100
AcDbLine
 10
659.2989067614
 20
956.4766404856
 30
0.0
 11
640.2989067614
 21
956.476640486
 31
0.0
  0
LINE
  5
197
330
1F
100
AcDbEntity
  8
0
  6
Continuous
 62
     7
370
    25
100
AcDbLine
 10
659.2989067614
 20
954.9766404856
 30
0.0
 11
640.2989067614
 21
954.976640486
 31
0.0
  0
LINE
  5
198
330
1F
100
AcDbEntity
  8
0
  6
Continuous
 62
     7
370
    25
100
AcDbLine
 10
640.2989067615
 20
959.476640486
 30
0.0
 11
659.2989067615
 21
959.4766404856
 31
0.0
  0
LINE
  5
199
330
1F
100
AcDbEntity
  8
0
  6
Continuous
 62
     7
370
    25
100
AcDbLine
 10
640.7989067615
 20
960.226640486
 30
0.0
 11
658.7989067615
 21
960.2266404856
 31
0.0
  0
LINE
  5
19A
330
1F
100
AcDbEntity
  8
0
  6
Continuous
 62
     7
370
    25
100
AcDbLine
 10
658.7989067614
 20
957.2266404856
 30
0.0
 11
640.7989067614
 21
957.226640486
 31
0.0
  0
LINE
  5
19B
330
1F
100
AcDbEntity
  8
0
  6
Continuous
 62
     7
370
    25
100
AcDbLine
 10
640.7989067615
 20
961.726640486
 30
0.0
 11
658.7989067615
 21
961.7266404856
 31
0.0
  0
LINE
  5
19C
330
1F
100
AcDbEntity
  8
0
  6
Continuous
 62
     7
370
    25
100
AcDbLine
 10
640.2989067615
 20
960.976640486
 30
0.0
 11
659.2989067615
 21
960.9766404856
 31
0.0
  0
LINE
  5
19D
330
1F
100
AcDbEntity
  8
0
  6
Continuous
 62
     7
370
    25
100
AcDbLine
 10
642.7989067617
 20
968.7266404859
 30
0.0
 11
656.7989067617
 21
968.7266404857
 31
0.0
  0
LINE
  5
19E
330
1F
100
AcDbEntity
  8
0
  6
Continuous
 62
     7
370
    25
100
AcDbLine
 10
637.0972008389
 20
939.726640486
 30
0.0
 11
637.0972008392
 21
954.726640486
 31
0.0
  0
LINE
  5
19F
330
1F
100
AcDbEntity
  8
0
  6
Continuous
 62
     7
370
    25
100
AcDbLine
 10
643.4480538003
 20
954.7266404859
 30
0.0
 11
637.0972008392
 21
954.726640486
 31
0.0
  0
LINE
  5
1A0
330
1F
100
AcDbEntity
  8
0
  6
Continuous
 62
     7
370
    25
100
AcDbLine
 10
643.4480538
 20
939.7266404859
 30
0.0
 11
643.4480538003
 21
954.7266404859
 31
0.0
  0
LINE
  5
1A1
330
1F
100
AcDbEntity
  8
0
  6
Continuous
 62
     7
370
    25
100
AcDbLine
 10
637.0972008389
 20
939.726640486
 30
0.0
 11
643.4480538
 21
939.7266404859
 31
0.0
  0
LINE
  5
1A2
330
1F
100
AcDbEntity
  8
0
  6
Continuous
 62
     7
370
    25
100
AcDbLine
 10
656.1497597222
 20
939.7266404857
 30
0.0
 11
656.1497597225
 21
954.7266404857
 31
0.0
  0
LINE
  5
1A3
330
1F
100
AcDbEntity
  8
0
  6
Continuous
 62
     7
370
    25
100
AcDbLine
 10
662.5006126836
 20
954.7266404856
 30
0.0
 11
656.1497597225
 21
954.7266404857
 31
0.0
  0
LINE
  5
1A4
330
1F
100
AcDbEntity
  8
0
  6
Continuous
 62
     7
370
    25
100
AcDbLine
 10
662.5006126833
 20
939.7266404856
 30
0.0
 11
662.5006126836
 21
954.7266404856
 31
0.0
  0
LINE
  5
1A5
330
1F
100
AcDbEntity
  8
0
  6
Continuous
 62
     7
370
    25
100
AcDbLine
 10
656.1497597222
 20
939.7266404857
 30
0.0
 11
662.5006126833
 21
939.7266404856
 31
0.0
  0
LINE
  5
1A6
330
1F
100
AcDbEntity
  8
0
  6
Continuous
 62
     7
370
    25
100
AcDbLine
 10
643.4480538
 20
939.7266404859
 30
0.0
 11
656.1497597222
 21
939.7266404857
 31
0.0
  0
LINE
  5
1A7
330
1F
100
AcDbEntity
  8
0
  6
Continuous
 62
     7
370
    25
100
AcDbLine
 10
656.1497597225
 20
954.7266404857
 30
0.0
 11
643.4480538003
 21
954.7266404859
 31
0.0
  0
LINE
  5
1A8
330
1F
100
AcDbEntity
  8
0
  6
Continuous
 62
     7
370
    25
100
AcDbLine
 10
231.1497597278
 20
939.7266404863
 30
0.0
 11
231.1497597278
 21
954.7266404863
 31
0.0
  0
LINE
  5
1A9
330
1F
100
AcDbEntity
  8
0
  6
Continuous
 62
     7
370
    25
100
AcDbLine
 10
237.5006126889
 20
939.7266404863
 30
0.0
 11
237.5006126889
 21
954.7266404863
 31
0.0
  0
LINE
  5
1AA
330
1F
100
AcDbEntity
  8
0
  6
Continuous
 62
     7
370
    25
100
AcDbLine
 10
231.1497597278
 20
939.7266404863
 30
0.0
 11
237.5006126889
 21
939.7266404863
 31
0.0
  0
LINE
  5
1AB
330
1F
100
AcDbEntity
  8
0
  6
Continuous
 62
     7
370
    25
100
AcDbLine
 10
237.5006126889
 20
954.7266404863
 30
0.0
 11
231.1497597278
 21
954.7266404863
 31
0.0
  0
LINE
  5
1AC
330
1F
100
AcDbEntity
  8
0
  6
Continuous
 62
     7
370
    25
100
AcDbLine
 10
218.4480538056
 20
939.7266404863
 30
0.0
 11
218.4480538056
 21
954.7266404863
 31
0.0
  0
LINE
  5
1AD
330
1F
100
AcDbEntity
  8
0
  6
Continuous
 62
     7
370
    25
100
AcDbLine
 10
218.4480538056
 20
939.7266404863
 30
0.0
 11
231.1497597278
 21
939.7266404863
 31
0.0
  0
LINE
  5
1AE
330
1F
100
AcDbEntity
  8
0
  6
Continuous
 62
     7
370
    25
100
AcDbLine
 10
231.1497597278
 20
954.7266404863
 30
0.0
 11
218.4480538056
 21
954.7266404863
 31
0.0
  0
LINE
  5
1AF
330
1F
100
AcDbEntity
  8
0
  6
Continuous
 62
     7
370
    25
100
AcDbLine
 10
212.0972008446
 20
939.7266404863
 30
0.0
 11
212.0972008446
 21
954.7266404863
 31
0.0
  0
LINE
  5
1B0
330
1F
100
AcDbEntity
  8
0
  6
Continuous
 62
     7
370
    25
100
AcDbLine
 10
212.0972008446
 20
939.7266404863
 30
0.0
 11
218.4480538056
 21
939.7266404863
 31
0.0
  0
LINE
  5
1B1
330
1F
100
AcDbEntity
  8
0
  6
Continuous
 62
     7
370
    25
100
AcDbLine
 10
218.4480538056
 20
954.7266404863
 30
0.0
 11
212.0972008446
 21
954.7266404863
 31
0.0
  0
ARC
  5
1B2
330
1F
100
AcDbEntity
  8
0
  6
Continuous
 62
     7
370
    25
100
AcDbCircle
 10
224.7989067667
 20
974.7266404863
 30
0.0
 40
9.33333333333303
100
AcDbArc
 50
0.0
 51
221.3167262385
  0
ARC
  5
1B3
330
1F
100
AcDbEntity
  8
0
  6
Continuous
 62
     7
370
    25
100
AcDbCircle
 10
224.7989067667
 20
974.7266404863
 30
0.0
 40
9.33333333333303
100
AcDbArc
 50
318.6832737615
 51
0.0
  0
ARC
  5
1B4
330
1F
100
AcDbEntity
  8
0
  6
Continuous
 62
     7
370
    25
100
AcDbCircle
 10
224.7989067667
 20
974.7266404863
 30
0.0
 40
9.500000000000114
100
AcDbArc
 50
90.0
 51
222.4476130975
  0
ARC
  5
1B5
330
1F
100
AcDbEntity
  8
0
  6
Continuous
 62
     7
370
    25
100
AcDbCircle
 10
224.7989067667
 20
974.7266404863
 30
0.0
 40
9.500000000000114
100
AcDbArc
 50
317.5523869025
 51
90.0
  0
LINE
  5
1B6
330
1F
100
AcDbEntity
  8
0
  6
Continuous
 62
     7
370
    25
100
AcDbLine
 10
212.0972008446
 20
974.7266404863
 30
0.0
 11
218.4480538056
 21
985.7266404863
 31
0.0
  0
LINE
  5
1B7
330
1F
100
AcDbEntity
  8
0
  6
Continuous
 62
     7
370
    25
100
AcDbLine
 10
218.4480538056
 20
985.7266404863
 30
0.0
 11
231.1497597278
 21
985.7266404863
 31
0.0
  0
LINE
  5
1B8
330
1F
100
AcDbEntity
  8
0
  6
Continuous
 62
     7
370
    25
100
AcDbLine
 10
237.5006126889
 20
974.7266404863
 30
0.0
 11
231.7989067667
 21
964.8509961392
 31
0.0
  0
LINE
  5
1B9
330
1F
100
AcDbEntity
  8
0
  6
Continuous
 62
     7
370
    25
100
AcDbLine
 10
231.1497597278
 20
985.7266404863
 30
0.0
 11
237.5006126889
 21
974.7266404863
 31
0.0
  0
LINE
  5
1BA
330
1F
100
AcDbEntity
  8
0
  6
Continuous
 62
     7
370
    25
100
AcDbLine
 10
217.7989067667
 20
964.8509961392
 30
0.0
 11
212.0972008446
 21
974.7266404863
 31
0.0
  0
ARC
  5
1BB
330
1F
100
AcDbEntity
  8
0
  6
Continuous
 62
     7
370
    25
100
AcDbCircle
 10
649.7989067618
 20
974.7266404858
 30
0.0
 40
9.33333333333303
100
AcDbArc
 50
359.9999999989
 51
221.3167262374
  0
ARC
  5
1BC
330
1F
100
AcDbEntity
  8
0
  6
Continuous
 62
     7
370
    25
100
AcDbCircle
 10
649.7989067618
 20
974.7266404858
 30
0.0
 40
9.33333333333303
100
AcDbArc
 50
318.6832737604
 51
359.9999999989
  0
ARC
  5
1BD
330
1F
100
AcDbEntity
  8
0
  6
Continuous
 62
     7
370
    25
100
AcDbCircle
 10
649.7989067618
 20
974.7266404858
 30
0.0
 40
9.500000000000114
100
AcDbArc
 50
89.9999999989
 51
222.4476130964
  0
ARC
  5
1BE
330
1F
100
AcDbEntity
  8
0
  6
Continuous
 62
     7
370
    25
100
AcDbCircle
 10
649.7989067618
 20
974.7266404858
 30
0.0
 40
9.500000000000114
100
AcDbArc
 50
317.5523869014
 51
89.9999999989
  0
LINE
  5
1BF
330
1F
100
AcDbEntity
  8
0
  6
Continuous
 62
     7
370
    25
100
AcDbLine
 10
637.0972008396
 20
974.726640486
 30
0.0
 11
643.4480538009
 21
985.7266404859
 31
0.0
  0
LINE
  5
1C0
330
1F
100
AcDbEntity
  8
0
  6
Continuous
 62
     7
370
    25
100
AcDbLine
 10
643.4480538009
 20
985.7266404859
 30
0.0
 11
656.1497597231
 21
985.7266404857
 31
0.0
  0
LINE
  5
1C1
330
1F
100
AcDbEntity
  8
0
  6
Continuous
 62
     7
370
    25
100
AcDbLine
 10
662.5006126839
 20
974.7266404856
 30
0.0
 11
656.7989067616
 21
964.8509961386
 31
0.0
  0
LINE
  5
1C2
330
1F
100
AcDbEntity
  8
0
  6
Continuous
 62
     7
370
    25
100
AcDbLine
 10
642.7989067616
 20
964.8509961389
 30
0.0
 11
637.0972008396
 21
974.726640486
 31
0.0
  0
LINE
  5
1C3
330
1F
100
AcDbEntity
  8
0
  6
Continuous
 62
     7
370
    25
100
AcDbLine
 10
656.1497597231
 20
985.7266404857
 30
0.0
 11
662.5006126839
 21
974.7266404856
 31
0.0
  0
LINE
  5
1C4
330
1F
100
AcDbEntity
  8
0
  6
Continuous
 62
     7
370
    25
100
AcDbLine
 10
278.7989067618
 20
938.7266404858
 30
0.0
 11
278.7989067618
 21
939.9766404858
 31
0.0
  0
LINE
  5
1C5
330
1F
100
AcDbEntity
  8
0
  6
Continuous
 62
     7
370
    25
100
AcDbLine
 10
238.7989067618
 20
939.9766404858
 30
0.0
 11
238.7989067618
 21
938.7266404858
 31
0.0
  0
LINE
  5
1C6
330
1F
100
AcDbEntity
  8
0
  6
Continuous
 62
     7
370
    25
100
AcDbLine
 10
238.7989067618
 20
939.9766404858
 30
0.0
 11
238.7989067618
 21
949.7266404858
 31
0.0
  0
ARC
  5
1C7
330
1F
100
AcDbEntity
  8
0
  6
Continuous
 62
     7
370
    25
100
AcDbCircle
 10
236.7989067618
 20
949.7266404858
 30
0.0
 40
2.0
100
AcDbArc
 50
0.0
 51
69.4605049534
  0
ARC
  5
1C8
330
1F
100
AcDbEntity
  8
0
  6
Continuous
 62
     7
370
    25
100
AcDbCircle
 10
222.7989067618
 20
961.7266404858
 30
0.0
 40
10.00000000000017
100
AcDbArc
 50
180.0
 51
221.855196222
  0
LINE
  5
1C9
330
1F
100
AcDbEntity
  8
0
  6
Continuous
 62
     7
370
    25
100
AcDbLine
 10
212.7989067618
 20
961.7266404858
 30
0.0
 11
212.7989067618
 21
973.5112501857
 31
0.0
  0
LINE
  5
1CA
330
1F
100
AcDbEntity
  8
0
  6
Continuous
 62
     7
370
    25
100
AcDbLine
 10
212.7989067618
 20
975.9420307868
 30
0.0
 11
212.7989067618
 21
976.7266404858
 31
0.0
  0
ARC
  5
1CB
330
1F
100
AcDbEntity
  8
0
  6
Continuous
 62
     7
370
    25
100
AcDbCircle
 10
222.7989067618
 20
976.7266404858
 30
0.0
 40
10.00000000000003
100
AcDbArc
 50
90.0
 51
180.0
  0
LINE
  5
1CC
330
1F
100
AcDbEntity
  8
0
  6
Continuous
 62
     7
370
    25
100
AcDbLine
 10
222.7989067618
 20
986.7266404858
 30
0.0
 11
243.7989067618
 21
986.7266404858
 31
0.0
  0
ARC
  5
1CD
330
1F
100
AcDbEntity
  8
0
  6
Continuous
 62
     7
370
    25
100
AcDbCircle
 10
243.7989067618
 20
976.7266404858
 30
0.0
 40
10.00000000000003
100
AcDbArc
 50
360.0
 51
90.0
  0
LINE
  5
1CE
330
1F
100
AcDbEntity
  8
0
  6
Continuous
 62
     7
370
    25
100
AcDbLine
 10
253.7989067618
 20
976.7266404858
 30
0.0
 11
253.7989067618
 21
973.7266404858
 31
0.0
  0
ARC
  5
1CF
330
1F
100
AcDbEntity
  8
0
  6
Continuous
 62
     7
370
    25
100
AcDbCircle
 10
255.7989067618
 20
973.7266404858
 30
0.0
 40
2.0
100
AcDbArc
 50
180.0
 51
270.0
  0
LINE
  5
1D0
330
1F
100
AcDbEntity
  8
0
  6
Continuous
 62
     7
370
    25
100
AcDbLine
 10
255.7989067618
 20
971.7266404858
 30
0.0
 11
268.7989067618
 21
971.7266404858
 31
0.0
  0
ARC
  5
1D1
330
1F
100
AcDbEntity
  8
0
  6
Continuous
 62
     7
370
    25
100
AcDbCircle
 10
268.7989067618
 20
961.7266404858
 30
0.0
 40
10.0
100
AcDbArc
 50
360.0
 51
90.0
  0
LINE
  5
1D2
330
1F
100
AcDbEntity
  8
0
  6
Continuous
 62
     7
370
    25
100
AcDbLine
 10
278.7989067618
 20
961.7266404858
 30
0.0
 11
278.7989067618
 21
939.9766404858
 31
0.0
  0
ARC
  5
1D3
330
1F
100
AcDbEntity
  8
0
  6
Continuous
 62
     7
370
    25
100
AcDbCircle
 10
605.7989067618
 20
961.7266404858
 30
0.0
 40
10.0
100
AcDbArc
 50
90.0
 51
180.0
  0
LINE
  5
1D4
330
1F
100
AcDbEntity
  8
0
  6
Continuous
 62
     7
370
    25
100
AcDbLine
 10
618.7989067618
 20
971.7266404858
 30
0.0
 11
605.7989067618
 21
971.7266404858
 31
0.0
  0
ARC
  5
1D5
330
1F
100
AcDbEntity
  8
0
  6
Continuous
 62
     7
370
    25
100
AcDbCircle
 10
618.7989067618
 20
973.7266404858
 30
0.0
 40
2.0
100
AcDbArc
 50
270.0
 51
0.0
  0
LINE
  5
1D6
330
1F
100
AcDbEntity
  8
0
  6
Continuous
 62
     7
370
    25
100
AcDbLine
 10
620.7989067618
 20
976.7266404858
 30
0.0
 11
620.7989067618
 21
973.7266404858
 31
0.0
  0
ARC
  5
1D7
330
1F
100
AcDbEntity
  8
0
  6
Continuous
 62
     7
370
    25
100
AcDbCircle
 10
630.7989067618
 20
976.7266404858
 30
0.0
 40
10.0
100
AcDbArc
 50
90.0
 51
180.0
  0
LINE
  5
1D8
330
1F
100
AcDbEntity
  8
0
  6
Continuous
 62
     7
370
    25
100
AcDbLine
 10
651.7989067618
 20
986.7266404858
 30
0.0
 11
630.7989067618
 21
986.7266404858
 31
0.0
  0
ARC
  5
1D9
330
1F
100
AcDbEntity
  8
0
  6
Continuous
 62
     7
370
    25
100
AcDbCircle
 10
651.7989067618
 20
976.7266404858
 30
0.0
 40
10.0
100
AcDbArc
 50
0.0
 51
90.0
  0
LINE
  5
1DA
330
1F
100
AcDbEntity
  8
0
  6
Continuous
 62
     7
370
    25
100
AcDbLine
 10
661.7989067618
 20
961.7266404858
 30
0.0
 11
661.7989067618
 21
973.5112501764
 31
0.0
  0
LINE
  5
1DB
330
1F
100
AcDbEntity
  8
0
  6
Continuous
 62
     7
370
    25
100
AcDbLine
 10
661.7989067618
 20
975.9420307948
 30
0.0
 11
661.7989067618
 21
976.7266404858
 31
0.0
  0
ARC
  5
1DC
330
1F
100
AcDbEntity
  8
0
  6
Continuous
 62
     7
370
    25
100
AcDbCircle
 10
651.7989067618
 20
961.7266404858
 30
0.0
 40
10.00000000000011
100
AcDbArc
 50
317.5458497955
 51
0.0
  0
ARC
  5
1DD
330
1F
100
AcDbEntity
  8
0
  6
Continuous
 62
     7
370
    25
100
AcDbCircle
 10
637.7989067618
 20
949.7266404858
 30
0.0
 40
2.000000000000123
100
AcDbArc
 50
110.5394948946
 51
180.0
  0
LINE
  5
1DE
330
1F
100
AcDbEntity
  8
0
  6
Continuous
 62
     7
370
    25
100
AcDbLine
 10
635.7989067618
 20
939.9766404858
 30
0.0
 11
635.7989067618
 21
949.7266404858
 31
0.0
  0
LINE
  5
1DF
330
1F
100
AcDbEntity
  8
0
  6
Continuous
 62
     7
370
    25
100
AcDbLine
 10
595.7989067618
 20
961.7266404858
 30
0.0
 11
595.7989067618
 21
939.9766404858
 31
0.0
  0
LINE
  5
1E0
330
1F
100
AcDbEntity
  8
0
  6
Continuous
 62
     7
370
    25
100
AcDbLine
 10
595.7989067618
 20
938.7266404858
 30
0.0
 11
595.7989067618
 21
939.9766404858
 31
0.0
  0
LINE
  5
1E1
330
1F
100
AcDbEntity
  8
0
  6
Continuous
 62
     7
370
    25
100
AcDbLine
 10
635.7989067618
 20
939.9766404858
 30
0.0
 11
635.7989067618
 21
938.7266404858
 31
0.0
  0
ARC
  5
1E2
330
1F
100
AcDbEntity
  8
0
  6
Continuous
 62
     7
370
    25
100
AcDbCircle
 10
232.2989067618
 20
916.3266404858
 30
0.0
 40
4.999999999999984
100
AcDbArc
 50
273.5546181404
 51
293.5781784782
  0
ARC
  5
1E3
330
1F
100
AcDbEntity
  8
0
  6
Continuous
 62
     7
370
    25
100
AcDbCircle
 10
642.2989067618
 20
916.3266404858
 30
0.0
 40
5.000000000000087
100
AcDbArc
 50
246.4218215218
 51
266.4453818597
  0
CIRCLE
  5
1E4
330
1F
100
AcDbEntity
  8
0
  6
Continuous
 62
     7
370
    25
100
AcDbCircle
 10
437.2989067618
 20
586.4766404904
 30
0.0
 40
19.0
  0
LINE
  5
1E5
330
1F
100
AcDbEntity
  8
0
  6
Continuous
 62
     7
370
    25
100
AcDbLine
 10
240.7989067618
 20
803.7766404904
 30
0.0
 11
263.4989067618
 21
803.7766404904
 31
0.0
  0
ARC
  5
1E6
330
1F
100
AcDbEntity
  8
0
  6
Continuous
 62
     7
370
    25
100
AcDbCircle
 10
263.4989067618
 20
808.7766404904
 30
0.0
 40
5.0
100
AcDbArc
 50
270.0
 51
0.0
  0
LINE
  5
1E7
330
1F
100
AcDbEntity
  8
0
  6
Continuous
 62
     7
370
    25
100
AcDbLine
 10
268.4989067618
 20
808.7766404904
 30
0.0
 11
268.4989067618
 21
826.4221113674
 31
0.0
  0
LINE
  5
1E8
330
1F
100
AcDbEntity
  8
0
  6
Continuous
 62
     7
370
    25
100
AcDbLine
 10
268.4989067618
 20
842.9766091669
 30
0.0
 11
268.4989067618
 21
857.1065400205
 31
0.0
  0
ARC
  5
1E9
330
1F
100
AcDbEntity
  8
0
  6
Continuous
 62
     7
370
    25
100
AcDbCircle
 10
611.0989067618
 20
808.7766404904
 30
0.0
 40
5.0
100
AcDbArc
 50
180.0
 51
270.0
  0
LINE
  5
1EA
330
1F
100
AcDbEntity
  8
0
  6
Continuous
 62
     7
370
    25
100
AcDbLine
 10
611.0989067618
 20
803.7766404904
 30
0.0
 11
622.0840413187
 21
803.7766404904
 31
0.0
  0
LINE
  5
1EB
330
1F
100
AcDbEntity
  8
0
  6
Continuous
 62
     7
370
    25
100
AcDbLine
 10
560.2989067618
 20
294.4766404904
 30
0.0
 11
560.2989067618
 21
385.0945154564
 31
0.0
  0
ARC
  5
1EC
330
1F
100
AcDbEntity
  8
0
  6
Continuous
 62
     7
370
    25
100
AcDbCircle
 10
553.2167817277
 20
385.0945154564
 30
0.0
 40
7.082125034033538
100
AcDbArc
 50
0.0
 51
90.0
  0
LINE
  5
1ED
330
1F
100
AcDbEntity
  8
0
  6
Continuous
 62
     7
370
    25
100
AcDbLine
 10
553.2167817277
 20
392.1766404904
 30
0.0
 11
517.3810317958
 21
392.1766404904
 31
0.0
  0
ARC
  5
1EE
330
1F
100
AcDbEntity
  8
0
  6
Continuous
 62
     7
370
    25
100
AcDbCircle
 10
517.3810317958
 20
385.0945154564
 30
0.0
 40
7.082125034033538
100
AcDbArc
 50
90.0
 51
180.0
  0
LINE
  5
1EF
330
1F
100
AcDbEntity
  8
0
  6
Continuous
 62
     7
370
    25
100
AcDbLine
 10
510.2989067618
 20
385.0945154564
 30
0.0
 11
510.2989067618
 21
294.4766404904
 31
0.0
  0
LINE
  5
1F0
330
1F
100
AcDbEntity
  8
0
  6
Continuous
 62
     7
370
    25
100
AcDbLine
 10
364.2989067618
 20
294.4766404904
 30
0.0
 11
364.2989067618
 21
385.0945154564
 31
0.0
  0
ARC
  5
1F1
330
1F
100
AcDbEntity
  8
0
  6
Continuous
 62
     7
370
    25
100
AcDbCircle
 10
357.2167817277
 20
385.0945154564
 30
0.0
 40
7.082125034033538
100
AcDbArc
 50
0.0
 51
90.0
  0
LINE
  5
1F2
330
1F
100
AcDbEntity
  8
0
  6
Continuous
 62
     7
370
    25
100
AcDbLine
 10
357.2167817277
 20
392.1766404904
 30
0.0
 11
321.3810317958
 21
392.1766404904
 31
0.0
  0
ARC
  5
1F3
330
1F
100
AcDbEntity
  8
0
  6
Continuous
 62
     7
370
    25
100
AcDbCircle
 10
321.3810317958
 20
385.0945154564
 30
0.0
 40
7.082125034033538
100
AcDbArc
 50
90.0
 51
180.0
  0
LINE
  5
1F4
330
1F
100
AcDbEntity
  8
0
  6
Continuous
 62
     7
370
    25
100
AcDbLine
 10
314.2989067618
 20
385.0945154564
 30
0.0
 11
314.2989067618
 21
294.4766404904
 31
0.0
  0
LINE
  5
1F5
330
1F
100
AcDbEntity
  8
0
  6
Continuous
 62
     7
370
    25
100
AcDbLine
 10
606.0989067618
 20
857.1065400205
 30
0.0
 11
606.0989067618
 21
842.9766091669
 31
0.0
  0
LINE
  5
1F6
330
1F
100
AcDbEntity
  8
0
  6
Continuous
 62
     7
370
    25
100
AcDbLine
 10
606.0989067618
 20
826.4221113674
 30
0.0
 11
606.0989067618
 21
808.7766404904
 31
0.0
  0
LINE
  5
1F7
330
1F
100
AcDbEntity
  8
0
  6
Continuous
 62
     7
370
    25
100
AcDbLine
 10
636.0989067618
 20
293.0473511685
 30
0.0
 11
636.0989067618
 21
803.4287593551
 31
0.0
  0
SPLINE
  5
1F8
330
1F
100
AcDbEntity
  8
0
  6
Continuous
 62
     7
370
    25
100
AcDbSpline
210
0.0
220
0.0
230
1.0
 70
     8
 71
     3
 72
    12
 73
     8
 74
     0
 42
0.000000001
 43
0.00000001
 40
0.0
 40
0.0
 40
0.0
 40
0.0
 40
0.2110357103534772
 40
0.4419779523976729
 40
0.6729401676006034
 40
0.9039020363644933
 40
1.0
 40
1.0
 40
1.0
 40
1.0
 10
636.0989067617804
 20
293.0473511685363
 30
0.0
 10
636.0742614022637
 20
293.1478465793033
 30
0.0
 10
636.022645940989
 20
293.3583169106126
 30
0.0
 10
635.6019852459178
 20
293.6792338357482
 30
0.0
 10
634.9549783494044
 20
294.0093194400026
 30
0.0
 10
634.3064020017512
 20
294.2758437800636
 30
0.0
 10
633.9141575253796
 20
294.4310401135593
 30
0.0
 10
633.7989067617804
 20
294.4766404904177
 30
0.0
  0
SPLINE
  5
1F9
330
1F
100
AcDbEntity
  8
0
  6
Continuous
 62
     7
370
    25
100
AcDbSpline
210
0.0
220
0.0
230
1.0
 70
     8
 71
     3
 72
    12
 73
     8
 74
     0
 42
0.000000001
 43
0.00000001
 40
0.0
 40
0.0
 40
0.0
 40
0.0
 40
0.2110357103534281
 40
0.441977952397644
 40
0.6729401676005661
 40
0.9039020363644327
 40
1.0
 40
1.0
 40
1.0
 40
1.0
 10
240.7989067617804
 20
294.4766404904149
 30
0.0
 10
240.5449220984466
 20
294.3761450796479
 30
0.0
 10
240.0129949603681
 20
294.1656747483385
 30
0.0
 10
239.2938041815245
 20
293.8447578232033
 30
0.0
 10
238.7531500561929
 20
293.5146722189485
 30
0.0
 10
238.52215828768
 20
293.2481478788878
 30
0.0
 10
238.5041871189221
 20
293.0929515453919
 30
0.0
 10
238.4989067617804
 20
293.0473511685335
 30
0.0
  0
LINE
  5
1FA
330
1F
100
AcDbEntity
  8
0
  6
Continuous
 62
     7
370
    25
100
AcDbLine
 10
238.4989067618
 20
803.7766404904
 30
0.0
 11
238.4989067618
 21
293.0473511685
 31
0.0
  0
LINE
  5
1FB
330
1F
100
AcDbEntity
  8
0
  6
Continuous
 62
     7
370
    25
100
AcDbLine
 10
238.4989067618
 20
803.7766404904
 30
0.0
 11
240.7989067618
 21
803.7766404904
 31
0.0
  0
LINE
  5
1FC
330
1F
100
AcDbEntity
  8
0
  6
Continuous
 62
     7
370
    25
100
AcDbLine
 10
239.3696174399
 20
292.1766404904
 30
0.0
 11
314.2989067618
 21
292.1766404904
 31
0.0
  0
SPLINE
  5
1FD
330
1F
100
AcDbEntity
  8
0
  6
Continuous
 62
     7
370
    25
100
AcDbSpline
210
0.0
220
0.0
230
1.0
 70
     8
 71
     3
 72
    12
 73
     8
 74
     0
 42
0.000000001
 43
0.00000001
 40
0.0
 40
0.0
 40
0.0
 40
0.0
 40
0.2110357103534483
 40
0.4419779523976591
 40
0.6729401676005918
 40
0.9039020363644957
 40
0.9999999999999999
 40
0.9999999999999999
 40
0.9999999999999999
 40
0.9999999999999999
 10
239.3696174398991
 20
292.1766404904149
 30
0.0
 10
239.4701128506662
 20
292.2012858499317
 30
0.0
 10
239.6805831819755
 20
292.2529013112064
 30
0.0
 10
240.0015001071109
 20
292.6735620062775
 30
0.0
 10
240.3315857113653
 20
293.320568902791
 30
0.0
 10
240.5981100514266
 20
293.9691452504443
 30
0.0
 10
240.7533063849221
 20
294.3613897268158
 30
0.0
 10
240.7989067617804
 20
294.4766404904149
 30
0.0
  0
LINE
  5
1FE
330
1F
100
AcDbEntity
  8
0
  6
Continuous
 62
     7
370
    25
100
AcDbLine
 10
314.2989067618
 20
294.4766404904
 30
0.0
 11
314.2989067618
 21
292.1766404904
 31
0.0
  0
SPLINE
  5
1FF
330
1F
100
AcDbEntity
  8
0
  6
Continuous
 62
     7
370
    25
100
AcDbSpline
210
0.0
220
0.0
230
1.0
 70
     8
 71
     3
 72
    11
 73
     7
 74
     0
 42
0.000000001
 43
0.00000001
 40
0.0
 40
0.0
 40
0.0
 40
0.0
 40
0.2512855335125875
 40
0.5027688680338763
 40
0.7542528701594969
 40
1.0
 40
1.0
 40
1.0
 40
1.0
 10
240.7989067617804
 20
294.4766404904149
 30
0.0
 10
240.6013334998121
 20
294.3569146713331
 30
0.0
 10
240.2060314548236
 20
294.1173687902283
 30
0.0
 10
239.7083164770572
 20
293.758006600083
 30
0.0
 10
239.3648061028127
 20
293.4012508283215
 30
0.0
 10
239.3207035958866
 20
293.1644068485113
 30
0.0
 10
239.2989067617804
 20
293.0473511685335
 30
0.0
  0
LINE
  5
200
330
1F
100
AcDbEntity
  8
0
  6
Continuous
 62
     7
370
    25
100
AcDbLine
 10
238.4989067618
 20
293.0473511685
 30
0.0
 11
239.2989067618
 21
293.0473511685
 31
0.0
  0
LINE
  5
201
330
1F
100
AcDbEntity
  8
0
  6
Continuous
 62
     7
370
    25
100
AcDbLine
 10
364.2989067618
 20
292.1766404904
 30
0.0
 11
510.2989067618
 21
292.1766404904
 31
0.0
  0
LINE
  5
202
330
1F
100
AcDbEntity
  8
0
  6
Continuous
 62
     7
370
    25
100
AcDbLine
 10
364.2989067618
 20
292.1766404904
 30
0.0
 11
364.2989067618
 21
294.4766404904
 31
0.0
  0
LINE
  5
203
330
1F
100
AcDbEntity
  8
0
  6
Continuous
 62
     7
370
    25
100
AcDbLine
 10
510.2989067618
 20
294.4766404904
 30
0.0
 11
510.2989067618
 21
292.1766404904
 31
0.0
  0
LINE
  5
204
330
1F
100
AcDbEntity
  8
0
  6
Continuous
 62
     7
370
    25
100
AcDbLine
 10
636.0989067618
 20
293.0473511685
 30
0.0
 11
635.2989067618
 21
293.0473511685
 31
0.0
  0
SPLINE
  5
205
330
1F
100
AcDbEntity
  8
0
  6
Continuous
 62
     7
370
    25
100
AcDbSpline
210
0.0
220
0.0
230
1.0
 70
     8
 71
     3
 72
    11
 73
     7
 74
     0
 42
0.000000001
 43
0.00000001
 40
0.0
 40
0.0
 40
0.0
 40
0.0
 40
0.2512855335125321
 40
0.5027688680338003
 40
0.7542528701593545
 40
0.9999999999999999
 40
0.9999999999999999
 40
0.9999999999999999
 40
0.9999999999999999
 10
635.2989067617805
 20
293.0473511685363
 30
0.0
 10
635.2761201217955
 20
293.167076987618
 30
0.0
 10
635.2305289051772
 20
293.4066228687227
 30
0.0
 10
634.8799125193
 20
293.7659850588683
 30
0.0
 10
634.3829383483009
 20
294.1227408306296
 30
0.0
 10
633.9920807663261
 20
294.3595848104399
 30
0.0
 10
633.7989067617804
 20
294.4766404904177
 30
0.0
  0
LINE
  5
206
330
1F
100
AcDbEntity
  8
0
  6
Continuous
 62
     7
370
    25
100
AcDbLine
 10
239.3696174399
 20
292.1766404904
 30
0.0
 11
239.3696174399
 21
292.9766404904
 31
0.0
  0
SPLINE
  5
207
330
1F
100
AcDbEntity
  8
0
  6
Continuous
 62
     7
370
    25
100
AcDbSpline
210
0.0
220
0.0
230
1.0
 70
     8
 71
     3
 72
    11
 73
     7
 74
     0
 42
0.000000001
 43
0.00000001
 40
0.0
 40
0.0
 40
0.0
 40
0.0
 40
0.25128553351257
 40
0.5027688680338273
 40
0.7542528701593867
 40
1.0
 40
1.0
 40
1.0
 40
1.0
 10
239.3696174398991
 20
292.9766404904149
 30
0.0
 10
239.4893432589807
 20
292.9994271303997
 30
0.0
 10
239.7288891400855
 20
293.045018347018
 30
0.0
 10
240.0882513302311
 20
293.3956347328955
 30
0.0
 10
240.4450071019924
 20
293.8926089038946
 30
0.0
 10
240.6818510818027
 20
294.2834664858692
 30
0.0
 10
240.7989067617804
 20
294.4766404904149
 30
0.0
  0
SPLINE
  5
208
330
1F
100
AcDbEntity
  8
0
  6
Continuous
 62
     7
370
    25
100
AcDbSpline
210
0.0
220
0.0
230
1.0
 70
     8
 71
     3
 72
    12
 73
     8
 74
     0
 42
0.000000001
 43
0.00000001
 40
0.0
 40
0.0
 40
0.0
 40
0.0
 40
0.2110357103534781
 40
0.4419779523976848
 40
0.6729401676005857
 40
0.9039020363644688
 40
1.0
 40
1.0
 40
1.0
 40
1.0
 10
633.7989067617804
 20
294.4766404904177
 30
0.0
 10
633.8994021725475
 20
294.2226558270838
 30
0.0
 10
634.1098725038568
 20
293.6907286890053
 30
0.0
 10
634.4307894289923
 20
292.9715379101617
 30
0.0
 10
634.7608750332465
 20
292.4308837848303
 30
0.0
 10
635.0273993733076
 20
292.1998920163173
 30
0.0
 10
635.1825957068035
 20
292.1819208475594
 30
0.0
 10
635.2281960836618
 20
292.1766404904177
 30
0.0
  0
SPLINE
  5
209
330
1F
100
AcDbEntity
  8
0
  6
Continuous
 62
     7
370
    25
100
AcDbSpline
210
0.0
220
0.0
230
1.0
 70
     8
 71
     3
 72
    11
 73
     7
 74
     0
 42
0.000000001
 43
0.00000001
 40
0.0
 40
0.0
 40
0.0
 40
0.0
 40
0.2512855335125843
 40
0.5027688680338478
 40
0.7542528701594118
 40
1.0
 40
1.0
 40
1.0
 40
1.0
 10
633.7989067617804
 20
294.4766404904177
 30
0.0
 10
633.9186325808621
 20
294.2790672284494
 30
0.0
 10
634.1581784619669
 20
293.8837651834609
 30
0.0
 10
634.5175406521126
 20
293.3860502056947
 30
0.0
 10
634.8742964238738
 20
293.0425398314501
 30
0.0
 10
635.1111404036841
 20
292.9984373245238
 30
0.0
 10
635.2281960836618
 20
292.9766404904177
 30
0.0
  0
LINE
  5
20A
330
1F
100
AcDbEntity
  8
0
  6
Continuous
 62
     7
370
    25
100
AcDbLine
 10
635.2281960837
 20
292.1766404904
 30
0.0
 11
635.2281960837
 21
292.9766404904
 31
0.0
  0
LINE
  5
20B
330
1F
100
AcDbEntity
  8
0
  6
Continuous
 62
     7
370
    25
100
AcDbLine
 10
560.2989067618
 20
292.1766404904
 30
0.0
 11
635.2281960837
 21
292.1766404904
 31
0.0
  0
LINE
  5
20C
330
1F
100
AcDbEntity
  8
0
  6
Continuous
 62
     7
370
    25
100
AcDbLine
 10
560.2989067618
 20
292.1766404904
 30
0.0
 11
560.2989067618
 21
294.4766404904
 31
0.0
  0
LINE
  5
20D
330
1F
100
AcDbEntity
  8
0
  6
Continuous
 62
     7
370
    25
100
AcDbLine
 10
265.6989067618
 20
805.0384048903
 30
0.0
 11
265.6989067618
 21
804.2866516263
 31
0.0
  0
LINE
  5
20E
330
1F
100
AcDbEntity
  8
0
  6
Continuous
 62
     7
370
    25
100
AcDbLine
 10
265.6989067618
 20
805.0384048903
 30
0.0
 11
266.8193878411
 21
805.0384048903
 31
0.0
  0
LWPOLYLINE
  5
20F
330
1F
100
AcDbEntity
  8
0
  6
Continuous
 62
     7
370
    25
100
AcDbPolyline
 90
       17
 70
   128
 43
0.0
 10
532.1989067618
 20
229.4690483013
 10
531.2421981809
 20
229.3794141898
 10
530.4311398088
 20
229.1241578363
 10
529.8892079305
 20
228.7421397067
 10
529.6989067618
 20
228.2915185982
 10
529.8892079305
 20
227.8408974897
 10
530.4311398088
 20
227.4588793601
 10
531.2421981809
 20
227.2036230066
 10
532.1989067618
 20
227.1139888952
 10
533.1556153427
 20
227.2036230066
 10
533.9666737148
 20
227.4588793601
 10
534.5086055931
 20
227.8408974897
 10
534.6989067618
 20
228.2915185982
 10
534.5086055931
 20
228.7421397067
 10
533.9666737148
 20
229.1241578363
 10
533.1556153427
 20
229.3794141898
 10
532.1989067618
 20
229.4690483013
  0
LWPOLYLINE
  5
210
330
1F
100
AcDbEntity
  8
0
  6
Continuous
 62
     7
370
    25
100
AcDbPolyline
 90
       17
 70
   128
 43
0.0
 10
539.3989067618
 20
229.4690483013
 10
540.3556153427
 20
229.3794141898
 10
541.1666737148
 20
229.1241578363
 10
541.7086055931
 20
228.7421397067
 10
541.8989067618
 20
228.2915185982
 10
541.7086055931
 20
227.8408974897
 10
541.1666737148
 20
227.4588793601
 10
540.3556153427
 20
227.2036230066
 10
539.3989067618
 20
227.1139888952
 10
538.4421981809
 20
227.2036230066
 10
537.6311398088
 20
227.4588793601
 10
537.0892079305
 20
227.8408974897
 10
536.8989067618
 20
228.2915185982
 10
537.0892079305
 20
228.7421397067
 10
537.6311398088
 20
229.1241578363
 10
538.4421981809
 20
229.3794141898
 10
539.3989067618
 20
229.4690483013
  0
LWPOLYLINE
  5
211
330
1F
100
AcDbEntity
  8
0
  6
Continuous
 62
     7
370
    25
100
AcDbPolyline
 90
       17
 70
   128
 43
0.0
 10
335.1989067618
 20
229.4690483013
 10
334.2421981809
 20
229.3794141898
 10
333.4311398088
 20
229.1241578363
 10
332.8892079305
 20
228.7421397067
 10
332.6989067618
 20
228.2915185982
 10
332.8892079305
 20
227.8408974897
 10
333.4311398088
 20
227.4588793601
 10
334.2421981809
 20
227.2036230066
 10
335.1989067618
 20
227.1139888952
 10
336.1556153427
 20
227.2036230066
 10
336.9666737147
 20
227.4588793601
 10
337.5086055931
 20
227.8408974897
 10
337.6989067618
 20
228.2915185982
 10
337.5086055931
 20
228.7421397067
 10
336.9666737147
 20
229.1241578363
 10
336.1556153427
 20
229.3794141898
 10
335.1989067618
 20
229.4690483013
  0
LWPOLYLINE
  5
212
330
1F
100
AcDbEntity
  8
0
  6
Continuous
 62
     7
370
    25
100
AcDbPolyline
 90
       17
 70
   128
 43
0.0
 10
342.3989067618
 20
229.4690483013
 10
343.3556153427
 20
229.3794141898
 10
344.1666737147
 20
229.1241578363
 10
344.7086055931
 20
228.7421397067
 10
344.8989067618
 20
228.2915185982
 10
344.7086055931
 20
227.8408974897
 10
344.1666737147
 20
227.4588793601
 10
343.3556153427
 20
227.2036230066
 10
342.3989067618
 20
227.1139888952
 10
341.4421981809
 20
227.2036230066
 10
340.6311398088
 20
227.4588793601
 10
340.0892079305
 20
227.8408974897
 10
339.8989067618
 20
228.2915185982
 10
340.0892079305
 20
228.7421397067
 10
340.6311398088
 20
229.1241578363
 10
341.4421981809
 20
229.3794141898
 10
342.3989067618
 20
229.4690483013
  0
LINE
  5
213
330
1F
100
AcDbEntity
  8
0
  6
Continuous
 62
     7
370
    25
100
AcDbLine
 10
662.2989067618
 20
938.7266404858
 30
0.0
 11
212.2989067618
 21
938.7266404858
 31
0.0
  0
LINE
  5
214
330
1F
100
AcDbEntity
  8
0
  6
Continuous
 62
     7
370
    25
100
AcDbLine
 10
662.2989067618
 20
938.7266404858
 30
0.0
 11
662.2989067618
 21
936.1460614433
 31
0.0
  0
LINE
  5
215
330
1F
100
AcDbEntity
  8
0
  6
Continuous
 62
     7
370
    25
100
AcDbLine
 10
212.2989067618
 20
938.7266404858
 30
0.0
 11
212.2989067618
 21
936.1460614433
 31
0.0
  0
ARC
  5
216
330
1F
100
AcDbEntity
  8
0
  6
Continuous
 62
     7
370
    25
100
AcDbCircle
 10
461.7824743963
 20
907.826469546
 30
0.0
 40
5.00066928803037
100
AcDbArc
 50
275.534175858
 51
331.784876003
  0
LINE
  5
217
330
1F
100
AcDbEntity
  8
0
  6
Continuous
 62
     7
370
    25
100
AcDbLine
 10
466.1889575845
 20
905.4622362159
 30
0.0
 11
476.1042118218
 21
924.2977898285
 31
0.0
  0
ARC
  5
218
330
1F
100
AcDbEntity
  8
0
  6
Continuous
 62
     7
370
    25
100
AcDbCircle
 10
471.7811326314
 20
926.4770035134
 30
0.0
 40
4.841279373383055
100
AcDbArc
 50
333.2478610927
 51
91.5842536627
  0
LINE
  5
219
330
1F
100
AcDbEntity
  8
0
  6
Continuous
 62
     7
370
    25
100
AcDbLine
 10
471.6472861708
 20
931.3164323119
 30
0.0
 11
412.86578159
 21
931.3164323119
 31
0.0
  0
ARC
  5
21A
330
1F
100
AcDbEntity
  8
0
  6
Continuous
 62
     7
370
    25
100
AcDbCircle
 10
412.8298343392
 20
926.2955183055
 30
0.0
 40
5.021042686941475
100
AcDbArc
 50
89.5897976815
 51
151.7015410578
  0
LINE
  5
21B
330
1F
100
AcDbEntity
  8
0
  6
Continuous
 62
     7
370
    25
100
AcDbLine
 10
408.408855939
 20
928.6758165324
 30
0.0
 11
398.4936017017
 21
909.8402629198
 31
0.0
  0
ARC
  5
21C
330
1F
100
AcDbEntity
  8
0
  6
Continuous
 62
     7
370
    25
100
AcDbCircle
 10
402.7927790271
 20
907.6565105193
 30
0.0
 40
4.822001682067179
100
AcDbArc
 50
153.0718636158
 51
265.5402115368
  0
ARC
  5
21D
330
1F
100
AcDbEntity
  8
0
  6
Continuous
 62
     7
370
    25
100
AcDbCircle
 10
381.7673779978
 20
907.8266591529
 30
0.0
 40
5.00086624574133
100
AcDbArc
 50
275.5349400329
 51
331.7369020513
  0
LINE
  5
21E
330
1F
100
AcDbEntity
  8
0
  6
Continuous
 62
     7
370
    25
100
AcDbLine
 10
386.172053538
 20
905.4586438249
 30
0.0
 11
396.1077998031
 21
924.2941974375
 31
0.0
  0
ARC
  5
21F
330
1F
100
AcDbEntity
  8
0
  6
Continuous
 62
     7
370
    25
100
AcDbCircle
 10
391.7866898751
 20
926.4771012749
 30
0.0
 40
4.841183757468842
100
AcDbArc
 50
333.1983716017
 51
91.5851875207
  0
LINE
  5
220
330
1F
100
AcDbEntity
  8
0
  6
Continuous
 62
     7
370
    25
100
AcDbLine
 10
391.6527671822
 20
931.3164323119
 30
0.0
 11
236.4989067618
 21
931.3164323119
 31
0.0
  0
ARC
  5
221
330
1F
100
AcDbEntity
  8
0
  6
Continuous
 62
     7
370
    25
100
AcDbCircle
 10
236.4151726391
 20
926.4001152378
 30
0.0
 40
4.917030097157122
100
AcDbArc
 50
89.0242395005
 51
178.9898148908
  0
LINE
  5
222
330
1F
100
AcDbEntity
  8
0
  6
Continuous
 62
     7
370
    25
100
AcDbLine
 10
231.4989067618
 20
926.4868031805
 30
0.0
 11
231.4989067618
 21
907.6512495678
 31
0.0
  0
ARC
  5
223
330
1F
100
AcDbEntity
  8
0
  6
Continuous
 62
     7
370
    25
100
AcDbCircle
 10
236.3935661626
 20
907.7256432693
 30
0.0
 40
4.895224721418979
100
AcDbArc
 50
180.8707688506
 51
264.9915779818
  0
ARC
  5
224
330
1F
100
AcDbEntity
  8
0
  6
Continuous
 62
     7
370
    25
100
AcDbCircle
 10
638.2042473609
 20
907.7256432693
 30
0.0
 40
4.895224721419213
100
AcDbArc
 50
275.0084220183
 51
359.1292311494
  0
LINE
  5
225
330
1F
100
AcDbEntity
  8
0
  6
Continuous
 62
     7
370
    25
100
AcDbLine
 10
643.0989067618
 20
907.6512495678
 30
0.0
 11
643.0989067618
 21
926.4868031805
 31
0.0
  0
ARC
  5
226
330
1F
100
AcDbEntity
  8
0
  6
Continuous
 62
     7
370
    25
100
AcDbCircle
 10
638.1826408844
 20
926.4001152378
 30
0.0
 40
4.917030097157178
100
AcDbArc
 50
1.0101851092
 51
90.9757604995
  0
LINE
  5
227
330
1F
100
AcDbEntity
  8
0
  6
Continuous
 62
     7
370
    25
100
AcDbLine
 10
638.0989067618
 20
931.3164323119
 30
0.0
 11
492.8784110825
 21
931.3164323119
 31
0.0
  0
ARC
  5
228
330
1F
100
AcDbEntity
  8
0
  6
Continuous
 62
     7
370
    25
100
AcDbCircle
 10
492.8425341609
 20
926.2953273782
 30
0.0
 40
5.021233106385995
100
AcDbArc
 50
89.5906157631
 51
151.6536702922
  0
LINE
  5
229
330
1F
100
AcDbEntity
  8
0
  6
Continuous
 62
     7
370
    25
100
AcDbLine
 10
488.4233784616
 20
928.6794089234
 30
0.0
 11
478.4876321964
 21
909.8438553108
 31
0.0
  0
ARC
  5
22A
330
1F
100
AcDbEntity
  8
0
  6
Continuous
 62
     7
370
    25
100
AcDbCircle
 10
482.7848415231
 20
907.6564276876
 30
0.0
 40
4.821913272120844
100
AcDbArc
 50
153.0223379883
 51
265.5410231114
  0
LINE
  5
22B
330
1F
100
AcDbEntity
  8
0
  6
Continuous
 62
     7
370
    25
100
AcDbLine
 10
662.2989067618
 20
936.1460614433
 30
0.0
 11
662.2989067618
 21
902.8491091222
 31
0.0
  0
LINE
  5
22C
330
1F
100
AcDbEntity
  8
0
  6
Continuous
 62
     7
370
    25
100
AcDbLine
 10
212.2989067618
 20
936.1460614433
 30
0.0
 11
212.2989067618
 21
902.8491091222
 31
0.0
  0
LWPOLYLINE
  5
22D
330
1F
100
AcDbEntity
  8
0
  6
Continuous
 62
     7
370
    25
100
AcDbPolyline
 90
        3
 70
   128
 43
0.0
 10
476.1042118218
 20
924.5048450646
 10
476.5318968309
 20
925.66227012
 10
476.6461372905
 20
926.5903307985
  0
LWPOLYLINE
  5
22E
330
1F
100
AcDbEntity
  8
0
  6
Continuous
 62
     7
370
    25
100
AcDbPolyline
 90
        3
 70
   128
 43
0.0
 10
396.1077998031
 20
924.5012526736
 10
396.5365965888
 20
925.6588246878
 10
396.6516183019
 20
926.5903307984
  0
LINE
  5
22F
330
1F
100
AcDbEntity
  8
0
  6
Continuous
 62
     7
370
    25
100
AcDbLine
 10
466.1889575845
 20
905.6692914519
 30
0.0
 11
476.1042118218
 21
924.5048450646
 31
0.0
  0
LINE
  5
230
330
1F
100
AcDbEntity
  8
0
  6
Continuous
 62
     7
370
    25
100
AcDbLine
 10
386.172053538
 20
905.665699061
 30
0.0
 11
396.1077998031
 21
924.5012526736
 31
0.0
  0
LINE
  5
231
330
1F
100
AcDbEntity
  8
0
  6
Continuous
 62
     7
370
    25
100
AcDbLine
 10
482.9426648174
 20
902.8216244986
 30
0.0
 11
482.4099604558
 21
902.8491091222
 31
0.0
  0
ARC
  5
232
330
1F
100
AcDbEntity
  8
0
  6
Continuous
 62
     7
370
    25
100
AcDbCircle
 10
482.9426245816
 20
908.203290044
 30
0.0
 40
5.174614371736307
100
AcDbArc
 50
264.0916247807
 51
270.0004455097
  0
ARC
  5
233
330
1F
100
AcDbEntity
  8
0
  6
Continuous
 62
     7
370
    25
100
AcDbCircle
 10
482.8398201654
 20
907.9366539993
 30
0.0
 40
4.89938348231853
100
AcDbArc
 50
182.1274449649
 51
264.9665389829
  0
LINE
  5
234
330
1F
100
AcDbEntity
  8
0
  6
Continuous
 62
     7
370
    25
100
AcDbLine
 10
402.9505273527
 20
902.8216244986
 30
0.0
 11
402.4178229912
 21
902.8491091222
 31
0.0
  0
ARC
  5
235
330
1F
100
AcDbEntity
  8
0
  6
Continuous
 62
     7
370
    25
100
AcDbCircle
 10
402.950487117
 20
908.203290044
 30
0.0
 40
5.174614371738126
100
AcDbArc
 50
264.0916247807
 51
270.0004455097
  0
ARC
  5
236
330
1F
100
AcDbEntity
  8
0
  6
Continuous
 62
     7
370
    25
100
AcDbCircle
 10
402.8477175008
 20
907.9366870777
 30
0.0
 40
4.899419486458353
100
AcDbArc
 50
182.1278164174
 51
264.9661675258
  0
LINE
  5
237
330
1F
100
AcDbEntity
  8
0
  6
Continuous
 62
     7
370
    25
100
AcDbLine
 10
236.4989067618
 20
902.8216244986
 30
0.0
 11
235.9662024002
 21
902.8491091222
 31
0.0
  0
ARC
  5
238
330
1F
100
AcDbEntity
  8
0
  6
Continuous
 62
     7
370
    25
100
AcDbCircle
 10
236.498866526
 20
908.203290044
 30
0.0
 40
5.174614371733578
100
AcDbArc
 50
264.0916247807
 51
270.0004455097
  0
ARC
  5
239
330
1F
100
AcDbEntity
  8
0
  6
Continuous
 62
     7
370
    25
100
AcDbCircle
 10
236.3935661626
 20
907.9326985053
 30
0.0
 40
4.895224721418866
100
AcDbArc
 50
180.8707688506
 51
264.9915779818
  0
LINE
  5
23A
330
1F
100
AcDbEntity
  8
0
  6
Continuous
 62
     7
370
    25
100
AcDbLine
 10
638.6316111233
 20
902.8491091222
 30
0.0
 11
638.0989067618
 21
902.8216244986
 31
0.0
  0
ARC
  5
23B
330
1F
100
AcDbEntity
  8
0
  6
Continuous
 62
     7
370
    25
100
AcDbCircle
 10
638.0989469976
 20
908.203290044
 30
0.0
 40
5.174614371729713
100
AcDbArc
 50
269.9995544903
 51
275.9083752193
  0
ARC
  5
23C
330
1F
100
AcDbEntity
  8
0
  6
Continuous
 62
     7
370
    25
100
AcDbCircle
 10
638.2042473609
 20
907.9326985053
 30
0.0
 40
4.895224721419213
100
AcDbArc
 50
275.0084220183
 51
359.1292311494
  0
LINE
  5
23D
330
1F
100
AcDbEntity
  8
0
  6
Continuous
 62
     7
370
    25
100
AcDbLine
 10
462.264736295
 20
902.8491091222
 30
0.0
 11
461.7320319335
 21
902.8216244986
 31
0.0
  0
ARC
  5
23E
330
1F
100
AcDbEntity
  8
0
  6
Continuous
 62
     7
370
    25
100
AcDbCircle
 10
461.7320721693
 20
908.203290044
 30
0.0
 40
5.174614371734033
100
AcDbArc
 50
269.9995544903
 51
275.9083752193
  0
ARC
  5
23F
330
1F
100
AcDbEntity
  8
0
  6
Continuous
 62
     7
370
    25
100
AcDbCircle
 10
461.7824743963
 20
908.0335247821
 30
0.0
 40
5.000669288030415
100
AcDbArc
 50
275.534175858
 51
331.784876003
  0
LINE
  5
240
330
1F
100
AcDbEntity
  8
0
  6
Continuous
 62
     7
370
    25
100
AcDbLine
 10
382.2497252786
 20
902.8491091222
 30
0.0
 11
381.7170209171
 21
902.8216244986
 31
0.0
  0
ARC
  5
241
330
1F
100
AcDbEntity
  8
0
  6
Continuous
 62
     7
370
    25
100
AcDbCircle
 10
381.7170611528
 20
908.203290044
 30
0.0
 40
5.174614371732555
100
AcDbArc
 50
269.9995544903
 51
275.9083752193
  0
ARC
  5
242
330
1F
100
AcDbEntity
  8
0
  6
Continuous
 62
     7
370
    25
100
AcDbCircle
 10
381.7673779978
 20
908.033714389
 30
0.0
 40
5.000866245741952
100
AcDbArc
 50
275.5349400329
 51
331.7369020513
  0
LINE
  5
243
330
1F
100
AcDbEntity
  8
0
  6
Continuous
 62
     7
370
    25
100
AcDbLine
 10
662.2989067618
 20
902.8491091222
 30
0.0
 11
662.2989067618
 21
883.7266404858
 31
0.0
  0
LINE
  5
244
330
1F
100
AcDbEntity
  8
0
  6
Continuous
 62
     7
370
    25
100
AcDbLine
 10
662.2989067618
 20
883.7266404858
 30
0.0
 11
212.2989067618
 21
883.7266404858
 31
0.0
  0
LINE
  5
245
330
1F
100
AcDbEntity
  8
0
  6
Continuous
 62
     7
370
    25
100
AcDbLine
 10
212.2989067618
 20
902.8491091222
 30
0.0
 11
212.2989067618
 21
883.7266404858
 31
0.0
  0
LINE
  5
246
330
1F
100
AcDbEntity
  8
0
  6
Continuous
 62
     7
370
    25
100
AcDbLine
 10
381.7170209171
 20
902.8216244986
 30
0.0
 11
236.4989067618
 21
902.8216244986
 31
0.0
  0
LINE
  5
247
330
1F
100
AcDbEntity
  8
0
  6
Continuous
 62
     7
370
    25
100
AcDbLine
 10
461.7320319335
 20
902.8216244986
 30
0.0
 11
402.9505273527
 21
902.8216244986
 31
0.0
  0
LINE
  5
248
330
1F
100
AcDbEntity
  8
0
  6
Continuous
 62
     7
370
    25
100
AcDbLine
 10
638.0989067618
 20
902.8216244986
 30
0.0
 11
482.9426648174
 21
902.8216244986
 31
0.0
  0
LINE
  5
249
330
1F
100
AcDbEntity
  8
0
  6
Continuous
 62
     7
370
    25
100
AcDbLine
 10
482.9426648174
 20
903.0286756725
 30
0.0
 11
638.0989067618
 21
903.0286756725
 31
0.0
  0
LINE
  5
24A
330
1F
100
AcDbEntity
  8
0
  6
Continuous
 62
     7
370
    25
100
AcDbLine
 10
402.9505273527
 20
903.0286756725
 30
0.0
 11
461.7320319335
 21
903.0286756725
 31
0.0
  0
LINE
  5
24B
330
1F
100
AcDbEntity
  8
0
  6
Continuous
 62
     7
370
    25
100
AcDbLine
 10
236.4989067618
 20
903.0286756725
 30
0.0
 11
381.7170209171
 21
903.0286756725
 31
0.0
  0
LINE
  5
24C
330
1F
100
AcDbEntity
  8
0
  6
Continuous
 62
     7
370
    25
100
AcDbLine
 10
638.6316111233
 20
903.0561643582
 30
0.0
 11
482.4099604558
 21
903.0561643582
 31
0.0
  0
LINE
  5
24D
330
1F
100
AcDbEntity
  8
0
  6
Continuous
 62
     7
370
    25
100
AcDbLine
 10
462.264736295
 20
903.0561643582
 30
0.0
 11
402.4178229912
 21
903.0561643582
 31
0.0
  0
LINE
  5
24E
330
1F
100
AcDbEntity
  8
0
  6
Continuous
 62
     7
370
    25
100
AcDbLine
 10
382.2497252786
 20
903.0561643582
 30
0.0
 11
235.9662024002
 21
903.0561643582
 31
0.0
  0
LINE
  5
24F
330
1F
100
AcDbEntity
  8
0
  6
Continuous
 62
     7
370
    25
100
AcDbLine
 10
638.2989067618
 20
883.2266404858
 30
0.0
 11
638.2989067618
 21
881.7266404858
 31
0.0
  0
LINE
  5
250
330
1F
100
AcDbEntity
  8
0
  6
Continuous
 62
     7
370
    25
100
AcDbLine
 10
638.2989067618
 20
881.7266404858
 30
0.0
 11
633.2989067618
 21
881.7266404858
 31
0.0
  0
LINE
  5
251
330
1F
100
AcDbEntity
  8
0
  6
Continuous
 62
     7
370
    25
100
AcDbLine
 10
633.2989067618
 20
883.2266404858
 30
0.0
 11
638.2989067618
 21
883.2266404858
 31
0.0
  0
LINE
  5
252
330
1F
100
AcDbEntity
  8
0
  6
Continuous
 62
     7
370
    25
100
AcDbLine
 10
633.2989067618
 20
883.2266404858
 30
0.0
 11
241.2989067618
 21
883.2266404858
 31
0.0
  0
LINE
  5
253
330
1F
100
AcDbEntity
  8
0
  6
Continuous
 62
     7
370
    25
100
AcDbLine
 10
633.2989067618
 20
881.7266404858
 30
0.0
 11
241.2989067618
 21
881.7266404858
 31
0.0
  0
LINE
  5
254
330
1F
100
AcDbEntity
  8
0
  6
Continuous
 62
     7
370
    25
100
AcDbLine
 10
236.2989067618
 20
881.7266404858
 30
0.0
 11
236.2989067618
 21
883.2266404858
 31
0.0
  0
LINE
  5
255
330
1F
100
AcDbEntity
  8
0
  6
Continuous
 62
     7
370
    25
100
AcDbLine
 10
236.2989067618
 20
883.2266404858
 30
0.0
 11
241.2989067618
 21
883.2266404858
 31
0.0
  0
LINE
  5
256
330
1F
100
AcDbEntity
  8
0
  6
Continuous
 62
     7
370
    25
100
AcDbLine
 10
241.2989067618
 20
881.7266404858
 30
0.0
 11
236.2989067618
 21
881.7266404858
 31
0.0
  0
LINE
  5
257
330
1F
100
AcDbEntity
  8
0
  6
Continuous
 62
     7
370
    25
100
AcDbLine
 10
631.2989067618
 20
881.6747066015
 30
0.0
 11
631.2989067618
 21
880.8001642922
 31
0.0
  0
LINE
  5
258
330
1F
100
AcDbEntity
  8
0
  6
Continuous
 62
     7
370
    25
100
AcDbLine
 10
638.2989067618
 20
880.8001642922
 30
0.0
 11
638.2989067618
 21
881.7266404858
 31
0.0
  0
LINE
  5
259
330
1F
100
AcDbEntity
  8
0
  6
Continuous
 62
     7
370
    25
100
AcDbLine
 10
617.2989067618
 20
880.8001642922
 30
0.0
 11
617.2989067618
 21
881.6747066015
 31
0.0
  0
LINE
  5
25A
330
1F
100
AcDbEntity
  8
0
  6
Continuous
 62
     7
370
    25
100
AcDbLine
 10
257.2989067618
 20
881.6747066015
 30
0.0
 11
257.2989067618
 21
880.8001642922
 31
0.0
  0
LINE
  5
25B
330
1F
100
AcDbEntity
  8
0
  6
Continuous
 62
     7
370
    25
100
AcDbLine
 10
243.2989067618
 20
880.8001642922
 30
0.0
 11
243.2989067618
 21
881.6747066015
 31
0.0
  0
LINE
  5
25C
330
1F
100
AcDbEntity
  8
0
  6
Continuous
 62
     7
370
    25
100
AcDbLine
 10
236.2989067618
 20
881.7266404858
 30
0.0
 11
236.2989067618
 21
880.8001642922
 31
0.0
  0
LINE
  5
25D
330
1F
100
AcDbEntity
  8
0
  6
Continuous
 62
     7
370
    25
100
AcDbLine
 10
615.7989067618
 20
876.2241884506
 30
0.0
 11
614.7989067618
 21
876.2241884506
 31
0.0
  0
ARC
  5
25E
330
1F
100
AcDbEntity
  8
0
  6
Continuous
 62
     7
370
    25
100
AcDbCircle
 10
614.773786525
 20
874.7492933283
 30
0.0
 40
1.475109029147091
100
AcDbArc
 50
89.0242395005
 51
178.9898148908
  0
LINE
  5
25F
330
1F
100
AcDbEntity
  8
0
  6
Continuous
 62
     7
370
    25
100
AcDbLine
 10
613.2989067618
 20
874.7752997111
 30
0.0
 11
613.2989067618
 21
866.0819672745
 31
0.0
  0
ARC
  5
260
330
1F
100
AcDbEntity
  8
0
  6
Continuous
 62
     7
370
    25
100
AcDbCircle
 10
614.773786525
 20
866.1079736573
 30
0.0
 40
1.47510902914713
100
AcDbArc
 50
181.0101851092
 51
270.9757604995
  0
LINE
  5
261
330
1F
100
AcDbEntity
  8
0
  6
Continuous
 62
     7
370
    25
100
AcDbLine
 10
614.7989067618
 20
864.6330785351
 30
0.0
 11
633.7989067618
 21
864.6330785351
 31
0.0
  0
ARC
  5
262
330
1F
100
AcDbEntity
  8
0
  6
Continuous
 62
     7
370
    25
100
AcDbCircle
 10
633.8240269986
 20
866.1079736573
 30
0.0
 40
1.475109029146898
100
AcDbArc
 50
269.0242395005
 51
358.9898148908
  0
LINE
  5
263
330
1F
100
AcDbEntity
  8
0
  6
Continuous
 62
     7
370
    25
100
AcDbLine
 10
635.2989067618
 20
866.0819672745
 30
0.0
 11
635.2989067618
 21
874.7752997111
 31
0.0
  0
ARC
  5
264
330
1F
100
AcDbEntity
  8
0
  6
Continuous
 62
     7
370
    25
100
AcDbCircle
 10
633.8240269986
 20
874.7492933283
 30
0.0
 40
1.475109029146898
100
AcDbArc
 50
1.0101851092
 51
90.9757604995
  0
LINE
  5
265
330
1F
100
AcDbEntity
  8
0
  6
Continuous
 62
     7
370
    25
100
AcDbLine
 10
633.7989067618
 20
876.2241884506
 30
0.0
 11
632.7989067618
 21
876.2241884506
 31
0.0
  0
ARC
  5
266
330
1F
100
AcDbEntity
  8
0
  6
Continuous
 62
     7
370
    25
100
AcDbCircle
 10
632.773786525
 20
877.6990835728
 30
0.0
 40
1.475109029147318
100
AcDbArc
 50
181.0101851092
 51
270.9757604995
  0
LINE
  5
267
330
1F
100
AcDbEntity
  8
0
  6
Continuous
 62
     7
370
    25
100
AcDbLine
 10
631.2989067618
 20
877.67307719
 30
0.0
 11
631.2989067618
 21
880.8001642922
 31
0.0
  0
LINE
  5
268
330
1F
100
AcDbEntity
  8
0
  6
Continuous
 62
     7
370
    25
100
AcDbLine
 10
638.2989067618
 20
880.8001642922
 30
0.0
 11
638.2989067618
 21
834.2979919528
 31
0.0
  0
LINE
  5
269
330
1F
100
AcDbEntity
  8
0
  6
Continuous
 62
     7
370
    25
100
AcDbLine
 10
236.2989067618
 20
880.8001642922
 30
0.0
 11
236.2989067618
 21
834.2979919528
 31
0.0
  0
LINE
  5
26A
330
1F
100
AcDbEntity
  8
0
  6
Continuous
 62
     7
370
    25
100
AcDbLine
 10
243.2989067618
 20
880.8001642922
 30
0.0
 11
243.2989067618
 21
877.67307719
 31
0.0
  0
ARC
  5
26B
330
1F
100
AcDbEntity
  8
0
  6
Continuous
 62
     7
370
    25
100
AcDbCircle
 10
241.8240269986
 20
877.6990835728
 30
0.0
 40
1.4751090291469
100
AcDbArc
 50
269.0242395005
 51
358.9898148908
  0
LINE
  5
26C
330
1F
100
AcDbEntity
  8
0
  6
Continuous
 62
     7
370
    25
100
AcDbLine
 10
241.7989067618
 20
876.2241884506
 30
0.0
 11
240.7989067618
 21
876.2241884506
 31
0.0
  0
ARC
  5
26D
330
1F
100
AcDbEntity
  8
0
  6
Continuous
 62
     7
370
    25
100
AcDbCircle
 10
240.773786525
 20
874.7492933283
 30
0.0
 40
1.475109029147101
100
AcDbArc
 50
89.0242395005
 51
178.9898148908
  0
LINE
  5
26E
330
1F
100
AcDbEntity
  8
0
  6
Continuous
 62
     7
370
    25
100
AcDbLine
 10
239.2989067618
 20
874.7752997111
 30
0.0
 11
239.2989067618
 21
866.0819672745
 31
0.0
  0
ARC
  5
26F
330
1F
100
AcDbEntity
  8
0
  6
Continuous
 62
     7
370
    25
100
AcDbCircle
 10
240.773786525
 20
866.1079736573
 30
0.0
 40
1.475109029147219
100
AcDbArc
 50
181.0101851092
 51
270.9757604995
  0
LINE
  5
270
330
1F
100
AcDbEntity
  8
0
  6
Continuous
 62
     7
370
    25
100
AcDbLine
 10
240.7989067618
 20
864.6330785351
 30
0.0
 11
259.7989067618
 21
864.6330785351
 31
0.0
  0
ARC
  5
271
330
1F
100
AcDbEntity
  8
0
  6
Continuous
 62
     7
370
    25
100
AcDbCircle
 10
259.8240269986
 20
866.1079736573
 30
0.0
 40
1.475109029147016
100
AcDbArc
 50
269.0242395005
 51
358.9898148908
  0
LINE
  5
272
330
1F
100
AcDbEntity
  8
0
  6
Continuous
 62
     7
370
    25
100
AcDbLine
 10
261.2989067618
 20
866.0819672745
 30
0.0
 11
261.2989067618
 21
874.7752997111
 31
0.0
  0
ARC
  5
273
330
1F
100
AcDbEntity
  8
0
  6
Continuous
 62
     7
370
    25
100
AcDbCircle
 10
259.8240269986
 20
874.7492933283
 30
0.0
 40
1.475109029147087
100
AcDbArc
 50
1.0101851092
 51
90.9757604995
  0
LINE
  5
274
330
1F
100
AcDbEntity
  8
0
  6
Continuous
 62
     7
370
    25
100
AcDbLine
 10
259.7989067618
 20
876.2241884506
 30
0.0
 11
258.7989067618
 21
876.2241884506
 31
0.0
  0
ARC
  5
275
330
1F
100
AcDbEntity
  8
0
  6
Continuous
 62
     7
370
    25
100
AcDbCircle
 10
258.773786525
 20
877.6990835728
 30
0.0
 40
1.4751090291469
100
AcDbArc
 50
181.0101851092
 51
270.9757604995
  0
LINE
  5
276
330
1F
100
AcDbEntity
  8
0
  6
Continuous
 62
     7
370
    25
100
AcDbLine
 10
257.2989067618
 20
877.67307719
 30
0.0
 11
257.2989067618
 21
880.8001642922
 31
0.0
  0
LINE
  5
277
330
1F
100
AcDbEntity
  8
0
  6
Continuous
 62
     7
370
    25
100
AcDbLine
 10
617.2989067618
 20
877.67307719
 30
0.0
 11
617.2989067618
 21
880.8001642922
 31
0.0
  0
ARC
  5
278
330
1F
100
AcDbEntity
  8
0
  6
Continuous
 62
     7
370
    25
100
AcDbCircle
 10
615.8240269986
 20
877.6990835728
 30
0.0
 40
1.475109029146865
100
AcDbArc
 50
269.0242395005
 51
358.9898148908
  0
ARC
  5
279
330
1F
100
AcDbEntity
  8
0
  6
Continuous
 62
     7
370
    25
100
AcDbCircle
 10
469.0652431449
 20
849.7528051734
 30
0.0
 40
8.696472131796124
100
AcDbArc
 50
88.4603468793
 51
271.5396531207
  0
LINE
  5
27A
330
1F
100
AcDbEntity
  8
0
  6
Continuous
 62
     7
370
    25
100
AcDbLine
 10
469.2989067618
 20
841.0594727368
 30
0.0
 11
601.2989067618
 21
841.0594727368
 31
0.0
  0
ARC
  5
27B
330
1F
100
AcDbEntity
  8
0
  6
Continuous
 62
     7
370
    25
100
AcDbCircle
 10
601.5325703786
 20
849.7528051734
 30
0.0
 40
8.696472131796016
100
AcDbArc
 50
268.4603468793
 51
91.5396531207
  0
LINE
  5
27C
330
1F
100
AcDbEntity
  8
0
  6
Continuous
 62
     7
370
    25
100
AcDbLine
 10
601.2989067618
 20
858.44613761
 30
0.0
 11
469.2989067618
 21
858.44613761
 31
0.0
  0
ARC
  5
27D
330
1F
100
AcDbEntity
  8
0
  6
Continuous
 62
     7
370
    25
100
AcDbCircle
 10
273.0652431449
 20
849.7528051734
 30
0.0
 40
8.696472131796002
100
AcDbArc
 50
88.4603468793
 51
271.5396531207
  0
LINE
  5
27E
330
1F
100
AcDbEntity
  8
0
  6
Continuous
 62
     7
370
    25
100
AcDbLine
 10
273.2989067618
 20
841.0594727368
 30
0.0
 11
405.2989067618
 21
841.0594727368
 31
0.0
  0
ARC
  5
27F
330
1F
100
AcDbEntity
  8
0
  6
Continuous
 62
     7
370
    25
100
AcDbCircle
 10
405.5325703786
 20
849.7528051734
 30
0.0
 40
8.69647213179601
100
AcDbArc
 50
268.4603468793
 51
91.5396531207
  0
LINE
  5
280
330
1F
100
AcDbEntity
  8
0
  6
Continuous
 62
     7
370
    25
100
AcDbLine
 10
405.2989067618
 20
858.44613761
 30
0.0
 11
273.2989067618
 21
858.44613761
 31
0.0
  0
ARC
  5
281
330
1F
100
AcDbEntity
  8
0
  6
Continuous
 62
     7
370
    25
100
AcDbCircle
 10
614.773786525
 20
866.496202225
 30
0.0
 40
1.475109029147202
100
AcDbArc
 50
181.0101851092
 51
270.9757604995
  0
ARC
  5
282
330
1F
100
AcDbEntity
  8
0
  6
Continuous
 62
     7
370
    25
100
AcDbCircle
 10
633.8240269986
 20
866.496202225
 30
0.0
 40
1.4751090291469
100
AcDbArc
 50
269.0242395005
 51
358.9898148908
  0
ARC
  5
283
330
1F
100
AcDbEntity
  8
0
  6
Continuous
 62
     7
370
    25
100
AcDbCircle
 10
240.773786525
 20
866.496202225
 30
0.0
 40
1.475109029147087
100
AcDbArc
 50
181.0101851092
 51
270.9757604995
  0
ARC
  5
284
330
1F
100
AcDbEntity
  8
0
  6
Continuous
 62
     7
370
    25
100
AcDbCircle
 10
259.8240269986
 20
866.496202225
 30
0.0
 40
1.475109029147311
100
AcDbArc
 50
269.0242395005
 51
358.9898148908
  0
LINE
  5
285
330
1F
100
AcDbEntity
  8
0
  6
Continuous
 62
     7
370
    25
100
AcDbLine
 10
614.7989067618
 20
865.0213071028
 30
0.0
 11
633.7989067618
 21
865.0213071028
 31
0.0
  0
LINE
  5
286
330
1F
100
AcDbEntity
  8
0
  6
Continuous
 62
     7
370
    25
100
AcDbLine
 10
240.7989067618
 20
865.0213071028
 30
0.0
 11
259.7989067618
 21
865.0213071028
 31
0.0
  0
ARC
  5
287
330
1F
100
AcDbEntity
  8
0
  6
Continuous
 62
     7
370
    25
100
AcDbCircle
 10
601.45776998
 20
850.2918970793
 30
0.0
 40
8.845622444218524
100
AcDbArc
 50
268.9709394262
 51
357.7649084694
  0
ARC
  5
288
330
1F
100
AcDbEntity
  8
0
  6
Continuous
 62
     7
370
    25
100
AcDbCircle
 10
469.1400435435
 20
850.2918970793
 30
0.0
 40
8.845622444202075
100
AcDbArc
 50
182.2350915269
 51
271.0290605739
  0
ARC
  5
289
330
1F
100
AcDbEntity
  8
0
  6
Continuous
 62
     7
370
    25
100
AcDbCircle
 10
405.4577699801
 20
850.2918970793
 30
0.0
 40
8.845622444204437
100
AcDbArc
 50
268.9709394261
 51
357.7649084725
  0
ARC
  5
28A
330
1F
100
AcDbEntity
  8
0
  6
Continuous
 62
     7
370
    25
100
AcDbCircle
 10
273.1400435435
 20
850.2918970792
 30
0.0
 40
8.845622444169308
100
AcDbArc
 50
182.2350915194
 51
271.029060574
  0
LINE
  5
28B
330
1F
100
AcDbEntity
  8
0
  6
Continuous
 62
     7
370
    25
100
AcDbLine
 10
469.2989067618
 20
841.4477013045
 30
0.0
 11
601.2989067618
 21
841.4477013045
 31
0.0
  0
LINE
  5
28C
330
1F
100
AcDbEntity
  8
0
  6
Continuous
 62
     7
370
    25
100
AcDbLine
 10
273.2989067618
 20
841.4477013045
 30
0.0
 11
405.2989067618
 21
841.4477013045
 31
0.0
  0
LINE
  5
28D
330
1F
100
AcDbEntity
  8
0
  6
Continuous
 62
     7
370
    25
100
AcDbLine
 10
638.2989067618
 20
834.2979919528
 30
0.0
 11
638.2989067618
 21
832.2702089071
 31
0.0
  0
LINE
  5
28E
330
1F
100
AcDbEntity
  8
0
  6
Continuous
 62
     7
370
    25
100
AcDbLine
 10
236.2989067618
 20
834.2979919528
 30
0.0
 11
236.2989067618
 21
832.2702089071
 31
0.0
  0
LINE
  5
28F
330
1F
100
AcDbEntity
  8
0
  6
Continuous
 62
     7
370
    25
100
AcDbLine
 10
638.2989067618
 20
832.2702089071
 30
0.0
 11
638.2989067618
 21
826.4325759477
 31
0.0
  0
LINE
  5
290
330
1F
100
AcDbEntity
  8
0
  6
Continuous
 62
     7
370
    25
100
AcDbLine
 10
236.2989067618
 20
832.2702089071
 30
0.0
 11
236.2989067618
 21
826.4325759477
 31
0.0
  0
LINE
  5
291
330
1F
100
AcDbEntity
  8
0
  6
Continuous
 62
     7
370
    25
100
AcDbLine
 10
236.2989067618
 20
826.4325759477
 30
0.0
 11
236.2989067618
 21
826.4221113674
 31
0.0
  0
LINE
  5
292
330
1F
100
AcDbEntity
  8
0
  6
Continuous
 62
     7
370
    25
100
AcDbLine
 10
638.2989067618
 20
826.4325759477
 30
0.0
 11
638.2989067618
 21
826.4221113674
 31
0.0
  0
ARC
  5
293
330
1F
100
AcDbEntity
  8
0
  6
Continuous
 62
     7
370
    25
100
AcDbCircle
 10
479.8463799975
 20
855.0885270136
 30
0.0
 40
19.5514200068883
100
AcDbArc
 50
189.5322584961
 51
219.6283960963
  0
ARC
  5
294
330
1F
100
AcDbEntity
  8
0
  6
Continuous
 62
     7
370
    25
100
AcDbCircle
 10
590.7421781141
 20
855.0927606287
 30
0.0
 40
19.56124890218573
100
AcDbArc
 50
320.3793436991
 51
350.4600016849
  0
ARC
  5
295
330
1F
100
AcDbEntity
  8
0
  6
Continuous
 62
     7
370
    25
100
AcDbCircle
 10
283.8463799976
 20
855.0885270137
 30
0.0
 40
19.55142000699137
100
AcDbArc
 50
189.5322584818
 51
219.6283961327
  0
ARC
  5
296
330
1F
100
AcDbEntity
  8
0
  6
Continuous
 62
     7
370
    25
100
AcDbCircle
 10
394.7421781141
 20
855.0927606286
 30
0.0
 40
19.56124890213506
100
AcDbArc
 50
320.3793436982
 51
350.4600017022
  0
LINE
  5
297
330
1F
100
AcDbEntity
  8
0
  6
Continuous
 62
     7
370
    25
100
AcDbLine
 10
614.3256116159
 20
870.727607276
 30
0.0
 11
614.8396835868
 21
870.2586083754
 31
0.0
  0
LINE
  5
298
330
1F
100
AcDbEntity
  8
0
  6
Continuous
 62
     7
370
    25
100
AcDbLine
 10
614.8396835868
 20
870.2586083754
 30
0.0
 11
614.4456836105
 21
870.7276021613
 31
0.0
  0
LINE
  5
299
330
1F
100
AcDbEntity
  8
0
  6
Continuous
 62
     7
370
    25
100
AcDbLine
 10
614.4461992221
 20
870.7276072697
 30
0.0
 11
615.0022276284
 21
870.2586083754
 31
0.0
  0
LINE
  5
29A
330
1F
100
AcDbEntity
  8
0
  6
Continuous
 62
     7
370
    25
100
AcDbLine
 10
615.0022276284
 20
870.2586083754
 30
0.0
 11
614.6644173454
 21
870.7276021614
 31
0.0
  0
LINE
  5
29B
330
1F
100
AcDbEntity
  8
0
  6
Continuous
 62
     7
370
    25
100
AcDbLine
 10
614.6652318373
 20
870.7276072697
 30
0.0
 11
615.2576610149
 21
870.2586083754
 31
0.0
  0
LINE
  5
29C
330
1F
100
AcDbEntity
  8
0
  6
Continuous
 62
     7
370
    25
100
AcDbLine
 10
615.2576610149
 20
870.2586083754
 30
0.0
 11
614.979415714
 21
870.7276021613
 31
0.0
  0
LINE
  5
29D
330
1F
100
AcDbEntity
  8
0
  6
Continuous
 62
     7
370
    25
100
AcDbLine
 10
614.9805209479
 20
870.7276072697
 30
0.0
 11
615.6034315401
 21
870.2586083754
 31
0.0
  0
LINE
  5
29E
330
1F
100
AcDbEntity
  8
0
  6
Continuous
 62
     7
370
    25
100
AcDbLine
 10
615.6034315401
 20
870.2586083754
 30
0.0
 11
615.3875313564
 21
870.7276021614
 31
0.0
  0
LINE
  5
29F
330
1F
100
AcDbEntity
  8
0
  6
Continuous
 62
     7
370
    25
100
AcDbLine
 10
615.3889162977
 20
870.727607276
 30
0.0
 11
616.0360843795
 21
870.2586083754
 31
0.0
  0
LINE
  5
2A0
330
1F
100
AcDbEntity
  8
0
  6
Continuous
 62
     7
370
    25
100
AcDbLine
 10
616.0360843795
 20
870.2586083754
 30
0.0
 11
615.8846865162
 21
870.7276021613
 31
0.0
  0
LINE
  5
2A1
330
1F
100
AcDbEntity
  8
0
  6
Continuous
 62
     7
370
    25
100
AcDbLine
 10
615.8863373102
 20
870.7276072697
 30
0.0
 11
616.5512966088
 21
870.2586083754
 31
0.0
  0
LINE
  5
2A2
330
1F
100
AcDbEntity
  8
0
  6
Continuous
 62
     7
370
    25
100
AcDbLine
 10
616.5512966088
 20
870.2586083754
 30
0.0
 11
616.4659137833
 21
870.7276021613
 31
0.0
  0
LINE
  5
2A3
330
1F
100
AcDbEntity
  8
0
  6
Continuous
 62
     7
370
    25
100
AcDbLine
 10
616.4678139503
 20
870.727607276
 30
0.0
 11
617.1439203977
 21
870.2586083754
 31
0.0
  0
LINE
  5
2A4
330
1F
100
AcDbEntity
  8
0
  6
Continuous
 62
     7
370
    25
100
AcDbLine
 10
617.1439203977
 20
870.2586083754
 30
0.0
 11
617.125405727
 21
870.7276021613
 31
0.0
  0
LINE
  5
2A5
330
1F
100
AcDbEntity
  8
0
  6
Continuous
 62
     7
370
    25
100
AcDbLine
 10
617.1275362738
 20
870.727607276
 30
0.0
 11
617.8080344452
 21
870.2586083754
 31
0.0
  0
LINE
  5
2A6
330
1F
100
AcDbEntity
  8
0
  6
Continuous
 62
     7
370
    25
100
AcDbLine
 10
617.8080344452
 20
870.2586083754
 30
0.0
 11
617.8565729218
 21
870.7276021614
 31
0.0
  0
LINE
  5
2A7
330
1F
100
AcDbEntity
  8
0
  6
Continuous
 62
     7
370
    25
100
AcDbLine
 10
617.8589125608
 20
870.727607276
 30
0.0
 11
618.5370031433
 21
870.2586083754
 31
0.0
  0
LINE
  5
2A8
330
1F
100
AcDbEntity
  8
0
  6
Continuous
 62
     7
370
    25
100
AcDbLine
 10
618.5370031433
 20
870.2586083754
 30
0.0
 11
618.6521097868
 21
870.7276021614
 31
0.0
  0
LINE
  5
2A9
330
1F
100
AcDbEntity
  8
0
  6
Continuous
 62
     7
370
    25
100
AcDbLine
 10
618.6546351391
 20
870.7276072697
 30
0.0
 11
619.3235428778
 21
870.2586083754
 31
0.0
  0
LINE
  5
2AA
330
1F
100
AcDbEntity
  8
0
  6
Continuous
 62
     7
370
    25
100
AcDbLine
 10
619.3235428778
 20
870.2586083754
 30
0.0
 11
619.5040675805
 21
870.7276021613
 31
0.0
  0
LINE
  5
2AB
330
1F
100
AcDbEntity
  8
0
  6
Continuous
 62
     7
370
    25
100
AcDbLine
 10
619.5067534175
 20
870.727607276
 30
0.0
 11
620.1597948035
 21
870.2586083754
 31
0.0
  0
LINE
  5
2AC
330
1F
100
AcDbEntity
  8
0
  6
Continuous
 62
     7
370
    25
100
AcDbLine
 10
620.1597948035
 20
870.2586083754
 30
0.0
 11
620.4039338224
 21
870.7276021614
 31
0.0
  0
LINE
  5
2AD
330
1F
100
AcDbEntity
  8
0
  6
Continuous
 62
     7
370
    25
100
AcDbLine
 10
620.4067533071
 20
870.7276072697
 30
0.0
 11
621.0374033677
 21
870.2586083754
 31
0.0
  0
LINE
  5
2AE
330
1F
100
AcDbEntity
  8
0
  6
Continuous
 62
     7
370
    25
100
AcDbLine
 10
621.0374033677
 20
870.2586083754
 30
0.0
 11
621.3427173464
 21
870.7276021613
 31
0.0
  0
LINE
  5
2AF
330
1F
100
AcDbEntity
  8
0
  6
Continuous
 62
     7
370
    25
100
AcDbLine
 10
621.3456423079
 20
870.7276072697
 30
0.0
 11
621.9475997957
 21
870.2586083754
 31
0.0
  0
LINE
  5
2B0
330
1F
100
AcDbEntity
  8
0
  6
Continuous
 62
     7
370
    25
100
AcDbLine
 10
621.9475997957
 20
870.2586083754
 30
0.0
 11
622.3110381379
 21
870.7276021614
 31
0.0
  0
LINE
  5
2B1
330
1F
100
AcDbEntity
  8
0
  6
Continuous
 62
     7
370
    25
100
AcDbLine
 10
622.3140393509
 20
870.7276072697
 30
0.0
 11
622.8812897057
 21
870.2586083754
 31
0.0
  0
LINE
  5
2B2
330
1F
100
AcDbEntity
  8
0
  6
Continuous
 62
     7
370
    25
100
AcDbLine
 10
622.8812897057
 20
870.2586083754
 30
0.0
 11
623.2992210555
 21
870.7276021613
 31
0.0
  0
LINE
  5
2B3
330
1F
100
AcDbEntity
  8
0
  6
Continuous
 62
     7
370
    25
100
AcDbLine
 10
623.302268533
 20
870.7276072697
 30
0.0
 11
623.8291439767
 21
870.2586083754
 31
0.0
  0
LINE
  5
2B4
330
1F
100
AcDbEntity
  8
0
  6
Continuous
 62
     7
370
    25
100
AcDbLine
 10
623.8291439767
 20
870.2586083754
 30
0.0
 11
624.2973925022
 21
870.7276021613
 31
0.0
  0
LINE
  5
2B5
330
1F
100
AcDbEntity
  8
0
  6
Continuous
 62
     7
370
    25
100
AcDbLine
 10
624.3004557885
 20
870.727607276
 30
0.0
 11
624.7036505762
 21
870.3329449571
 31
0.0
  0
LINE
  5
2B6
330
1F
100
AcDbEntity
  8
0
  6
Continuous
 62
     7
370
    25
100
AcDbLine
 10
624.7036505762
 20
870.3329449571
 30
0.0
 11
625.1281626344
 21
870.7276021614
 31
0.0
  0
LINE
  5
2B7
330
1F
100
AcDbEntity
  8
0
  6
Continuous
 62
     7
370
    25
100
AcDbLine
 10
625.1312157599
 20
870.7276072697
 30
0.0
 11
625.570802232
 21
870.2586083754
 31
0.0
  0
LINE
  5
2B8
330
1F
100
AcDbEntity
  8
0
  6
Continuous
 62
     7
370
    25
100
AcDbLine
 10
625.570802232
 20
870.2586083754
 30
0.0
 11
626.1187597755
 21
870.7276021613
 31
0.0
  0
LINE
  5
2B9
330
1F
100
AcDbEntity
  8
0
  6
Continuous
 62
     7
370
    25
100
AcDbLine
 10
626.121772739
 20
870.727607276
 30
0.0
 11
626.5072938935
 21
870.2586083754
 31
0.0
  0
LINE
  5
2BA
330
1F
100
AcDbEntity
  8
0
  6
Continuous
 62
     7
370
    25
100
AcDbLine
 10
626.5072938935
 20
870.2586083754
 30
0.0
 11
627.0911735471
 21
870.7276021614
 31
0.0
  0
LINE
  5
2BB
330
1F
100
AcDbEntity
  8
0
  6
Continuous
 62
     7
370
    25
100
AcDbLine
 10
627.0941162511
 20
870.727607276
 30
0.0
 11
627.4217200807
 21
870.2586083754
 31
0.0
  0
LINE
  5
2BC
330
1F
100
AcDbEntity
  8
0
  6
Continuous
 62
     7
370
    25
100
AcDbLine
 10
627.4217200807
 20
870.2586083754
 30
0.0
 11
628.0356879118
 21
870.7276021613
 31
0.0
  0
LINE
  5
2BD
330
1F
100
AcDbEntity
  8
0
  6
Continuous
 62
     7
370
    25
100
AcDbLine
 10
628.0385309646
 20
870.7276072697
 30
0.0
 11
628.3049441496
 21
870.2586083754
 31
0.0
  0
LINE
  5
2BE
330
1F
100
AcDbEntity
  8
0
  6
Continuous
 62
     7
370
    25
100
AcDbLine
 10
628.3049441496
 20
870.2586083754
 30
0.0
 11
628.9428655946
 21
870.7276021614
 31
0.0
  0
LINE
  5
2BF
330
1F
100
AcDbEntity
  8
0
  6
Continuous
 62
     7
370
    25
100
AcDbLine
 10
628.9455805681
 20
870.727607276
 30
0.0
 11
629.1481412171
 21
870.2586083754
 31
0.0
  0
LINE
  5
2C0
330
1F
100
AcDbEntity
  8
0
  6
Continuous
 62
     7
370
    25
100
AcDbLine
 10
629.1481412171
 20
870.2586083754
 30
0.0
 11
629.8036423756
 21
870.7276021613
 31
0.0
  0
LINE
  5
2C1
330
1F
100
AcDbEntity
  8
0
  6
Continuous
 62
     7
370
    25
100
AcDbLine
 10
629.8062021658
 20
870.7276072697
 30
0.0
 11
629.9428863368
 21
870.2586083754
 31
0.0
  0
LINE
  5
2C2
330
1F
100
AcDbEntity
  8
0
  6
Continuous
 62
     7
370
    25
100
AcDbLine
 10
629.9428863368
 20
870.2586083754
 30
0.0
 11
630.6094176583
 21
870.7276021614
 31
0.0
  0
LINE
  5
2C3
330
1F
100
AcDbEntity
  8
0
  6
Continuous
 62
     7
370
    25
100
AcDbLine
 10
630.6117966639
 20
870.727607276
 30
0.0
 11
630.6812386783
 21
870.2586083754
 31
0.0
  0
LINE
  5
2C4
330
1F
100
AcDbEntity
  8
0
  6
Continuous
 62
     7
370
    25
100
AcDbLine
 10
630.6812386783
 20
870.2586083754
 30
0.0
 11
631.3521404018
 21
870.7276021613
 31
0.0
  0
LINE
  5
2C5
330
1F
100
AcDbEntity
  8
0
  6
Continuous
 62
     7
370
    25
100
AcDbLine
 10
631.3543148785
 20
870.7276072697
 30
0.0
 11
631.355820869
 21
870.2586083754
 31
0.0
  0
LINE
  5
2C6
330
1F
100
AcDbEntity
  8
0
  6
Continuous
 62
     7
370
    25
100
AcDbLine
 10
631.355820869
 20
870.2586083754
 30
0.0
 11
632.0243895665
 21
870.7276021614
 31
0.0
  0
LINE
  5
2C7
330
1F
100
AcDbEntity
  8
0
  6
Continuous
 62
     7
370
    25
100
AcDbLine
 10
632.0263377607
 20
870.727607276
 30
0.0
 11
631.9598927066
 21
870.2586083754
 31
0.0
  0
LINE
  5
2C8
330
1F
100
AcDbEntity
  8
0
  6
Continuous
 62
     7
370
    25
100
AcDbLine
 10
631.9598927066
 20
870.2586083754
 30
0.0
 11
632.6194482606
 21
870.7276021614
 31
0.0
  0
LINE
  5
2C9
330
1F
100
AcDbEntity
  8
0
  6
Continuous
 62
     7
370
    25
100
AcDbLine
 10
632.6211507201
 20
870.727607276
 30
0.0
 11
632.4874185051
 21
870.2586083754
 31
0.0
  0
LINE
  5
2CA
330
1F
100
AcDbEntity
  8
0
  6
Continuous
 62
     7
370
    25
100
AcDbLine
 10
632.4874185051
 20
870.2586083754
 30
0.0
 11
633.1313708545
 21
870.7276021614
 31
0.0
  0
LINE
  5
2CB
330
1F
100
AcDbEntity
  8
0
  6
Continuous
 62
     7
370
    25
100
AcDbLine
 10
633.1328105689
 20
870.727607276
 30
0.0
 11
632.933127401
 21
870.2586083754
 31
0.0
  0
LINE
  5
2CC
330
1F
100
AcDbEntity
  8
0
  6
Continuous
 62
     7
370
    25
100
AcDbLine
 10
632.933127401
 20
870.2586083754
 30
0.0
 11
633.5550423866
 21
870.7276021613
 31
0.0
  0
LINE
  5
2CD
330
1F
100
AcDbEntity
  8
0
  6
Continuous
 62
     7
370
    25
100
AcDbLine
 10
633.556204971
 20
870.727607276
 30
0.0
 11
633.2925660183
 21
870.2586083754
 31
0.0
  0
LINE
  5
2CE
330
1F
100
AcDbEntity
  8
0
  6
Continuous
 62
     7
370
    25
100
AcDbLine
 10
633.2925660183
 20
870.2586083754
 30
0.0
 11
633.8862296715
 21
870.7276021614
 31
0.0
  0
SPLINE
  5
2CF
330
1F
100
AcDbEntity
  8
0
  6
Continuous
 62
     7
370
    25
100
AcDbSpline
210
0.0
220
0.0
230
1.0
 70
     8
 71
     3
 72
     9
 73
     5
 74
     0
 42
0.000000001
 43
0.00000001
 40
0.0
 40
0.0
 40
0.0
 40
0.0
 40
0.499962775429669
 40
1.0
 40
1.0
 40
1.0
 40
1.0
 10
633.8871035423794
 20
870.7276073249257
 30
0.0
 10
633.8332948041133
 20
870.6483910983916
 30
0.0
 10
633.725669314956
 20
870.4899468492848
 30
0.0
 10
633.616654453877
 20
870.3357250272298
 30
0.0
 10
633.5621429653061
 20
870.2586083753612
 30
0.0
  0
LINE
  5
2D0
330
1F
100
AcDbEntity
  8
0
  6
Continuous
 62
     7
370
    25
100
AcDbLine
 10
633.5621429653
 20
870.2586083754
 30
0.0
 11
634.1216235948
 21
870.7276021613
 31
0.0
  0
LINE
  5
2D1
330
1F
100
AcDbEntity
  8
0
  6
Continuous
 62
     7
370
    25
100
AcDbLine
 10
634.1221999689
 20
870.7276072697
 30
0.0
 11
633.7391647181
 21
870.2586083754
 31
0.0
  0
LINE
  5
2D2
330
1F
100
AcDbEntity
  8
0
  6
Continuous
 62
     7
370
    25
100
AcDbLine
 10
633.7391647181
 20
870.2586083754
 30
0.0
 11
634.2588721785
 21
870.7276021613
 31
0.0
  0
LINE
  5
2D3
330
1F
100
AcDbEntity
  8
0
  6
Continuous
 62
     7
370
    25
100
AcDbLine
 10
634.2591453159
 20
870.7276072697
 30
0.0
 11
633.821862534
 21
870.2586083754
 31
0.0
  0
SPLINE
  5
2D4
330
1F
100
AcDbEntity
  8
0
  6
Continuous
 62
     7
370
    25
100
AcDbSpline
210
0.0
220
0.0
230
1.0
 70
     8
 71
     3
 72
     9
 73
     5
 74
     0
 42
0.000000001
 43
0.00000001
 40
0.0
 40
0.0
 40
0.0
 40
0.0
 40
0.7418901379650148
 40
0.9999999999999999
 40
0.9999999999999999
 40
0.9999999999999999
 40
0.9999999999999999
 10
633.8218625340271
 20
870.2586083753612
 30
0.0
 10
633.9396297210543
 20
870.3731448263974
 30
0.0
 10
634.0983691098139
 20
870.5275294787533
 30
0.0
 10
634.2551795753997
 20
870.6857914978835
 30
0.0
 10
634.2956539030375
 20
870.7266404858065
 30
0.0
  0
SPLINE
  5
2D5
330
1F
100
AcDbEntity
  8
0
  6
Continuous
 62
     7
370
    25
100
AcDbSpline
210
0.0
220
0.0
230
1.0
 70
     8
 71
     3
 72
     9
 73
     5
 74
     0
 42
0.000000001
 43
0.00000001
 40
0.0
 40
0.0
 40
0.0
 40
0.0
 40
0.5886511107999512
 40
1.0
 40
1.0
 40
1.0
 40
1.0
 10
614.3046738539122
 20
870.7276072697136
 30
0.0
 10
614.3957478716699
 20
870.6344047058936
 30
0.0
 10
614.5504643345912
 20
870.4760722707549
 30
0.0
 10
614.7071857283087
 20
870.321990015165
 30
0.0
 10
614.771652899528
 20
870.2586084504826
 30
0.0
  0
LINE
  5
2D6
330
1F
100
AcDbEntity
  8
0
  6
Continuous
 62
     7
370
    25
100
AcDbLine
 10
614.7716529099
 20
870.2586083775
 30
0.0
 11
614.3254000241
 21
870.7276021614
 31
0.0
  0
LINE
  5
2D7
330
1F
100
AcDbEntity
  8
0
  6
Continuous
 62
     7
370
    25
100
AcDbLine
 10
633.7963910648
 20
870.2266404858
 30
0.0
 11
614.8014224587
 21
870.2266404858
 31
0.0
  0
LINE
  5
2D8
330
1F
100
AcDbEntity
  8
0
  6
Continuous
 62
     7
370
    25
100
AcDbLine
 10
624.2989067618
 20
870.7266404858
 30
0.0
 11
624.2989067618
 21
873.7266404858
 31
0.0
  0
LINE
  5
2D9
330
1F
100
AcDbEntity
  8
0
  6
Continuous
 62
     7
370
    25
100
AcDbLine
 10
623.8291439767
 20
870.2586083754
 30
0.0
 11
623.8291439963
 21
874.1946725772
 31
0.0
  0
LINE
  5
2DA
330
1F
100
AcDbEntity
  8
0
  6
Continuous
 62
     7
370
    25
100
AcDbLine
 10
624.2973924954
 20
873.725678817
 30
0.0
 11
623.8291440159
 21
874.1946725581
 31
0.0
  0
LINE
  5
2DB
330
1F
100
AcDbEntity
  8
0
  6
Continuous
 62
     7
370
    25
100
AcDbLine
 10
633.8218625513
 20
874.1946725782
 30
0.0
 11
634.2591453028
 21
873.7256736956
 31
0.0
  0
LINE
  5
2DC
330
1F
100
AcDbEntity
  8
0
  6
Continuous
 62
     7
370
    25
100
AcDbLine
 10
634.2588721785
 20
873.7256788103
 30
0.0
 11
633.7391647616
 21
874.1946725581
 31
0.0
  0
LINE
  5
2DD
330
1F
100
AcDbEntity
  8
0
  6
Continuous
 62
     7
370
    25
100
AcDbLine
 10
633.7391647333
 20
874.1946725782
 30
0.0
 11
634.1221999553
 21
873.7256736956
 31
0.0
  0
LINE
  5
2DE
330
1F
100
AcDbEntity
  8
0
  6
Continuous
 62
     7
370
    25
100
AcDbLine
 10
634.1216236066
 20
873.725678817
 30
0.0
 11
633.5621430121
 21
874.1946725581
 31
0.0
  0
LINE
  5
2DF
330
1F
100
AcDbEntity
  8
0
  6
Continuous
 62
     7
370
    25
100
AcDbLine
 10
633.5621429781
 20
874.1946725782
 30
0.0
 11
633.8871035094
 21
873.7256736956
 31
0.0
  0
LINE
  5
2E0
330
1F
100
AcDbEntity
  8
0
  6
Continuous
 62
     7
370
    25
100
AcDbLine
 10
633.8862296714
 20
873.7256788103
 30
0.0
 11
633.2925660679
 21
874.1946725581
 31
0.0
  0
LINE
  5
2E1
330
1F
100
AcDbEntity
  8
0
  6
Continuous
 62
     7
370
    25
100
AcDbLine
 10
633.2925660287
 20
874.1946725782
 30
0.0
 11
633.556204971
 21
873.7256736955
 31
0.0
  0
LINE
  5
2E2
330
1F
100
AcDbEntity
  8
0
  6
Continuous
 62
     7
370
    25
100
AcDbLine
 10
633.5550423964
 20
873.725678817
 30
0.0
 11
632.9331274529
 21
874.1946725581
 31
0.0
  0
LINE
  5
2E3
330
1F
100
AcDbEntity
  8
0
  6
Continuous
 62
     7
370
    25
100
AcDbLine
 10
632.9331274089
 20
874.1946725782
 30
0.0
 11
633.132810569
 21
873.7256736955
 31
0.0
  0
LINE
  5
2E4
330
1F
100
AcDbEntity
  8
0
  6
Continuous
 62
     7
370
    25
100
AcDbLine
 10
633.1313708543
 20
873.7256788103
 30
0.0
 11
632.4874185589
 21
874.1946725581
 31
0.0
  0
LINE
  5
2E5
330
1F
100
AcDbEntity
  8
0
  6
Continuous
 62
     7
370
    25
100
AcDbLine
 10
632.4874185104
 20
874.1946725782
 30
0.0
 11
632.6211507202
 21
873.7256736955
 31
0.0
  0
LINE
  5
2E6
330
1F
100
AcDbEntity
  8
0
  6
Continuous
 62
     7
370
    25
100
AcDbLine
 10
632.6194482605
 20
873.7256788103
 30
0.0
 11
631.9598927617
 21
874.1946725581
 31
0.0
  0
LINE
  5
2E7
330
1F
100
AcDbEntity
  8
0
  6
Continuous
 62
     7
370
    25
100
AcDbLine
 10
631.9598927093
 20
874.1946725782
 30
0.0
 11
632.0263377607
 21
873.7256736955
 31
0.0
  0
LINE
  5
2E8
330
1F
100
AcDbEntity
  8
0
  6
Continuous
 62
     7
370
    25
100
AcDbLine
 10
632.0243895724
 20
873.725678817
 30
0.0
 11
631.3558209249
 21
874.1946725581
 31
0.0
  0
LINE
  5
2E9
330
1F
100
AcDbEntity
  8
0
  6
Continuous
 62
     7
370
    25
100
AcDbLine
 10
631.3558208689
 20
874.1946725782
 30
0.0
 11
631.3543148651
 21
873.7256736955
 31
0.0
  0
LINE
  5
2EA
330
1F
100
AcDbEntity
  8
0
  6
Continuous
 62
     7
370
    25
100
AcDbLine
 10
631.3521404018
 20
873.7256788103
 30
0.0
 11
630.6812387344
 21
874.1946725581
 31
0.0
  0
LINE
  5
2EB
330
1F
100
AcDbEntity
  8
0
  6
Continuous
 62
     7
370
    25
100
AcDbLine
 10
630.6812386756
 20
874.1946725782
 30
0.0
 11
630.6117966639
 21
873.7256736956
 31
0.0
  0
LINE
  5
2EC
330
1F
100
AcDbEntity
  8
0
  6
Continuous
 62
     7
370
    25
100
AcDbLine
 10
630.6094176582
 20
873.7256788103
 30
0.0
 11
629.9428863925
 21
874.1946725581
 31
0.0
  0
LINE
  5
2ED
330
1F
100
AcDbEntity
  8
0
  6
Continuous
 62
     7
370
    25
100
AcDbLine
 10
629.9428863314
 20
874.1946725782
 30
0.0
 11
629.8062021535
 21
873.7256736956
 31
0.0
  0
LINE
  5
2EE
330
1F
100
AcDbEntity
  8
0
  6
Continuous
 62
     7
370
    25
100
AcDbLine
 10
629.8036423773
 20
873.725678817
 30
0.0
 11
629.1481412718
 21
874.1946725581
 31
0.0
  0
LINE
  5
2EF
330
1F
100
AcDbEntity
  8
0
  6
Continuous
 62
     7
370
    25
100
AcDbLine
 10
629.1481412091
 20
874.1946725782
 30
0.0
 11
628.9455805681
 21
873.7256736955
 31
0.0
  0
LINE
  5
2F0
330
1F
100
AcDbEntity
  8
0
  6
Continuous
 62
     7
370
    25
100
AcDbLine
 10
628.9428655945
 20
873.7256788103
 30
0.0
 11
628.3049442029
 21
874.1946725581
 31
0.0
  0
LINE
  5
2F1
330
1F
100
AcDbEntity
  8
0
  6
Continuous
 62
     7
370
    25
100
AcDbLine
 10
628.3049441391
 20
874.1946725782
 30
0.0
 11
628.0385309539
 21
873.7256736955
 31
0.0
  0
LINE
  5
2F2
330
1F
100
AcDbEntity
  8
0
  6
Continuous
 62
     7
370
    25
100
AcDbLine
 10
628.0356879118
 20
873.7256788103
 30
0.0
 11
627.421720132
 21
874.1946725581
 31
0.0
  0
LINE
  5
2F3
330
1F
100
AcDbEntity
  8
0
  6
Continuous
 62
     7
370
    25
100
AcDbLine
 10
627.4217200678
 20
874.1946725782
 30
0.0
 11
627.094116251
 21
873.7256736955
 31
0.0
  0
LINE
  5
2F4
330
1F
100
AcDbEntity
  8
0
  6
Continuous
 62
     7
370
    25
100
AcDbLine
 10
627.091173547
 20
873.7256788103
 30
0.0
 11
626.5072939423
 21
874.1946725581
 31
0.0
  0
LINE
  5
2F5
330
1F
100
AcDbEntity
  8
0
  6
Continuous
 62
     7
370
    25
100
AcDbLine
 10
626.5072938783
 20
874.1946725782
 30
0.0
 11
626.121772739
 21
873.7256736956
 31
0.0
  0
LINE
  5
2F6
330
1F
100
AcDbEntity
  8
0
  6
Continuous
 62
     7
370
    25
100
AcDbLine
 10
626.1187597755
 20
873.7256788103
 30
0.0
 11
625.5708022778
 21
874.1946725581
 31
0.0
  0
LINE
  5
2F7
330
1F
100
AcDbEntity
  8
0
  6
Continuous
 62
     7
370
    25
100
AcDbLine
 10
625.5708022146
 20
874.1946725782
 30
0.0
 11
625.1312157526
 21
873.7256736956
 31
0.0
  0
LINE
  5
2F8
330
1F
100
AcDbEntity
  8
0
  6
Continuous
 62
     7
370
    25
100
AcDbLine
 10
625.1281626343
 20
873.7256788103
 30
0.0
 11
624.7036506185
 21
874.1203359761
 31
0.0
  0
LINE
  5
2F9
330
1F
100
AcDbEntity
  8
0
  6
Continuous
 62
     7
370
    25
100
AcDbLine
 10
624.7036505562
 20
874.1203359954
 30
0.0
 11
624.3004557884
 21
873.7256736955
 31
0.0
  0
LINE
  5
2FA
330
1F
100
AcDbEntity
  8
0
  6
Continuous
 62
     7
370
    25
100
AcDbLine
 10
623.8291439559
 20
874.1946725782
 30
0.0
 11
623.302268528
 21
873.7256736956
 31
0.0
  0
LINE
  5
2FB
330
1F
100
AcDbEntity
  8
0
  6
Continuous
 62
     7
370
    25
100
AcDbLine
 10
623.2992210555
 20
873.7256788103
 30
0.0
 11
622.8812897406
 21
874.1946725581
 31
0.0
  0
LINE
  5
2FC
330
1F
100
AcDbEntity
  8
0
  6
Continuous
 62
     7
370
    25
100
AcDbLine
 10
622.8812896833
 20
874.1946725782
 30
0.0
 11
622.3140393471
 21
873.7256736955
 31
0.0
  0
LINE
  5
2FD
330
1F
100
AcDbEntity
  8
0
  6
Continuous
 62
     7
370
    25
100
AcDbLine
 10
622.3110381378
 20
873.7256788103
 30
0.0
 11
621.9475998261
 21
874.1946725581
 31
0.0
  0
LINE
  5
2FE
330
1F
100
AcDbEntity
  8
0
  6
Continuous
 62
     7
370
    25
100
AcDbLine
 10
621.947599772
 20
874.1946725782
 30
0.0
 11
621.3456423055
 21
873.7256736955
 31
0.0
  0
LINE
  5
2FF
330
1F
100
AcDbEntity
  8
0
  6
Continuous
 62
     7
370
    25
100
AcDbLine
 10
621.3427173359
 20
873.725678817
 30
0.0
 11
621.0374033932
 21
874.1946725581
 31
0.0
  0
LINE
  5
300
330
1F
100
AcDbEntity
  8
0
  6
Continuous
 62
     7
370
    25
100
AcDbLine
 10
621.0374033428
 20
874.1946725782
 30
0.0
 11
620.4067533061
 21
873.7256736955
 31
0.0
  0
LINE
  5
301
330
1F
100
AcDbEntity
  8
0
  6
Continuous
 62
     7
370
    25
100
AcDbLine
 10
620.4039338224
 20
873.7256788103
 30
0.0
 11
620.1597948239
 21
874.1946725581
 31
0.0
  0
LINE
  5
302
330
1F
100
AcDbEntity
  8
0
  6
Continuous
 62
     7
370
    25
100
AcDbLine
 10
620.1597947777
 20
874.1946725782
 30
0.0
 11
619.5067534174
 21
873.7256736955
 31
0.0
  0
LINE
  5
303
330
1F
100
AcDbEntity
  8
0
  6
Continuous
 62
     7
370
    25
100
AcDbLine
 10
619.5040675805
 20
873.7256788103
 30
0.0
 11
619.3235428929
 21
874.1946725581
 31
0.0
  0
LINE
  5
304
330
1F
100
AcDbEntity
  8
0
  6
Continuous
 62
     7
370
    25
100
AcDbLine
 10
619.3235428514
 20
874.1946725782
 30
0.0
 11
618.654635141
 21
873.7256736956
 31
0.0
  0
LINE
  5
305
330
1F
100
AcDbEntity
  8
0
  6
Continuous
 62
     7
370
    25
100
AcDbLine
 10
618.6521097867
 20
873.7256788103
 30
0.0
 11
618.537003153
 21
874.1946725581
 31
0.0
  0
LINE
  5
306
330
1F
100
AcDbEntity
  8
0
  6
Continuous
 62
     7
370
    25
100
AcDbLine
 10
618.5370031166
 20
874.1946725782
 30
0.0
 11
617.8589125608
 21
873.7256736956
 31
0.0
  0
LINE
  5
307
330
1F
100
AcDbEntity
  8
0
  6
Continuous
 62
     7
370
    25
100
AcDbLine
 10
617.856572908
 20
873.725678817
 30
0.0
 11
617.8080344493
 21
874.1946725581
 31
0.0
  0
LINE
  5
308
330
1F
100
AcDbEntity
  8
0
  6
Continuous
 62
     7
370
    25
100
AcDbLine
 10
617.8080344184
 20
874.1946725782
 30
0.0
 11
617.1275362737
 21
873.7256736955
 31
0.0
  0
LINE
  5
309
330
1F
100
AcDbEntity
  8
0
  6
Continuous
 62
     7
370
    25
100
AcDbLine
 10
617.1254057127
 20
873.725678817
 30
0.0
 11
617.1439203961
 21
874.1946725581
 31
0.0
  0
LINE
  5
30A
330
1F
100
AcDbEntity
  8
0
  6
Continuous
 62
     7
370
    25
100
AcDbLine
 10
617.143920371
 20
874.1946725782
 30
0.0
 11
616.4678139501
 21
873.7256736955
 31
0.0
  0
LINE
  5
30B
330
1F
100
AcDbEntity
  8
0
  6
Continuous
 62
     7
370
    25
100
AcDbLine
 10
616.4659137686
 20
873.725678817
 30
0.0
 11
616.5512966016
 21
874.1946725581
 31
0.0
  0
LINE
  5
30C
330
1F
100
AcDbEntity
  8
0
  6
Continuous
 62
     7
370
    25
100
AcDbLine
 10
616.5512965825
 20
874.1946725782
 30
0.0
 11
615.8863373175
 21
873.7256736956
 31
0.0
  0
LINE
  5
30D
330
1F
100
AcDbEntity
  8
0
  6
Continuous
 62
     7
370
    25
100
AcDbLine
 10
615.8846865013
 20
873.725678817
 30
0.0
 11
616.0360843669
 21
874.1946725581
 31
0.0
  0
LINE
  5
30E
330
1F
100
AcDbEntity
  8
0
  6
Continuous
 62
     7
370
    25
100
AcDbLine
 10
616.036084354
 20
874.1946725782
 30
0.0
 11
615.3889162975
 21
873.7256736955
 31
0.0
  0
LINE
  5
30F
330
1F
100
AcDbEntity
  8
0
  6
Continuous
 62
     7
370
    25
100
AcDbLine
 10
615.3875313414
 20
873.725678817
 30
0.0
 11
615.6034315221
 21
874.1946725581
 31
0.0
  0
LINE
  5
310
330
1F
100
AcDbEntity
  8
0
  6
Continuous
 62
     7
370
    25
100
AcDbLine
 10
615.6034315156
 20
874.1946725782
 30
0.0
 11
614.9805209574
 21
873.7256736956
 31
0.0
  0
LINE
  5
311
330
1F
100
AcDbEntity
  8
0
  6
Continuous
 62
     7
370
    25
100
AcDbLine
 10
614.979415714
 20
873.7256788103
 30
0.0
 11
615.2576609916
 21
874.1946725581
 31
0.0
  0
LINE
  5
312
330
1F
100
AcDbEntity
  8
0
  6
Continuous
 62
     7
370
    25
100
AcDbLine
 10
615.2576609915
 20
874.1946725782
 30
0.0
 11
614.6652318478
 21
873.7256736956
 31
0.0
  0
LINE
  5
313
330
1F
100
AcDbEntity
  8
0
  6
Continuous
 62
     7
370
    25
100
AcDbLine
 10
614.6644173455
 20
873.7256788103
 30
0.0
 11
615.0022276002
 21
874.1946725581
 31
0.0
  0
LINE
  5
314
330
1F
100
AcDbEntity
  8
0
  6
Continuous
 62
     7
370
    25
100
AcDbLine
 10
615.0022276065
 20
874.1946725782
 30
0.0
 11
614.4461992335
 21
873.7256736956
 31
0.0
  0
LINE
  5
315
330
1F
100
AcDbEntity
  8
0
  6
Continuous
 62
     7
370
    25
100
AcDbLine
 10
614.4456835962
 20
873.725678817
 30
0.0
 11
614.8396835539
 21
874.1946725581
 31
0.0
  0
LINE
  5
316
330
1F
100
AcDbEntity
  8
0
  6
Continuous
 62
     7
370
    25
100
AcDbLine
 10
614.8396835666
 20
874.1946725782
 30
0.0
 11
614.3256116158
 21
873.7256736955
 31
0.0
  0
LINE
  5
317
330
1F
100
AcDbEntity
  8
0
  6
Continuous
 62
     7
370
    25
100
AcDbLine
 10
614.3254000104
 20
873.725678817
 30
0.0
 11
614.7716529369
 21
874.1946725558
 31
0.0
  0
SPLINE
  5
318
330
1F
100
AcDbEntity
  8
0
  6
Continuous
 62
     7
370
    25
100
AcDbSpline
210
0.0
220
0.0
230
1.0
 70
     8
 71
     3
 72
     9
 73
     5
 74
     0
 42
0.000000001
 43
0.00000001
 40
0.0
 40
0.0
 40
0.0
 40
0.0
 40
0.4113489507533464
 40
1.0
 40
1.0
 40
1.0
 40
1.0
 10
614.7716529487664
 20
874.19467256924
 30
0.0
 10
614.707185760463
 20
874.1312909889502
 30
0.0
 10
614.5504643486653
 20
873.9772087184751
 30
0.0
 10
614.3957478789641
 20
873.8188762621344
 30
0.0
 10
614.3046738667387
 20
873.7256736955796
 30
0.0
  0
SPLINE
  5
319
330
1F
100
AcDbEntity
  8
0
  6
Continuous
 62
     7
370
    25
100
AcDbSpline
210
0.0
220
0.0
230
1.0
 70
     8
 71
     3
 72
     9
 73
     5
 74
     0
 42
0.000000001
 43
0.00000001
 40
0.0
 40
0.0
 40
0.0
 40
0.0
 40
0.258109883462665
 40
1.0
 40
1.0
 40
1.0
 40
1.0
 10
634.2956539030375
 20
873.7266404858063
 30
0.0
 10
634.2551795753994
 20
873.7674894737288
 30
0.0
 10
634.098369122831
 20
873.9257514797183
 30
0.0
 10
633.939629747418
 20
874.0801361196004
 30
0.0
 10
633.821862573694
 20
874.1946725580742
 30
0.0
  0
LINE
  5
31A
330
1F
100
AcDbEntity
  8
0
  6
Continuous
 62
     7
370
    25
100
AcDbLine
 10
614.8014224587
 20
874.2266404858
 30
0.0
 11
633.7963910648
 21
874.2266404858
 31
0.0
  0
LINE
  5
31B
330
1F
100
AcDbEntity
  8
0
  6
Continuous
 62
     7
370
    25
100
AcDbLine
 10
624.7036505762
 20
870.3329449571
 30
0.0
 11
624.7036505974
 21
874.1203359953
 31
0.0
  0
LINE
  5
31C
330
1F
100
AcDbEntity
  8
0
  6
Continuous
 62
     7
370
    25
100
AcDbLine
 10
625.570802232
 20
870.2586083754
 30
0.0
 11
625.5708022549
 21
874.1946725772
 31
0.0
  0
LINE
  5
31D
330
1F
100
AcDbEntity
  8
0
  6
Continuous
 62
     7
370
    25
100
AcDbLine
 10
625.1298007899
 20
870.7266404858
 30
0.0
 11
625.1298007899
 21
873.7266404858
 31
0.0
  0
LINE
  5
31E
330
1F
100
AcDbEntity
  8
0
  6
Continuous
 62
     7
370
    25
100
AcDbLine
 10
623.3005725953
 20
870.7266404858
 30
0.0
 11
623.3005725953
 21
873.7266404858
 31
0.0
  0
LINE
  5
31F
330
1F
100
AcDbEntity
  8
0
  6
Continuous
 62
     7
370
    25
100
AcDbLine
 10
622.8812897057
 20
870.2586083754
 30
0.0
 11
622.8812897232
 21
874.1946725772
 31
0.0
  0
LINE
  5
320
330
1F
100
AcDbEntity
  8
0
  6
Continuous
 62
     7
370
    25
100
AcDbLine
 10
626.1205318045
 20
870.7266404858
 30
0.0
 11
626.1205318045
 21
873.7266404858
 31
0.0
  0
LINE
  5
321
330
1F
100
AcDbEntity
  8
0
  6
Continuous
 62
     7
370
    25
100
AcDbLine
 10
626.5072938935
 20
870.2586083754
 30
0.0
 11
626.5072939179
 21
874.1946725772
 31
0.0
  0
LINE
  5
322
330
1F
100
AcDbEntity
  8
0
  6
Continuous
 62
     7
370
    25
100
AcDbLine
 10
622.3122134538
 20
870.7266404858
 30
0.0
 11
622.3122134538
 21
873.7266404858
 31
0.0
  0
LINE
  5
323
330
1F
100
AcDbEntity
  8
0
  6
Continuous
 62
     7
370
    25
100
AcDbLine
 10
621.9475997957
 20
870.2586083754
 30
0.0
 11
621.9475998109
 21
874.1946725772
 31
0.0
  0
LINE
  5
324
330
1F
100
AcDbEntity
  8
0
  6
Continuous
 62
     7
370
    25
100
AcDbLine
 10
627.0930617437
 20
870.7266404858
 30
0.0
 11
627.0930617437
 21
873.7266404858
 31
0.0
  0
LINE
  5
325
330
1F
100
AcDbEntity
  8
0
  6
Continuous
 62
     7
370
    25
100
AcDbLine
 10
627.4217200807
 20
870.2586083754
 30
0.0
 11
627.4217201064
 21
874.1946725772
 31
0.0
  0
LINE
  5
326
330
1F
100
AcDbEntity
  8
0
  6
Continuous
 62
     7
370
    25
100
AcDbLine
 10
621.3437046951
 20
870.7266404858
 30
0.0
 11
621.3437046951
 21
873.7266404858
 31
0.0
  0
LINE
  5
327
330
1F
100
AcDbEntity
  8
0
  6
Continuous
 62
     7
370
    25
100
AcDbLine
 10
621.0374033677
 20
870.2586083754
 30
0.0
 11
621.0374033805
 21
874.1946725772
 31
0.0
  0
LINE
  5
328
330
1F
100
AcDbEntity
  8
0
  6
Continuous
 62
     7
370
    25
100
AcDbLine
 10
628.3049441496
 20
870.2586083754
 30
0.0
 11
628.3049441762
 21
874.1946725772
 31
0.0
  0
LINE
  5
329
330
1F
100
AcDbEntity
  8
0
  6
Continuous
 62
     7
370
    25
100
AcDbLine
 10
628.0376734101
 20
870.7266404858
 30
0.0
 11
628.0376734101
 21
873.7266404858
 31
0.0
  0
LINE
  5
32A
330
1F
100
AcDbEntity
  8
0
  6
Continuous
 62
     7
370
    25
100
AcDbLine
 10
620.4047233387
 20
870.7266404858
 30
0.0
 11
620.4047233387
 21
873.7266404858
 31
0.0
  0
LINE
  5
32B
330
1F
100
AcDbEntity
  8
0
  6
Continuous
 62
     7
370
    25
100
AcDbLine
 10
620.1597948035
 20
870.2586083754
 30
0.0
 11
620.1597948137
 21
874.1946725772
 31
0.0
  0
LINE
  5
32C
330
1F
100
AcDbEntity
  8
0
  6
Continuous
 62
     7
370
    25
100
AcDbLine
 10
629.1481412171
 20
870.2586083754
 30
0.0
 11
629.1481412444
 21
874.1946725772
 31
0.0
  0
LINE
  5
32D
330
1F
100
AcDbEntity
  8
0
  6
Continuous
 62
     7
370
    25
100
AcDbLine
 10
628.9449285559
 20
870.7266404858
 30
0.0
 11
628.9449285559
 21
873.7266404858
 31
0.0
  0
LINE
  5
32E
330
1F
100
AcDbEntity
  8
0
  6
Continuous
 62
     7
370
    25
100
AcDbLine
 10
619.5046513757
 20
870.7266404858
 30
0.0
 11
619.5046513757
 21
873.7266404858
 31
0.0
  0
LINE
  5
32F
330
1F
100
AcDbEntity
  8
0
  6
Continuous
 62
     7
370
    25
100
AcDbLine
 10
619.3235428778
 20
870.2586083754
 30
0.0
 11
619.3235428853
 21
874.1946725772
 31
0.0
  0
LINE
  5
330
330
1F
100
AcDbEntity
  8
0
  6
Continuous
 62
     7
370
    25
100
AcDbLine
 10
629.8057621877
 20
870.7266404858
 30
0.0
 11
629.8057621877
 21
873.7266404858
 31
0.0
  0
LINE
  5
331
330
1F
100
AcDbEntity
  8
0
  6
Continuous
 62
     7
370
    25
100
AcDbLine
 10
629.9428863368
 20
870.2586083754
 30
0.0
 11
629.9428863647
 21
874.1946725772
 31
0.0
  0
LINE
  5
332
330
1F
100
AcDbEntity
  8
0
  6
Continuous
 62
     7
370
    25
100
AcDbLine
 10
618.6524820278
 20
870.7266404858
 30
0.0
 11
618.6524820278
 21
873.7266404858
 31
0.0
  0
LINE
  5
333
330
1F
100
AcDbEntity
  8
0
  6
Continuous
 62
     7
370
    25
100
AcDbLine
 10
618.5370031433
 20
870.2586083754
 30
0.0
 11
618.5370031481
 21
874.1946725772
 31
0.0
  0
LINE
  5
334
330
1F
100
AcDbEntity
  8
0
  6
Continuous
 62
     7
370
    25
100
AcDbLine
 10
630.6115731405
 20
870.7266404858
 30
0.0
 11
630.6115731405
 21
873.7266404858
 31
0.0
  0
LINE
  5
335
330
1F
100
AcDbEntity
  8
0
  6
Continuous
 62
     7
370
    25
100
AcDbLine
 10
630.6812386783
 20
870.2586083754
 30
0.0
 11
630.6812387063
 21
874.1946725772
 31
0.0
  0
LINE
  5
336
330
1F
100
AcDbEntity
  8
0
  6
Continuous
 62
     7
370
    25
100
AcDbLine
 10
617.8567298894
 20
870.7266404858
 30
0.0
 11
617.8567298894
 21
873.7266404858
 31
0.0
  0
LINE
  5
337
330
1F
100
AcDbEntity
  8
0
  6
Continuous
 62
     7
370
    25
100
AcDbLine
 10
617.8080344452
 20
870.2586083754
 30
0.0
 11
617.8080344472
 21
874.1946725772
 31
0.0
  0
LINE
  5
338
330
1F
100
AcDbEntity
  8
0
  6
Continuous
 62
     7
370
    25
100
AcDbLine
 10
631.3543100175
 20
870.7266404858
 30
0.0
 11
631.3543100175
 21
873.7266404858
 31
0.0
  0
LINE
  5
339
330
1F
100
AcDbEntity
  8
0
  6
Continuous
 62
     7
370
    25
100
AcDbLine
 10
631.355820869
 20
870.2586083754
 30
0.0
 11
631.3558208969
 21
874.1946725772
 31
0.0
  0
LINE
  5
33A
330
1F
100
AcDbEntity
  8
0
  6
Continuous
 62
     7
370
    25
100
AcDbLine
 10
617.1253458528
 20
870.7266404858
 30
0.0
 11
617.1253458528
 21
873.7266404858
 31
0.0
  0
LINE
  5
33B
330
1F
100
AcDbEntity
  8
0
  6
Continuous
 62
     7
370
    25
100
AcDbLine
 10
632.0265516373
 20
870.7266404858
 30
0.0
 11
632.0265516373
 21
873.7266404858
 31
0.0
  0
LINE
  5
33C
330
1F
100
AcDbEntity
  8
0
  6
Continuous
 62
     7
370
    25
100
AcDbLine
 10
616.4656376655
 20
870.7266404858
 30
0.0
 11
616.4656376655
 21
873.7266404858
 31
0.0
  0
LINE
  5
33D
330
1F
100
AcDbEntity
  8
0
  6
Continuous
 62
     7
370
    25
100
AcDbLine
 10
632.621581184
 20
870.7266404858
 30
0.0
 11
632.621581184
 21
873.7266404858
 31
0.0
  0
LINE
  5
33E
330
1F
100
AcDbEntity
  8
0
  6
Continuous
 62
     7
370
    25
100
AcDbLine
 10
615.8841969137
 20
870.7266404858
 30
0.0
 11
615.8841969137
 21
873.7266404858
 31
0.0
  0
LINE
  5
33F
330
1F
100
AcDbEntity
  8
0
  6
Continuous
 62
     7
370
    25
100
AcDbLine
 10
633.133453319
 20
870.7266404858
 30
0.0
 11
633.133453319
 21
873.7266404858
 31
0.0
  0
LINE
  5
340
330
1F
100
AcDbEntity
  8
0
  6
Continuous
 62
     7
370
    25
100
AcDbLine
 10
615.3868331611
 20
870.7266404858
 30
0.0
 11
615.3868331611
 21
873.7266404858
 31
0.0
  0
LINE
  5
341
330
1F
100
AcDbEntity
  8
0
  6
Continuous
 62
     7
370
    25
100
AcDbLine
 10
633.557053585
 20
870.7266404858
 30
0.0
 11
633.557053585
 21
873.7266404858
 31
0.0
  0
LINE
  5
342
330
1F
100
AcDbEntity
  8
0
  6
Continuous
 62
     7
370
    25
100
AcDbLine
 10
614.9785159021
 20
870.7266404858
 30
0.0
 11
614.9785159021
 21
873.7266404858
 31
0.0
  0
LINE
  5
343
330
1F
100
AcDbEntity
  8
0
  6
Continuous
 62
     7
370
    25
100
AcDbLine
 10
633.8881495084
 20
870.7266404858
 30
0.0
 11
633.8881495084
 21
873.7266404858
 31
0.0
  0
LINE
  5
344
330
1F
100
AcDbEntity
  8
0
  6
Continuous
 62
     7
370
    25
100
AcDbLine
 10
614.6633249076
 20
870.7266404858
 30
0.0
 11
614.6633249076
 21
873.7266404858
 31
0.0
  0
LINE
  5
345
330
1F
100
AcDbEntity
  8
0
  6
Continuous
 62
     7
370
    25
100
AcDbLine
 10
634.123432888
 20
870.7266404858
 30
0.0
 11
634.123432888
 21
873.7266404858
 31
0.0
  0
LINE
  5
346
330
1F
100
AcDbEntity
  8
0
  6
Continuous
 62
     7
370
    25
100
AcDbLine
 10
614.4444094619
 20
870.7266404858
 30
0.0
 11
614.4444094619
 21
873.7266404858
 31
0.0
  0
LINE
  5
347
330
1F
100
AcDbEntity
  8
0
  6
Continuous
 62
     7
370
    25
100
AcDbLine
 10
634.2605528501
 20
870.7266404858
 30
0.0
 11
634.2605528501
 21
873.7266404858
 31
0.0
  0
LINE
  5
348
330
1F
100
AcDbEntity
  8
0
  6
Continuous
 62
     7
370
    25
100
AcDbLine
 10
614.3239568957
 20
870.7266404858
 30
0.0
 11
614.3239568957
 21
873.7266404858
 31
0.0
  0
LINE
  5
349
330
1F
100
AcDbEntity
  8
0
  6
Continuous
 62
     7
370
    25
100
AcDbLine
 10
634.2963910648
 20
873.7266404858
 30
0.0
 11
634.295653903
 21
873.7266404858
 31
0.0
  0
LINE
  5
34A
330
1F
100
AcDbEntity
  8
0
  6
Continuous
 62
     7
370
    25
100
AcDbLine
 10
634.2963910648
 20
873.7266404858
 30
0.0
 11
634.2963910648
 21
870.7266404858
 31
0.0
  0
LINE
  5
34B
330
1F
100
AcDbEntity
  8
0
  6
Continuous
 62
     7
370
    25
100
AcDbLine
 10
634.295653903
 20
870.7266404858
 30
0.0
 11
634.2963910648
 21
870.7266404858
 31
0.0
  0
LINE
  5
34C
330
1F
100
AcDbEntity
  8
0
  6
Continuous
 62
     7
370
    25
100
AcDbLine
 10
614.3031707313
 20
873.7266404858
 30
0.0
 11
614.3031707313
 21
870.7266404858
 31
0.0
  0
LINE
  5
34D
330
1F
100
AcDbEntity
  8
0
  6
Continuous
 62
     7
370
    25
100
AcDbLine
 10
259.8218625513
 20
874.1946725782
 30
0.0
 11
260.2591453028
 21
873.7256736956
 31
0.0
  0
LINE
  5
34E
330
1F
100
AcDbEntity
  8
0
  6
Continuous
 62
     7
370
    25
100
AcDbLine
 10
260.2588721785
 20
873.7256788103
 30
0.0
 11
259.7391647616
 21
874.1946725581
 31
0.0
  0
LINE
  5
34F
330
1F
100
AcDbEntity
  8
0
  6
Continuous
 62
     7
370
    25
100
AcDbLine
 10
259.7391647333
 20
874.1946725782
 30
0.0
 11
260.1221999553
 21
873.7256736956
 31
0.0
  0
LINE
  5
350
330
1F
100
AcDbEntity
  8
0
  6
Continuous
 62
     7
370
    25
100
AcDbLine
 10
260.1216236066
 20
873.725678817
 30
0.0
 11
259.5621430121
 21
874.1946725581
 31
0.0
  0
LINE
  5
351
330
1F
100
AcDbEntity
  8
0
  6
Continuous
 62
     7
370
    25
100
AcDbLine
 10
259.5621429781
 20
874.1946725782
 30
0.0
 11
259.8871035094
 21
873.7256736956
 31
0.0
  0
LINE
  5
352
330
1F
100
AcDbEntity
  8
0
  6
Continuous
 62
     7
370
    25
100
AcDbLine
 10
259.8862296714
 20
873.7256788103
 30
0.0
 11
259.2925660679
 21
874.1946725581
 31
0.0
  0
LINE
  5
353
330
1F
100
AcDbEntity
  8
0
  6
Continuous
 62
     7
370
    25
100
AcDbLine
 10
259.2925660287
 20
874.1946725782
 30
0.0
 11
259.556204971
 21
873.7256736955
 31
0.0
  0
LINE
  5
354
330
1F
100
AcDbEntity
  8
0
  6
Continuous
 62
     7
370
    25
100
AcDbLine
 10
259.5550423964
 20
873.725678817
 30
0.0
 11
258.9331274529
 21
874.1946725581
 31
0.0
  0
LINE
  5
355
330
1F
100
AcDbEntity
  8
0
  6
Continuous
 62
     7
370
    25
100
AcDbLine
 10
258.9331274089
 20
874.1946725782
 30
0.0
 11
259.132810569
 21
873.7256736955
 31
0.0
  0
LINE
  5
356
330
1F
100
AcDbEntity
  8
0
  6
Continuous
 62
     7
370
    25
100
AcDbLine
 10
259.1313708543
 20
873.7256788103
 30
0.0
 11
258.4874185589
 21
874.1946725581
 31
0.0
  0
LINE
  5
357
330
1F
100
AcDbEntity
  8
0
  6
Continuous
 62
     7
370
    25
100
AcDbLine
 10
258.4874185104
 20
874.1946725782
 30
0.0
 11
258.6211507202
 21
873.7256736955
 31
0.0
  0
LINE
  5
358
330
1F
100
AcDbEntity
  8
0
  6
Continuous
 62
     7
370
    25
100
AcDbLine
 10
258.6194482605
 20
873.7256788103
 30
0.0
 11
257.9598927617
 21
874.1946725581
 31
0.0
  0
LINE
  5
359
330
1F
100
AcDbEntity
  8
0
  6
Continuous
 62
     7
370
    25
100
AcDbLine
 10
257.9598927093
 20
874.1946725782
 30
0.0
 11
258.0263377607
 21
873.7256736955
 31
0.0
  0
LINE
  5
35A
330
1F
100
AcDbEntity
  8
0
  6
Continuous
 62
     7
370
    25
100
AcDbLine
 10
258.0243895724
 20
873.725678817
 30
0.0
 11
257.3558209249
 21
874.1946725581
 31
0.0
  0
LINE
  5
35B
330
1F
100
AcDbEntity
  8
0
  6
Continuous
 62
     7
370
    25
100
AcDbLine
 10
257.3558208689
 20
874.1946725782
 30
0.0
 11
257.3543148651
 21
873.7256736955
 31
0.0
  0
LINE
  5
35C
330
1F
100
AcDbEntity
  8
0
  6
Continuous
 62
     7
370
    25
100
AcDbLine
 10
257.3521404018
 20
873.7256788103
 30
0.0
 11
256.6812387344
 21
874.1946725581
 31
0.0
  0
LINE
  5
35D
330
1F
100
AcDbEntity
  8
0
  6
Continuous
 62
     7
370
    25
100
AcDbLine
 10
256.6812386756
 20
874.1946725782
 30
0.0
 11
256.6117966639
 21
873.7256736956
 31
0.0
  0
LINE
  5
35E
330
1F
100
AcDbEntity
  8
0
  6
Continuous
 62
     7
370
    25
100
AcDbLine
 10
256.6094176582
 20
873.7256788103
 30
0.0
 11
255.9428863925
 21
874.1946725581
 31
0.0
  0
LINE
  5
35F
330
1F
100
AcDbEntity
  8
0
  6
Continuous
 62
     7
370
    25
100
AcDbLine
 10
255.9428863314
 20
874.1946725782
 30
0.0
 11
255.8062021535
 21
873.7256736956
 31
0.0
  0
LINE
  5
360
330
1F
100
AcDbEntity
  8
0
  6
Continuous
 62
     7
370
    25
100
AcDbLine
 10
255.8036423773
 20
873.725678817
 30
0.0
 11
255.1481412718
 21
874.1946725581
 31
0.0
  0
LINE
  5
361
330
1F
100
AcDbEntity
  8
0
  6
Continuous
 62
     7
370
    25
100
AcDbLine
 10
255.1481412091
 20
874.1946725782
 30
0.0
 11
254.9455805681
 21
873.7256736955
 31
0.0
  0
LINE
  5
362
330
1F
100
AcDbEntity
  8
0
  6
Continuous
 62
     7
370
    25
100
AcDbLine
 10
254.9428655945
 20
873.7256788103
 30
0.0
 11
254.3049442029
 21
874.1946725581
 31
0.0
  0
LINE
  5
363
330
1F
100
AcDbEntity
  8
0
  6
Continuous
 62
     7
370
    25
100
AcDbLine
 10
254.3049441391
 20
874.1946725782
 30
0.0
 11
254.0385309539
 21
873.7256736955
 31
0.0
  0
LINE
  5
364
330
1F
100
AcDbEntity
  8
0
  6
Continuous
 62
     7
370
    25
100
AcDbLine
 10
254.0356879118
 20
873.7256788103
 30
0.0
 11
253.421720132
 21
874.1946725581
 31
0.0
  0
LINE
  5
365
330
1F
100
AcDbEntity
  8
0
  6
Continuous
 62
     7
370
    25
100
AcDbLine
 10
253.4217200678
 20
874.1946725782
 30
0.0
 11
253.094116251
 21
873.7256736955
 31
0.0
  0
LINE
  5
366
330
1F
100
AcDbEntity
  8
0
  6
Continuous
 62
     7
370
    25
100
AcDbLine
 10
253.091173547
 20
873.7256788103
 30
0.0
 11
252.5072939423
 21
874.1946725581
 31
0.0
  0
LINE
  5
367
330
1F
100
AcDbEntity
  8
0
  6
Continuous
 62
     7
370
    25
100
AcDbLine
 10
252.5072938783
 20
874.1946725782
 30
0.0
 11
252.121772739
 21
873.7256736956
 31
0.0
  0
LINE
  5
368
330
1F
100
AcDbEntity
  8
0
  6
Continuous
 62
     7
370
    25
100
AcDbLine
 10
252.1187597755
 20
873.7256788103
 30
0.0
 11
251.5708022778
 21
874.1946725581
 31
0.0
  0
LINE
  5
369
330
1F
100
AcDbEntity
  8
0
  6
Continuous
 62
     7
370
    25
100
AcDbLine
 10
251.5708022146
 20
874.1946725782
 30
0.0
 11
251.1312157526
 21
873.7256736956
 31
0.0
  0
LINE
  5
36A
330
1F
100
AcDbEntity
  8
0
  6
Continuous
 62
     7
370
    25
100
AcDbLine
 10
251.1281626343
 20
873.7256788103
 30
0.0
 11
250.7036506185
 21
874.1203359761
 31
0.0
  0
LINE
  5
36B
330
1F
100
AcDbEntity
  8
0
  6
Continuous
 62
     7
370
    25
100
AcDbLine
 10
250.7036505562
 20
874.1203359954
 30
0.0
 11
250.3004557884
 21
873.7256736955
 31
0.0
  0
LINE
  5
36C
330
1F
100
AcDbEntity
  8
0
  6
Continuous
 62
     7
370
    25
100
AcDbLine
 10
250.2973924954
 20
873.725678817
 30
0.0
 11
249.8291440159
 21
874.1946725581
 31
0.0
  0
LINE
  5
36D
330
1F
100
AcDbEntity
  8
0
  6
Continuous
 62
     7
370
    25
100
AcDbLine
 10
249.8291439559
 20
874.1946725782
 30
0.0
 11
249.302268528
 21
873.7256736956
 31
0.0
  0
LINE
  5
36E
330
1F
100
AcDbEntity
  8
0
  6
Continuous
 62
     7
370
    25
100
AcDbLine
 10
249.2992210555
 20
873.7256788103
 30
0.0
 11
248.8812897406
 21
874.1946725581
 31
0.0
  0
LINE
  5
36F
330
1F
100
AcDbEntity
  8
0
  6
Continuous
 62
     7
370
    25
100
AcDbLine
 10
248.8812896833
 20
874.1946725782
 30
0.0
 11
248.3140393471
 21
873.7256736955
 31
0.0
  0
LINE
  5
370
330
1F
100
AcDbEntity
  8
0
  6
Continuous
 62
     7
370
    25
100
AcDbLine
 10
248.3110381378
 20
873.7256788103
 30
0.0
 11
247.9475998261
 21
874.1946725581
 31
0.0
  0
LINE
  5
371
330
1F
100
AcDbEntity
  8
0
  6
Continuous
 62
     7
370
    25
100
AcDbLine
 10
247.947599772
 20
874.1946725782
 30
0.0
 11
247.3456423055
 21
873.7256736955
 31
0.0
  0
LINE
  5
372
330
1F
100
AcDbEntity
  8
0
  6
Continuous
 62
     7
370
    25
100
AcDbLine
 10
247.3427173359
 20
873.725678817
 30
0.0
 11
247.0374033932
 21
874.1946725581
 31
0.0
  0
LINE
  5
373
330
1F
100
AcDbEntity
  8
0
  6
Continuous
 62
     7
370
    25
100
AcDbLine
 10
247.0374033428
 20
874.1946725782
 30
0.0
 11
246.4067533061
 21
873.7256736955
 31
0.0
  0
LINE
  5
374
330
1F
100
AcDbEntity
  8
0
  6
Continuous
 62
     7
370
    25
100
AcDbLine
 10
246.4039338224
 20
873.7256788103
 30
0.0
 11
246.1597948239
 21
874.1946725581
 31
0.0
  0
LINE
  5
375
330
1F
100
AcDbEntity
  8
0
  6
Continuous
 62
     7
370
    25
100
AcDbLine
 10
246.1597947777
 20
874.1946725782
 30
0.0
 11
245.5067534174
 21
873.7256736955
 31
0.0
  0
LINE
  5
376
330
1F
100
AcDbEntity
  8
0
  6
Continuous
 62
     7
370
    25
100
AcDbLine
 10
245.5040675805
 20
873.7256788103
 30
0.0
 11
245.3235428929
 21
874.1946725581
 31
0.0
  0
LINE
  5
377
330
1F
100
AcDbEntity
  8
0
  6
Continuous
 62
     7
370
    25
100
AcDbLine
 10
245.3235428514
 20
874.1946725782
 30
0.0
 11
244.654635141
 21
873.7256736956
 31
0.0
  0
LINE
  5
378
330
1F
100
AcDbEntity
  8
0
  6
Continuous
 62
     7
370
    25
100
AcDbLine
 10
244.6521097867
 20
873.7256788103
 30
0.0
 11
244.537003153
 21
874.1946725581
 31
0.0
  0
LINE
  5
379
330
1F
100
AcDbEntity
  8
0
  6
Continuous
 62
     7
370
    25
100
AcDbLine
 10
244.5370031166
 20
874.1946725782
 30
0.0
 11
243.8589125608
 21
873.7256736956
 31
0.0
  0
LINE
  5
37A
330
1F
100
AcDbEntity
  8
0
  6
Continuous
 62
     7
370
    25
100
AcDbLine
 10
243.856572908
 20
873.725678817
 30
0.0
 11
243.8080344493
 21
874.1946725581
 31
0.0
  0
LINE
  5
37B
330
1F
100
AcDbEntity
  8
0
  6
Continuous
 62
     7
370
    25
100
AcDbLine
 10
243.8080344184
 20
874.1946725782
 30
0.0
 11
243.1275362737
 21
873.7256736955
 31
0.0
  0
LINE
  5
37C
330
1F
100
AcDbEntity
  8
0
  6
Continuous
 62
     7
370
    25
100
AcDbLine
 10
243.1254057127
 20
873.725678817
 30
0.0
 11
243.1439203961
 21
874.1946725581
 31
0.0
  0
LINE
  5
37D
330
1F
100
AcDbEntity
  8
0
  6
Continuous
 62
     7
370
    25
100
AcDbLine
 10
243.143920371
 20
874.1946725782
 30
0.0
 11
242.4678139501
 21
873.7256736955
 31
0.0
  0
LINE
  5
37E
330
1F
100
AcDbEntity
  8
0
  6
Continuous
 62
     7
370
    25
100
AcDbLine
 10
242.4659137686
 20
873.725678817
 30
0.0
 11
242.5512966016
 21
874.1946725581
 31
0.0
  0
LINE
  5
37F
330
1F
100
AcDbEntity
  8
0
  6
Continuous
 62
     7
370
    25
100
AcDbLine
 10
242.5512965825
 20
874.1946725782
 30
0.0
 11
241.8863373175
 21
873.7256736956
 31
0.0
  0
LINE
  5
380
330
1F
100
AcDbEntity
  8
0
  6
Continuous
 62
     7
370
    25
100
AcDbLine
 10
241.8846865013
 20
873.725678817
 30
0.0
 11
242.0360843669
 21
874.1946725581
 31
0.0
  0
LINE
  5
381
330
1F
100
AcDbEntity
  8
0
  6
Continuous
 62
     7
370
    25
100
AcDbLine
 10
242.036084354
 20
874.1946725782
 30
0.0
 11
241.3889162975
 21
873.7256736955
 31
0.0
  0
LINE
  5
382
330
1F
100
AcDbEntity
  8
0
  6
Continuous
 62
     7
370
    25
100
AcDbLine
 10
241.3875313414
 20
873.725678817
 30
0.0
 11
241.6034315221
 21
874.1946725581
 31
0.0
  0
LINE
  5
383
330
1F
100
AcDbEntity
  8
0
  6
Continuous
 62
     7
370
    25
100
AcDbLine
 10
241.6034315156
 20
874.1946725782
 30
0.0
 11
240.9805209574
 21
873.7256736956
 31
0.0
  0
LINE
  5
384
330
1F
100
AcDbEntity
  8
0
  6
Continuous
 62
     7
370
    25
100
AcDbLine
 10
240.979415714
 20
873.7256788103
 30
0.0
 11
241.2576609916
 21
874.1946725581
 31
0.0
  0
LINE
  5
385
330
1F
100
AcDbEntity
  8
0
  6
Continuous
 62
     7
370
    25
100
AcDbLine
 10
241.2576609915
 20
874.1946725782
 30
0.0
 11
240.6652318478
 21
873.7256736956
 31
0.0
  0
LINE
  5
386
330
1F
100
AcDbEntity
  8
0
  6
Continuous
 62
     7
370
    25
100
AcDbLine
 10
240.6644173455
 20
873.7256788103
 30
0.0
 11
241.0022276002
 21
874.1946725581
 31
0.0
  0
LINE
  5
387
330
1F
100
AcDbEntity
  8
0
  6
Continuous
 62
     7
370
    25
100
AcDbLine
 10
241.0022276065
 20
874.1946725782
 30
0.0
 11
240.4461992335
 21
873.7256736956
 31
0.0
  0
LINE
  5
388
330
1F
100
AcDbEntity
  8
0
  6
Continuous
 62
     7
370
    25
100
AcDbLine
 10
240.4456835962
 20
873.725678817
 30
0.0
 11
240.8396835539
 21
874.1946725581
 31
0.0
  0
LINE
  5
389
330
1F
100
AcDbEntity
  8
0
  6
Continuous
 62
     7
370
    25
100
AcDbLine
 10
240.8396835666
 20
874.1946725782
 30
0.0
 11
240.3256116158
 21
873.7256736955
 31
0.0
  0
LINE
  5
38A
330
1F
100
AcDbEntity
  8
0
  6
Continuous
 62
     7
370
    25
100
AcDbLine
 10
240.3254000104
 20
873.725678817
 30
0.0
 11
240.7716529369
 21
874.1946725558
 31
0.0
  0
SPLINE
  5
38B
330
1F
100
AcDbEntity
  8
0
  6
Continuous
 62
     7
370
    25
100
AcDbSpline
210
0.0
220
0.0
230
1.0
 70
     8
 71
     3
 72
     9
 73
     5
 74
     0
 42
0.000000001
 43
0.00000001
 40
0.0
 40
0.0
 40
0.0
 40
0.0
 40
0.4113489507533464
 40
1.0
 40
1.0
 40
1.0
 40
1.0
 10
240.7716529487664
 20
874.1946725692397
 30
0.0
 10
240.7071857604629
 20
874.13129098895
 30
0.0
 10
240.5504643486655
 20
873.9772087184749
 30
0.0
 10
240.3957478789642
 20
873.8188762621342
 30
0.0
 10
240.3046738667387
 20
873.7256736955794
 30
0.0
  0
SPLINE
  5
38C
330
1F
100
AcDbEntity
  8
0
  6
Continuous
 62
     7
370
    25
100
AcDbSpline
210
0.0
220
0.0
230
1.0
 70
     8
 71
     3
 72
     9
 73
     5
 74
     0
 42
0.000000001
 43
0.00000001
 40
0.0
 40
0.0
 40
0.0
 40
0.0
 40
0.258109883462665
 40
1.0
 40
1.0
 40
1.0
 40
1.0
 10
260.2956539030376
 20
873.7266404858062
 30
0.0
 10
260.2551795753995
 20
873.7674894737286
 30
0.0
 10
260.0983691228311
 20
873.9257514797181
 30
0.0
 10
259.9396297474182
 20
874.0801361196002
 30
0.0
 10
259.821862573694
 20
874.194672558074
 30
0.0
  0
LINE
  5
38D
330
1F
100
AcDbEntity
  8
0
  6
Continuous
 62
     7
370
    25
100
AcDbLine
 10
240.8014224587
 20
874.2266404858
 30
0.0
 11
259.7963910648
 21
874.2266404858
 31
0.0
  0
LINE
  5
38E
330
1F
100
AcDbEntity
  8
0
  6
Continuous
 62
     7
370
    25
100
AcDbLine
 10
250.7036505762
 20
870.3329449571
 30
0.0
 11
250.7036505974
 21
874.1203359953
 31
0.0
  0
LINE
  5
38F
330
1F
100
AcDbEntity
  8
0
  6
Continuous
 62
     7
370
    25
100
AcDbLine
 10
250.3004557885
 20
870.727607276
 30
0.0
 11
250.7036505762
 21
870.3329449571
 31
0.0
  0
LINE
  5
390
330
1F
100
AcDbEntity
  8
0
  6
Continuous
 62
     7
370
    25
100
AcDbLine
 10
250.2989067618
 20
870.7266404858
 30
0.0
 11
250.2989067618
 21
873.7266404858
 31
0.0
  0
LINE
  5
391
330
1F
100
AcDbEntity
  8
0
  6
Continuous
 62
     7
370
    25
100
AcDbLine
 10
249.8291439767
 20
870.2586083754
 30
0.0
 11
250.2973925022
 21
870.7276021613
 31
0.0
  0
LINE
  5
392
330
1F
100
AcDbEntity
  8
0
  6
Continuous
 62
     7
370
    25
100
AcDbLine
 10
249.8291439767
 20
870.2586083754
 30
0.0
 11
249.8291439963
 21
874.1946725772
 31
0.0
  0
LINE
  5
393
330
1F
100
AcDbEntity
  8
0
  6
Continuous
 62
     7
370
    25
100
AcDbLine
 10
240.3256116159
 20
870.727607276
 30
0.0
 11
240.8396835868
 21
870.2586083754
 31
0.0
  0
LINE
  5
394
330
1F
100
AcDbEntity
  8
0
  6
Continuous
 62
     7
370
    25
100
AcDbLine
 10
240.8396835868
 20
870.2586083754
 30
0.0
 11
240.4456836105
 21
870.7276021613
 31
0.0
  0
LINE
  5
395
330
1F
100
AcDbEntity
  8
0
  6
Continuous
 62
     7
370
    25
100
AcDbLine
 10
240.4461992221
 20
870.7276072697
 30
0.0
 11
241.0022276284
 21
870.2586083754
 31
0.0
  0
LINE
  5
396
330
1F
100
AcDbEntity
  8
0
  6
Continuous
 62
     7
370
    25
100
AcDbLine
 10
241.0022276284
 20
870.2586083754
 30
0.0
 11
240.6644173454
 21
870.7276021614
 31
0.0
  0
LINE
  5
397
330
1F
100
AcDbEntity
  8
0
  6
Continuous
 62
     7
370
    25
100
AcDbLine
 10
240.6652318373
 20
870.7276072697
 30
0.0
 11
241.2576610149
 21
870.2586083754
 31
0.0
  0
LINE
  5
398
330
1F
100
AcDbEntity
  8
0
  6
Continuous
 62
     7
370
    25
100
AcDbLine
 10
241.2576610149
 20
870.2586083754
 30
0.0
 11
240.979415714
 21
870.7276021613
 31
0.0
  0
LINE
  5
399
330
1F
100
AcDbEntity
  8
0
  6
Continuous
 62
     7
370
    25
100
AcDbLine
 10
240.9805209479
 20
870.7276072697
 30
0.0
 11
241.6034315401
 21
870.2586083754
 31
0.0
  0
LINE
  5
39A
330
1F
100
AcDbEntity
  8
0
  6
Continuous
 62
     7
370
    25
100
AcDbLine
 10
241.6034315401
 20
870.2586083754
 30
0.0
 11
241.3875313564
 21
870.7276021614
 31
0.0
  0
LINE
  5
39B
330
1F
100
AcDbEntity
  8
0
  6
Continuous
 62
     7
370
    25
100
AcDbLine
 10
241.3889162977
 20
870.727607276
 30
0.0
 11
242.0360843795
 21
870.2586083754
 31
0.0
  0
LINE
  5
39C
330
1F
100
AcDbEntity
  8
0
  6
Continuous
 62
     7
370
    25
100
AcDbLine
 10
242.0360843795
 20
870.2586083754
 30
0.0
 11
241.8846865162
 21
870.7276021613
 31
0.0
  0
LINE
  5
39D
330
1F
100
AcDbEntity
  8
0
  6
Continuous
 62
     7
370
    25
100
AcDbLine
 10
241.8863373102
 20
870.7276072697
 30
0.0
 11
242.5512966088
 21
870.2586083754
 31
0.0
  0
LINE
  5
39E
330
1F
100
AcDbEntity
  8
0
  6
Continuous
 62
     7
370
    25
100
AcDbLine
 10
242.5512966088
 20
870.2586083754
 30
0.0
 11
242.4659137833
 21
870.7276021613
 31
0.0
  0
LINE
  5
39F
330
1F
100
AcDbEntity
  8
0
  6
Continuous
 62
     7
370
    25
100
AcDbLine
 10
242.4678139503
 20
870.727607276
 30
0.0
 11
243.1439203977
 21
870.2586083754
 31
0.0
  0
LINE
  5
3A0
330
1F
100
AcDbEntity
  8
0
  6
Continuous
 62
     7
370
    25
100
AcDbLine
 10
243.1439203977
 20
870.2586083754
 30
0.0
 11
243.125405727
 21
870.7276021613
 31
0.0
  0
LINE
  5
3A1
330
1F
100
AcDbEntity
  8
0
  6
Continuous
 62
     7
370
    25
100
AcDbLine
 10
243.1275362738
 20
870.727607276
 30
0.0
 11
243.8080344452
 21
870.2586083754
 31
0.0
  0
LINE
  5
3A2
330
1F
100
AcDbEntity
  8
0
  6
Continuous
 62
     7
370
    25
100
AcDbLine
 10
243.8080344452
 20
870.2586083754
 30
0.0
 11
243.8565729218
 21
870.7276021614
 31
0.0
  0
LINE
  5
3A3
330
1F
100
AcDbEntity
  8
0
  6
Continuous
 62
     7
370
    25
100
AcDbLine
 10
243.8589125608
 20
870.727607276
 30
0.0
 11
244.5370031433
 21
870.2586083754
 31
0.0
  0
LINE
  5
3A4
330
1F
100
AcDbEntity
  8
0
  6
Continuous
 62
     7
370
    25
100
AcDbLine
 10
244.5370031433
 20
870.2586083754
 30
0.0
 11
244.6521097868
 21
870.7276021614
 31
0.0
  0
LINE
  5
3A5
330
1F
100
AcDbEntity
  8
0
  6
Continuous
 62
     7
370
    25
100
AcDbLine
 10
244.6546351391
 20
870.7276072697
 30
0.0
 11
245.3235428778
 21
870.2586083754
 31
0.0
  0
LINE
  5
3A6
330
1F
100
AcDbEntity
  8
0
  6
Continuous
 62
     7
370
    25
100
AcDbLine
 10
245.3235428778
 20
870.2586083754
 30
0.0
 11
245.5040675805
 21
870.7276021613
 31
0.0
  0
LINE
  5
3A7
330
1F
100
AcDbEntity
  8
0
  6
Continuous
 62
     7
370
    25
100
AcDbLine
 10
245.5067534175
 20
870.727607276
 30
0.0
 11
246.1597948035
 21
870.2586083754
 31
0.0
  0
LINE
  5
3A8
330
1F
100
AcDbEntity
  8
0
  6
Continuous
 62
     7
370
    25
100
AcDbLine
 10
246.1597948035
 20
870.2586083754
 30
0.0
 11
246.4039338224
 21
870.7276021614
 31
0.0
  0
LINE
  5
3A9
330
1F
100
AcDbEntity
  8
0
  6
Continuous
 62
     7
370
    25
100
AcDbLine
 10
246.4067533071
 20
870.7276072697
 30
0.0
 11
247.0374033677
 21
870.2586083754
 31
0.0
  0
LINE
  5
3AA
330
1F
100
AcDbEntity
  8
0
  6
Continuous
 62
     7
370
    25
100
AcDbLine
 10
247.0374033677
 20
870.2586083754
 30
0.0
 11
247.3427173464
 21
870.7276021613
 31
0.0
  0
LINE
  5
3AB
330
1F
100
AcDbEntity
  8
0
  6
Continuous
 62
     7
370
    25
100
AcDbLine
 10
247.3456423079
 20
870.7276072697
 30
0.0
 11
247.9475997957
 21
870.2586083754
 31
0.0
  0
LINE
  5
3AC
330
1F
100
AcDbEntity
  8
0
  6
Continuous
 62
     7
370
    25
100
AcDbLine
 10
247.9475997957
 20
870.2586083754
 30
0.0
 11
248.3110381379
 21
870.7276021614
 31
0.0
  0
LINE
  5
3AD
330
1F
100
AcDbEntity
  8
0
  6
Continuous
 62
     7
370
    25
100
AcDbLine
 10
248.3140393509
 20
870.7276072697
 30
0.0
 11
248.8812897057
 21
870.2586083754
 31
0.0
  0
LINE
  5
3AE
330
1F
100
AcDbEntity
  8
0
  6
Continuous
 62
     7
370
    25
100
AcDbLine
 10
248.8812897057
 20
870.2586083754
 30
0.0
 11
249.2992210555
 21
870.7276021613
 31
0.0
  0
LINE
  5
3AF
330
1F
100
AcDbEntity
  8
0
  6
Continuous
 62
     7
370
    25
100
AcDbLine
 10
249.302268533
 20
870.7276072697
 30
0.0
 11
249.8291439767
 21
870.2586083754
 31
0.0
  0
LINE
  5
3B0
330
1F
100
AcDbEntity
  8
0
  6
Continuous
 62
     7
370
    25
100
AcDbLine
 10
250.7036505762
 20
870.3329449571
 30
0.0
 11
251.1281626344
 21
870.7276021614
 31
0.0
  0
LINE
  5
3B1
330
1F
100
AcDbEntity
  8
0
  6
Continuous
 62
     7
370
    25
100
AcDbLine
 10
251.1312157599
 20
870.7276072697
 30
0.0
 11
251.570802232
 21
870.2586083754
 31
0.0
  0
LINE
  5
3B2
330
1F
100
AcDbEntity
  8
0
  6
Continuous
 62
     7
370
    25
100
AcDbLine
 10
251.570802232
 20
870.2586083754
 30
0.0
 11
252.1187597755
 21
870.7276021613
 31
0.0
  0
LINE
  5
3B3
330
1F
100
AcDbEntity
  8
0
  6
Continuous
 62
     7
370
    25
100
AcDbLine
 10
252.121772739
 20
870.727607276
 30
0.0
 11
252.5072938935
 21
870.2586083754
 31
0.0
  0
LINE
  5
3B4
330
1F
100
AcDbEntity
  8
0
  6
Continuous
 62
     7
370
    25
100
AcDbLine
 10
252.5072938935
 20
870.2586083754
 30
0.0
 11
253.0911735471
 21
870.7276021614
 31
0.0
  0
LINE
  5
3B5
330
1F
100
AcDbEntity
  8
0
  6
Continuous
 62
     7
370
    25
100
AcDbLine
 10
253.0941162511
 20
870.727607276
 30
0.0
 11
253.4217200807
 21
870.2586083754
 31
0.0
  0
LINE
  5
3B6
330
1F
100
AcDbEntity
  8
0
  6
Continuous
 62
     7
370
    25
100
AcDbLine
 10
253.4217200807
 20
870.2586083754
 30
0.0
 11
254.0356879118
 21
870.7276021613
 31
0.0
  0
LINE
  5
3B7
330
1F
100
AcDbEntity
  8
0
  6
Continuous
 62
     7
370
    25
100
AcDbLine
 10
254.0385309646
 20
870.7276072697
 30
0.0
 11
254.3049441496
 21
870.2586083754
 31
0.0
  0
LINE
  5
3B8
330
1F
100
AcDbEntity
  8
0
  6
Continuous
 62
     7
370
    25
100
AcDbLine
 10
254.3049441496
 20
870.2586083754
 30
0.0
 11
254.9428655946
 21
870.7276021614
 31
0.0
  0
LINE
  5
3B9
330
1F
100
AcDbEntity
  8
0
  6
Continuous
 62
     7
370
    25
100
AcDbLine
 10
254.9455805681
 20
870.727607276
 30
0.0
 11
255.1481412171
 21
870.2586083754
 31
0.0
  0
LINE
  5
3BA
330
1F
100
AcDbEntity
  8
0
  6
Continuous
 62
     7
370
    25
100
AcDbLine
 10
255.1481412171
 20
870.2586083754
 30
0.0
 11
255.8036423756
 21
870.7276021613
 31
0.0
  0
LINE
  5
3BB
330
1F
100
AcDbEntity
  8
0
  6
Continuous
 62
     7
370
    25
100
AcDbLine
 10
255.8062021658
 20
870.7276072697
 30
0.0
 11
255.9428863368
 21
870.2586083754
 31
0.0
  0
LINE
  5
3BC
330
1F
100
AcDbEntity
  8
0
  6
Continuous
 62
     7
370
    25
100
AcDbLine
 10
255.9428863368
 20
870.2586083754
 30
0.0
 11
256.6094176583
 21
870.7276021614
 31
0.0
  0
LINE
  5
3BD
330
1F
100
AcDbEntity
  8
0
  6
Continuous
 62
     7
370
    25
100
AcDbLine
 10
256.6117966639
 20
870.727607276
 30
0.0
 11
256.6812386783
 21
870.2586083754
 31
0.0
  0
LINE
  5
3BE
330
1F
100
AcDbEntity
  8
0
  6
Continuous
 62
     7
370
    25
100
AcDbLine
 10
256.6812386783
 20
870.2586083754
 30
0.0
 11
257.3521404018
 21
870.7276021613
 31
0.0
  0
LINE
  5
3BF
330
1F
100
AcDbEntity
  8
0
  6
Continuous
 62
     7
370
    25
100
AcDbLine
 10
257.3543148785
 20
870.7276072697
 30
0.0
 11
257.355820869
 21
870.2586083754
 31
0.0
  0
LINE
  5
3C0
330
1F
100
AcDbEntity
  8
0
  6
Continuous
 62
     7
370
    25
100
AcDbLine
 10
257.355820869
 20
870.2586083754
 30
0.0
 11
258.0243895665
 21
870.7276021614
 31
0.0
  0
LINE
  5
3C1
330
1F
100
AcDbEntity
  8
0
  6
Continuous
 62
     7
370
    25
100
AcDbLine
 10
258.0263377607
 20
870.727607276
 30
0.0
 11
257.9598927066
 21
870.2586083754
 31
0.0
  0
LINE
  5
3C2
330
1F
100
AcDbEntity
  8
0
  6
Continuous
 62
     7
370
    25
100
AcDbLine
 10
257.9598927066
 20
870.2586083754
 30
0.0
 11
258.6194482606
 21
870.7276021614
 31
0.0
  0
LINE
  5
3C3
330
1F
100
AcDbEntity
  8
0
  6
Continuous
 62
     7
370
    25
100
AcDbLine
 10
258.6211507201
 20
870.727607276
 30
0.0
 11
258.4874185051
 21
870.2586083754
 31
0.0
  0
LINE
  5
3C4
330
1F
100
AcDbEntity
  8
0
  6
Continuous
 62
     7
370
    25
100
AcDbLine
 10
258.4874185051
 20
870.2586083754
 30
0.0
 11
259.1313708545
 21
870.7276021614
 31
0.0
  0
LINE
  5
3C5
330
1F
100
AcDbEntity
  8
0
  6
Continuous
 62
     7
370
    25
100
AcDbLine
 10
259.1328105689
 20
870.727607276
 30
0.0
 11
258.933127401
 21
870.2586083754
 31
0.0
  0
LINE
  5
3C6
330
1F
100
AcDbEntity
  8
0
  6
Continuous
 62
     7
370
    25
100
AcDbLine
 10
258.933127401
 20
870.2586083754
 30
0.0
 11
259.5550423866
 21
870.7276021613
 31
0.0
  0
LINE
  5
3C7
330
1F
100
AcDbEntity
  8
0
  6
Continuous
 62
     7
370
    25
100
AcDbLine
 10
259.556204971
 20
870.727607276
 30
0.0
 11
259.2925660183
 21
870.2586083754
 31
0.0
  0
LINE
  5
3C8
330
1F
100
AcDbEntity
  8
0
  6
Continuous
 62
     7
370
    25
100
AcDbLine
 10
259.2925660183
 20
870.2586083754
 30
0.0
 11
259.8862296715
 21
870.7276021614
 31
0.0
  0
SPLINE
  5
3C9
330
1F
100
AcDbEntity
  8
0
  6
Continuous
 62
     7
370
    25
100
AcDbSpline
210
0.0
220
0.0
230
1.0
 70
     8
 71
     3
 72
     9
 73
     5
 74
     0
 42
0.000000001
 43
0.00000001
 40
0.0
 40
0.0
 40
0.0
 40
0.0
 40
0.499962775429669
 40
1.0
 40
1.0
 40
1.0
 40
1.0
 10
259.8871035423794
 20
870.7276073249255
 30
0.0
 10
259.8332948041133
 20
870.6483910983914
 30
0.0
 10
259.7256693149561
 20
870.4899468492847
 30
0.0
 10
259.6166544538771
 20
870.3357250272296
 30
0.0
 10
259.5621429653062
 20
870.258608375361
 30
0.0
  0
LINE
  5
3CA
330
1F
100
AcDbEntity
  8
0
  6
Continuous
 62
     7
370
    25
100
AcDbLine
 10
259.5621429653
 20
870.2586083754
 30
0.0
 11
260.1216235948
 21
870.7276021613
 31
0.0
  0
LINE
  5
3CB
330
1F
100
AcDbEntity
  8
0
  6
Continuous
 62
     7
370
    25
100
AcDbLine
 10
260.1221999689
 20
870.7276072697
 30
0.0
 11
259.7391647181
 21
870.2586083754
 31
0.0
  0
LINE
  5
3CC
330
1F
100
AcDbEntity
  8
0
  6
Continuous
 62
     7
370
    25
100
AcDbLine
 10
259.7391647181
 20
870.2586083754
 30
0.0
 11
260.2588721785
 21
870.7276021613
 31
0.0
  0
LINE
  5
3CD
330
1F
100
AcDbEntity
  8
0
  6
Continuous
 62
     7
370
    25
100
AcDbLine
 10
260.2591453159
 20
870.7276072697
 30
0.0
 11
259.821862534
 21
870.2586083754
 31
0.0
  0
SPLINE
  5
3CE
330
1F
100
AcDbEntity
  8
0
  6
Continuous
 62
     7
370
    25
100
AcDbSpline
210
0.0
220
0.0
230
1.0
 70
     8
 71
     3
 72
     9
 73
     5
 74
     0
 42
0.000000001
 43
0.00000001
 40
0.0
 40
0.0
 40
0.0
 40
0.0
 40
0.7418901379650148
 40
0.9999999999999999
 40
0.9999999999999999
 40
0.9999999999999999
 40
0.9999999999999999
 10
259.821862534027
 20
870.258608375361
 30
0.0
 10
259.9396297210544
 20
870.3731448263972
 30
0.0
 10
260.0983691098141
 20
870.5275294787532
 30
0.0
 10
260.2551795753997
 20
870.6857914978833
 30
0.0
 10
260.2956539030376
 20
870.7266404858062
 30
0.0
  0
SPLINE
  5
3CF
330
1F
100
AcDbEntity
  8
0
  6
Continuous
 62
     7
370
    25
100
AcDbSpline
210
0.0
220
0.0
230
1.0
 70
     8
 71
     3
 72
     9
 73
     5
 74
     0
 42
0.000000001
 43
0.00000001
 40
0.0
 40
0.0
 40
0.0
 40
0.0
 40
0.5886511107999512
 40
1.0
 40
1.0
 40
1.0
 40
1.0
 10
240.3046738539122
 20
870.7276072697134
 30
0.0
 10
240.39574787167
 20
870.6344047058934
 30
0.0
 10
240.5504643345913
 20
870.4760722707548
 30
0.0
 10
240.7071857283085
 20
870.3219900151648
 30
0.0
 10
240.7716528995281
 20
870.2586084504824
 30
0.0
  0
LINE
  5
3D0
330
1F
100
AcDbEntity
  8
0
  6
Continuous
 62
     7
370
    25
100
AcDbLine
 10
240.7716529099
 20
870.2586083775
 30
0.0
 11
240.3254000241
 21
870.7276021614
 31
0.0
  0
LINE
  5
3D1
330
1F
100
AcDbEntity
  8
0
  6
Continuous
 62
     7
370
    25
100
AcDbLine
 10
259.7963910648
 20
870.2266404858
 30
0.0
 11
240.8014224587
 21
870.2266404858
 31
0.0
  0
LINE
  5
3D2
330
1F
100
AcDbEntity
  8
0
  6
Continuous
 62
     7
370
    25
100
AcDbLine
 10
251.1298007899
 20
870.7266404858
 30
0.0
 11
251.1298007899
 21
873.7266404858
 31
0.0
  0
LINE
  5
3D3
330
1F
100
AcDbEntity
  8
0
  6
Continuous
 62
     7
370
    25
100
AcDbLine
 10
251.570802232
 20
870.2586083754
 30
0.0
 11
251.5708022549
 21
874.1946725772
 31
0.0
  0
LINE
  5
3D4
330
1F
100
AcDbEntity
  8
0
  6
Continuous
 62
     7
370
    25
100
AcDbLine
 10
249.3005725953
 20
870.7266404858
 30
0.0
 11
249.3005725953
 21
873.7266404858
 31
0.0
  0
LINE
  5
3D5
330
1F
100
AcDbEntity
  8
0
  6
Continuous
 62
     7
370
    25
100
AcDbLine
 10
248.8812897057
 20
870.2586083754
 30
0.0
 11
248.8812897232
 21
874.1946725772
 31
0.0
  0
LINE
  5
3D6
330
1F
100
AcDbEntity
  8
0
  6
Continuous
 62
     7
370
    25
100
AcDbLine
 10
252.5072938935
 20
870.2586083754
 30
0.0
 11
252.5072939179
 21
874.1946725772
 31
0.0
  0
LINE
  5
3D7
330
1F
100
AcDbEntity
  8
0
  6
Continuous
 62
     7
370
    25
100
AcDbLine
 10
252.1205318045
 20
870.7266404858
 30
0.0
 11
252.1205318045
 21
873.7266404858
 31
0.0
  0
LINE
  5
3D8
330
1F
100
AcDbEntity
  8
0
  6
Continuous
 62
     7
370
    25
100
AcDbLine
 10
248.3122134538
 20
870.7266404858
 30
0.0
 11
248.3122134538
 21
873.7266404858
 31
0.0
  0
LINE
  5
3D9
330
1F
100
AcDbEntity
  8
0
  6
Continuous
 62
     7
370
    25
100
AcDbLine
 10
247.9475997957
 20
870.2586083754
 30
0.0
 11
247.9475998109
 21
874.1946725772
 31
0.0
  0
LINE
  5
3DA
330
1F
100
AcDbEntity
  8
0
  6
Continuous
 62
     7
370
    25
100
AcDbLine
 10
253.0930617437
 20
870.7266404858
 30
0.0
 11
253.0930617437
 21
873.7266404858
 31
0.0
  0
LINE
  5
3DB
330
1F
100
AcDbEntity
  8
0
  6
Continuous
 62
     7
370
    25
100
AcDbLine
 10
253.4217200807
 20
870.2586083754
 30
0.0
 11
253.4217201064
 21
874.1946725772
 31
0.0
  0
LINE
  5
3DC
330
1F
100
AcDbEntity
  8
0
  6
Continuous
 62
     7
370
    25
100
AcDbLine
 10
247.3437046951
 20
870.7266404858
 30
0.0
 11
247.3437046951
 21
873.7266404858
 31
0.0
  0
LINE
  5
3DD
330
1F
100
AcDbEntity
  8
0
  6
Continuous
 62
     7
370
    25
100
AcDbLine
 10
247.0374033677
 20
870.2586083754
 30
0.0
 11
247.0374033805
 21
874.1946725772
 31
0.0
  0
LINE
  5
3DE
330
1F
100
AcDbEntity
  8
0
  6
Continuous
 62
     7
370
    25
100
AcDbLine
 10
254.0376734101
 20
870.7266404858
 30
0.0
 11
254.0376734101
 21
873.7266404858
 31
0.0
  0
LINE
  5
3DF
330
1F
100
AcDbEntity
  8
0
  6
Continuous
 62
     7
370
    25
100
AcDbLine
 10
254.3049441496
 20
870.2586083754
 30
0.0
 11
254.3049441762
 21
874.1946725772
 31
0.0
  0
LINE
  5
3E0
330
1F
100
AcDbEntity
  8
0
  6
Continuous
 62
     7
370
    25
100
AcDbLine
 10
246.4047233387
 20
870.7266404858
 30
0.0
 11
246.4047233387
 21
873.7266404858
 31
0.0
  0
LINE
  5
3E1
330
1F
100
AcDbEntity
  8
0
  6
Continuous
 62
     7
370
    25
100
AcDbLine
 10
246.1597948035
 20
870.2586083754
 30
0.0
 11
246.1597948137
 21
874.1946725772
 31
0.0
  0
LINE
  5
3E2
330
1F
100
AcDbEntity
  8
0
  6
Continuous
 62
     7
370
    25
100
AcDbLine
 10
255.1481412171
 20
870.2586083754
 30
0.0
 11
255.1481412444
 21
874.1946725772
 31
0.0
  0
LINE
  5
3E3
330
1F
100
AcDbEntity
  8
0
  6
Continuous
 62
     7
370
    25
100
AcDbLine
 10
254.9449285559
 20
870.7266404858
 30
0.0
 11
254.9449285559
 21
873.7266404858
 31
0.0
  0
LINE
  5
3E4
330
1F
100
AcDbEntity
  8
0
  6
Continuous
 62
     7
370
    25
100
AcDbLine
 10
245.5046513757
 20
870.7266404858
 30
0.0
 11
245.5046513757
 21
873.7266404858
 31
0.0
  0
LINE
  5
3E5
330
1F
100
AcDbEntity
  8
0
  6
Continuous
 62
     7
370
    25
100
AcDbLine
 10
245.3235428778
 20
870.2586083754
 30
0.0
 11
245.3235428853
 21
874.1946725772
 31
0.0
  0
LINE
  5
3E6
330
1F
100
AcDbEntity
  8
0
  6
Continuous
 62
     7
370
    25
100
AcDbLine
 10
255.8057621877
 20
870.7266404858
 30
0.0
 11
255.8057621877
 21
873.7266404858
 31
0.0
  0
LINE
  5
3E7
330
1F
100
AcDbEntity
  8
0
  6
Continuous
 62
     7
370
    25
100
AcDbLine
 10
255.9428863368
 20
870.2586083754
 30
0.0
 11
255.9428863647
 21
874.1946725772
 31
0.0
  0
LINE
  5
3E8
330
1F
100
AcDbEntity
  8
0
  6
Continuous
 62
     7
370
    25
100
AcDbLine
 10
244.6524820278
 20
870.7266404858
 30
0.0
 11
244.6524820278
 21
873.7266404858
 31
0.0
  0
LINE
  5
3E9
330
1F
100
AcDbEntity
  8
0
  6
Continuous
 62
     7
370
    25
100
AcDbLine
 10
244.5370031433
 20
870.2586083754
 30
0.0
 11
244.5370031481
 21
874.1946725772
 31
0.0
  0
LINE
  5
3EA
330
1F
100
AcDbEntity
  8
0
  6
Continuous
 62
     7
370
    25
100
AcDbLine
 10
256.6115731405
 20
870.7266404858
 30
0.0
 11
256.6115731405
 21
873.7266404858
 31
0.0
  0
LINE
  5
3EB
330
1F
100
AcDbEntity
  8
0
  6
Continuous
 62
     7
370
    25
100
AcDbLine
 10
256.6812386783
 20
870.2586083754
 30
0.0
 11
256.6812387063
 21
874.1946725772
 31
0.0
  0
LINE
  5
3EC
330
1F
100
AcDbEntity
  8
0
  6
Continuous
 62
     7
370
    25
100
AcDbLine
 10
243.8567298894
 20
870.7266404858
 30
0.0
 11
243.8567298894
 21
873.7266404858
 31
0.0
  0
LINE
  5
3ED
330
1F
100
AcDbEntity
  8
0
  6
Continuous
 62
     7
370
    25
100
AcDbLine
 10
243.8080344452
 20
870.2586083754
 30
0.0
 11
243.8080344472
 21
874.1946725772
 31
0.0
  0
LINE
  5
3EE
330
1F
100
AcDbEntity
  8
0
  6
Continuous
 62
     7
370
    25
100
AcDbLine
 10
257.355820869
 20
870.2586083754
 30
0.0
 11
257.3558208969
 21
874.1946725772
 31
0.0
  0
LINE
  5
3EF
330
1F
100
AcDbEntity
  8
0
  6
Continuous
 62
     7
370
    25
100
AcDbLine
 10
257.3543100175
 20
870.7266404858
 30
0.0
 11
257.3543100175
 21
873.7266404858
 31
0.0
  0
LINE
  5
3F0
330
1F
100
AcDbEntity
  8
0
  6
Continuous
 62
     7
370
    25
100
AcDbLine
 10
243.1253458528
 20
870.7266404858
 30
0.0
 11
243.1253458528
 21
873.7266404858
 31
0.0
  0
LINE
  5
3F1
330
1F
100
AcDbEntity
  8
0
  6
Continuous
 62
     7
370
    25
100
AcDbLine
 10
258.0265516373
 20
870.7266404858
 30
0.0
 11
258.0265516373
 21
873.7266404858
 31
0.0
  0
LINE
  5
3F2
330
1F
100
AcDbEntity
  8
0
  6
Continuous
 62
     7
370
    25
100
AcDbLine
 10
242.4656376655
 20
870.7266404858
 30
0.0
 11
242.4656376655
 21
873.7266404858
 31
0.0
  0
LINE
  5
3F3
330
1F
100
AcDbEntity
  8
0
  6
Continuous
 62
     7
370
    25
100
AcDbLine
 10
258.621581184
 20
870.7266404858
 30
0.0
 11
258.621581184
 21
873.7266404858
 31
0.0
  0
LINE
  5
3F4
330
1F
100
AcDbEntity
  8
0
  6
Continuous
 62
     7
370
    25
100
AcDbLine
 10
241.8841969137
 20
870.7266404858
 30
0.0
 11
241.8841969137
 21
873.7266404858
 31
0.0
  0
LINE
  5
3F5
330
1F
100
AcDbEntity
  8
0
  6
Continuous
 62
     7
370
    25
100
AcDbLine
 10
259.133453319
 20
870.7266404858
 30
0.0
 11
259.133453319
 21
873.7266404858
 31
0.0
  0
LINE
  5
3F6
330
1F
100
AcDbEntity
  8
0
  6
Continuous
 62
     7
370
    25
100
AcDbLine
 10
241.3868331611
 20
870.7266404858
 30
0.0
 11
241.3868331611
 21
873.7266404858
 31
0.0
  0
LINE
  5
3F7
330
1F
100
AcDbEntity
  8
0
  6
Continuous
 62
     7
370
    25
100
AcDbLine
 10
259.557053585
 20
870.7266404858
 30
0.0
 11
259.557053585
 21
873.7266404858
 31
0.0
  0
LINE
  5
3F8
330
1F
100
AcDbEntity
  8
0
  6
Continuous
 62
     7
370
    25
100
AcDbLine
 10
240.9785159021
 20
870.7266404858
 30
0.0
 11
240.9785159021
 21
873.7266404858
 31
0.0
  0
LINE
  5
3F9
330
1F
100
AcDbEntity
  8
0
  6
Continuous
 62
     7
370
    25
100
AcDbLine
 10
259.8881495084
 20
870.7266404858
 30
0.0
 11
259.8881495084
 21
873.7266404858
 31
0.0
  0
LINE
  5
3FA
330
1F
100
AcDbEntity
  8
0
  6
Continuous
 62
     7
370
    25
100
AcDbLine
 10
240.6633249076
 20
870.7266404858
 30
0.0
 11
240.6633249076
 21
873.7266404858
 31
0.0
  0
LINE
  5
3FB
330
1F
100
AcDbEntity
  8
0
  6
Continuous
 62
     7
370
    25
100
AcDbLine
 10
260.123432888
 20
870.7266404858
 30
0.0
 11
260.123432888
 21
873.7266404858
 31
0.0
  0
LINE
  5
3FC
330
1F
100
AcDbEntity
  8
0
  6
Continuous
 62
     7
370
    25
100
AcDbLine
 10
240.4444094619
 20
870.7266404858
 30
0.0
 11
240.4444094619
 21
873.7266404858
 31
0.0
  0
LINE
  5
3FD
330
1F
100
AcDbEntity
  8
0
  6
Continuous
 62
     7
370
    25
100
AcDbLine
 10
260.2605528501
 20
870.7266404858
 30
0.0
 11
260.2605528501
 21
873.7266404858
 31
0.0
  0
LINE
  5
3FE
330
1F
100
AcDbEntity
  8
0
  6
Continuous
 62
     7
370
    25
100
AcDbLine
 10
240.3239568957
 20
870.7266404858
 30
0.0
 11
240.3239568957
 21
873.7266404858
 31
0.0
  0
LINE
  5
3FF
330
1F
100
AcDbEntity
  8
0
  6
Continuous
 62
     7
370
    25
100
AcDbLine
 10
260.2963910648
 20
873.7266404858
 30
0.0
 11
260.295653903
 21
873.7266404858
 31
0.0
  0
LINE
  5
400
330
1F
100
AcDbEntity
  8
0
  6
Continuous
 62
     7
370
    25
100
AcDbLine
 10
260.2963910648
 20
873.7266404858
 30
0.0
 11
260.2963910648
 21
870.7266404858
 31
0.0
  0
LINE
  5
401
330
1F
100
AcDbEntity
  8
0
  6
Continuous
 62
     7
370
    25
100
AcDbLine
 10
260.295653903
 20
870.7266404858
 30
0.0
 11
260.2963910648
 21
870.7266404858
 31
0.0
  0
LINE
  5
402
330
1F
100
AcDbEntity
  8
0
  6
Continuous
 62
     7
370
    25
100
AcDbLine
 10
240.3031707313
 20
873.7266404858
 30
0.0
 11
240.3031707313
 21
870.7266404858
 31
0.0
  0
LINE
  5
403
330
1F
100
AcDbEntity
  8
0
  6
Continuous
 62
     7
370
    25
100
AcDbLine
 10
520.0989067618
 20
392.1061154077
 30
0.0
 11
520.0989067618
 21
392.0119336994
 31
0.0
  0
LINE
  5
404
330
1F
100
AcDbEntity
  8
0
  6
Continuous
 62
     7
370
    25
100
AcDbLine
 10
517.5989067618
 20
392.0119336994
 30
0.0
 11
517.5989067618
 21
392.1766404904
 31
0.0
  0
LINE
  5
405
330
1F
100
AcDbEntity
  8
0
  6
Continuous
 62
     7
370
    25
100
AcDbLine
 10
662.2989067618
 20
160.272940362
 30
0.0
 11
662.2989067618
 21
173.3698319873
 31
0.0
  0
LINE
  5
406
330
1F
100
AcDbEntity
  8
0
  6
Continuous
 62
     7
370
    25
100
AcDbLine
 10
212.2989067618
 20
160.272940362
 30
0.0
 11
212.2989067618
 21
173.3698319873
 31
0.0
  0
LINE
  5
407
330
1F
100
AcDbEntity
  8
0
  6
Continuous
 62
     7
370
    25
100
AcDbLine
 10
662.2989067618
 20
153.1667579099
 30
0.0
 11
662.2989067618
 21
160.272940362
 31
0.0
  0
LINE
  5
408
330
1F
100
AcDbEntity
  8
0
  6
Continuous
 62
     7
370
    25
100
AcDbLine
 10
212.2989067618
 20
153.1667579099
 30
0.0
 11
212.2989067618
 21
160.272940362
 31
0.0
  0
LINE
  5
409
330
1F
100
AcDbEntity
  8
0
  6
Continuous
 62
     7
370
    25
100
AcDbLine
 10
452.2989067618
 20
290.0884048903
 30
0.0
 11
521.7989067618
 21
290.0884048903
 31
0.0
  0
LINE
  5
40A
330
1F
100
AcDbEntity
  8
0
  6
Continuous
 62
     7
370
    25
100
AcDbLine
 10
526.7989067618
 20
290.0884048903
 30
0.0
 11
529.6989067618
 21
290.0884048903
 31
0.0
  0
LINE
  5
40B
330
1F
100
AcDbEntity
  8
0
  6
Continuous
 62
     7
370
    25
100
AcDbLine
 10
534.6989067618
 20
290.0884048903
 30
0.0
 11
536.8989067618
 21
290.0884048903
 31
0.0
  0
LINE
  5
40C
330
1F
100
AcDbEntity
  8
0
  6
Continuous
 62
     7
370
    25
100
AcDbLine
 10
541.8989067618
 20
290.0884048903
 30
0.0
 11
544.7989067603
 21
290.0884048903
 31
0.0
  0
LINE
  5
40D
330
1F
100
AcDbEntity
  8
0
  6
Continuous
 62
     7
370
    25
100
AcDbLine
 10
549.7989067618
 20
290.0884048903
 30
0.0
 11
619.2989067618
 21
290.0884048903
 31
0.0
  0
LINE
  5
40E
330
1F
100
AcDbEntity
  8
0
  6
Continuous
 62
     7
370
    25
100
AcDbLine
 10
515.862539172
 20
392.0119336994
 30
0.0
 11
521.7989067618
 21
392.0119336994
 31
0.0
  0
LINE
  5
40F
330
1F
100
AcDbEntity
  8
0
  6
Continuous
 62
     7
370
    25
100
AcDbLine
 10
526.7989067618
 20
392.0119336994
 30
0.0
 11
529.6989067618
 21
392.0119336994
 31
0.0
  0
LINE
  5
410
330
1F
100
AcDbEntity
  8
0
  6
Continuous
 62
     7
370
    25
100
AcDbLine
 10
534.6989067618
 20
392.0119336994
 30
0.0
 11
536.8989067618
 21
392.0119336994
 31
0.0
  0
LINE
  5
411
330
1F
100
AcDbEntity
  8
0
  6
Continuous
 62
     7
370
    25
100
AcDbLine
 10
541.8989067618
 20
392.0119336994
 30
0.0
 11
544.7989067618
 21
392.0119336994
 31
0.0
  0
LINE
  5
412
330
1F
100
AcDbEntity
  8
0
  6
Continuous
 62
     7
370
    25
100
AcDbLine
 10
549.7989067618
 20
392.0119336994
 30
0.0
 11
554.7352743515
 21
392.0119336994
 31
0.0
  0
LINE
  5
413
330
1F
100
AcDbEntity
  8
0
  6
Continuous
 62
     7
370
    25
100
AcDbLine
 10
453.2989067618
 20
290.0884048903
 30
0.0
 11
453.2989067618
 21
292.1766404904
 31
0.0
  0
LINE
  5
414
330
1F
100
AcDbEntity
  8
0
  6
Continuous
 62
     7
370
    25
100
AcDbLine
 10
453.2989067618
 20
290.0884048903
 30
0.0
 11
452.2989067618
 21
290.0884048903
 31
0.0
  0
LINE
  5
415
330
1F
100
AcDbEntity
  8
0
  6
Continuous
 62
     7
370
    25
100
AcDbLine
 10
618.2989067618
 20
290.0884048903
 30
0.0
 11
619.2989067618
 21
290.0884048903
 31
0.0
  0
LINE
  5
416
330
1F
100
AcDbEntity
  8
0
  6
Continuous
 62
     7
370
    25
100
AcDbLine
 10
618.2989067618
 20
290.0884048903
 30
0.0
 11
618.2989067618
 21
292.1766404904
 31
0.0
  0
LINE
  5
417
330
1F
100
AcDbEntity
  8
0
  6
Continuous
 62
     7
370
    25
100
AcDbLine
 10
618.2989067618
 20
815.3666695501
 30
0.0
 11
618.2989067618
 21
826.4221113674
 31
0.0
  0
SPLINE
  5
418
330
1F
100
AcDbEntity
  8
0
  6
Continuous
 62
     7
370
    25
100
AcDbSpline
210
0.0
220
0.0
230
1.0
 70
     8
 71
     3
 72
    19
 73
    15
 74
     0
 42
0.000000001
 43
0.00000001
 40
0.0
 40
0.0
 40
0.0
 40
0.0
 40
0.0869983155999126
 40
0.2176483761402451
 40
0.2900520020571115
 40
0.3592506790208557
 40
0.4282428822545956
 40
0.5000529059289702
 40
0.5718756569460781
 40
0.6408722791557953
 40
0.7100600780722794
 40
0.7824325016999165
 40
0.9122838473123094
 40
1.0
 40
1.0
 40
1.0
 40
1.0
 10
616.1700920923025
 20
826.4221113674133
 30
0.0
 10
616.1467472532316
 20
826.1049068288772
 30
0.0
 10
616.0883442108277
 20
825.3113391345994
 30
0.0
 10
615.7904341699991
 20
824.3964928838177
 30
0.0
 10
615.3990978976848
 20
823.7422114475213
 30
0.0
 10
615.0288072732044
 20
823.3598242710233
 30
0.0
 10
614.6005474290164
 20
823.1341446846466
 30
0.0
 10
614.1242379858205
 20
823.0650194332732
 30
0.0
 10
613.622212106054
 20
823.1343857108841
 30
0.0
 10
613.1223795055429
 20
823.3599914918545
 30
0.0
 10
612.6471918543757
 20
823.7422117748285
 30
0.0
 10
612.1001537264299
 20
824.393732199022
 30
0.0
 10
611.6318254529202
 20
825.3099477709865
 30
0.0
 10
611.5301311657959
 20
826.1025570397504
 30
0.0
 10
611.4891313304043
 20
826.4221113674133
 30
0.0
  0
SPLINE
  5
419
330
1F
100
AcDbEntity
  8
0
  6
Continuous
 62
     7
370
    25
100
AcDbSpline
210
0.0
220
0.0
230
1.0
 70
     8
 71
     3
 72
    12
 73
     8
 74
     0
 42
0.000000001
 43
0.00000001
 40
0.0
 40
0.0
 40
0.0
 40
0.0
 40
0.09808397982915
 40
0.462296590760751
 40
0.6227752869606688
 40
0.7871842241603454
 40
1.0
 40
1.0
 40
1.0
 40
1.0
 10
614.8717671305855
 20
823.3070967005449
 30
0.0
 10
614.7751622542172
 20
823.3278032351585
 30
0.0
 10
614.3198370821184
 20
823.425398789244
 30
0.0
 10
613.7281700066097
 20
824.0386273755678
 30
0.0
 10
613.2167110047693
 20
824.8158040794941
 30
0.0
 10
612.8968169842459
 20
825.532536048716
 30
0.0
 10
612.8172190042123
 20
826.1012593832111
 30
0.0
 10
612.7723128639449
 20
826.4221113674132
 30
0.0
  0
LINE
  5
41A
330
1F
100
AcDbEntity
  8
0
  6
Continuous
 62
     7
370
    25
100
AcDbLine
 10
422.2989067618
 20
290.1648760813
 30
0.0
 11
352.7989067618
 21
290.1648760813
 31
0.0
  0
LINE
  5
41B
330
1F
100
AcDbEntity
  8
0
  6
Continuous
 62
     7
370
    25
100
AcDbLine
 10
347.7989067618
 20
290.1648760813
 30
0.0
 11
344.8989067618
 21
290.1648760813
 31
0.0
  0
LINE
  5
41C
330
1F
100
AcDbEntity
  8
0
  6
Continuous
 62
     7
370
    25
100
AcDbLine
 10
339.8989067618
 20
290.1648760813
 30
0.0
 11
337.6989067618
 21
290.1648760813
 31
0.0
  0
LINE
  5
41D
330
1F
100
AcDbEntity
  8
0
  6
Continuous
 62
     7
370
    25
100
AcDbLine
 10
332.6989067618
 20
290.1648760813
 30
0.0
 11
329.7989067603
 21
290.1648760813
 31
0.0
  0
LINE
  5
41E
330
1F
100
AcDbEntity
  8
0
  6
Continuous
 62
     7
370
    25
100
AcDbLine
 10
324.7989067618
 20
290.1648760813
 30
0.0
 11
255.2989067618
 21
290.1648760813
 31
0.0
  0
LINE
  5
41F
330
1F
100
AcDbEntity
  8
0
  6
Continuous
 62
     7
370
    25
100
AcDbLine
 10
358.3312347699
 20
392.0884048903
 30
0.0
 11
352.7989067618
 21
392.0884048903
 31
0.0
  0
LINE
  5
420
330
1F
100
AcDbEntity
  8
0
  6
Continuous
 62
     7
370
    25
100
AcDbLine
 10
347.7989067618
 20
392.0884048903
 30
0.0
 11
344.8989067618
 21
392.0884048903
 31
0.0
  0
LINE
  5
421
330
1F
100
AcDbEntity
  8
0
  6
Continuous
 62
     7
370
    25
100
AcDbLine
 10
339.8989067618
 20
392.0884048903
 30
0.0
 11
337.6989067618
 21
392.0884048903
 31
0.0
  0
LINE
  5
422
330
1F
100
AcDbEntity
  8
0
  6
Continuous
 62
     7
370
    25
100
AcDbLine
 10
332.6989067618
 20
392.0884048903
 30
0.0
 11
329.7989067618
 21
392.0884048903
 31
0.0
  0
LINE
  5
423
330
1F
100
AcDbEntity
  8
0
  6
Continuous
 62
     7
370
    25
100
AcDbLine
 10
324.7989067618
 20
392.0884048903
 30
0.0
 11
320.2665787536
 21
392.0884048903
 31
0.0
  0
LINE
  5
424
330
1F
100
AcDbEntity
  8
0
  6
Continuous
 62
     7
370
    25
100
AcDbLine
 10
421.2989067618
 20
290.0884048903
 30
0.0
 11
422.2989067618
 21
290.0884048903
 31
0.0
  0
LINE
  5
425
330
1F
100
AcDbEntity
  8
0
  6
Continuous
 62
     7
370
    25
100
AcDbLine
 10
421.2989067618
 20
290.0884048903
 30
0.0
 11
421.2989067618
 21
292.1766404904
 31
0.0
  0
LINE
  5
426
330
1F
100
AcDbEntity
  8
0
  6
Continuous
 62
     7
370
    25
100
AcDbLine
 10
256.2989067618
 20
290.0884048903
 30
0.0
 11
256.2989067618
 21
292.1766404904
 31
0.0
  0
LINE
  5
427
330
1F
100
AcDbEntity
  8
0
  6
Continuous
 62
     7
370
    25
100
AcDbLine
 10
256.2989067618
 20
803.7766404904
 30
0.0
 11
256.2989067618
 21
806.7266404863
 31
0.0
  0
LINE
  5
428
330
1F
100
AcDbEntity
  8
0
  6
Continuous
 62
     7
370
    25
100
AcDbLine
 10
256.2989067618
 20
818.7266404863
 30
0.0
 11
256.2989067618
 21
826.4221113674
 31
0.0
  0
LINE
  5
429
330
1F
100
AcDbEntity
  8
0
  6
Continuous
 62
     7
370
    25
100
AcDbLine
 10
256.2989067618
 20
290.0884048903
 30
0.0
 11
255.2989067618
 21
290.0884048903
 31
0.0
  0
SPLINE
  5
42A
330
1F
100
AcDbEntity
  8
0
  6
Continuous
 62
     7
370
    25
100
AcDbSpline
210
0.0
220
0.0
230
1.0
 70
     8
 71
     3
 72
    12
 73
     8
 74
     0
 42
0.000000001
 43
0.00000001
 40
0.0
 40
0.0
 40
0.0
 40
0.0
 40
0.2128157758316779
 40
0.3772247130253252
 40
0.5377034092194424
 40
0.9019160201032096
 40
1.0
 40
1.0
 40
1.0
 40
1.0
 10
261.825500659606
 20
826.4221113674131
 30
0.0
 10
261.7805945193386
 20
826.101259383211
 30
0.0
 10
261.7009965393054
 20
825.5325360487155
 30
0.0
 10
261.3811025187808
 20
824.8158040794973
 30
0.0
 10
260.8696435169708
 20
824.0386273755933
 30
0.0
 10
260.2779764414068
 20
823.425398789329
 30
0.0
 10
259.8226512692751
 20
823.3278032352097
 30
0.0
 10
259.7260463928375
 20
823.3070967005756
 30
0.0
  0
SPLINE
  5
42B
330
1F
100
AcDbEntity
  8
0
  6
Continuous
 62
     7
370
    25
100
AcDbSpline
210
0.0
220
0.0
230
1.0
 70
     8
 71
     3
 72
    19
 73
    15
 74
     0
 42
0.000000001
 43
0.00000001
 40
0.0
 40
0.0
 40
0.0
 40
0.0
 40
0.0877161526876973
 40
0.2175674983002472
 40
0.2899399219176323
 40
0.3591277208308717
 40
0.4281243430436844
 40
0.4999470940687433
 40
0.5717571177273054
 40
0.6407493209555194
 40
0.7099479979249873
 40
0.7823516238583569
 40
0.9130016843895898
 40
1.0
 40
1.0
 40
1.0
 40
1.0
 10
263.1086821931465
 20
826.4221113674131
 30
0.0
 10
263.0676823577547
 20
826.1025570397508
 30
0.0
 10
262.9659880706299
 20
825.3099477709878
 30
0.0
 10
262.4976597971421
 20
824.3937321990488
 30
0.0
 10
261.9506216692165
 20
823.7422117748963
 30
0.0
 10
261.4754340180639
 20
823.3599914919594
 30
0.0
 10
260.975601417537
 20
823.1343857109749
 30
0.0
 10
260.4735755377878
 20
823.0650194332727
 30
0.0
 10
259.9972660946129
 20
823.1341446845621
 30
0.0
 10
259.5690062504497
 20
823.3598242709302
 30
0.0
 10
259.1987156259405
 20
823.7422114474695
 30
0.0
 10
258.8073793535763
 20
824.3964928837289
 30
0.0
 10
258.5094693127107
 20
825.3113391345489
 30
0.0
 10
258.4510662703155
 20
826.1049068288368
 30
0.0
 10
258.4277214312453
 20
826.4221113674131
 30
0.0
  0
LINE
  5
42C
330
1F
100
AcDbEntity
  8
0
  6
Continuous
 62
     7
370
    25
100
AcDbLine
 10
212.2989067618
 20
287.2366404858
 30
0.0
 11
214.7489067618
 21
287.2366404858
 31
0.0
  0
LINE
  5
42D
330
1F
100
AcDbEntity
  8
0
  6
Continuous
 62
     7
370
    25
100
AcDbLine
 10
212.2989067618
 20
883.7266404858
 30
0.0
 11
212.2989067618
 21
287.2366404858
 31
0.0
  0
LINE
  5
42E
330
1F
100
AcDbEntity
  8
0
  6
Continuous
 62
     7
370
    25
100
AcDbLine
 10
232.6089067618
 20
912.5266404858
 30
0.0
 11
231.4989067618
 21
912.5266404858
 31
0.0
  0
LINE
  5
42F
330
1F
100
AcDbEntity
  8
0
  6
Continuous
 62
     7
370
    25
100
AcDbLine
 10
232.6089067618
 20
904.8240213562
 30
0.0
 11
232.6089067618
 21
912.5266404858
 31
0.0
  0
LINE
  5
430
330
1F
100
AcDbEntity
  8
0
  6
Continuous
 62
     7
370
    25
100
AcDbLine
 10
232.8589067618
 20
287.2366404858
 30
0.0
 11
232.8589067618
 21
289.2366404858
 31
0.0
  0
LINE
  5
431
330
1F
100
AcDbEntity
  8
0
  6
Continuous
 62
     7
370
    25
100
AcDbLine
 10
214.7489067618
 20
287.2366404858
 30
0.0
 11
232.8589067618
 21
287.2366404858
 31
0.0
  0
LINE
  5
432
330
1F
100
AcDbEntity
  8
0
  6
Continuous
 62
     7
370
    25
100
AcDbLine
 10
662.2989067618
 20
287.2366404858
 30
0.0
 11
662.2989067618
 21
883.7266404858
 31
0.0
  0
LINE
  5
433
330
1F
100
AcDbEntity
  8
0
  6
Continuous
 62
     7
370
    25
100
AcDbLine
 10
659.8489067618
 20
287.2366404858
 30
0.0
 11
662.2989067618
 21
287.2366404858
 31
0.0
  0
LINE
  5
434
330
1F
100
AcDbEntity
  8
0
  6
Continuous
 62
     7
370
    25
100
AcDbLine
 10
641.7389067618
 20
287.2366404858
 30
0.0
 11
659.8489067618
 21
287.2366404858
 31
0.0
  0
LINE
  5
435
330
1F
100
AcDbEntity
  8
0
  6
Continuous
 62
     7
370
    25
100
AcDbLine
 10
641.7389067618
 20
289.2366404858
 30
0.0
 11
641.7389067618
 21
287.2366404858
 31
0.0
  0
LINE
  5
436
330
1F
100
AcDbEntity
  8
0
  6
Continuous
 62
     7
370
    25
100
AcDbLine
 10
641.9889067618
 20
912.5266404858
 30
0.0
 11
641.9889067618
 21
904.8240213562
 31
0.0
  0
LINE
  5
437
330
1F
100
AcDbEntity
  8
0
  6
Continuous
 62
     7
370
    25
100
AcDbLine
 10
643.0989067618
 20
912.5266404858
 30
0.0
 11
641.9889067618
 21
912.5266404858
 31
0.0
  0
LINE
  5
438
330
1F
100
AcDbEntity
  8
0
  6
Continuous
 62
     7
370
    25
100
AcDbLine
 10
641.7389067618
 20
289.2366404858
 30
0.0
 11
639.2889067618
 21
289.2366404858
 31
0.0
  0
LINE
  5
439
330
1F
100
AcDbEntity
  8
0
  6
Continuous
 62
     7
370
    25
100
AcDbLine
 10
639.2889067618
 20
289.2366404858
 30
0.0
 11
639.2889067618
 21
803.4398997997
 31
0.0
  0
LINE
  5
43A
330
1F
100
AcDbEntity
  8
0
  6
Continuous
 62
     7
370
    25
100
AcDbLine
 10
639.2889067618
 20
815.4399729765
 30
0.0
 11
639.2889067618
 21
883.7266404858
 31
0.0
  0
LINE
  5
43B
330
1F
100
AcDbEntity
  8
0
  6
Continuous
 62
     7
370
    25
100
AcDbLine
 10
235.3089067618
 20
289.2366404858
 30
0.0
 11
232.8589067618
 21
289.2366404858
 31
0.0
  0
LINE
  5
43C
330
1F
100
AcDbEntity
  8
0
  6
Continuous
 62
     7
370
    25
100
AcDbLine
 10
235.3089067618
 20
883.7266404858
 30
0.0
 11
235.3089067618
 21
818.7266404863
 31
0.0
  0
LINE
  5
43D
330
1F
100
AcDbEntity
  8
0
  6
Continuous
 62
     7
370
    25
100
AcDbLine
 10
235.3089067618
 20
806.7266404863
 30
0.0
 11
235.3089067618
 21
289.2366404858
 31
0.0
  0
LINE
  5
43E
330
1F
100
AcDbEntity
  8
0
  6
Continuous
 62
     7
370
    25
100
AcDbLine
 10
214.7489067618
 20
286.7766404858
 30
0.0
 11
235.3089067618
 21
286.7766404858
 31
0.0
  0
LINE
  5
43F
330
1F
100
AcDbEntity
  8
0
  6
Continuous
 62
     7
370
    25
100
AcDbLine
 10
659.8489067618
 20
286.7766404858
 30
0.0
 11
639.2889067618
 21
286.7766404858
 31
0.0
  0
LINE
  5
440
330
1F
100
AcDbEntity
  8
0
  6
Continuous
 62
     7
370
    25
100
AcDbLine
 10
235.3089067618
 20
286.7766404858
 30
0.0
 11
235.3089067618
 21
289.2266404858
 31
0.0
  0
LINE
  5
441
330
1F
100
AcDbEntity
  8
0
  6
Continuous
 62
     7
370
    25
100
AcDbLine
 10
639.2889067618
 20
289.2266404858
 30
0.0
 11
549.7989067618
 21
289.2266404858
 31
0.0
  0
LINE
  5
442
330
1F
100
AcDbEntity
  8
0
  6
Continuous
 62
     7
370
    25
100
AcDbLine
 10
544.7989067603
 20
289.2266404858
 30
0.0
 11
541.8989067618
 21
289.2266404858
 31
0.0
  0
LINE
  5
443
330
1F
100
AcDbEntity
  8
0
  6
Continuous
 62
     7
370
    25
100
AcDbLine
 10
536.8989067618
 20
289.2266404858
 30
0.0
 11
534.6989067618
 21
289.2266404858
 31
0.0
  0
LINE
  5
444
330
1F
100
AcDbEntity
  8
0
  6
Continuous
 62
     7
370
    25
100
AcDbLine
 10
529.6989067618
 20
289.2266404858
 30
0.0
 11
526.7989067618
 21
289.2266404858
 31
0.0
  0
LINE
  5
445
330
1F
100
AcDbEntity
  8
0
  6
Continuous
 62
     7
370
    25
100
AcDbLine
 10
521.7989067618
 20
289.2266404858
 30
0.0
 11
352.7989067618
 21
289.2266404858
 31
0.0
  0
LINE
  5
446
330
1F
100
AcDbEntity
  8
0
  6
Continuous
 62
     7
370
    25
100
AcDbLine
 10
347.7989067618
 20
289.2266404858
 30
0.0
 11
344.8989067618
 21
289.2266404858
 31
0.0
  0
LINE
  5
447
330
1F
100
AcDbEntity
  8
0
  6
Continuous
 62
     7
370
    25
100
AcDbLine
 10
339.8989067618
 20
289.2266404858
 30
0.0
 11
337.6989067618
 21
289.2266404858
 31
0.0
  0
LINE
  5
448
330
1F
100
AcDbEntity
  8
0
  6
Continuous
 62
     7
370
    25
100
AcDbLine
 10
332.6989067618
 20
289.2266404858
 30
0.0
 11
329.7989067603
 21
289.2266404858
 31
0.0
  0
LINE
  5
449
330
1F
100
AcDbEntity
  8
0
  6
Continuous
 62
     7
370
    25
100
AcDbLine
 10
324.7989067618
 20
289.2266404858
 30
0.0
 11
235.3089067618
 21
289.2266404858
 31
0.0
  0
LINE
  5
44A
330
1F
100
AcDbEntity
  8
0
  6
Continuous
 62
     7
370
    25
100
AcDbLine
 10
639.2889067618
 20
289.2266404858
 30
0.0
 11
639.2889067618
 21
286.7766404858
 31
0.0
  0
LINE
  5
44B
330
1F
100
AcDbEntity
  8
0
  6
Continuous
 62
     7
370
    25
100
AcDbLine
 10
662.2989067618
 20
286.7766404858
 30
0.0
 11
662.2989067618
 21
195.4598319873
 31
0.0
  0
LINE
  5
44C
330
1F
100
AcDbEntity
  8
0
  6
Continuous
 62
     7
370
    25
100
AcDbLine
 10
662.2989067618
 20
195.4598319873
 30
0.0
 11
661.0889067618
 21
195.4598319873
 31
0.0
  0
LINE
  5
44D
330
1F
100
AcDbEntity
  8
0
  6
Continuous
 62
     7
370
    25
100
AcDbLine
 10
659.8489067618
 20
286.7766404858
 30
0.0
 11
662.2989067618
 21
286.7766404858
 31
0.0
  0
LINE
  5
44E
330
1F
100
AcDbEntity
  8
0
  6
Continuous
 62
     7
370
    25
100
AcDbLine
 10
213.5089067618
 20
195.4598319873
 30
0.0
 11
212.2989067618
 21
195.4598319873
 31
0.0
  0
LINE
  5
44F
330
1F
100
AcDbEntity
  8
0
  6
Continuous
 62
     7
370
    25
100
AcDbLine
 10
212.2989067618
 20
195.4598319873
 30
0.0
 11
212.2989067618
 21
286.7766404858
 31
0.0
  0
LINE
  5
450
330
1F
100
AcDbEntity
  8
0
  6
Continuous
 62
     7
370
    25
100
AcDbLine
 10
212.2989067618
 20
286.7766404858
 30
0.0
 11
214.7489067618
 21
286.7766404858
 31
0.0
  0
LINE
  5
451
330
1F
100
AcDbEntity
  8
0
  6
Continuous
 62
     7
370
    25
100
AcDbLine
 10
214.7489067618
 20
195.4598319873
 30
0.0
 11
213.5089067618
 21
195.4598319873
 31
0.0
  0
LINE
  5
452
330
1F
100
AcDbEntity
  8
0
  6
Continuous
 62
     7
370
    25
100
AcDbLine
 10
661.0889067618
 20
195.4598319873
 30
0.0
 11
659.8489067618
 21
195.4598319873
 31
0.0
  0
LINE
  5
453
330
1F
100
AcDbEntity
  8
0
  6
Continuous
 62
     7
370
    25
100
AcDbLine
 10
661.0889067618
 20
172.1598319873
 30
0.0
 11
661.0889067618
 21
195.4598319873
 31
0.0
  0
LINE
  5
454
330
1F
100
AcDbEntity
  8
0
  6
Continuous
 62
     7
370
    25
100
AcDbLine
 10
213.5089067618
 20
172.1598319873
 30
0.0
 11
213.5089067618
 21
195.4598319873
 31
0.0
  0
LINE
  5
455
330
1F
100
AcDbEntity
  8
0
  6
Continuous
 62
     7
370
    25
100
AcDbLine
 10
212.2989067618
 20
195.2098319873
 30
0.0
 11
213.4989067618
 21
195.2098319873
 31
0.0
  0
LINE
  5
456
330
1F
100
AcDbEntity
  8
0
  6
Continuous
 62
     7
370
    25
100
AcDbLine
 10
212.2989067618
 20
173.3698319873
 30
0.0
 11
212.2989067618
 21
195.2098319873
 31
0.0
  0
LINE
  5
457
330
1F
100
AcDbEntity
  8
0
  6
Continuous
 62
     7
370
    25
100
AcDbLine
 10
213.4989067618
 20
173.3698319873
 30
0.0
 11
213.4989067618
 21
195.2098319873
 31
0.0
  0
LINE
  5
458
330
1F
100
AcDbEntity
  8
0
  6
Continuous
 62
     7
370
    25
100
AcDbLine
 10
662.2989067618
 20
195.2098319873
 30
0.0
 11
661.0989067618
 21
195.2098319873
 31
0.0
  0
LINE
  5
459
330
1F
100
AcDbEntity
  8
0
  6
Continuous
 62
     7
370
    25
100
AcDbLine
 10
662.2989067618
 20
195.2098319873
 30
0.0
 11
662.2989067618
 21
173.3698319873
 31
0.0
  0
LINE
  5
45A
330
1F
100
AcDbEntity
  8
0
  6
Continuous
 62
     7
370
    25
100
AcDbLine
 10
661.0989067618
 20
195.2098319873
 30
0.0
 11
661.0989067618
 21
173.3698319873
 31
0.0
  0
LINE
  5
45B
330
1F
100
AcDbEntity
  8
0
  6
Continuous
 62
     7
370
    25
100
AcDbLine
 10
212.2989067618
 20
195.2098319873
 30
0.0
 11
212.2989067618
 21
195.4598319873
 31
0.0
  0
LINE
  5
45C
330
1F
100
AcDbEntity
  8
0
  6
Continuous
 62
     7
370
    25
100
AcDbLine
 10
213.4989067618
 20
195.2098319873
 30
0.0
 11
213.4989067618
 21
195.4598319873
 31
0.0
  0
LINE
  5
45D
330
1F
100
AcDbEntity
  8
0
  6
Continuous
 62
     7
370
    25
100
AcDbLine
 10
662.2989067618
 20
195.4598319873
 30
0.0
 11
662.2989067618
 21
195.2098319873
 31
0.0
  0
LINE
  5
45E
330
1F
100
AcDbEntity
  8
0
  6
Continuous
 62
     7
370
    25
100
AcDbLine
 10
661.0989067618
 20
195.4598319873
 30
0.0
 11
661.0989067618
 21
195.2098319873
 31
0.0
  0
LINE
  5
45F
330
1F
100
AcDbEntity
  8
0
  6
Continuous
 62
     7
370
    25
100
AcDbLine
 10
638.0389067618
 20
290.4766404858
 30
0.0
 11
639.2889067618
 21
290.4766404858
 31
0.0
  0
LINE
  5
460
330
1F
100
AcDbEntity
  8
0
  6
Continuous
 62
     7
370
    25
100
AcDbLine
 10
235.3089067618
 20
290.4766404858
 30
0.0
 11
236.5589067618
 21
290.4766404858
 31
0.0
  0
LINE
  5
461
330
1F
100
AcDbEntity
  8
0
  6
Continuous
 62
     7
370
    25
100
AcDbLine
 10
619.2989067618
 20
290.4766404858
 30
0.0
 11
619.2989067618
 21
289.2266404858
 31
0.0
  0
LINE
  5
462
330
1F
100
AcDbEntity
  8
0
  6
Continuous
 62
     7
370
    25
100
AcDbLine
 10
638.0389067618
 20
290.4766404858
 30
0.0
 11
638.0389067618
 21
289.2266404858
 31
0.0
  0
LINE
  5
463
330
1F
100
AcDbEntity
  8
0
  6
Continuous
 62
     7
370
    25
100
AcDbLine
 10
255.2989067618
 20
289.2266404858
 30
0.0
 11
255.2989067618
 21
290.4766404858
 31
0.0
  0
LINE
  5
464
330
1F
100
AcDbEntity
  8
0
  6
Continuous
 62
     7
370
    25
100
AcDbLine
 10
236.5589067618
 20
289.2266404858
 30
0.0
 11
236.5589067618
 21
290.4766404858
 31
0.0
  0
LINE
  5
465
330
1F
100
AcDbEntity
  8
0
  6
Continuous
 62
     7
370
    25
100
AcDbLine
 10
452.2989067618
 20
289.2266404858
 30
0.0
 11
452.2989067618
 21
290.4766404858
 31
0.0
  0
LINE
  5
466
330
1F
100
AcDbEntity
  8
0
  6
Continuous
 62
     7
370
    25
100
AcDbLine
 10
422.2989067618
 20
290.4766404858
 30
0.0
 11
422.2989067618
 21
289.2266404858
 31
0.0
  0
LINE
  5
467
330
1F
100
AcDbEntity
  8
0
  6
Continuous
 62
     7
370
    25
100
AcDbLine
 10
255.2989067618
 20
290.4766404858
 30
0.0
 11
255.2989067618
 21
292.1766404904
 31
0.0
  0
LINE
  5
468
330
1F
100
AcDbEntity
  8
0
  6
Continuous
 62
     7
370
    25
100
AcDbLine
 10
255.2989067618
 20
803.7766404904
 30
0.0
 11
255.2989067618
 21
806.7266404863
 31
0.0
  0
LINE
  5
469
330
1F
100
AcDbEntity
  8
0
  6
Continuous
 62
     7
370
    25
100
AcDbLine
 10
255.2989067618
 20
818.7266404863
 30
0.0
 11
255.2989067618
 21
826.4221113674
 31
0.0
  0
LINE
  5
46A
330
1F
100
AcDbEntity
  8
0
  6
Continuous
 62
     7
370
    25
100
AcDbLine
 10
452.2989067618
 20
290.4766404858
 30
0.0
 11
452.2989067618
 21
292.1766404904
 31
0.0
  0
LINE
  5
46B
330
1F
100
AcDbEntity
  8
0
  6
Continuous
 62
     7
370
    25
100
AcDbLine
 10
619.2989067618
 20
826.4221113674
 30
0.0
 11
619.2989067618
 21
815.3701618524
 31
0.0
  0
LINE
  5
46C
330
1F
100
AcDbEntity
  8
0
  6
Continuous
 62
     7
370
    25
100
AcDbLine
 10
619.2989067618
 20
292.1766404904
 30
0.0
 11
619.2989067618
 21
290.4766404858
 31
0.0
  0
LINE
  5
46D
330
1F
100
AcDbEntity
  8
0
  6
Continuous
 62
     7
370
    25
100
AcDbLine
 10
422.2989067618
 20
292.1766404904
 30
0.0
 11
422.2989067618
 21
290.4766404858
 31
0.0
  0
LINE
  5
46E
330
1F
100
AcDbEntity
  8
0
  6
Continuous
 62
     7
370
    25
100
AcDbLine
 10
619.4989067617
 20
903.4140493503
 30
0.0
 11
619.4989067617
 21
904.4140493503
 31
0.0
  0
LINE
  5
46F
330
1F
100
AcDbEntity
  8
0
  6
Continuous
 62
     7
370
    25
100
AcDbLine
 10
619.4989067617
 20
904.4140493503
 30
0.0
 11
620.2989067617
 21
904.4140493503
 31
0.0
  0
LINE
  5
470
330
1F
100
AcDbEntity
  8
0
  6
Continuous
 62
     7
370
    25
100
AcDbLine
 10
620.2989067617
 20
904.4140493503
 30
0.0
 11
620.2989067617
 21
903.4140493503
 31
0.0
  0
LINE
  5
471
330
1F
100
AcDbEntity
  8
0
  6
Continuous
 62
     7
370
    25
100
AcDbLine
 10
619.4989067617
 20
903.4140493503
 30
0.0
 11
619.4989067617
 21
903.0561643582
 31
0.0
  0
LINE
  5
472
330
1F
100
AcDbEntity
  8
0
  6
Continuous
 62
     7
370
    25
100
AcDbLine
 10
620.2989067617
 20
903.4140493503
 30
0.0
 11
620.2989067617
 21
903.0561643582
 31
0.0
  0
LINE
  5
473
330
1F
100
AcDbEntity
  8
0
  6
Continuous
 62
     7
370
    25
100
AcDbLine
 10
254.2989067617
 20
904.4140493503
 30
0.0
 11
255.0989067617
 21
904.4140493503
 31
0.0
  0
LINE
  5
474
330
1F
100
AcDbEntity
  8
0
  6
Continuous
 62
     7
370
    25
100
AcDbLine
 10
255.0989067617
 20
904.4140493503
 30
0.0
 11
255.0989067617
 21
903.4140493503
 31
0.0
  0
LINE
  5
475
330
1F
100
AcDbEntity
  8
0
  6
Continuous
 62
     7
370
    25
100
AcDbLine
 10
254.2989067617
 20
903.4140493503
 30
0.0
 11
254.2989067617
 21
904.4140493503
 31
0.0
  0
LINE
  5
476
330
1F
100
AcDbEntity
  8
0
  6
Continuous
 62
     7
370
    25
100
AcDbLine
 10
254.2989067617
 20
903.0561643582
 30
0.0
 11
254.2989067617
 21
903.4140493503
 31
0.0
  0
LINE
  5
477
330
1F
100
AcDbEntity
  8
0
  6
Continuous
 62
     7
370
    25
100
AcDbLine
 10
255.0989067617
 20
903.0561643582
 30
0.0
 11
255.0989067617
 21
903.4140493503
 31
0.0
  0
LINE
  5
478
330
1F
100
AcDbEntity
  8
0
  6
Continuous
 62
     7
370
    25
100
AcDbLine
 10
619.4989067617
 20
930.3548187982
 30
0.0
 11
619.4989067617
 21
931.3164323119
 31
0.0
  0
LINE
  5
479
330
1F
100
AcDbEntity
  8
0
  6
Continuous
 62
     7
370
    25
100
AcDbLine
 10
620.2989067617
 20
931.3164323119
 30
0.0
 11
620.2989067617
 21
930.3548187982
 31
0.0
  0
LINE
  5
47A
330
1F
100
AcDbEntity
  8
0
  6
Continuous
 62
     7
370
    25
100
AcDbLine
 10
254.2989067617
 20
930.3548187982
 30
0.0
 11
254.2989067617
 21
931.3164323119
 31
0.0
  0
LINE
  5
47B
330
1F
100
AcDbEntity
  8
0
  6
Continuous
 62
     7
370
    25
100
AcDbLine
 10
255.0989067617
 20
931.3164323119
 30
0.0
 11
255.0989067617
 21
930.3548187982
 31
0.0
  0
LINE
  5
47C
330
1F
100
AcDbEntity
  8
0
  6
Continuous
 62
     7
370
    25
100
AcDbLine
 10
619.4989067617
 20
930.3548187982
 30
0.0
 11
619.4989067617
 21
904.4140493503
 31
0.0
  0
LINE
  5
47D
330
1F
100
AcDbEntity
  8
0
  6
Continuous
 62
     7
370
    25
100
AcDbLine
 10
620.2989067617
 20
930.3548187982
 30
0.0
 11
620.2989067617
 21
904.4140493503
 31
0.0
  0
LINE
  5
47E
330
1F
100
AcDbEntity
  8
0
  6
Continuous
 62
     7
370
    25
100
AcDbLine
 10
254.2989067617
 20
904.4140493503
 30
0.0
 11
254.2989067617
 21
930.3548187982
 31
0.0
  0
LINE
  5
47F
330
1F
100
AcDbEntity
  8
0
  6
Continuous
 62
     7
370
    25
100
AcDbLine
 10
255.0989067617
 20
904.4140493503
 30
0.0
 11
255.0989067617
 21
930.3548187982
 31
0.0
  0
LINE
  5
480
330
1F
100
AcDbEntity
  8
0
  6
Continuous
 62
     7
370
    25
100
AcDbLine
 10
436.8989067617
 20
903.0561643582
 30
0.0
 11
436.8989067617
 21
931.3164323119
 31
0.0
  0
LINE
  5
481
330
1F
100
AcDbEntity
  8
0
  6
Continuous
 62
     7
370
    25
100
AcDbLine
 10
437.6989067617
 20
903.0561643582
 30
0.0
 11
437.6989067617
 21
931.3164323119
 31
0.0
  0
LINE
  5
482
330
1F
100
AcDbEntity
  8
0
  6
Continuous
 62
     7
370
    25
100
AcDbLine
 10
620.3489067618
 20
931.3164323119
 30
0.0
 11
620.3489067618
 21
903.0561643582
 31
0.0
  0
LINE
  5
483
330
1F
100
AcDbEntity
  8
0
  6
Continuous
 62
     7
370
    25
100
AcDbLine
 10
621.1489067618
 20
931.3164323119
 30
0.0
 11
621.1489067618
 21
903.0561643582
 31
0.0
  0
LINE
  5
484
330
1F
100
AcDbEntity
  8
0
  6
Continuous
 62
     7
370
    25
100
AcDbLine
 10
254.2489067618
 20
903.0561643582
 30
0.0
 11
254.2489067618
 21
931.3164323119
 31
0.0
  0
LINE
  5
485
330
1F
100
AcDbEntity
  8
0
  6
Continuous
 62
     7
370
    25
100
AcDbLine
 10
253.4489067618
 20
903.0561643582
 30
0.0
 11
253.4489067618
 21
931.3164323119
 31
0.0
  0
LWPOLYLINE
  5
486
330
1F
100
AcDbEntity
  8
0
  6
Continuous
 62
     7
370
    25
100
AcDbPolyline
 90
        3
 70
   128
 43
0.0
 10
254.2489067618
 20
904.8137253026
 10
254.2729251612
 20
905.0428814726
 10
254.2989067617
 20
905.1426177198
  0
LWPOLYLINE
  5
487
330
1F
100
AcDbEntity
  8
0
  6
Continuous
 62
     7
370
    25
100
AcDbPolyline
 90
        3
 70
   128
 43
0.0
 10
255.0989067617
 20
905.9265768946
 10
255.2550438592
 20
905.9657711659
 10
255.4989067618
 20
905.9883410786
  0
LWPOLYLINE
  5
488
330
1F
100
AcDbEntity
  8
0
  6
Continuous
 62
     7
370
    25
100
AcDbPolyline
 90
        3
 70
   128
 43
0.0
 10
619.0989067618
 20
905.9883410786
 10
619.3427696643
 20
905.9657711659
 10
619.4989067617
 20
905.9265768946
  0
LWPOLYLINE
  5
489
330
1F
100
AcDbEntity
  8
0
  6
Continuous
 62
     7
370
    25
100
AcDbPolyline
 90
        3
 70
   128
 43
0.0
 10
620.2989067617
 20
905.14261772
 10
620.3248883623
 20
905.0428814726
 10
620.3489067618
 20
904.8137253026
  0
LINE
  5
48A
330
1F
100
AcDbEntity
  8
0
  6
Continuous
 62
     7
370
    25
100
AcDbLine
 10
255.4989067618
 20
905.9883410786
 30
0.0
 11
255.4989067618
 21
903.0561643582
 31
0.0
  0
LINE
  5
48B
330
1F
100
AcDbEntity
  8
0
  6
Continuous
 62
     7
370
    25
100
AcDbLine
 10
619.0989067618
 20
903.0561643582
 30
0.0
 11
619.0989067618
 21
905.9883410786
 31
0.0
  0
LINE
  5
48C
330
1F
100
AcDbEntity
  8
0
  6
Continuous
 62
     7
370
    25
100
AcDbLine
 10
222.0989067618
 20
287.2366404858
 30
0.0
 11
222.0989067618
 21
286.7766404858
 31
0.0
  0
LINE
  5
48D
330
1F
100
AcDbEntity
  8
0
  6
Continuous
 62
     7
370
    25
100
AcDbLine
 10
222.8989067618
 20
287.2366404858
 30
0.0
 11
222.8989067618
 21
286.7766404858
 31
0.0
  0
LINE
  5
48E
330
1F
100
AcDbEntity
  8
0
  6
Continuous
 62
     7
370
    25
100
AcDbLine
 10
212.2989067618
 20
286.7766404858
 30
0.0
 11
212.2989067618
 21
287.2366404858
 31
0.0
  0
LINE
  5
48F
330
1F
100
AcDbEntity
  8
0
  6
Continuous
 62
     7
370
    25
100
AcDbLine
 10
652.4989067618
 20
286.7766404858
 30
0.0
 11
652.4989067618
 21
287.2366404858
 31
0.0
  0
LINE
  5
490
330
1F
100
AcDbEntity
  8
0
  6
Continuous
 62
     7
370
    25
100
AcDbLine
 10
651.6989067618
 20
286.7766404858
 30
0.0
 11
651.6989067618
 21
287.2366404858
 31
0.0
  0
LINE
  5
491
330
1F
100
AcDbEntity
  8
0
  6
Continuous
 62
     7
370
    25
100
AcDbLine
 10
662.2989067618
 20
287.2366404858
 30
0.0
 11
662.2989067618
 21
286.7766404858
 31
0.0
  0
LINE
  5
492
330
1F
100
AcDbEntity
  8
0
  6
Continuous
 62
     7
370
    25
100
AcDbLine
 10
639.2889067618
 20
287.0266404858
 30
0.0
 11
644.2989067618
 21
287.0266404858
 31
0.0
  0
LINE
  5
493
330
1F
100
AcDbEntity
  8
0
  6
Continuous
 62
     7
370
    25
100
AcDbLine
 10
644.2989067618
 20
287.0266404858
 30
0.0
 11
650.2989067618
 21
287.0266404858
 31
0.0
  0
LINE
  5
494
330
1F
100
AcDbEntity
  8
0
  6
Continuous
 62
     7
370
    25
100
AcDbLine
 10
641.7389067618
 20
287.5266404858
 30
0.0
 11
639.2889067618
 21
287.5266404858
 31
0.0
  0
LINE
  5
495
330
1F
100
AcDbEntity
  8
0
  6
Continuous
 62
     7
370
    25
100
AcDbLine
 10
235.3089067618
 20
287.5266404858
 30
0.0
 11
232.8589067618
 21
287.5266404858
 31
0.0
  0
LWPOLYLINE
  5
496
330
1F
100
AcDbEntity
  8
0
  6
Continuous
 62
     7
370
    25
100
AcDbPolyline
 90
        3
 70
   128
 43
0.0
 10
233.5106812584
 20
903.986097617
 10
233.5451968838
 20
903.9963842184
 10
234.2989067618
 20
904.1484613777
  0
LWPOLYLINE
  5
497
330
1F
100
AcDbEntity
  8
0
  6
Continuous
 62
     7
370
    25
100
AcDbPolyline
 90
        3
 70
   128
 43
0.0
 10
233.2697951387
 20
904.1709421907
 10
233.4747637446
 20
904.2362574618
 10
234.2989067618
 20
904.399969064
  0
LWPOLYLINE
  5
498
330
1F
100
AcDbEntity
  8
0
  6
Continuous
 62
     7
370
    25
100
AcDbPolyline
 90
        3
 70
   128
 43
0.0
 10
232.6089067618
 20
905.7402833086
 10
233.2672865103
 20
905.9406681173
 10
234.2989067618
 20
906.1070793422
  0
LWPOLYLINE
  5
499
330
1F
100
AcDbEntity
  8
0
  6
Continuous
 62
     7
370
    25
100
AcDbPolyline
 90
        3
 70
   128
 43
0.0
 10
640.2989067618
 20
904.1484613777
 10
641.0526166397
 20
903.9963842184
 10
641.087132253
 20
903.9860976207
  0
LWPOLYLINE
  5
49A
330
1F
100
AcDbEntity
  8
0
  6
Continuous
 62
     7
370
    25
100
AcDbPolyline
 90
        3
 70
   128
 43
0.0
 10
640.2989067618
 20
904.399969064
 10
641.1230497789
 20
904.2362574618
 10
641.3280183912
 20
904.1709421885
  0
LWPOLYLINE
  5
49B
330
1F
100
AcDbEntity
  8
0
  6
Continuous
 62
     7
370
    25
100
AcDbPolyline
 90
        3
 70
   128
 43
0.0
 10
640.2989067618
 20
906.1070793422
 10
641.3305270132
 20
905.9406681173
 10
641.9889067618
 20
905.7402833086
  0
CIRCLE
  5
49C
330
1F
100
AcDbEntity
  8
0
  6
Continuous
 62
     7
370
    25
100
AcDbCircle
 10
437.2989067618
 20
995.0266404862
 30
0.0
 40
13.20000000000005
  0
ARC
  5
49D
330
1F
100
AcDbEntity
  8
0
  6
Continuous
 62
     7
370
    25
100
AcDbCircle
 10
437.2989067618
 20
995.0266404862
 30
0.0
 40
18.50000000000013
100
AcDbArc
 50
293.2314565021
 51
90.0
  0
ARC
  5
49E
330
1F
100
AcDbEntity
  8
0
  6
Continuous
 62
     7
370
    25
100
AcDbCircle
 10
437.2989067618
 20
995.0266404862
 30
0.0
 40
18.50000000000013
100
AcDbArc
 50
90.0
 51
246.7685434979
  0
LINE
  5
49F
330
1F
100
AcDbEntity
  8
0
  6
Continuous
 62
     7
370
    25
100
AcDbLine
 10
461.2989067618
 20
979.2766404862
 30
0.0
 11
461.2989067618
 21
1010.7766404862
 31
0.0
  0
LINE
  5
4A0
330
1F
100
AcDbEntity
  8
0
  6
Continuous
 62
     7
370
    25
100
AcDbLine
 10
468.7989067618
 20
979.2766404862
 30
0.0
 11
468.7989067618
 21
1010.7766404862
 31
0.0
  0
LINE
  5
4A1
330
1F
100
AcDbEntity
  8
0
  6
Continuous
 62
     7
370
    25
100
AcDbLine
 10
413.2989067618
 20
979.2766404862
 30
0.0
 11
413.2989067618
 21
1010.7766404862
 31
0.0
  0
LINE
  5
4A2
330
1F
100
AcDbEntity
  8
0
  6
Continuous
 62
     7
370
    25
100
AcDbLine
 10
405.7989067618
 20
979.2766404862
 30
0.0
 11
405.7989067618
 21
1010.7766404862
 31
0.0
  0
LINE
  5
4A3
330
1F
100
AcDbEntity
  8
0
  6
Continuous
 62
     7
370
    25
100
AcDbLine
 10
428.2989067618
 20
1004.6827266498
 30
0.0
 11
428.2989067618
 21
985.3705543225
 31
0.0
  0
LINE
  5
4A4
330
1F
100
AcDbEntity
  8
0
  6
Continuous
 62
     7
370
    25
100
AcDbLine
 10
446.2989067618
 20
985.3705543225
 30
0.0
 11
446.2989067618
 21
1004.6827266498
 31
0.0
  0
LINE
  5
4A5
330
1F
100
AcDbEntity
  8
0
  6
Continuous
 62
     7
370
    25
100
AcDbLine
 10
589.7989067617
 20
971.0266404862
 30
0.0
 11
602.1233115728
 21
971.0266404862
 31
0.0
  0
LINE
  5
4A6
330
1F
100
AcDbEntity
  8
0
  6
Continuous
 62
     7
370
    25
100
AcDbLine
 10
557.2989067618
 20
1010.0266404862
 30
0.0
 11
557.2989067618
 21
980.0266404862
 31
0.0
  0
LINE
  5
4A7
330
1F
100
AcDbEntity
  8
0
  6
Continuous
 62
     7
370
    25
100
AcDbLine
 10
272.474501963
 20
971.0266404813
 30
0.0
 11
284.7989067617
 21
971.0266404813
 31
0.0
  0
LINE
  5
4A8
330
1F
100
AcDbEntity
  8
0
  6
Continuous
 62
     7
370
    25
100
AcDbLine
 10
317.2989067618
 20
995.0266404813
 30
0.0
 11
317.2989067618
 21
1010.0266404813
 31
0.0
  0
LINE
  5
4A9
330
1F
100
AcDbEntity
  8
0
  6
Continuous
 62
     7
370
    25
100
AcDbLine
 10
317.2989067618
 20
980.0266404813
 30
0.0
 11
317.2989067618
 21
995.0266404813
 31
0.0
  0
LINE
  5
4AA
330
1F
100
AcDbEntity
  8
0
  6
Continuous
 62
     7
370
    25
100
AcDbLine
 10
285.9989067617
 20
939.5266404813
 30
0.0
 11
285.807224718
 21
939.5266404813
 31
0.0
  0
LINE
  5
4AB
330
1F
100
AcDbEntity
  8
0
  6
Continuous
 62
     7
370
    25
100
AcDbLine
 10
284.361310597
 20
939.5266404813
 30
0.0
 11
281.5254040699
 21
939.5266404813
 31
0.0
  0
LINE
  5
4AC
330
1F
100
AcDbEntity
  8
0
  6
Continuous
 62
     7
370
    25
100
AcDbLine
 10
281.5254040699
 20
939.5266404813
 30
0.0
 11
280.2263659642
 21
939.5266404813
 31
0.0
  0
LINE
  5
4AD
330
1F
100
AcDbEntity
  8
0
  6
Continuous
 62
     7
370
    25
100
AcDbLine
 10
280.2263659642
 20
939.5266404813
 30
0.0
 11
278.7989067618
 21
939.5266404813
 31
0.0
  0
LINE
  5
4AE
330
1F
100
AcDbEntity
  8
0
  6
Continuous
 62
     7
370
    25
100
AcDbLine
 10
593.0724094537
 20
939.5266404862
 30
0.0
 11
590.2365029208
 21
939.5266404862
 31
0.0
  0
LINE
  5
4AF
330
1F
100
AcDbEntity
  8
0
  6
Continuous
 62
     7
370
    25
100
AcDbLine
 10
588.7905888034
 20
939.5266404862
 30
0.0
 11
588.5989067617
 21
939.5266404862
 31
0.0
  0
LINE
  5
4B0
330
1F
100
AcDbEntity
  8
0
  6
Continuous
 62
     7
370
    25
100
AcDbLine
 10
594.3714475593
 20
939.5266404862
 30
0.0
 11
593.0724094537
 21
939.5266404862
 31
0.0
  0
LINE
  5
4B1
330
1F
100
AcDbEntity
  8
0
  6
Continuous
 62
     7
370
    25
100
AcDbLine
 10
595.7989067618
 20
939.5266404862
 30
0.0
 11
594.3714475593
 21
939.5266404862
 31
0.0
  0
LINE
  5
4B2
330
1F
100
AcDbEntity
  8
0
  6
Continuous
 62
     7
370
    25
100
AcDbLine
 10
588.4574854055
 20
970.5266404862
 30
0.0
 11
588.5989067617
 21
970.5266404862
 31
0.0
  0
LINE
  5
4B3
330
1F
100
AcDbEntity
  8
0
  6
Continuous
 62
     7
370
    25
100
AcDbLine
 10
589.7989067617
 20
970.5266404862
 30
0.0
 11
597.8666380877
 21
970.5266404862
 31
0.0
  0
ELLIPSE
  5
4B4
330
1F
100
AcDbEntity
  8
0
  6
Continuous
 62
     7
370
    25
100
AcDbEllipse
 10
597.8666380877
 20
970.0266404862
 30
0.0
 11
0.0
 21
0.4999999999998863
 31
0.0
210
0.0
220
0.0
230
1.0
 40
0.2679491924
 41
4.712388980384238
 42
6.283185307179586
  0
LINE
  5
4B5
330
1F
100
AcDbEntity
  8
0
  6
Continuous
 62
     7
370
    25
100
AcDbLine
 10
597.8666380877
 20
970.5266404862
 30
0.0
 11
600.6345872802
 21
970.5266404862
 31
0.0
  0
ELLIPSE
  5
4B6
330
1F
100
AcDbEntity
  8
0
  6
Continuous
 62
     7
370
    25
100
AcDbEllipse
 10
600.6345872802
 20
970.0266404862
 30
0.0
 11
0.0
 21
0.4999999999998863
 31
0.0
210
0.0
220
0.0
230
1.0
 40
0.7320508076
 41
5.62250143285195
 42
6.283185307179586
  0
LINE
  5
4B7
330
1F
100
AcDbEntity
  8
0
  6
Continuous
 62
     7
370
    25
100
AcDbLine
 10
589.7989067617
 20
954.5266404862
 30
0.0
 11
595.7989067618
 21
954.5266404862
 31
0.0
  0
LINE
  5
4B8
330
1F
100
AcDbEntity
  8
0
  6
Continuous
 62
     7
370
    25
100
AcDbLine
 10
598.0006126839
 20
967.9865613699
 30
0.0
 11
598.0006126839
 21
970.0266404862
 31
0.0
  0
LINE
  5
4B9
330
1F
100
AcDbEntity
  8
0
  6
Continuous
 62
     7
370
    25
100
AcDbLine
 10
595.7989067618
 20
951.5266404862
 30
0.0
 11
589.7989067617
 21
951.5266404862
 31
0.0
  0
LINE
  5
4BA
330
1F
100
AcDbEntity
  8
0
  6
Continuous
 62
     7
370
    25
100
AcDbLine
 10
600.6345872802
 20
970.5266404862
 30
0.0
 11
601.0491699276
 21
970.5266404862
 31
0.0
  0
LINE
  5
4BB
330
1F
100
AcDbEntity
  8
0
  6
Continuous
 62
     7
370
    25
100
AcDbLine
 10
284.7989067617
 20
951.5266404813
 30
0.0
 11
278.7989067618
 21
951.5266404813
 31
0.0
  0
LINE
  5
4BC
330
1F
100
AcDbEntity
  8
0
  6
Continuous
 62
     7
370
    25
100
AcDbLine
 10
278.7989067618
 20
954.5266404813
 30
0.0
 11
284.7989067617
 21
954.5266404813
 31
0.0
  0
ELLIPSE
  5
4BD
330
1F
100
AcDbEntity
  8
0
  6
Continuous
 62
     7
370
    25
100
AcDbEllipse
 10
276.7311754358
 20
970.0266404813
 30
0.0
 11
0.0
 21
0.4999999999998863
 31
0.0
210
0.0
220
0.0
230
1.0
 40
0.2679491924
 41
0.0
 42
1.570796326794897
  0
LINE
  5
4BE
330
1F
100
AcDbEntity
  8
0
  6
Continuous
 62
     7
370
    25
100
AcDbLine
 10
276.7311754358
 20
970.5266404813
 30
0.0
 11
284.7989067617
 21
970.5266404813
 31
0.0
  0
LINE
  5
4BF
330
1F
100
AcDbEntity
  8
0
  6
Continuous
 62
     7
370
    25
100
AcDbLine
 10
285.9989067617
 20
970.5266404813
 30
0.0
 11
286.140328118
 21
970.5266404813
 31
0.0
  0
LINE
  5
4C0
330
1F
100
AcDbEntity
  8
0
  6
Continuous
 62
     7
370
    25
100
AcDbLine
 10
276.5972008396
 20
970.0266404813
 30
0.0
 11
276.5972008396
 21
967.9865613699
 31
0.0
  0
LINE
  5
4C1
330
1F
100
AcDbEntity
  8
0
  6
Continuous
 62
     7
370
    25
100
AcDbLine
 10
273.9632262434
 20
970.5266404813
 30
0.0
 11
276.7311754358
 21
970.5266404813
 31
0.0
  0
ELLIPSE
  5
4C2
330
1F
100
AcDbEntity
  8
0
  6
Continuous
 62
     7
370
    25
100
AcDbEllipse
 10
273.9632262434
 20
970.0266404813
 30
0.0
 11
0.0
 21
0.4999999999998863
 31
0.0
210
0.0
220
0.0
230
1.0
 40
0.7320508076
 41
0.0
 42
0.660683863940636
  0
LINE
  5
4C3
330
1F
100
AcDbEntity
  8
0
  6
Continuous
 62
     7
370
    25
100
AcDbLine
 10
273.5486436049
 20
970.5266404813
 30
0.0
 11
273.9632262434
 21
970.5266404813
 31
0.0
  0
ENDSEC
  0
SECTION
  2
OBJECTS
  0
DICTIONARY
  5
C
330
0
100
AcDbDictionary
281
     1
  3
ACAD_GROUP
350
D
  3
ACAD_LAYOUT
350
1A
  3
ACAD_MLINESTYLE
350
17
  3
ACAD_PLOTSETTINGS
350
19
  3
ACAD_PLOTSTYLENAME
350
E
  3
ACAD_SCALELIST
350
47
  0
DICTIONARY
  5
D
102
{ACAD_REACTORS
330
C
102
}
330
C
100
AcDbDictionary
281
     1
  0
DICTIONARY
  5
1A
102
{ACAD_REACTORS
330
C
102
}
330
C
100
AcDbDictionary
281
     1
  3
Layout1
350
1E
  3
Layout2
350
26
  3
Model
350
22
  0
DICTIONARY
  5
17
102
{ACAD_REACTORS
330
C
102
}
330
C
100
AcDbDictionary
281
     1
  3
Standard
350
18
  0
DICTIONARY
  5
19
102
{ACAD_REACTORS
330
C
102
}
330
C
100
AcDbDictionary
281
     1
  0
ACDBDICTIONARYWDFLT
  5
E
102
{ACAD_REACTORS
330
C
102
}
330
C
100
AcDbDictionary
281
     1
  3
Normal
350
F
100
AcDbDictionaryWithDefault
340
F
  0
DICTIONARY
  5
47
102
{ACAD_REACTORS
330
C
102
}
330
C
100
AcDbDictionary
281
     1
  3
A0
350
48
  3
A1
350
49
  3
A2
350
4A
  3
A3
350
4B
  3
A4
350
4C
  3
A5
350
4D
  3
A6
350
4E
  3
A7
350
4F
  3
A8
350
50
  3
A9
350
51
  3
B0
350
52
  3
B1
350
53
  3
B2
350
54
  3
B3
350
55
  3
B4
350
56
  3
B5
350
57
  3
B6
350
58
  3
B7
350
59
  3
B8
350
5A
  3
B9
350
5B
  3
C0
350
5C
  3
C1
350
5D
  3
C2
350
5E
  3
C3
350
5F
  3
C4
350
60
  3
C5
350
61
  3
C6
350
62
  3
C7
350
63
  3
C8
350
64
  3
C9
350
65
  3
D0
350
66
  3
D1
350
67
  3
D2
350
68
  0
LAYOUT
  5
1E
102
{ACAD_REACTORS
330
1A
102
}
330
1A
100
AcDbPlotSettings
  1

  2
none_device
  4

  6

 40
0.0
 41
0.0
 42
0.0
 43
0.0
 44
0.0
 45
0.0
 46
0.0
 47
0.0
 48
0.0
 49
0.0
140
0.0
141
0.0
142
1.0
143
1.0
 70
   688
 72
     1
 73
     0
 74
     5
  7

 75
    16
147
1.0
148
0.0
149
0.0
100
AcDbLayout
  1
Layout1
 70
     1
 71
     1
 10
0.0
 20
0.0
 11
420.0
 21
297.0
 12
0.0
 22
0.0
 32
0.0
 14
1.0000000000E+20
 24
1.0000000000E+20
 34
1.0000000000E+20
 15
-1.0000000000E+20
 25
-1.0000000000E+20
 35
-1.0000000000E+20
146
0.0
 13
0.0
 23
0.0
 33
0.0
 16
1.0
 26
0.0
 36
0.0
 17
0.0
 27
1.0
 37
0.0
 76
     0
330
1B
  0
LAYOUT
  5
26
102
{ACAD_REACTORS
330
1A
102
}
330
1A
100
AcDbPlotSettings
  1

  2
none_device
  4

  6

 40
0.0
 41
0.0
 42
0.0
 43
0.0
 44
0.0
 45
0.0
 46
0.0
 47
0.0
 48
0.0
 49
0.0
140
0.0
141
0.0
142
1.0
143
1.0
 70
   688
 72
     1
 73
     0
 74
     5
  7

 75
    16
147
1.0
148
0.0
149
0.0
100
AcDbLayout
  1
Layout2
 70
     1
 71
     2
 10
0.0
 20
0.0
 11
0.0
 21
0.0
 12
0.0
 22
0.0
 32
0.0
 14
0.0
 24
0.0
 34
0.0
 15
0.0
 25
0.0
 35
0.0
146
0.0
 13
0.0
 23
0.0
 33
0.0
 16
1.0
 26
0.0
 36
0.0
 17
0.0
 27
1.0
 37
0.0
 76
     0
330
23
  0
LAYOUT
  5
22
102
{ACAD_REACTORS
330
1A
102
}
330
1A
100
AcDbPlotSettings
  1

  2
none_device
  4
Letter_(8.50_x_11.00_Inches)
  6

 40
6.35
 41
6.35
 42
6.35000508
 43
6.35000508
 44
215.9
 45
279.4
 46
0.0
 47
0.0
 48
0.0
 49
0.0
140
0.0
141
0.0
142
1.0
143
1.0
 70
  1712
 72
     1
 73
     0
 74
     0
  7

 75
     0
147
1.0
148
0.0
149
0.0
100
AcDbLayout
  1
Model
 70
     1
 71
     0
 10
0.0
 20
0.0
 11
900.0
 21
1200.0
 12
0.0
 22
0.0
 32
0.0
 14
0.0
 24
0.0
 34
0.0
 15
900.0
 25
1200.0
 35
0.0
146
0.0
 13
0.0
 23
0.0
 33
0.0
 16
1.0
 26
0.0
 36
0.0
 17
0.0
 27
1.0
 37
0.0
 76
     0
330
1F
331
29
  0
MLINESTYLE
  5
18
102
{ACAD_REACTORS
330
17
102
}
330
17
100
AcDbMlineStyle
  2
Standard
 70
     0
  3

 62
   256
 51
90.0
 52
90.0
 71
     2
 49
0.5
 62
   256
  6
BYLAYER
 49
-0.5
 62
   256
  6
BYLAYER
  0
ACDBPLACEHOLDER
  5
F
102
{ACAD_REACTORS
330
E
102
}
330
E
  0
SCALE
  5
48
102
{ACAD_REACTORS
330
47
102
}
330
47
100
AcDbScale
 70
     0
300
1:1
140
1.0
141
1.0
290
     1
  0
SCALE
  5
49
102
{ACAD_REACTORS
330
47
102
}
330
47
100
AcDbScale
 70
     0
300
1:2
140
1.0
141
2.0
290
     0
  0
SCALE
  5
4A
102
{ACAD_REACTORS
330
47
102
}
330
47
100
AcDbScale
 70
     0
300
1:4
140
1.0
141
4.0
290
     0
  0
SCALE
  5
4B
102
{ACAD_REACTORS
330
47
102
}
330
47
100
AcDbScale
 70
     0
300
1:5
140
1.0
141
5.0
290
     0
  0
SCALE
  5
4C
102
{ACAD_REACTORS
330
47
102
}
330
47
100
AcDbScale
 70
     0
300
1:8
140
1.0
141
8.0
290
     0
  0
SCALE
  5
4D
102
{ACAD_REACTORS
330
47
102
}
330
47
100
AcDbScale
 70
     0
300
1:10
140
1.0
141
10.0
290
     0
  0
SCALE
  5
4E
102
{ACAD_REACTORS
330
47
102
}
330
47
100
AcDbScale
 70
     0
300
1:16
140
1.0
141
16.0
290
     0
  0
SCALE
  5
4F
102
{ACAD_REACTORS
330
47
102
}
330
47
100
AcDbScale
 70
     0
300
1:20
140
1.0
141
20.0
290
     0
  0
SCALE
  5
50
102
{ACAD_REACTORS
330
47
102
}
330
47
100
AcDbScale
 70
     0
300
1:30
140
1.0
141
30.0
290
     0
  0
SCALE
  5
51
102
{ACAD_REACTORS
330
47
102
}
330
47
100
AcDbScale
 70
     0
300
1:40
140
1.0
141
40.0
290
     0
  0
SCALE
  5
52
102
{ACAD_REACTORS
330
47
102
}
330
47
100
AcDbScale
 70
     0
300
1:50
140
1.0
141
50.0
290
     0
  0
SCALE
  5
53
102
{ACAD_REACTORS
330
47
102
}
330
47
100
AcDbScale
 70
     0
300
1:100
140
1.0
141
100.0
290
     0
  0
SCALE
  5
54
102
{ACAD_REACTORS
330
47
102
}
330
47
100
AcDbScale
 70
     0
300
2:1
140
2.0
141
1.0
290
     0
  0
SCALE
  5
55
102
{ACAD_REACTORS
330
47
102
}
330
47
100
AcDbScale
 70
     0
300
4:1
140
4.0
141
1.0
290
     0
  0
SCALE
  5
56
102
{ACAD_REACTORS
330
47
102
}
330
47
100
AcDbScale
 70
     0
300
8:1
140
8.0
141
1.0
290
     0
  0
SCALE
  5
57
102
{ACAD_REACTORS
330
47
102
}
330
47
100
AcDbScale
 70
     0
300
10:1
140
10.0
141
1.0
290
     0
  0
SCALE
  5
58
102
{ACAD_REACTORS
330
47
102
}
330
47
100
AcDbScale
 70
     0
300
100:1
140
100.0
141
1.0
290
     0
  0
SCALE
  5
59
102
{ACAD_REACTORS
330
47
102
}
330
47
100
AcDbScale
 70
     0
300
1/128" = 1'-0"
140
0.0078125
141
12.0
290
     0
  0
SCALE
  5
5A
102
{ACAD_REACTORS
330
47
102
}
330
47
100
AcDbScale
 70
     0
300
1/64" = 1'-0"
140
0.015625
141
12.0
290
     0
  0
SCALE
  5
5B
102
{ACAD_REACTORS
330
47
102
}
330
47
100
AcDbScale
 70
     0
300
1/32" = 1'-0"
140
0.03125
141
12.0
290
     0
  0
SCALE
  5
5C
102
{ACAD_REACTORS
330
47
102
}
330
47
100
AcDbScale
 70
     0
300
1/16" = 1'-0"
140
0.0625
141
12.0
290
     0
  0
SCALE
  5
5D
102
{ACAD_REACTORS
330
47
102
}
330
47
100
AcDbScale
 70
     0
300
3/32" = 1'-0"
140
0.09375
141
12.0
290
     0
  0
SCALE
  5
5E
102
{ACAD_REACTORS
330
47
102
}
330
47
100
AcDbScale
 70
     0
300
1/8" = 1'-0"
140
0.125
141
12.0
290
     0
  0
SCALE
  5
5F
102
{ACAD_REACTORS
330
47
102
}
330
47
100
AcDbScale
 70
     0
300
3/16" = 1'-0"
140
0.1875
141
12.0
290
     0
  0
SCALE
  5
60
102
{ACAD_REACTORS
330
47
102
}
330
47
100
AcDbScale
 70
     0
300
1/4" = 1'-0"
140
0.25
141
12.0
290
     0
  0
SCALE
  5
61
102
{ACAD_REACTORS
330
47
102
}
330
47
100
AcDbScale
 70
     0
300
3/8" = 1'-0"
140
0.375
141
12.0
290
     0
  0
SCALE
  5
62
102
{ACAD_REACTORS
330
47
102
}
330
47
100
AcDbScale
 70
     0
300
1/2" = 1'-0"
140
0.5
141
12.0
290
     0
  0
SCALE
  5
63
102
{ACAD_REACTORS
330
47
102
}
330
47
100
AcDbScale
 70
     0
300
3/4" = 1'-0"
140
0.75
141
12.0
290
     0
  0
SCALE
  5
64
102
{ACAD_REACTORS
330
47
102
}
330
47
100
AcDbScale
 70
     0
300
1" = 1'-0"
140
1.0
141
12.0
290
     0
  0
SCALE
  5
65
102
{ACAD_REACTORS
330
47
102
}
330
47
100
AcDbScale
 70
     0
300
1-1/2" = 1'-0"
140
1.5
141
12.0
290
     0
  0
SCALE
  5
66
102
{ACAD_REACTORS
330
47
102
}
330
47
100
AcDbScale
 70
     0
300
3" = 1'-0"
140
3.0
141
12.0
290
     0
  0
SCALE
  5
67
102
{ACAD_REACTORS
330
47
102
}
330
47
100
AcDbScale
 70
     0
300
6" = 1'-0"
140
6.0
141
12.0
290
     0
  0
SCALE
  5
68
102
{ACAD_REACTORS
330
47
102
}
330
47
100
AcDbScale
 70
     0
300
1'-0" = 1'-0"
140
12.0
141
12.0
290
     0
  0
ENDSEC
  0
EOF
