  0
SECTION
  2
HEADER
  9
$ACADVER
  1
AC1021
  9
$ACADMAINTVER
 70
    25
  9
$DWGCODEPAGE
  3
ANSI_1252
  9
$INSBASE
 10
0.0
 20
0.0
 30
0.0
  9
$EXTMIN
 10
0.0
 20
0.0
 30
0.0
  9
$EXTMAX
 10
420.0
 20
297.0
 30
0.0
  9
$LIMMIN
 10
0.0
 20
0.0
  9
$LIMMAX
 10
420.0
 20
297.0
  9
$ORTHOMODE
 70
     0
  9
$REGENMODE
 70
     1
  9
$FILLMODE
 70
     1
  9
$QTEXTMODE
 70
     0
  9
$MIRRTEXT
 70
     1
  9
$LTSCALE
 40
1.0
  9
$ATTMODE
 70
     1
  9
$TEXTSIZE
 40
3.5
  9
$TRACEWID
 40
1.0
  9
$TEXTSTYLE
  7
Standard
  9
$CLAYER
  8
0
  9
$CELTYPE
  6
ByLayer
  9
$CECOLOR
 62
   256
  9
$CELTSCALE
 40
1.0
  9
$DISPSILH
 70
     0
  9
$DIMSCALE
 40
1.0
  9
$DIMASZ
 40
3.302
  9
$DIMEXO
 40
1.0
  9
$DIMDLI
 40
3.75
  9
$DIMRND
 40
0.0
  9
$DIMDLE
 40
0.0
  9
$DIMEXE
 40
1.0
  9
$DIMTP
 40
0.0
  9
$DIMTM
 40
0.0
  9
$DIMTXT
 40
3.5
  9
$DIMCEN
 40
2.5
  9
$DIMTSZ
 40
0.0
  9
$DIMTOL
 70
     0
  9
$DIMLIM
 70
     0
  9
$DIMTIH
 70
     1
  9
$DIMTOH
 70
     1
  9
$DIMSE1
 70
     0
  9
$DIMSE2
 70
     0
  9
$DIMTAD
 70
     1
  9
$DIMZIN
 70
     0
  9
$DIMBLK
  1

  9
$DIMASO
 70
     1
  9
$DIMSHO
 70
     1
  9
$DIMPOST
  1

  9
$DIMAPOST
  1

  9
$DIMALT
 70
     0
  9
$DIMALTD
 70
     3
  9
$DIMALTF
 40
0.0393700787
  9
$DIMLFAC
 40
1.0
  9
$DIMTOFL
 70
     1
  9
$DIMTVP
 40
0.0
  9
$DIMTIX
 70
     0
  9
$DIMSOXD
 70
     0
  9
$DIMSAH
 70
     0
  9
$DIMBLK1
  1

  9
$DIMBLK2
  1

  9
$DIMSTYLE
  2
ISO-25
  9
$DIMCLRD
 70
     0
  9
$DIMCLRE
 70
     0
  9
$DIMCLRT
 70
     0
  9
$DIMTFAC
 40
1.0
  9
$DIMGAP
 40
1.524
  9
$DIMJUST
 70
     0
  9
$DIMSD1
 70
     0
  9
$DIMSD2
 70
     0
  9
$DIMTOLJ
 70
     0
  9
$DIMTZIN
 70
     0
  9
$DIMALTZ
 70
     0
  9
$DIMALTTZ
 70
     0
  9
$DIMUPT
 70
     0
  9
$DIMDEC
 70
     1
  9
$DIMTDEC
 70
     1
  9
$DIMALTU
 70
     2
  9
$DIMALTTD
 70
     3
  9
$DIMTXSTY
  7
Standard
  9
$DIMAUNIT
 70
     0
  9
$DIMADEC
 70
     1
  9
$DIMALTRND
 40
0.0
  9
$DIMAZIN
 70
     0
  9
$DIMDSEP
 70
    44
  9
$DIMATFIT
 70
     3
  9
$DIMFRAC
 70
     0
  9
$DIMLDRBLK
  1

  9
$DIMLUNIT
 70
     2
  9
$DIMLWD
 70
    -2
  9
$DIMLWE
 70
    -2
  9
$DIMTMOVE
 70
     0
  9
$DIMFXL
 40
1.0
  9
$DIMFXLON
 70
     0
  9
$DIMJOGANG
 40
0.7853981634
  9
$DIMTFILL
 70
     0
  9
$DIMTFILLCLR
 70
     0
  9
$DIMARCSYM
 70
     0
  9
$DIMLTYPE
  6

  9
$DIMLTEX1
  6

  9
$DIMLTEX2
  6

  9
$LUNITS
 70
     2
  9
$LUPREC
 70
     1
  9
$SKETCHINC
 40
1.0
  9
$FILLETRAD
 40
10.0
  9
$AUNITS
 70
     0
  9
$AUPREC
 70
     1
  9
$MENU
  1
.
  9
$ELEVATION
 40
0.0
  9
$PELEVATION
 40
0.0
  9
$THICKNESS
 40
0.0
  9
$LIMCHECK
 70
     0
  9
$CHAMFERA
 40
10.0
  9
$CHAMFERB
 40
10.0
  9
$CHAMFERC
 40
20.0
  9
$CHAMFERD
 40
0.0
  9
$SKPOLY
 70
     0
  9
$TDCREATE
 40
2455747.59317772
  9
$TDUCREATE
 40
2455747.551511053
  9
$TDUPDATE
 40
2455747.593177732
  9
$TDUUPDATE
 40
2455747.551511065
  9
$TDINDWG
 40
0.0000000116
  9
$TDUSRTIMER
 40
0.0000000116
  9
$USRTIMER
 70
     1
  9
$ANGBASE
 50
0.0
  9
$ANGDIR
 70
     0
  9
$PDMODE
 70
     0
  9
$PDSIZE
 40
-1.0
  9
$PLINEWID
 40
0.0
  9
$SPLFRAME
 70
     0
  9
$SPLINETYPE
 70
     6
  9
$SPLINESEGS
 70
     8
  9
$HANDSEED
  5
27A
  9
$SURFTAB1
 70
     6
  9
$SURFTAB2
 70
     6
  9
$SURFTYPE
 70
     6
  9
$SURFU
 70
     6
  9
$SURFV
 70
     6
  9
$UCSBASE
  2

  9
$UCSNAME
  2

  9
$UCSORG
 10
0.0
 20
0.0
 30
0.0
  9
$UCSXDIR
 10
1.0
 20
0.0
 30
0.0
  9
$UCSYDIR
 10
0.0
 20
1.0
 30
0.0
  9
$UCSORTHOREF
  2

  9
$UCSORTHOVIEW
 70
     0
  9
$UCSORGTOP
 10
0.0
 20
0.0
 30
0.0
  9
$UCSORGBOTTOM
 10
0.0
 20
0.0
 30
0.0
  9
$UCSORGLEFT
 10
0.0
 20
0.0
 30
0.0
  9
$UCSORGRIGHT
 10
0.0
 20
0.0
 30
0.0
  9
$UCSORGFRONT
 10
0.0
 20
0.0
 30
0.0
  9
$UCSORGBACK
 10
0.0
 20
0.0
 30
0.0
  9
$PUCSBASE
  2

  9
$PUCSNAME
  2

  9
$PUCSORG
 10
0.0
 20
0.0
 30
0.0
  9
$PUCSXDIR
 10
1.0
 20
0.0
 30
0.0
  9
$PUCSYDIR
 10
0.0
 20
1.0
 30
0.0
  9
$PUCSORTHOREF
  2

  9
$PUCSORTHOVIEW
 70
     0
  9
$PUCSORGTOP
 10
0.0
 20
0.0
 30
0.0
  9
$PUCSORGBOTTOM
 10
0.0
 20
0.0
 30
0.0
  9
$PUCSORGLEFT
 10
0.0
 20
0.0
 30
0.0
  9
$PUCSORGRIGHT
 10
0.0
 20
0.0
 30
0.0
  9
$PUCSORGFRONT
 10
0.0
 20
0.0
 30
0.0
  9
$PUCSORGBACK
 10
0.0
 20
0.0
 30
0.0
  9
$USERI1
 70
     0
  9
$USERI2
 70
     0
  9
$USERI3
 70
     0
  9
$USERI4
 70
     0
  9
$USERI5
 70
     0
  9
$USERR1
 40
0.0
  9
$USERR2
 40
0.0
  9
$USERR3
 40
0.0
  9
$USERR4
 40
0.0
  9
$USERR5
 40
0.0
  9
$WORLDVIEW
 70
     1
  9
$SHADEDGE
 70
     3
  9
$SHADEDIF
 70
    70
  9
$TILEMODE
 70
     1
  9
$MAXACTVP
 70
    64
  9
$PINSBASE
 10
0.0
 20
0.0
 30
0.0
  9
$PLIMCHECK
 70
     0
  9
$PEXTMIN
 10
1.0000000000E+20
 20
1.0000000000E+20
 30
1.0000000000E+20
  9
$PEXTMAX
 10
-1.0000000000E+20
 20
-1.0000000000E+20
 30
-1.0000000000E+20
  9
$PLIMMIN
 10
0.0
 20
0.0
  9
$PLIMMAX
 10
420.0
 20
297.0
  9
$UNITMODE
 70
     0
  9
$VISRETAIN
 70
     1
  9
$PLINEGEN
 70
     0
  9
$PSLTSCALE
 70
     1
  9
$TREEDEPTH
 70
  3020
  9
$CMLSTYLE
  2
Standard
  9
$CMLJUST
 70
     0
  9
$CMLSCALE
 40
20.0
  9
$PROXYGRAPHICS
 70
     1
  9
$MEASUREMENT
 70
     1
  9
$CELWEIGHT
370
    -1
  9
$ENDCAPS
280
     0
  9
$JOINSTYLE
280
     0
  9
$LWDISPLAY
290
     1
  9
$INSUNITS
 70
     4
  9
$HYPERLINKBASE
  1

  9
$STYLESHEET
  1

  9
$XEDIT
290
     1
  9
$CEPSNTYPE
380
     0
  9
$PSTYLEMODE
290
     1
  9
$FINGERPRINTGUID
  2
{35AFBD3B-DA1B-440D-8538-B92A3CBBAFB0}
  9
$VERSIONGUID
  2
{FAEB1C32-E019-11D5-929B-00C0DF256EC4}
  9
$EXTNAMES
290
     1
  9
$PSVPSCALE
 40
0.0
  9
$OLESTARTUP
290
     0
  9
$SORTENTS
280
   127
  9
$INDEXCTL
280
     0
  9
$HIDETEXT
280
     1
  9
$XCLIPFRAME
290
     0
  9
$HALOGAP
280
     0
  9
$OBSCOLOR
 70
   257
  9
$OBSLTYPE
280
     0
  9
$INTERSECTIONDISPLAY
280
     0
  9
$INTERSECTIONCOLOR
 70
   257
  9
$DIMASSOC
280
     2
  9
$PROJECTNAME
  1

  9
$CAMERADISPLAY
290
     0
  9
$LENSLENGTH
 40
50.0
  9
$CAMERAHEIGHT
 40
0.0
  9
$STEPSPERSEC
 40
2.0
  9
$STEPSIZE
 40
6.0
  9
$3DDWFPREC
 40
2.0
  9
$PSOLWIDTH
 40
5.0
  9
$PSOLHEIGHT
 40
80.0
  9
$LOFTANG1
 40
1.5707963268
  9
$LOFTANG2
 40
1.5707963268
  9
$LOFTMAG1
 40
0.0
  9
$LOFTMAG2
 40
0.0
  9
$LOFTPARAM
 70
     7
  9
$LOFTNORMALS
280
     1
  9
$LATITUDE
 40
37.795
  9
$LONGITUDE
 40
-122.394
  9
$NORTHDIRECTION
 40
0.0
  9
$TIMEZONE
 70
 -8000
  9
$LIGHTGLYPHDISPLAY
280
     1
  9
$TILEMODELIGHTSYNCH
280
     1
  9
$SOLIDHIST
280
     1
  9
$SHOWHIST
280
     1
  9
$DWFFRAME
280
     2
  9
$DGNFRAME
280
     2
  9
$REALWORLDSCALE
290
     1
  9
$INTERFERECOLOR
 62
   256
  9
$CSHADOW
280
     0
  9
$SHADOWPLANELOCATION
 40
0.0
  0
ENDSEC
  0
SECTION
  2
CLASSES
  0
CLASS
  1
ACDBDICTIONARYWDFLT
  2
AcDbDictionaryWithDefault
  3
ObjectDBX Classes
 90
        0
 91
        4
280
     0
281
     0
  0
CLASS
  1
VISUALSTYLE
  2
AcDbVisualStyle
  3
ObjectDBX Classes
 90
     4095
 91
        4
280
     0
281
     0
  0
CLASS
  1
MATERIAL
  2
AcDbMaterial
  3
ObjectDBX Classes
 90
     1153
 91
        4
280
     0
281
     0
  0
ENDSEC
  0
SECTION
  2
TABLES
  0
TABLE
  2
VPORT
  5
8
330
0
100
AcDbSymbolTable
 70
     1
  0
VPORT
  5
29
330
8
100
AcDbSymbolTableRecord
100
AcDbViewportTableRecord
  2
*Active
 70
     0
 10
0.0
 20
0.0
 11
1.0
 21
1.0
 12
210.0
 22
148.5
 13
0.0
 23
0.0
 14
10.0
 24
10.0
 15
10.0
 25
10.0
 16
0.0
 26
0.0
 36
1.0
 17
0.0
 27
0.0
 37
0.0
 40
297.0
 41
1.4141414141
 42
50.0
 43
0.0
 44
0.0
 50
0.0
 51
0.0
 71
     0
 72
  2000
 73
     1
 74
     3
 75
     0
 76
     0
 77
     0
 78
     0
281
     0
 65
     1
110
0.0
120
0.0
130
0.0
111
1.0
121
0.0
131
0.0
112
0.0
122
1.0
132
0.0
 79
     0
146
0.0
 60
     3
 61
     5
292
     1
282
     1
141
0.0
142
0.0
 63
   250
  0
ENDTAB
  0
TABLE
  2
LTYPE
  5
5
330
0
100
AcDbSymbolTable
 70
     6
  0
LTYPE
  5
14
330
5
100
AcDbSymbolTableRecord
100
AcDbLinetypeTableRecord
  2
ByBlock
 70
     0
  3

 72
    65
 73
     0
 40
0.0
  0
LTYPE
  5
15
330
5
100
AcDbSymbolTableRecord
100
AcDbLinetypeTableRecord
  2
ByLayer
 70
     0
  3

 72
    65
 73
     0
 40
0.0
  0
LTYPE
  5
16
330
5
100
AcDbSymbolTableRecord
100
AcDbLinetypeTableRecord
  2
Continuous
 70
     0
  3
Solid line
 72
    65
 73
     0
 40
0.0
  0
LTYPE
  5
3F
330
5
100
AcDbSymbolTableRecord
100
AcDbLinetypeTableRecord
  2
HIDDEN
 70
     0
  3
Hidden __ __ __ __ __ __ __ __ __ __ __ __ __ __
 72
    65
 73
     2
 40
1.905
 49
1.27
 74
     0
 49
-0.635
 74
     0
  0
LTYPE
  5
40
330
5
100
AcDbSymbolTableRecord
100
AcDbLinetypeTableRecord
  2
PHANTOM
 70
     0
  3
Phantom ______  __  __  ______  __  __  ______
 72
    65
 73
     6
 40
12.7
 49
6.35
 74
     0
 49
-1.27
 74
     0
 49
1.27
 74
     0
 49
-1.27
 74
     0
 49
1.27
 74
     0
 49
-1.27
 74
     0
  0
LTYPE
  5
41
330
5
100
AcDbSymbolTableRecord
100
AcDbLinetypeTableRecord
  2
CENTER
 70
     0
  3
Center ____ _ ____ _ ____ _ ____ _ ____ _ ____
 72
    65
 73
     4
 40
10.16
 49
6.35
 74
     0
 49
-1.27
 74
     0
 49
1.27
 74
     0
 49
-1.27
 74
     0
  0
LTYPE
  5
42
330
5
100
AcDbSymbolTableRecord
100
AcDbLinetypeTableRecord
  2
CENTERX2
 70
     0
  3
Center (2x) ________  __  ________  __  _____
 72
    65
 73
     4
 40
20.32
 49
12.7
 74
     0
 49
-2.54
 74
     0
 49
2.54
 74
     0
 49
-2.54
 74
     0
  0
LTYPE
  5
43
330
5
100
AcDbSymbolTableRecord
100
AcDbLinetypeTableRecord
  2
DOT2
 70
     0
  3
Dot (.5x) ........................................
 72
    65
 73
     2
 40
0.635
 49
0.0
 74
     0
 49
-0.635
 74
     0
  0
ENDTAB
  0
TABLE
  2
LAYER
  5
2
330
0
100
AcDbSymbolTable
 70
     1
  0
LAYER
  5
10
330
2
100
AcDbSymbolTableRecord
100
AcDbLayerTableRecord
  2
0
 70
     0
 62
     7
  6
Continuous
370
    -3
390
F
347
3E
  0
ENDTAB
  0
TABLE
  2
STYLE
  5
3
330
0
100
AcDbSymbolTable
 70
     1
  0
STYLE
  5
11
330
3
100
AcDbSymbolTableRecord
100
AcDbTextStyleTableRecord
  2
Standard
 70
     0
 40
0.0
 41
1.0
 50
0.0
 71
     0
 42
2.5
  3
txt
  4

  0
ENDTAB
  0
TABLE
  2
VIEW
  5
6
330
0
100
AcDbSymbolTable
 70
     0
  0
ENDTAB
  0
TABLE
  2
UCS
  5
7
330
0
100
AcDbSymbolTable
 70
     0
  0
ENDTAB
  0
TABLE
  2
APPID
  5
9
330
0
100
AcDbSymbolTable
 70
     1
  0
APPID
  5
12
330
9
100
AcDbSymbolTableRecord
100
AcDbRegAppTableRecord
  2
ACAD
 70
     0
  0
ENDTAB
  0
TABLE
  2
DIMSTYLE
  5
A
330
0
100
AcDbSymbolTable
 70
     1
100
AcDbDimStyleTable
  0
DIMSTYLE
105
27
330
A
100
AcDbSymbolTableRecord
100
AcDbDimStyleTableRecord
  2
ISO-25
 70
     0
 41
2.5
 42
0.625
 43
3.75
 44
1.25
 73
     0
 74
     0
 77
     1
 78
     8
140
2.5
141
2.5
143
0.0393700787
147
0.625
171
     3
172
     1
271
     2
272
     2
274
     3
278
    44
283
     0
284
     8
340
11
  0
ENDTAB
  0
TABLE
  2
BLOCK_RECORD
  5
1
330
0
100
AcDbSymbolTable
 70
     1
  0
BLOCK_RECORD
  5
1F
330
1
100
AcDbSymbolTableRecord
100
AcDbBlockTableRecord
  2
*Model_Space
340
22
 70
     0
280
     1
281
     0
  0
BLOCK_RECORD
  5
1B
330
1
100
AcDbSymbolTableRecord
100
AcDbBlockTableRecord
  2
*Paper_Space
340
1E
 70
     0
280
     1
281
     0
  0
BLOCK_RECORD
  5
23
330
1
100
AcDbSymbolTableRecord
100
AcDbBlockTableRecord
  2
*Paper_Space0
340
26
 70
     0
280
     1
281
     0
  0
ENDTAB
  0
ENDSEC
  0
SECTION
  2
BLOCKS
  0
BLOCK
  5
20
330
1F
100
AcDbEntity
  8
0
100
AcDbBlockBegin
  2
*Model_Space
 70
     0
 10
0.0
 20
0.0
 30
0.0
  3
*Model_Space
  1

  0
ENDBLK
  5
21
330
1F
100
AcDbEntity
  8
0
100
AcDbBlockEnd
  0
BLOCK
  5
1C
330
1B
100
AcDbEntity
 67
     1
  8
0
100
AcDbBlockBegin
  2
*Paper_Space
 70
     0
 10
0.0
 20
0.0
 30
0.0
  3
*Paper_Space
  1

  0
ENDBLK
  5
1D
330
1B
100
AcDbEntity
 67
     1
  8
0
100
AcDbBlockEnd
  0
BLOCK
  5
24
330
23
100
AcDbEntity
  8
0
100
AcDbBlockBegin
  2
*Paper_Space0
 70
     0
 10
0.0
 20
0.0
 30
0.0
  3
*Paper_Space0
  1

  0
ENDBLK
  5
25
330
23
100
AcDbEntity
  8
0
100
AcDbBlockEnd
  0
ENDSEC
  0
SECTION
  2
ENTITIES
  0
LINE
  5
44
330
1F
100
AcDbEntity
  8
0
  6
Continuous
 62
     7
370
    15
100
AcDbLine
 10
601.9002154582
 20
221.9411778793
 30
0.0
 11
601.8903806918
 21
221.9411778793
 31
0.0
  0
LINE
  5
45
330
1F
100
AcDbEntity
  8
0
  6
Continuous
 62
     7
370
    15
100
AcDbLine
 10
539.5485714191
 20
-123.892689909
 30
0.0
 11
539.5485714191
 21
-119.8927116051
 31
0.0
  0
LINE
  5
46
330
1F
100
AcDbEntity
  8
0
  6
Continuous
 62
     7
370
    15
100
AcDbLine
 10
482.5485751146
 20
-119.8927116051
 30
0.0
 11
482.5485751146
 21
-123.892689909
 31
0.0
  0
ARC
  5
47
330
1F
100
AcDbEntity
  8
0
  6
Continuous
 62
     7
370
    15
100
AcDbCircle
 10
537.5485780984
 20
-123.8926995068
 30
0.0
 40
2.0
100
AcDbArc
 50
270.0
 51
0.0
  0
ARC
  5
48
330
1F
100
AcDbEntity
  8
0
  6
Continuous
 62
     7
370
    15
100
AcDbCircle
 10
484.5485780984
 20
-123.8926995068
 30
0.0
 40
2.0
100
AcDbArc
 50
180.0
 51
270.0
  0
LINE
  5
49
330
1F
100
AcDbEntity
  8
0
  6
Continuous
 62
     7
370
    15
100
AcDbLine
 10
-159.3514129407
 20
20.6072974548
 30
0.0
 11
-157.3514088875
 21
22.607301508
 31
0.0
  0
LINE
  5
4A
330
1F
100
AcDbEntity
  8
0
  6
Continuous
 62
     7
370
    15
100
AcDbLine
 10
-157.3514088875
 20
40.6072932825
 30
0.0
 11
-159.3514129407
 21
42.6072973356
 31
0.0
  0
LINE
  5
4B
330
1F
100
AcDbEntity
  8
0
  6
Continuous
 62
     7
370
    15
100
AcDbLine
 10
-159.3514129407
 20
42.6072973356
 30
0.0
 11
-161.3514169938
 21
40.6072932825
 31
0.0
  0
LINE
  5
4C
330
1F
100
AcDbEntity
  8
0
  6
Continuous
 62
     7
370
    15
100
AcDbLine
 10
-161.3514169938
 20
22.607301508
 30
0.0
 11
-159.3514129407
 21
20.6072974548
 31
0.0
  0
LINE
  5
4D
330
1F
100
AcDbEntity
  8
0
  6
Continuous
 62
     7
370
    15
100
AcDbLine
 10
614.0541091674
 20
99.1073000774
 30
0.0
 11
614.0541091674
 21
99.6073010907
 31
0.0
  0
LINE
  5
4E
330
1F
100
AcDbEntity
  8
0
  6
Continuous
 62
     7
370
    15
100
AcDbLine
 10
-163.3514210469
 20
42.6072973356
 30
0.0
 11
-165.3514251
 21
40.6072932825
 31
0.0
  0
LINE
  5
4F
330
1F
100
AcDbEntity
  8
0
  6
Continuous
 62
     7
370
    15
100
AcDbLine
 10
-165.3514251
 20
22.607301508
 30
0.0
 11
-163.3514210469
 21
20.6072974548
 31
0.0
  0
LINE
  5
50
330
1F
100
AcDbEntity
  8
0
  6
Continuous
 62
     7
370
    15
100
AcDbLine
 10
-163.3514210469
 20
20.6072974548
 30
0.0
 11
-161.3514169938
 21
22.607301508
 31
0.0
  0
LINE
  5
51
330
1F
100
AcDbEntity
  8
0
  6
Continuous
 62
     7
370
    15
100
AcDbLine
 10
-161.3514169938
 20
40.6072932825
 30
0.0
 11
-163.3514210469
 21
42.6072973356
 31
0.0
  0
LINE
  5
52
330
1F
100
AcDbEntity
  8
0
  6
Continuous
 62
     7
370
    15
100
AcDbLine
 10
-167.3514291531
 20
20.6072974548
 30
0.0
 11
-165.3514251
 21
22.607301508
 31
0.0
  0
LINE
  5
53
330
1F
100
AcDbEntity
  8
0
  6
Continuous
 62
     7
370
    15
100
AcDbLine
 10
-165.3514251
 20
40.6072932825
 30
0.0
 11
-167.3514291531
 21
42.6072973356
 31
0.0
  0
LINE
  5
54
330
1F
100
AcDbEntity
  8
0
  6
Continuous
 62
     7
370
    15
100
AcDbLine
 10
-167.3514291531
 20
42.6072973356
 30
0.0
 11
-169.3514332062
 21
40.6072932825
 31
0.0
  0
LINE
  5
55
330
1F
100
AcDbEntity
  8
0
  6
Continuous
 62
     7
370
    15
100
AcDbLine
 10
-169.3514332062
 20
22.607301508
 30
0.0
 11
-167.3514291531
 21
20.6072974548
 31
0.0
  0
LINE
  5
56
330
1F
100
AcDbEntity
  8
0
  6
Continuous
 62
     7
370
    15
100
AcDbLine
 10
634.7790911907
 20
5.7573068485
 30
0.0
 11
644.7791114562
 21
9.7573000536
 31
0.0
  0
LINE
  5
57
330
1F
100
AcDbEntity
  8
0
  6
Continuous
 62
     7
370
    15
100
AcDbLine
 10
637.1004536861
 20
69.8287684069
 30
0.0
 11
634.7790911907
 21
70.7573044643
 31
0.0
  0
LINE
  5
58
330
1F
100
AcDbEntity
  8
0
  6
Continuous
 62
     7
370
    15
100
AcDbLine
 10
644.7791114562
 20
66.7572963581
 30
0.0
 11
641.7426720374
 21
67.9718751059
 31
0.0
  0
LINE
  5
59
330
1F
100
AcDbEntity
  8
0
  6
Continuous
 62
     7
370
    15
100
AcDbLine
 10
644.7791114562
 20
9.7573000536
 30
0.0
 11
664.1894534343
 21
18.4919584141
 31
0.0
  0
LINE
  5
5A
330
1F
100
AcDbEntity
  8
0
  6
Continuous
 62
     7
370
    15
100
AcDbLine
 10
645.2350571864
 20
66.5521222696
 30
0.0
 11
644.7791114562
 21
66.7572963581
 31
0.0
  0
ARC
  5
5B
330
1F
100
AcDbEntity
  8
0
  6
Continuous
 62
     7
370
    15
100
AcDbCircle
 10
663.7791034731
 20
19.4038861032
 30
0.0
 40
1.000000000000026
100
AcDbArc
 50
294.227745318
 51
0.0
  0
LINE
  5
5C
330
1F
100
AcDbEntity
  8
0
  6
Continuous
 62
     7
370
    15
100
AcDbLine
 10
632.7791169399
 20
31.1454880581
 30
0.0
 11
634.7790911907
 21
31.1105746374
 31
0.0
  0
LINE
  5
5D
330
1F
100
AcDbEntity
  8
0
  6
Continuous
 62
     7
370
    15
100
AcDbLine
 10
641.7490199321
 20
67.9801005468
 30
0.0
 11
637.101556372
 21
69.8390800104
 31
0.0
  0
LINE
  5
5E
330
1F
100
AcDbEntity
  8
0
  6
Continuous
 62
     7
370
    15
100
AcDbLine
 10
-171.351407457
 20
42.6072973356
 30
0.0
 11
-173.3514115101
 21
40.6072932825
 31
0.0
  0
LINE
  5
5F
330
1F
100
AcDbEntity
  8
0
  6
Continuous
 62
     7
370
    15
100
AcDbLine
 10
-173.3514115101
 20
22.607301508
 30
0.0
 11
-171.351407457
 21
20.6072974548
 31
0.0
  0
LINE
  5
60
330
1F
100
AcDbEntity
  8
0
  6
Continuous
 62
     7
370
    15
100
AcDbLine
 10
-171.351407457
 20
20.6072974548
 30
0.0
 11
-169.3514332062
 21
22.607301508
 31
0.0
  0
LINE
  5
61
330
1F
100
AcDbEntity
  8
0
  6
Continuous
 62
     7
370
    15
100
AcDbLine
 10
-169.3514332062
 20
40.6072932825
 30
0.0
 11
-171.351407457
 21
42.6072973356
 31
0.0
  0
LINE
  5
62
330
1F
100
AcDbEntity
  8
0
  6
Continuous
 62
     7
370
    15
100
AcDbLine
 10
-157.3514088875
 20
20.6072974548
 30
0.0
 11
-141.9514164216
 21
20.6072974548
 31
0.0
  0
LINE
  5
63
330
1F
100
AcDbEntity
  8
0
  6
Continuous
 62
     7
370
    15
100
AcDbLine
 10
565.6485810989
 20
20.6072974548
 30
0.0
 11
566.1790922397
 21
20.6072974548
 31
0.0
  0
LINE
  5
64
330
1F
100
AcDbEntity
  8
0
  6
Continuous
 62
     7
370
    15
100
AcDbLine
 10
-141.9514164216
 20
42.6072973356
 30
0.0
 11
-157.3514088875
 21
42.6072973356
 31
0.0
  0
LINE
  5
65
330
1F
100
AcDbEntity
  8
0
  6
Continuous
 62
     7
370
    15
100
AcDbLine
 10
599.7790947669
 20
99.1073000774
 30
0.0
 11
599.7790947669
 21
99.6073010907
 31
0.0
  0
LINE
  5
66
330
1F
100
AcDbEntity
  8
0
  6
Continuous
 62
     7
370
    15
100
AcDbLine
 10
614.0315488094
 20
99.1073000774
 30
0.0
 11
614.0315488094
 21
99.6073010907
 31
0.0
  0
LINE
  5
67
330
1F
100
AcDbEntity
  8
0
  6
Continuous
 62
     7
370
    15
100
AcDbLine
 10
606.0315325969
 20
99.6073010907
 30
0.0
 11
606.0315325969
 21
99.1073000774
 31
0.0
  0
LINE
  5
68
330
1F
100
AcDbEntity
  8
0
  6
Continuous
 62
     7
370
    15
100
AcDbLine
 10
-34.6514329201
 20
-119.8927116051
 30
0.0
 11
-34.6514329201
 21
-90.8926975384
 31
0.0
  0
LINE
  5
69
330
1F
100
AcDbEntity
  8
0
  6
Continuous
 62
     7
370
    15
100
AcDbLine
 10
-91.2514075524
 20
-90.8926975384
 30
0.0
 11
-91.2514075524
 21
-119.8927116051
 31
0.0
  0
ARC
  5
6A
330
1F
100
AcDbEntity
  8
0
  6
Continuous
 62
     7
370
    15
100
AcDbCircle
 10
-29.5514219016
 20
-29.3926995068
 30
0.0
 40
1.500000000000004
100
AcDbArc
 50
90.0
 51
180.0
  0
ARC
  5
6B
330
1F
100
AcDbEntity
  8
0
  6
Continuous
 62
     7
370
    15
100
AcDbCircle
 10
-96.3514219016
 20
-29.3926995068
 30
0.0
 40
1.5
100
AcDbArc
 50
0.0
 51
90.0
  0
LINE
  5
6C
330
1F
100
AcDbEntity
  8
0
  6
Continuous
 62
     7
370
    15
100
AcDbLine
 10
-31.051431585
 20
-84.860141243
 30
0.0
 11
-31.051431585
 21
-29.3926995649
 31
0.0
  0
LINE
  5
6D
330
1F
100
AcDbEntity
  8
0
  6
Continuous
 62
     7
370
    15
100
AcDbLine
 10
-94.8514088875
 20
-29.3926995649
 30
0.0
 11
-94.8514088875
 21
-84.860141243
 31
0.0
  0
ARC
  5
6E
330
1F
100
AcDbEntity
  8
0
  6
Continuous
 62
     7
370
    15
100
AcDbCircle
 10
-35.7514219016
 20
-84.8601335611
 30
0.0
 40
4.699999999999988
100
AcDbArc
 50
350.5402980318
 51
0.0
  0
ARC
  5
6F
330
1F
100
AcDbEntity
  8
0
  6
Continuous
 62
     7
370
    15
100
AcDbCircle
 10
-90.1514219016
 20
-84.8601335611
 30
0.0
 40
4.699999999999991
100
AcDbArc
 50
180.0
 51
189.4597019682
  0
LINE
  5
70
330
1F
100
AcDbEntity
  8
0
  6
Continuous
 62
     7
370
    15
100
AcDbLine
 10
-94.7875127083
 20
-85.6325876369
 30
0.0
 11
-93.9110860116
 21
-90.8926975384
 31
0.0
  0
LINE
  5
71
330
1F
100
AcDbEntity
  8
0
  6
Continuous
 62
     7
370
    15
100
AcDbLine
 10
-31.9917842633
 20
-90.8926975384
 30
0.0
 11
-31.1153277642
 21
-85.6325876369
 31
0.0
  0
ARC
  5
72
330
1F
100
AcDbEntity
  8
0
  6
Continuous
 62
     7
370
    15
100
AcDbCircle
 10
-36.4514219016
 20
-123.8926995068
 30
0.0
 40
2.0
100
AcDbArc
 50
270.0
 51
0.0
  0
ARC
  5
73
330
1F
100
AcDbEntity
  8
0
  6
Continuous
 62
     7
370
    15
100
AcDbCircle
 10
-89.4514219016
 20
-123.8926995068
 30
0.0
 40
2.0
100
AcDbArc
 50
180.0
 51
270.0
  0
LINE
  5
74
330
1F
100
AcDbEntity
  8
0
  6
Continuous
 62
     7
370
    15
100
AcDbLine
 10
-34.4514295346
 20
-123.892689909
 30
0.0
 11
-34.4514295346
 21
-119.8927116051
 31
0.0
  0
LINE
  5
75
330
1F
100
AcDbEntity
  8
0
  6
Continuous
 62
     7
370
    15
100
AcDbLine
 10
-91.4514109379
 20
-119.8927116051
 30
0.0
 11
-91.4514109379
 21
-123.892689909
 31
0.0
  0
LINE
  5
76
330
1F
100
AcDbEntity
  8
0
  6
Continuous
 62
     7
370
    15
100
AcDbLine
 10
628.7791088336
 20
26.1430639372
 30
0.0
 11
629.0790990108
 21
26.8281597242
 31
0.0
  0
LINE
  5
77
330
1F
100
AcDbEntity
  8
0
  6
Continuous
 62
     7
370
    15
100
AcDbLine
 10
629.0790990108
 20
49.6864515886
 30
0.0
 11
628.7791088336
 21
50.3715473757
 31
0.0
  0
LINE
  5
78
330
1F
100
AcDbEntity
  8
0
  6
Continuous
 62
     7
370
    15
100
AcDbLine
 10
565.6485810989
 20
31.9573033199
 30
0.0
 11
566.1790922397
 21
31.9573033199
 31
0.0
  0
ARC
  5
79
330
1F
100
AcDbEntity
  8
0
  6
Continuous
 62
     7
370
    15
100
AcDbCircle
 10
643.0791034731
 20
33.3573004932
 30
0.0
 40
0.5000000000001137
100
AcDbArc
 50
270.0
 51
0.0
  0
ARC
  5
7A
330
1F
100
AcDbEntity
  8
0
  6
Continuous
 62
     7
370
    15
100
AcDbCircle
 10
643.0791034731
 20
43.1573004932
 30
0.0
 40
0.5000000000001137
100
AcDbArc
 50
0.0
 51
90.0
  0
LINE
  5
7B
330
1F
100
AcDbEntity
  8
0
  6
Continuous
 62
     7
370
    15
100
AcDbLine
 10
629.0790990108
 20
32.8573036537
 30
0.0
 11
643.0790975803
 21
32.8573036537
 31
0.0
  0
LINE
  5
7C
330
1F
100
AcDbEntity
  8
0
  6
Continuous
 62
     7
370
    15
100
AcDbLine
 10
643.0790975803
 20
43.6573076591
 30
0.0
 11
629.0790990108
 21
43.6573076591
 31
0.0
  0
LINE
  5
7D
330
1F
100
AcDbEntity
  8
0
  6
Continuous
 62
     7
370
    15
100
AcDbLine
 10
614.0766695255
 20
99.1073000774
 30
0.0
 11
614.0766695255
 21
99.6073010907
 31
0.0
  0
SPLINE
  5
7E
330
1F
100
AcDbEntity
  8
0
  6
Continuous
 62
     7
370
    15
100
AcDbSpline
210
0.0
220
0.0
230
1.0
 70
     8
 71
     3
 72
    13
 73
     9
 74
     0
 42
0.00000001
 43
0.00000001
 40
0.0
 40
0.0
 40
0.0
 40
0.0
 40
0.0001647130620986
 40
0.000540316633294
 40
0.0037503202462638
 40
0.0290855237739555
 40
0.3242908246194631
 40
1.0
 40
1.0
 40
1.0
 40
1.0
 10
628.2027319186536
 20
65.58716777420098
 30
0.0
 10
628.20272247433
 20
65.58718802538452
 30
0.0
 10
628.2026914936351
 20
65.58725445637165
 30
0.0
 10
628.2023667122345
 20
65.58762974028997
 30
0.0
 10
628.2002556217399
 20
65.59087528029856
 30
0.0
 10
628.1739222601876
 20
65.62479872739347
 30
0.0
 10
628.0950338127074
 20
65.73152131955152
 30
0.0
 10
628.007429843326
 20
65.8268317222668
 30
0.0
 10
627.9464617484418
 20
65.89316311931664
 30
0.0
  0
LINE
  5
7F
330
1F
100
AcDbEntity
  8
0
  6
Continuous
 62
     7
370
    15
100
AcDbLine
 10
539.3485829347
 20
-119.8927116051
 30
0.0
 11
539.3485829347
 21
-90.8926975384
 31
0.0
  0
LINE
  5
80
330
1F
100
AcDbEntity
  8
0
  6
Continuous
 62
     7
370
    15
100
AcDbLine
 10
482.7485785001
 20
-90.8926975384
 30
0.0
 11
482.7485785001
 21
-119.8927116051
 31
0.0
  0
LINE
  5
81
330
1F
100
AcDbEntity
  8
0
  6
Continuous
 62
     7
370
    15
100
AcDbLine
 10
599.7291162723
 20
99.1073000774
 30
0.0
 11
599.7291162723
 21
99.6073010907
 31
0.0
  0
LINE
  5
82
330
1F
100
AcDbEntity
  8
0
  6
Continuous
 62
     7
370
    15
100
AcDbLine
 10
591.7291000598
 20
99.6073010907
 30
0.0
 11
591.7291000598
 21
99.1073000774
 31
0.0
  0
ARC
  5
83
330
1F
100
AcDbEntity
  8
0
  6
Continuous
 62
     7
370
    15
100
AcDbCircle
 10
544.4485780984
 20
-29.3926995068
 30
0.0
 40
1.5
100
AcDbArc
 50
90.0
 51
180.0
  0
ARC
  5
84
330
1F
100
AcDbEntity
  8
0
  6
Continuous
 62
     7
370
    15
100
AcDbCircle
 10
477.6485780984
 20
-29.3926995068
 30
0.0
 40
1.5
100
AcDbArc
 50
0.0
 51
90.0
  0
ARC
  5
85
330
1F
100
AcDbEntity
  8
0
  6
Continuous
 62
     7
370
    15
100
AcDbCircle
 10
538.2485780984
 20
-84.8601335611
 30
0.0
 40
4.699999999999932
100
AcDbArc
 50
350.5402980318
 51
0.0
  0
ARC
  5
86
330
1F
100
AcDbEntity
  8
0
  6
Continuous
 62
     7
370
    15
100
AcDbCircle
 10
483.8485780984
 20
-84.8601335611
 30
0.0
 40
4.700000000000061
100
AcDbArc
 50
180.0
 51
189.4597019682
  0
LINE
  5
87
330
1F
100
AcDbEntity
  8
0
  6
Continuous
 62
     7
370
    15
100
AcDbLine
 10
542.9485842698
 20
-84.860141243
 30
0.0
 11
542.9485842698
 21
-29.3926995649
 31
0.0
  0
LINE
  5
88
330
1F
100
AcDbEntity
  8
0
  6
Continuous
 62
     7
370
    15
100
AcDbLine
 10
479.148577165
 20
-29.3926995649
 30
0.0
 11
479.148577165
 21
-84.860141243
 31
0.0
  0
LINE
  5
89
330
1F
100
AcDbEntity
  8
0
  6
Continuous
 62
     7
370
    15
100
AcDbLine
 10
479.2124882453
 20
-85.6325876369
 30
0.0
 11
480.0889298433
 21
-90.8926975384
 31
0.0
  0
LINE
  5
8A
330
1F
100
AcDbEntity
  8
0
  6
Continuous
 62
     7
370
    15
100
AcDbLine
 10
542.0082315915
 20
-90.8926975384
 30
0.0
 11
542.8846582883
 21
-85.6325876369
 31
0.0
  0
LINE
  5
8B
330
1F
100
AcDbEntity
  8
0
  6
Continuous
 62
     7
370
    15
100
AcDbLine
 10
625.2011016124
 20
205.0120948412
 30
0.0
 11
625.191266846
 21
205.0120948412
 31
0.0
  0
LINE
  5
8C
330
1F
100
AcDbEntity
  8
0
  6
Continuous
 62
     7
370
    15
100
AcDbLine
 10
625.2011016124
 20
205.0120948412
 30
0.0
 11
627.364213776
 21
198.3546993293
 31
0.0
  0
LWPOLYLINE
  5
8D
330
1F
100
AcDbEntity
  8
0
  6
Continuous
 62
     7
370
    15
100
AcDbPolyline
 90
        9
 70
   128
 43
0.0
 10
630.4538205379
 20
188.8441342459
 10
630.3945437187
 20
189.0268764988
 10
630.2187994235
 20
189.5680829481
 10
629.9333527797
 20
190.4469534353
 10
629.5491412395
 20
191.6297144786
 10
629.0809467548
 20
193.0709119484
 10
628.546740126
 20
194.7151638166
 10
627.9670849555
 20
196.4992798463
 10
627.364213776
 20
198.3546993293
  0
LINE
  5
8E
330
1F
100
AcDbEntity
  8
0
  6
Continuous
 62
     7
370
    15
100
AcDbLine
 10
630.4538205379
 20
188.8441342459
 30
0.0
 11
630.4451480621
 21
188.8441342459
 31
0.0
  0
LWPOLYLINE
  5
8F
330
1F
100
AcDbEntity
  8
0
  6
Continuous
 62
     7
370
    15
100
AcDbPolyline
 90
        9
 70
   128
 43
0.0
 10
627.3543790096
 20
198.3546993293
 10
627.9572501891
 20
196.4992798463
 10
628.5369947666
 20
194.7151638166
 10
629.0712908023
 20
193.0709119484
 10
629.5396342986
 20
191.6297144786
 10
629.9240246528
 20
190.4469534353
 10
630.2096799129
 20
189.5680829481
 10
630.3856626266
 20
189.0268764988
 10
630.4451480621
 20
188.8441342459
  0
LINE
  5
90
330
1F
100
AcDbEntity
  8
0
  6
Continuous
 62
     7
370
    15
100
AcDbLine
 10
625.191266846
 20
205.0120948412
 30
0.0
 11
627.3543790096
 21
198.3546993293
 31
0.0
  0
LINE
  5
91
330
1F
100
AcDbEntity
  8
0
  6
Continuous
 62
     7
370
    15
100
AcDbLine
 10
625.9278014415
 20
197.8911735647
 30
0.0
 11
627.3543790096
 21
198.3546993293
 31
0.0
  0
LINE
  5
92
330
1F
100
AcDbEntity
  8
0
  6
Continuous
 62
     7
370
    15
100
AcDbLine
 10
630.4451480621
 20
188.8441342459
 30
0.0
 11
629.0185406917
 21
188.3806084812
 31
0.0
  0
LWPOLYLINE
  5
93
330
1F
100
AcDbEntity
  8
0
  6
Continuous
 62
     7
370
    15
100
AcDbPolyline
 90
        9
 70
   128
 43
0.0
 10
629.0185406917
 20
188.3806084812
 10
628.9590552562
 20
188.5633516655
 10
628.7831023448
 20
189.1045571834
 10
628.4974470847
 20
189.9834276707
 10
628.1130567306
 20
191.166188714
 10
627.6447132343
 20
192.6073871151
 10
627.1104171985
 20
194.2516380519
 10
626.5306726211
 20
196.0357545473
 10
625.9278014415
 20
197.8911735647
  0
LINE
  5
94
330
1F
100
AcDbEntity
  8
0
  6
Continuous
 62
     7
370
    15
100
AcDbLine
 10
625.191266846
 20
205.0120948412
 30
0.0
 11
623.764689278
 21
204.5485693094
 31
0.0
  0
LINE
  5
95
330
1F
100
AcDbEntity
  8
0
  6
Continuous
 62
     7
370
    15
100
AcDbLine
 10
623.764689278
 20
204.5485693094
 30
0.0
 11
625.9278014415
 21
197.8911735647
 31
0.0
  0
ARC
  5
96
330
1F
100
AcDbEntity
  8
0
  6
Continuous
 62
     7
370
    15
100
AcDbCircle
 10
601.890386687
 20
197.4411784537
 30
0.0
 40
24.50000000000005
100
AcDbArc
 50
18.000000295
 51
107.9999999689
  0
ARC
  5
97
330
1F
100
AcDbEntity
  8
0
  6
Continuous
 62
     7
370
    15
100
AcDbCircle
 10
601.890386687
 20
197.4411784537
 30
0.0
 40
23.00000000000008
100
AcDbArc
 50
18.000000295
 51
107.9999999689
  0
LINE
  5
98
330
1F
100
AcDbEntity
  8
0
  6
Continuous
 62
     7
370
    15
100
AcDbLine
 10
594.7830036395
 20
219.315477793
 30
0.0
 11
594.3194583171
 21
220.7420628116
 31
0.0
  0
ARC
  5
99
330
1F
100
AcDbEntity
  8
0
  6
Continuous
 62
     7
370
    15
100
AcDbCircle
 10
601.9002200975
 20
197.4411784537
 30
0.0
 40
24.50000000000004
100
AcDbArc
 50
18.000000295
 51
90.0000000113
  0
ARC
  5
9A
330
1F
100
AcDbEntity
  8
0
  6
Continuous
 62
     7
370
    15
100
AcDbCircle
 10
601.9002200975
 20
197.4411784537
 30
0.0
 40
23.0
100
AcDbArc
 50
90.0000000113
 51
107.9999999689
  0
LINE
  5
9B
330
1F
100
AcDbEntity
  8
0
  6
Continuous
 62
     7
370
    15
100
AcDbLine
 10
594.7928384059
 20
219.315477793
 30
0.0
 11
594.7830036395
 21
219.315477793
 31
0.0
  0
LINE
  5
9C
330
1F
100
AcDbEntity
  8
0
  6
Continuous
 62
     7
370
    15
100
AcDbLine
 10
589.4727662319
 20
216.2725554377
 30
0.0
 11
589.4629314655
 21
216.2725554377
 31
0.0
  0
LINE
  5
9D
330
1F
100
AcDbEntity
  8
0
  6
Continuous
 62
     7
370
    15
100
AcDbLine
 10
609.1726079696
 20
155.642704253
 30
0.0
 11
589.4727662319
 21
216.2725554377
 31
0.0
  0
LWPOLYLINE
  5
9E
330
1F
100
AcDbEntity
  8
0
  6
Continuous
 62
     7
370
    15
100
AcDbPolyline
 90
        9
 70
   128
 43
0.0
 10
610.7173815482
 20
150.8874196157
 10
610.6877580398
 20
150.9787898109
 10
610.5999007934
 20
151.2493948982
 10
610.4571476692
 20
151.6888301418
 10
610.265041899
 20
152.2802088008
 10
610.0309446567
 20
153.0008103297
 10
609.7638562435
 20
153.8229334698
 10
609.4740286582
 20
154.7149914846
 10
609.1726079696
 20
155.642704253
  0
LINE
  5
9F
330
1F
100
AcDbEntity
  8
0
  6
Continuous
 62
     7
370
    15
100
AcDbLine
 10
610.7173815482
 20
150.8874196157
 30
0.0
 11
610.7081428283
 21
150.8874196157
 31
0.0
  0
LWPOLYLINE
  5
A0
330
1F
100
AcDbEntity
  8
0
  6
Continuous
 62
     7
370
    15
100
AcDbPolyline
 90
        9
 70
   128
 43
0.0
 10
609.1627732032
 20
155.642704253
 10
609.4641938918
 20
154.7149914846
 10
609.7540512794
 20
153.8229334698
 10
610.0211992973
 20
153.0008103297
 10
610.2553859466
 20
152.2802088008
 10
610.4475811237
 20
151.6888301418
 10
610.5904236549
 20
151.2493948982
 10
610.6784001106
 20
150.9787898109
 10
610.7081428283
 20
150.8874196157
  0
LINE
  5
A1
330
1F
100
AcDbEntity
  8
0
  6
Continuous
 62
     7
370
    15
100
AcDbLine
 10
609.1627732032
 20
155.642704253
 30
0.0
 11
589.4629314655
 21
216.2725554377
 31
0.0
  0
LWPOLYLINE
  5
A2
330
1F
100
AcDbEntity
  8
0
  6
Continuous
 62
     7
370
    15
100
AcDbPolyline
 90
       18
 70
   128
 43
0.0
 10
594.3319454902
 20
201.293415536
 10
594.0305546039
 20
202.2210309229
 10
593.7698140853
 20
203.0233666889
 10
593.5849800819
 20
203.5920629575
 10
593.5010269397
 20
203.8503141672
 10
593.529249739
 20
203.7632420257
 10
593.6658933872
 20
203.3426061686
 10
593.892450642
 20
202.6452157739
 10
594.1783443206
 20
201.7652573128
 10
594.4849506133
 20
200.8215739921
 10
594.7709038967
 20
199.9416154873
 10
594.9975207561
 20
199.2442250781
 10
595.1342538112
 20
198.8235890464
 10
595.1625958198
 20
198.7365169049
 10
595.0787320846
 20
198.994768231
 10
594.8940172904
 20
199.5634645288
 10
594.6333363765
 20
200.3658003238
 10
594.3319454902
 20
201.293415536
  0
LWPOLYLINE
  5
A3
330
1F
100
AcDbEntity
  8
0
  6
Continuous
 62
     7
370
    15
100
AcDbPolyline
 90
       18
 70
   128
 43
0.0
 10
594.3380847686
 20
201.293415536
 10
594.03666408
 20
202.2210309229
 10
593.7759533637
 20
203.0233666889
 10
593.5911193603
 20
203.5920629575
 10
593.5071662181
 20
203.8503141672
 10
593.5353890174
 20
203.7632420257
 10
593.6720028632
 20
203.3426061686
 10
593.898560118
 20
202.6452157739
 10
594.1844537967
 20
201.7652573128
 10
594.4910898918
 20
200.8215739921
 10
594.7770133727
 20
199.9416154873
 10
595.0036600345
 20
199.2442250781
 10
595.1403930896
 20
198.8235890464
 10
595.1687350982
 20
198.7365169049
 10
595.084871363
 20
198.994768231
 10
594.9001267665
 20
199.5634645288
 10
594.6394756549
 20
200.3658003238
 10
594.3380847686
 20
201.293415536
  0
LINE
  5
A4
330
1F
100
AcDbEntity
  8
0
  6
Continuous
 62
     7
370
    15
100
AcDbLine
 10
591.3991287464
 20
210.3284524352
 30
0.0
 11
592.3261597865
 21
207.4752828636
 31
0.0
  0
LWPOLYLINE
  5
A5
330
1F
100
AcDbEntity
  8
0
  6
Continuous
 62
     7
370
    15
100
AcDbPolyline
 90
        9
 70
   128
 43
0.0
 10
592.3261597865
 20
207.4752828636
 10
592.5035432094
 20
206.9293527462
 10
592.6539555305
 20
206.4665352524
 10
592.7544489616
 20
206.1572905228
 10
592.7897647136
 20
206.0486980778
 10
592.7545383685
 20
206.1572905228
 10
592.6540747398
 20
206.4665352524
 10
592.5037220233
 20
206.9293527462
 10
592.3263386005
 20
207.4752828636
  0
LINE
  5
A6
330
1F
100
AcDbEntity
  8
0
  6
Continuous
 62
     7
370
    15
100
AcDbLine
 10
592.3263386005
 20
207.4752828636
 30
0.0
 11
591.399277758
 21
210.3284524352
 31
0.0
  0
LWPOLYLINE
  5
A7
330
1F
100
AcDbEntity
  8
0
  6
Continuous
 62
     7
370
    15
100
AcDbPolyline
 90
        9
 70
   128
 43
0.0
 10
591.399277758
 20
210.3284524352
 10
591.2218943351
 20
210.8743825526
 10
591.0715118163
 20
211.3372005121
 10
590.9709885829
 20
211.6464452416
 10
590.9356728309
 20
211.7550374538
 10
590.9709289783
 20
211.6464452416
 10
591.0713628047
 20
211.3372005121
 10
591.2217453235
 20
210.8743825526
 10
591.3991287464
 20
210.3284524352
  0
LINE
  5
A8
330
1F
100
AcDbEntity
  8
0
  6
Continuous
 62
     7
370
    15
100
AcDbLine
 10
607.7361658328
 20
155.179177557
 30
0.0
 11
609.1627732032
 21
155.642704253
 31
0.0
  0
LINE
  5
A9
330
1F
100
AcDbEntity
  8
0
  6
Continuous
 62
     7
370
    15
100
AcDbLine
 10
610.7081428283
 20
150.8874196157
 30
0.0
 11
609.2815652603
 21
150.4238929198
 31
0.0
  0
LWPOLYLINE
  5
AA
330
1F
100
AcDbEntity
  8
0
  6
Continuous
 62
     7
370
    15
100
AcDbPolyline
 90
        9
 70
   128
 43
0.0
 10
609.2815652603
 20
150.4238929198
 10
609.2517927402
 20
150.5152668402
 10
609.1638162845
 20
150.7858682022
 10
609.0210035556
 20
151.2253034458
 10
608.8288083785
 20
151.8166858301
 10
608.5946217292
 20
152.5372836337
 10
608.3274737113
 20
153.3594104991
 10
608.0376163238
 20
154.251468514
 10
607.7361658328
 20
155.179177557
  0
LINE
  5
AB
330
1F
100
AcDbEntity
  8
0
  6
Continuous
 62
     7
370
    15
100
AcDbLine
 10
589.4629314655
 20
216.2725554377
 30
0.0
 11
588.0363538974
 21
215.8090306044
 31
0.0
  0
LINE
  5
AC
330
1F
100
AcDbEntity
  8
0
  6
Continuous
 62
     7
370
    15
100
AcDbLine
 10
607.7361658328
 20
155.179177557
 30
0.0
 11
588.0363538974
 21
215.8090306044
 31
0.0
  0
LINE
  5
AD
330
1F
100
AcDbEntity
  8
0
  6
Continuous
 62
     7
370
    15
100
AcDbLine
 10
589.801962685
 20
219.2742332414
 30
0.0
 11
590.265478205
 21
217.8476472915
 31
0.0
  0
LINE
  5
AE
330
1F
100
AcDbEntity
  8
0
  6
Continuous
 62
     7
370
    15
100
AcDbLine
 10
589.801962685
 20
219.2742332414
 30
0.0
 11
594.3194583171
 21
220.7420628116
 31
0.0
  0
LINE
  5
AF
330
1F
100
AcDbEntity
  8
0
  6
Continuous
 62
     7
370
    15
100
AcDbLine
 10
590.265478205
 20
217.8476472915
 30
0.0
 11
594.7830036395
 21
219.315477793
 31
0.0
  0
LINE
  5
B0
330
1F
100
AcDbEntity
  8
0
  6
Continuous
 62
     7
370
    15
100
AcDbLine
 10
590.2753129714
 20
217.8476472915
 30
0.0
 11
594.7928384059
 21
219.315477793
 31
0.0
  0
LINE
  5
B1
330
1F
100
AcDbEntity
  8
0
  6
Continuous
 62
     7
370
    15
100
AcDbLine
 10
590.2753129714
 20
217.8476472915
 30
0.0
 11
590.265478205
 21
217.8476472915
 31
0.0
  0
ARC
  5
B2
330
1F
100
AcDbEntity
  8
0
  6
Continuous
 62
     7
370
    15
100
AcDbCircle
 10
590.6615820362
 20
216.6588269598
 30
0.0
 40
1.250000000000038
100
AcDbArc
 50
107.9999999689
 51
198.000000295
  0
ARC
  5
B3
330
1F
100
AcDbEntity
  8
0
  6
Continuous
 62
     7
370
    15
100
AcDbCircle
 10
590.6517486258
 20
216.6588269598
 30
0.0
 40
1.250000000000035
100
AcDbArc
 50
107.9999999689
 51
198.000000295
  0
ARC
  5
B4
330
1F
100
AcDbEntity
  8
0
  6
Continuous
 62
     7
370
    15
100
AcDbCircle
 10
590.6517486258
 20
216.6588269598
 30
0.0
 40
2.750000000000075
100
AcDbArc
 50
107.9999999689
 51
198.000000295
  0
LINE
  5
B5
330
1F
100
AcDbEntity
  8
0
  6
Continuous
 62
     7
370
    15
100
AcDbLine
 10
609.2908039802
 20
150.4238929198
 30
0.0
 11
610.7173815482
 21
150.8874196157
 31
0.0
  0
LINE
  5
B6
330
1F
100
AcDbEntity
  8
0
  6
Continuous
 62
     7
370
    15
100
AcDbLine
 10
609.2908039802
 20
150.4238929198
 30
0.0
 11
609.2815652603
 21
150.4238929198
 31
0.0
  0
LINE
  5
B7
330
1F
100
AcDbEntity
  8
0
  6
Continuous
 62
     7
370
    15
100
AcDbLine
 10
629.0272429698
 20
188.3806084812
 30
0.0
 11
630.4538205379
 21
188.8441342459
 31
0.0
  0
LINE
  5
B8
330
1F
100
AcDbEntity
  8
0
  6
Continuous
 62
     7
370
    15
100
AcDbLine
 10
629.0272429698
 20
188.3806084812
 30
0.0
 11
629.0185406917
 21
188.3806084812
 31
0.0
  0
LINE
  5
B9
330
1F
100
AcDbEntity
  8
0
  6
Continuous
 62
     7
370
    15
100
AcDbLine
 10
511.0485807174
 20
-119.8927116051
 30
0.0
 11
482.5485751146
 21
-119.8927116051
 31
0.0
  0
LINE
  5
BA
330
1F
100
AcDbEntity
  8
0
  6
Continuous
 62
     7
370
    15
100
AcDbLine
 10
539.5485714191
 20
-119.8927116051
 30
0.0
 11
511.0485807174
 21
-119.8927116051
 31
0.0
  0
LINE
  5
BB
330
1F
100
AcDbEntity
  8
0
  6
Continuous
 62
     7
370
    15
100
AcDbLine
 10
511.0485807174
 20
-125.8926939621
 30
0.0
 11
484.5485791677
 21
-125.8926939621
 31
0.0
  0
LINE
  5
BC
330
1F
100
AcDbEntity
  8
0
  6
Continuous
 62
     7
370
    15
100
AcDbLine
 10
537.5485822671
 20
-125.8926939621
 30
0.0
 11
511.0485807174
 21
-125.8926939621
 31
0.0
  0
LINE
  5
BD
330
1F
100
AcDbEntity
  8
0
  6
Continuous
 62
     7
370
    15
100
AcDbLine
 10
627.5466635936
 20
101.1752087221
 30
0.0
 11
639.9653807395
 21
115.9752431855
 31
0.0
  0
ARC
  5
BE
330
1F
100
AcDbEntity
  8
0
  6
Continuous
 62
     7
370
    15
100
AcDbCircle
 10
626.9721431058
 20
101.6573004932
 30
0.0
 40
0.7500000000000252
100
AcDbArc
 50
270.0
 51
319.9999998858
  0
LINE
  5
BF
330
1F
100
AcDbEntity
  8
0
  6
Continuous
 62
     7
370
    15
100
AcDbLine
 10
567.3280611747
 20
100.907300745
 30
0.0
 11
626.9721344226
 21
100.907300745
 31
0.0
  0
ARC
  5
C0
330
1F
100
AcDbEntity
  8
0
  6
Continuous
 62
     7
370
    15
100
AcDbCircle
 10
567.3280739048
 20
101.4073004932
 30
0.0
 40
0.5000000000000762
100
AcDbArc
 50
179.9966858064
 51
270.0
  0
LINE
  5
C1
330
1F
100
AcDbEntity
  8
0
  6
Continuous
 62
     7
370
    15
100
AcDbLine
 10
566.828067612
 20
220.0949742988
 30
0.0
 11
566.828067612
 21
101.4073017583
 31
0.0
  0
ARC
  5
C2
330
1F
100
AcDbEntity
  8
0
  6
Continuous
 62
     7
370
    15
100
AcDbCircle
 10
567.3280739048
 20
220.0949750204
 30
0.0
 40
0.5
100
AcDbArc
 50
90.0
 51
179.9966858064
  0
LINE
  5
C3
330
1F
100
AcDbEntity
  8
0
  6
Continuous
 62
     7
370
    15
100
AcDbLine
 10
584.7488597148
 20
220.5949753121
 30
0.0
 11
567.3280611747
 21
220.5949753121
 31
0.0
  0
ARC
  5
C4
330
1F
100
AcDbEntity
  8
0
  6
Continuous
 62
     7
370
    15
100
AcDbCircle
 10
584.7488703235
 20
220.0949750204
 30
0.0
 40
0.5
100
AcDbArc
 50
18.000000295
 51
90.0
  0
LINE
  5
C5
330
1F
100
AcDbEntity
  8
0
  6
Continuous
 62
     7
370
    15
100
AcDbLine
 10
609.6046522373
 20
145.2148045943
 30
0.0
 11
585.2243855708
 21
220.2494844393
 31
0.0
  0
ARC
  5
C6
330
1F
100
AcDbEntity
  8
0
  6
Continuous
 62
     7
370
    15
100
AcDbCircle
 10
620.3515826068
 20
148.7066954983
 30
0.0
 40
11.30000000000009
100
AcDbArc
 50
198.000000295
 51
250.0000000349
  0
LINE
  5
C7
330
1F
100
AcDbEntity
  8
0
  6
Continuous
 62
     7
370
    15
100
AcDbLine
 10
635.937149834
 20
131.0088011966
 30
0.0
 11
616.4867535346
 21
138.0881715164
 31
0.0
  0
ARC
  5
C8
330
1F
100
AcDbEntity
  8
0
  6
Continuous
 62
     7
370
    15
100
AcDbCircle
 10
632.6879563654
 20
122.0817249764
 30
0.0
 40
9.50000000000004
100
AcDbArc
 50
319.9999998858
 51
70.0000000349
  0
LWPOLYLINE
  5
C9
330
1F
100
AcDbEntity
  8
0
  6
Continuous
 62
     7
370
    15
100
AcDbPolyline
 90
        9
 70
   128
 43
0.0
 10
635.937149834
 20
131.0088011966
 10
635.9704986327
 20
131.1004656897
 10
636.002595734
 20
131.1886060581
 10
636.0321596378
 20
131.2698397384
 10
636.0580876582
 20
131.3410374866
 10
636.0793367141
 20
131.3994649396
 10
636.0951617473
 20
131.4428869233
 10
636.1049071067
 20
131.4696196065
 10
636.1081853622
 20
131.4786497102
  0
LWPOLYLINE
  5
CA
330
1F
100
AcDbEntity
  8
0
  6
Continuous
 62
     7
370
    15
100
AcDbPolyline
 90
        9
 70
   128
 43
0.0
 10
639.9653807395
 20
115.9752431855
 10
640.0400951618
 20
115.9125390992
 10
640.111948561
 20
115.852249001
 10
640.1781693214
 20
115.7966825709
 10
640.2362242454
 20
115.7479855762
 10
640.2838483566
 20
115.7080132113
 10
640.3192535156
 20
115.678315197
 10
640.3410688155
 20
115.6600240216
 10
640.3484299892
 20
115.6538474903
  0
LWPOLYLINE
  5
CB
330
1F
100
AcDbEntity
  8
0
  6
Continuous
 62
     7
370
    15
100
AcDbPolyline
 90
        9
 70
   128
 43
0.0
 10
627.5466635936
 20
101.1752087221
 10
627.6214078182
 20
101.1125120864
 10
627.6932612174
 20
101.0522145376
 10
627.7594819778
 20
100.9966555581
 10
627.8175369018
 20
100.9479511127
 10
627.865161013
 20
100.9079787478
 10
627.900566172
 20
100.8782807336
 10
627.9223516696
 20
100.8599895582
 10
627.9297128433
 20
100.8538130269
  0
LWPOLYLINE
  5
CC
330
1F
100
AcDbEntity
  8
0
  6
Continuous
 62
     7
370
    15
100
AcDbPolyline
 90
        9
 70
   128
 43
0.0
 10
616.6577890628
 20
138.5580125794
 10
616.6545108074
 20
138.5489899263
 10
616.6447654479
 20
138.5222497926
 10
616.6289702171
 20
138.4788352594
 10
616.6076913589
 20
138.4204003558
 10
616.5817633384
 20
138.3492026076
 10
616.5521994346
 20
138.2679689274
 10
616.5201321357
 20
138.1798285589
 10
616.4867535346
 20
138.0881715164
  0
LWPOLYLINE
  5
CD
330
1F
100
AcDbEntity
  8
0
  6
Continuous
 62
     7
370
    15
100
AcDbPolyline
 90
        9
 70
   128
 43
0.0
 10
626.9721344226
 20
100.907300745
 10
626.9721344226
 20
100.8097577438
 10
626.9721344226
 20
100.7159623847
 10
626.9721344226
 20
100.629513298
 10
626.9721642249
 20
100.5537483439
 10
626.9721642249
 20
100.4915657983
 10
626.9721642249
 20
100.4453572974
 10
626.9721642249
 20
100.4169109807
 10
626.9721642249
 20
100.4072997317
  0
LWPOLYLINE
  5
CE
330
1F
100
AcDbEntity
  8
0
  6
Continuous
 62
     7
370
    15
100
AcDbPolyline
 90
        9
 70
   128
 43
0.0
 10
567.3280611747
 20
100.907300745
 10
567.3280611747
 20
100.8097577438
 10
567.328090977
 20
100.7159623847
 10
567.328090977
 20
100.629513298
 10
567.328090977
 20
100.5537483439
 10
567.328090977
 20
100.4915657983
 10
567.328090977
 20
100.4453572974
 10
567.328090977
 20
100.4169109807
 10
567.328090977
 20
100.4072997317
  0
LWPOLYLINE
  5
CF
330
1F
100
AcDbEntity
  8
0
  6
Continuous
 62
     7
370
    15
100
AcDbPolyline
 90
        9
 70
   128
 43
0.0
 10
610.0802078956
 20
145.3693110094
 10
610.0710585826
 20
145.366341953
 10
610.0439980739
 20
145.3575502679
 10
610.0000396484
 20
145.3432712302
 10
609.9409118408
 20
145.3240561829
 10
609.8688498252
 20
145.3006427333
 10
609.7866252178
 20
145.2739324019
 10
609.6974268669
 20
145.2449459181
 10
609.6046522373
 20
145.2148045943
  0
LWPOLYLINE
  5
D0
330
1F
100
AcDbEntity
  8
0
  6
Continuous
 62
     7
370
    15
100
AcDbPolyline
 90
        9
 70
   128
 43
0.0
 10
567.328090977
 20
221.0949744627
 10
567.328090977
 20
221.0853669391
 10
567.328090977
 20
221.0569150344
 10
567.328090977
 20
221.0107102588
 10
567.328090977
 20
220.9485277132
 10
567.328090977
 20
220.8727608964
 10
567.328090977
 20
220.7863173977
 10
567.3280611747
 20
220.6925201759
 10
567.3280611747
 20
220.5949753121
  0
ARC
  5
D1
330
1F
100
AcDbEntity
  8
0
  6
Continuous
 62
     7
370
    15
100
AcDbCircle
 10
567.3281028266
 20
220.0949750204
 30
0.0
 40
1.000000000000028
100
AcDbArc
 50
90.0
 51
179.9966858064
  0
LINE
  5
D2
330
1F
100
AcDbEntity
  8
0
  6
Continuous
 62
     7
370
    15
100
AcDbLine
 10
566.3281038516
 20
220.0949742988
 30
0.0
 11
566.828067612
 21
220.0949742988
 31
0.0
  0
ARC
  5
D3
330
1F
100
AcDbEntity
  8
0
  6
Continuous
 62
     7
370
    15
100
AcDbCircle
 10
567.3281028266
 20
101.4073004932
 30
0.0
 40
1.000000000000039
100
AcDbArc
 50
179.9966858064
 51
270.0
  0
LINE
  5
D4
330
1F
100
AcDbEntity
  8
0
  6
Continuous
 62
     7
370
    15
100
AcDbLine
 10
566.828067612
 20
101.4073017583
 30
0.0
 11
566.3281038516
 21
101.4073017583
 31
0.0
  0
LINE
  5
D5
330
1F
100
AcDbEntity
  8
0
  6
Continuous
 62
     7
370
    15
100
AcDbLine
 10
566.3281038516
 20
101.4073017583
 30
0.0
 11
566.3281038516
 21
220.0949742988
 31
0.0
  0
LINE
  5
D6
330
1F
100
AcDbEntity
  8
0
  6
Continuous
 62
     7
370
    15
100
AcDbLine
 10
565.6485810989
 20
94.6072984085
 30
0.0
 11
566.1790922397
 21
94.6072984085
 31
0.0
  0
LINE
  5
D7
330
1F
100
AcDbEntity
  8
0
  6
Continuous
 62
     7
370
    15
100
AcDbLine
 10
564.8485675567
 20
237.1070842788
 30
0.0
 11
564.8485675567
 21
238.6002290592
 31
0.0
  0
LINE
  5
D8
330
1F
100
AcDbEntity
  8
0
  6
Continuous
 62
     7
370
    15
100
AcDbLine
 10
-159.3514129407
 20
27.2236365423
 30
0.0
 11
-159.3514129407
 21
42.6072973356
 31
0.0
  0
LINE
  5
D9
330
1F
100
AcDbEntity
  8
0
  6
Continuous
 62
     7
370
    15
100
AcDbLine
 10
-159.3514129407
 20
20.6072974548
 30
0.0
 11
-159.3514129407
 21
27.2236365423
 31
0.0
  0
LINE
  5
DA
330
1F
100
AcDbEntity
  8
0
  6
Continuous
 62
     7
370
    15
100
AcDbLine
 10
-161.3514169938
 20
28.0206549511
 30
0.0
 11
-161.3514169938
 21
40.6072932825
 31
0.0
  0
LINE
  5
DB
330
1F
100
AcDbEntity
  8
0
  6
Continuous
 62
     7
370
    15
100
AcDbLine
 10
-161.3514169938
 20
22.607301508
 30
0.0
 11
-161.3514169938
 21
28.0206549511
 31
0.0
  0
LINE
  5
DC
330
1F
100
AcDbEntity
  8
0
  6
Continuous
 62
     7
370
    15
100
AcDbLine
 10
565.6485810989
 20
10.6073069916
 30
0.0
 11
566.1790922397
 21
10.6073069916
 31
0.0
  0
LINE
  5
DD
330
1F
100
AcDbEntity
  8
0
  6
Continuous
 62
     7
370
    15
100
AcDbLine
 10
565.6485810989
 20
12.6072961435
 30
0.0
 11
566.1790922397
 21
12.6072961435
 31
0.0
  0
LINE
  5
DE
330
1F
100
AcDbEntity
  8
0
  6
Continuous
 62
     7
370
    15
100
AcDbLine
 10
565.6485810989
 20
-23.3927023067
 30
0.0
 11
566.1790922397
 21
-23.3927023067
 31
0.0
  0
LINE
  5
DF
330
1F
100
AcDbEntity
  8
0
  6
Continuous
 62
     7
370
    15
100
AcDbLine
 10
565.8234313243
 20
-25.3927063599
 30
0.0
 11
566.0042420142
 21
-25.3927063599
 31
0.0
  0
LINE
  5
E0
330
1F
100
AcDbEntity
  8
0
  6
Continuous
 62
     7
370
    15
100
AcDbLine
 10
-163.3514210469
 20
27.2236365423
 30
0.0
 11
-163.3514210469
 21
42.6072973356
 31
0.0
  0
LINE
  5
E1
330
1F
100
AcDbEntity
  8
0
  6
Continuous
 62
     7
370
    15
100
AcDbLine
 10
-163.3514210469
 20
20.6072974548
 30
0.0
 11
-163.3514210469
 21
27.2236365423
 31
0.0
  0
LINE
  5
E2
330
1F
100
AcDbEntity
  8
0
  6
Continuous
 62
     7
370
    15
100
AcDbLine
 10
-165.3514251
 20
28.0206549511
 30
0.0
 11
-165.3514251
 21
40.6072932825
 31
0.0
  0
LINE
  5
E3
330
1F
100
AcDbEntity
  8
0
  6
Continuous
 62
     7
370
    15
100
AcDbLine
 10
-165.3514251
 20
22.607301508
 30
0.0
 11
-165.3514251
 21
28.0206549511
 31
0.0
  0
LINE
  5
E4
330
1F
100
AcDbEntity
  8
0
  6
Continuous
 62
     7
370
    15
100
AcDbLine
 10
-167.3514291531
 20
27.2236365423
 30
0.0
 11
-167.3514291531
 21
42.6072973356
 31
0.0
  0
LINE
  5
E5
330
1F
100
AcDbEntity
  8
0
  6
Continuous
 62
     7
370
    15
100
AcDbLine
 10
-167.3514291531
 20
20.6072974548
 30
0.0
 11
-167.3514291531
 21
27.2236365423
 31
0.0
  0
LINE
  5
E6
330
1F
100
AcDbEntity
  8
0
  6
Continuous
 62
     7
370
    15
100
AcDbLine
 10
-169.3514332062
 20
28.0206549511
 30
0.0
 11
-169.3514332062
 21
40.6072932825
 31
0.0
  0
LINE
  5
E7
330
1F
100
AcDbEntity
  8
0
  6
Continuous
 62
     7
370
    15
100
AcDbLine
 10
-169.3514332062
 20
22.607301508
 30
0.0
 11
-169.3514332062
 21
28.0206549511
 31
0.0
  0
LINE
  5
E8
330
1F
100
AcDbEntity
  8
0
  6
Continuous
 62
     7
370
    15
100
AcDbLine
 10
634.7790911907
 20
5.7573068485
 30
0.0
 11
634.7790911907
 21
32.8975367889
 31
0.0
  0
LINE
  5
E9
330
1F
100
AcDbEntity
  8
0
  6
Continuous
 62
     7
370
    15
100
AcDbLine
 10
634.7790911907
 20
43.6573076591
 30
0.0
 11
634.7790911907
 21
70.7573044643
 31
0.0
  0
LINE
  5
EA
330
1F
100
AcDbEntity
  8
0
  6
Continuous
 62
     7
370
    15
100
AcDbLine
 10
644.7791114562
 20
61.9570809946
 30
0.0
 11
644.7791114562
 21
66.7572963581
 31
0.0
  0
SPLINE
  5
EB
330
1F
100
AcDbEntity
  8
0
  6
Continuous
 62
     7
370
    15
100
AcDbSpline
210
0.0
220
0.0
230
1.0
 70
     8
 71
     3
 72
    10
 73
     6
 74
     0
 42
0.00000001
 43
0.00000001
 40
0.0
 40
0.0
 40
0.0
 40
0.0
 40
0.5
 40
0.5
 40
1.0
 40
1.0
 40
1.0
 40
1.0
 10
644.1504941494373
 20
60.85236719990847
 30
0.0
 10
644.1504941494375
 20
61.09829422113053
 30
0.0
 10
644.2007355182535
 20
61.31624767543234
 30
0.0
 10
644.4124735462536
 20
61.69346329369943
 30
0.0
 10
644.5698563342866
 20
61.84443778617929
 30
0.0
 10
644.7791034730833
 20
61.95707880781773
 30
0.0
  0
LINE
  5
EC
330
1F
100
AcDbEntity
  8
0
  6
Continuous
 62
     7
370
    15
100
AcDbLine
 10
644.1504910701
 20
15.6622279034
 30
0.0
 11
644.1504910701
 21
60.8523685083
 31
0.0
  0
SPLINE
  5
ED
330
1F
100
AcDbEntity
  8
0
  6
Continuous
 62
     7
370
    15
100
AcDbSpline
210
0.0
220
0.0
230
1.0
 70
     8
 71
     3
 72
    10
 73
     6
 74
     0
 42
0.00000001
 43
0.00000001
 40
0.0
 40
0.0
 40
0.0
 40
0.0
 40
0.5
 40
0.5
 40
1.0
 40
1.0
 40
1.0
 40
1.0
 10
644.7791034730833
 20
14.5575221786215
 30
0.0
 10
644.5698563342866
 20
14.67016320025999
 30
0.0
 10
644.4124735462538
 20
14.82113769273977
 30
0.0
 10
644.2007355182534
 20
15.19835331100697
 30
0.0
 10
644.1504941494375
 20
15.4163067653087
 30
0.0
 10
644.1504941494373
 20
15.66223378653081
 30
0.0
  0
LINE
  5
EE
330
1F
100
AcDbEntity
  8
0
  6
Continuous
 62
     7
370
    15
100
AcDbLine
 10
644.7791114562
 20
9.7573000536
 30
0.0
 11
644.7791114562
 21
14.5575154171
 31
0.0
  0
SPLINE
  5
EF
330
1F
100
AcDbEntity
  8
0
  6
Continuous
 62
     7
370
    15
100
AcDbSpline
210
0.0
220
0.0
230
1.0
 70
     8
 71
     3
 72
    16
 73
    12
 74
     0
 42
0.00000001
 43
0.00000001
 40
0.0
 40
0.0
 40
0.0
 40
0.0
 40
0.0000587043101648
 40
0.1251210936101106
 40
0.2500910052878199
 40
0.3750582643106242
 40
0.5000239863336975
 40
0.6249887881672775
 40
0.749951144494857
 40
0.8749153229915954
 40
1.0
 40
1.0
 40
1.0
 40
1.0
 10
637.1004536860792
 20
69.82875350570733
 30
0.0
 10
637.1004238713714
 20
69.82876841302316
 30
0.0
 10
637.0368774495998
 20
69.8605415426211
 30
0.0
 10
637.2472448577016
 20
69.75639671464104
 30
0.0
 10
637.712913845633
 20
69.53479091570256
 30
0.0
 10
638.481746914908
 20
69.1863417160865
 30
0.0
 10
639.3836735927174
 20
68.80809138721352
 30
0.0
 10
640.3021783348568
 20
68.456089915241
 30
0.0
 10
641.0827709805112
 20
68.18312854987252
 30
0.0
 10
641.6338905738135
 20
68.00550336961983
 30
0.0
 10
641.7063999021547
 20
67.98308812774626
 30
0.0
 10
641.7426720374433
 20
67.97187510585839
 30
0.0
  0
LINE
  5
F0
330
1F
100
AcDbEntity
  8
0
  6
Continuous
 62
     7
370
    15
100
AcDbLine
 10
644.7791114562
 20
60.1227033482
 30
0.0
 11
644.7791114562
 21
16.3919079647
 31
0.0
  0
ARC
  5
F1
330
1F
100
AcDbEntity
  8
0
  6
Continuous
 62
     7
370
    15
100
AcDbCircle
 10
643.9672838958
 20
16.4556798369
 30
0.0
 40
0.8143284592790552
100
AcDbArc
 50
283.0016701451
 51
355.5084411374
  0
ARC
  5
F2
330
1F
100
AcDbEntity
  8
0
  6
Continuous
 62
     7
370
    15
100
AcDbCircle
 10
643.9672821761
 20
60.0589137907
 30
0.0
 40
0.8143315588820412
100
AcDbArc
 50
4.4927898858
 51
76.9982560284
  0
SPLINE
  5
F3
330
1F
100
AcDbEntity
  8
0
  6
Continuous
 62
     7
370
    15
100
AcDbSpline
210
0.0
220
0.0
230
1.0
 70
     8
 71
     3
 72
    12
 73
     8
 74
     0
 42
0.00000001
 43
0.00000001
 40
0.0
 40
0.0
 40
0.0
 40
0.0
 40
0.0304695363173434
 40
0.088806232636977
 40
0.3925588791402452
 40
0.6962691416063697
 40
0.9999999999999999
 40
0.9999999999999999
 40
0.9999999999999999
 40
0.9999999999999999
 10
645.2358022445051
 20
60.97344044303949
 30
0.0
 10
645.2360545205212
 20
60.98404213424202
 30
0.0
 10
645.2367898018963
 20
61.01494172672259
 30
0.0
 10
645.232883502722
 20
61.15298372109018
 30
0.0
 10
645.1840207225539
 20
61.3929455396695
 30
0.0
 10
645.0303651443663
 20
61.70217194094082
 30
0.0
 10
644.8715667584919
 20
61.85360235637958
 30
0.0
 10
644.7921648734418
 20
61.92932013130243
 30
0.0
  0
SPLINE
  5
F4
330
1F
100
AcDbEntity
  8
0
  6
Continuous
 62
     7
370
    15
100
AcDbSpline
210
0.0
220
0.0
230
1.0
 70
     8
 71
     3
 72
     9
 73
     5
 74
     0
 42
0.00000001
 43
0.00000001
 40
0.0
 40
0.0
 40
0.0
 40
0.0
 40
0.4684361736277819
 40
1.0
 40
1.0
 40
1.0
 40
1.0
 10
645.2358022445052
 20
60.97344044303946
 30
0.0
 10
645.1091262539509
 20
60.88442261165758
 30
0.0
 10
644.8387030934738
 20
60.69439067904123
 30
0.0
 10
644.7997940802079
 20
60.32112035165629
 30
0.0
 10
644.779111456236
 20
60.12270334816034
 30
0.0
  0
SPLINE
  5
F5
330
1F
100
AcDbEntity
  8
0
  6
Continuous
 62
     7
370
    15
100
AcDbSpline
210
0.0
220
0.0
230
1.0
 70
     8
 71
     3
 72
    17
 73
    13
 74
     0
 42
0.00000001
 43
0.00000001
 40
0.0
 40
0.0
 40
0.0
 40
0.0
 40
0.0000166887075715
 40
0.0000166887075715
 40
0.0000166887075715
 40
0.0000336582619935
 40
0.0000336582619935
 40
0.0000336582619935
 40
0.0000426621382239
 40
0.0000426621382239
 40
0.0000426621382239
 40
0.0000451385286554
 40
0.0000451385286554
 40
0.0000451385286554
 40
0.0000451385286554
 10
644.7791034730833
 20
61.95707880781776
 30
0.0
 10
644.7791034730833
 20
61.95398907044056
 30
0.0
 10
644.7794055372913
 20
61.95076712085979
 30
0.0
 10
644.780267215001
 20
61.94739730064816
 30
0.0
 10
644.7811367682357
 20
61.9439966810984
 30
0.0
 10
644.7826032154156
 20
61.94034877035734
 30
0.0
 10
644.7851774478152
 20
61.93668649840692
 30
0.0
 10
644.7865547014624
 20
61.93472712698356
 30
0.0
 10
644.78829459075
 20
61.93272810091369
 30
0.0
 10
644.7903594006292
 20
61.93085787373339
 30
0.0
 10
644.7909349916367
 20
61.93033652503311
 30
0.0
 10
644.7915371853572
 20
61.92982287790816
 30
0.0
 10
644.7921616619586
 20
61.92932129403006
 30
0.0
  0
SPLINE
  5
F6
330
1F
100
AcDbEntity
  8
0
  6
Continuous
 62
     7
370
    15
100
AcDbSpline
210
0.0
220
0.0
230
1.0
 70
     8
 71
     3
 72
     9
 73
     5
 74
     0
 42
0.00000001
 43
0.00000001
 40
0.0
 40
0.0
 40
0.0
 40
0.0
 40
0.5315680772340383
 40
1.0
 40
1.0
 40
1.0
 40
1.0
 10
644.779111456236
 20
16.39190796470696
 30
0.0
 10
644.7997933407873
 20
16.19348356522746
 30
0.0
 10
644.8387006518863
 20
15.82020230930256
 30
0.0
 10
645.1091262579101
 20
15.63018230554975
 30
0.0
 10
645.2358022445051
 20
15.54117086982781
 30
0.0
  0
SPLINE
  5
F7
330
1F
100
AcDbEntity
  8
0
  6
Continuous
 62
     7
370
    15
100
AcDbSpline
210
0.0
220
0.0
230
1.0
 70
     8
 71
     3
 72
    12
 73
     8
 74
     0
 42
0.00000001
 43
0.00000001
 40
0.0
 40
0.0
 40
0.0
 40
0.0
 40
0.0304819204281606
 40
0.0888179301160592
 40
0.3925540364282202
 40
0.6962727165644911
 40
1.0
 40
1.0
 40
1.0
 40
1.0
 10
645.2358022445052
 20
15.54117086982779
 30
0.0
 10
645.2360545463526
 20
15.53056412842746
 30
0.0
 10
645.2367897010787
 20
15.49965830611627
 30
0.0
 10
645.2328844262769
 20
15.36161881836606
 30
0.0
 10
645.1840139448306
 20
15.12165810216912
 30
0.0
 10
645.0303702993857
 20
14.81242672284933
 30
0.0
 10
644.8715674318019
 20
14.6609938094705
 30
0.0
 10
644.7921648734418
 20
14.58527628040368
 30
0.0
  0
SPLINE
  5
F8
330
1F
100
AcDbEntity
  8
0
  6
Continuous
 62
     7
370
    15
100
AcDbSpline
210
0.0
220
0.0
230
1.0
 70
     8
 71
     3
 72
    14
 73
    10
 74
     0
 42
0.00000001
 43
0.00000001
 40
0.0
 40
0.0
 40
0.0
 40
0.0
 40
0.0000095361705259
 40
0.0000095361705259
 40
0.0000095361705259
 40
0.0000219642949668
 40
0.0000219642949668
 40
0.0000219642949668
 40
0.0000450544384129
 40
0.0000450544384129
 40
0.0000450544384129
 40
0.0000450544384129
 10
644.7921616619586
 20
14.58527969240919
 30
0.0
 10
644.7897907466116
 20
14.58337535698392
 30
0.0
 10
644.78774129486
 20
14.58127440555138
 30
0.0
 10
644.7861295884629
 20
14.57920166921733
 30
0.0
 10
644.7840277014483
 20
14.5764985356979
 30
0.0
 10
644.7825646495897
 20
14.57376130496732
 30
0.0
 10
644.7815421133288
 20
14.57115954983387
 30
0.0
 10
644.7796467091564
 20
14.56633685774514
 30
0.0
 10
644.7791034730827
 20
14.56179012959916
 30
0.0
 10
644.7791034730827
 20
14.55752217862138
 30
0.0
  0
SPLINE
  5
F9
330
1F
100
AcDbEntity
  8
0
  6
Continuous
 62
     7
370
    15
100
AcDbSpline
210
0.0
220
0.0
230
1.0
 70
     8
 71
     3
 72
    11
 73
     7
 74
     0
 42
0.00000001
 43
0.00000001
 40
0.0
 40
0.0
 40
0.0
 40
0.0
 40
0.365822961398406
 40
0.7252599891564661
 40
0.9820673436474131
 40
1.0
 40
1.0
 40
1.0
 40
1.0
 10
647.7267399543134
 20
60.41580918884332
 30
0.0
 10
647.3856889511351
 20
60.58418119512385
 30
0.0
 10
646.7095404504471
 20
60.91798604701854
 30
0.0
 10
645.849381435326
 20
61.100441215964
 30
0.0
 10
645.4030907721373
 20
61.04488294393121
 30
0.0
 10
645.2460523567089
 20
60.97781787202777
 30
0.0
 10
645.2358022445051
 20
60.97344044303949
 30
0.0
  0
LINE
  5
FA
330
1F
100
AcDbEntity
  8
0
  6
Continuous
 62
     7
370
    15
100
AcDbLine
 10
647.7267399543
 20
60.4158091888
 30
0.0
 11
647.7267399543
 21
16.0987872229
 31
0.0
  0
SPLINE
  5
FB
330
1F
100
AcDbEntity
  8
0
  6
Continuous
 62
     7
370
    15
100
AcDbSpline
210
0.0
220
0.0
230
1.0
 70
     8
 71
     3
 72
    11
 73
     7
 74
     0
 42
0.00000001
 43
0.00000001
 40
0.0
 40
0.0
 40
0.0
 40
0.0
 40
0.2357959051765525
 40
0.2749018809073298
 40
0.6342582980364571
 40
1.0
 40
1.0
 40
1.0
 40
1.0
 10
645.2358022445051
 20
15.54117086982781
 30
0.0
 10
645.3836309733884
 20
15.4978209494315
 30
0.0
 10
645.5559766109928
 20
15.44728158724362
 30
0.0
 10
646.0390438038688
 20
15.45635501031492
 30
0.0
 10
646.7099501159037
 20
15.59589903485933
 30
0.0
 10
647.3858260649772
 20
15.93017659990289
 30
0.0
 10
647.7267399543135
 20
16.09878722286276
 30
0.0
  0
SPLINE
  5
FC
330
1F
100
AcDbEntity
  8
0
  6
Continuous
 62
     7
370
    15
100
AcDbSpline
210
0.0
220
0.0
230
1.0
 70
     8
 71
     3
 72
    10
 73
     6
 74
     0
 42
0.00000001
 43
0.00000001
 40
0.0
 40
0.0
 40
0.0
 40
0.0
 40
0.5
 40
0.5
 40
1.0
 40
1.0
 40
1.0
 40
1.0
 10
664.1894561202512
 20
21.93663701727533
 30
0.0
 10
661.523900400159
 20
20.71835712716602
 30
0.0
 10
658.849317443566
 20
19.5335002015998
 30
0.0
 10
653.490856460659
 20
17.20914723943251
 30
0.0
 10
650.8068064960695
 20
16.07006317368145
 30
0.0
 10
648.1196585246629
 20
14.94977854145929
 30
0.0
  0
SPLINE
  5
FD
330
1F
100
AcDbEntity
  8
0
  6
Continuous
 62
     7
370
    15
100
AcDbSpline
210
0.0
220
0.0
230
1.0
 70
     8
 71
     3
 72
    16
 73
    12
 74
     0
 42
0.00000001
 43
0.00000001
 40
0.0
 40
0.0
 40
0.0
 40
0.0
 40
0.249999999999999
 40
0.249999999999999
 40
0.499999999999998
 40
0.499999999999998
 40
0.6249999999999984
 40
0.6249999999999984
 40
0.749999999999999
 40
0.749999999999999
 40
1.0
 40
1.0
 40
1.0
 40
1.0
 10
648.1196585246629
 20
14.94977854145929
 30
0.0
 10
647.7967256640893
 20
14.81514631249772
 30
0.0
 10
647.4782484807766
 20
14.70296278747146
 30
0.0
 10
646.8500910628674
 20
14.52456160402465
 30
0.0
 10
646.538441535554
 20
14.45874085014676
 30
0.0
 10
646.1049050575285
 20
14.40496358291341
 30
0.0
 10
645.9649293184899
 20
14.39420077721326
 30
0.0
 10
645.6942949871826
 20
14.38805170653693
 30
0.0
 10
645.5626207893364
 20
14.3927966054794
 30
0.0
 10
645.1910340523149
 20
14.43213863785606
 30
0.0
 10
644.9750996513
 20
14.49058351295801
 30
0.0
 10
644.7921616619586
 20
14.58527969240919
 30
0.0
  0
ARC
  5
FE
330
1F
100
AcDbEntity
  8
0
  6
Continuous
 62
     7
370
    15
100
AcDbCircle
 10
643.9996664362
 20
14.1825997917
 30
0.0
 40
4.19080556466838
100
AcDbArc
 50
10.5481156455
 51
27.2088989147
  0
SPLINE
  5
FF
330
1F
100
AcDbEntity
  8
0
  6
Continuous
 62
     7
370
    15
100
AcDbSpline
210
0.0
220
0.0
230
1.0
 70
     8
 71
     3
 72
    10
 73
     6
 74
     0
 42
0.00000001
 43
0.00000001
 40
0.0
 40
0.0
 40
0.0
 40
0.0
 40
0.5
 40
0.5
 40
1.0
 40
1.0
 40
1.0
 40
1.0
 10
645.447866090941
 20
66.45511096106426
 30
0.0
 10
645.390265363423
 20
66.48107084891386
 30
0.0
 10
645.3355148390524
 20
66.50599673539814
 30
0.0
 10
645.2575466523105
 20
66.54168692412831
 30
0.0
 10
645.2350495070942
 20
66.55208544660715
 30
0.0
 10
645.2350626071475
 20
66.5521145578366
 30
0.0
  0
LINE
  5
100
330
1F
100
AcDbEntity
  8
0
  6
Continuous
 62
     7
370
    15
100
AcDbLine
 10
645.4478755706
 20
66.4551157103
 30
0.0
 11
662.841613602
 21
58.5738766537
 31
0.0
  0
LINE
  5
101
330
1F
100
AcDbEntity
  8
0
  6
Continuous
 62
     7
370
    15
100
AcDbLine
 10
662.841613602
 20
58.5738766537
 30
0.0
 11
664.1894534343
 21
57.9656410561
 31
0.0
  0
LINE
  5
102
330
1F
100
AcDbEntity
  8
0
  6
Continuous
 62
     7
370
    15
100
AcDbLine
 10
664.1894534343
 20
54.5779514656
 30
0.0
 11
664.1894534343
 21
57.9656410561
 31
0.0
  0
LINE
  5
103
330
1F
100
AcDbEntity
  8
0
  6
Continuous
 62
     7
370
    15
100
AcDbLine
 10
648.1196537727
 20
61.5648228273
 30
0.0
 11
664.1894534343
 21
54.5779514656
 31
0.0
  0
SPLINE
  5
104
330
1F
100
AcDbEntity
  8
0
  6
Continuous
 62
     7
370
    15
100
AcDbSpline
210
0.0
220
0.0
230
1.0
 70
     8
 71
     3
 72
    16
 73
    12
 74
     0
 42
0.00000001
 43
0.00000001
 40
0.0
 40
0.0
 40
0.0
 40
0.0
 40
0.2500000000000175
 40
0.2500000000000175
 40
0.3750000000000262
 40
0.3750000000000262
 40
0.500000000000035
 40
0.500000000000035
 40
0.7500000000000174
 40
0.7500000000000174
 40
1.0
 40
1.0
 40
1.0
 40
1.0
 10
644.7921616619587
 20
61.92932129403006
 30
0.0
 10
644.9750996513001
 20
62.02401747348127
 30
0.0
 10
645.1910340523148
 20
62.08246234858316
 30
0.0
 10
645.5626207893364
 20
62.12180438095985
 30
0.0
 10
645.6942949871827
 20
62.1265492799023
 30
0.0
 10
645.96492931849
 20
62.12040020922605
 30
0.0
 10
646.1049050575284
 20
62.10963740352587
 30
0.0
 10
646.5384415355542
 20
62.05586013629249
 30
0.0
 10
646.8500910628674
 20
61.99003938241465
 30
0.0
 10
647.4782484807764
 20
61.81163819896781
 30
0.0
 10
647.7967256640893
 20
61.69945467394158
 30
0.0
 10
648.1196585246629
 20
61.56482244497996
 30
0.0
  0
ARC
  5
105
330
1F
100
AcDbEntity
  8
0
  6
Continuous
 62
     7
370
    15
100
AcDbCircle
 10
643.9996664362
 20
62.33199662
 30
0.0
 40
4.190805564668488
100
AcDbArc
 50
332.7911010853
 51
349.4518843545
  0
LINE
  5
106
330
1F
100
AcDbEntity
  8
0
  6
Continuous
 62
     7
370
    15
100
AcDbLine
 10
663.7965694183
 20
53.5760420904
 30
0.0
 11
647.7267399543
 21
60.4158091888
 31
0.0
  0
ARC
  5
107
330
1F
100
AcDbEntity
  8
0
  6
Continuous
 62
     7
370
    15
100
AcDbCircle
 10
658.7562434533
 20
56.1305182673
 30
0.0
 40
5.65068441619664
100
AcDbArc
 50
333.1237557947
 51
344.0524485577
  0
LINE
  5
108
330
1F
100
AcDbEntity
  8
0
  6
Continuous
 62
     7
370
    15
100
AcDbLine
 10
647.7267399543
 20
16.0987872229
 30
0.0
 11
663.7965694183
 21
22.9385543213
 31
0.0
  0
ARC
  5
109
330
1F
100
AcDbEntity
  8
0
  6
Continuous
 62
     7
370
    15
100
AcDbCircle
 10
658.7576182266
 20
20.3846172415
 30
0.0
 40
5.649214433832536
100
AcDbArc
 50
15.9461252361
 51
26.8776704116
  0
LINE
  5
10A
330
1F
100
AcDbEntity
  8
0
  6
Continuous
 62
     7
370
    15
100
AcDbLine
 10
663.7965694183
 20
22.9385543213
 30
0.0
 11
663.7965694183
 21
53.5760420904
 31
0.0
  0
ARC
  5
10B
330
1F
100
AcDbEntity
  8
0
  6
Continuous
 62
     7
370
    15
100
AcDbCircle
 10
664.0232758907
 20
21.7698721312
 30
0.0
 40
1.190467927342332
100
AcDbArc
 50
50.5881542574
 51
100.9781572953
  0
ARC
  5
10C
330
1F
100
AcDbEntity
  8
0
  6
Continuous
 62
     7
370
    15
100
AcDbCircle
 10
663.9446624564
 20
22.7356894459
 30
0.0
 40
0.8357001468677988
100
AcDbArc
 50
287.0326877156
 51
356.8405827708
  0
ARC
  5
10D
330
1F
100
AcDbEntity
  8
0
  6
Continuous
 62
     7
370
    15
100
AcDbCircle
 10
664.0232348606
 20
54.7448862294
 30
0.0
 40
1.190619101147718
100
AcDbArc
 50
259.025265184
 51
309.4084232633
  0
ARC
  5
10E
330
1F
100
AcDbEntity
  8
0
  6
Continuous
 62
     7
370
    15
100
AcDbCircle
 10
663.944675295
 20
53.7789170193
 30
0.0
 40
0.8356867737377841
100
AcDbArc
 50
3.158777509
 51
72.9679520047
  0
LINE
  5
10F
330
1F
100
AcDbEntity
  8
0
  6
Continuous
 62
     7
370
    15
100
AcDbLine
 10
664.7790923827
 20
53.8249659882
 30
0.0
 11
664.7790923827
 21
22.6896304235
 31
0.0
  0
LINE
  5
110
330
1F
100
AcDbEntity
  8
0
  6
Continuous
 62
     7
370
    15
100
AcDbLine
 10
664.7790923827
 20
57.0509481773
 30
0.0
 11
664.7790923827
 21
53.8249659882
 31
0.0
  0
SPLINE
  5
111
330
1F
100
AcDbEntity
  8
0
  6
Continuous
 62
     7
370
    15
100
AcDbSpline
210
0.0
220
0.0
230
1.0
 70
     8
 71
     3
 72
    11
 73
     7
 74
     0
 42
0.00000001
 43
0.00000001
 40
0.0
 40
0.0
 40
0.0
 40
0.0
 40
0.2933310612744693
 40
0.5866064297340927
 40
0.8805033334926564
 40
1.0
 40
1.0
 40
1.0
 40
1.0
 10
664.1894534343091
 20
57.96564105606134
 30
0.0
 10
664.287516671157
 20
57.909243744621
 30
0.0
 10
664.4836245262388
 20
57.79645982952222
 30
0.0
 10
664.6847116164308
 20
57.51600799409159
 30
0.0
 10
664.7707117818902
 20
57.2545555111473
 30
0.0
 10
664.7772130954277
 20
57.09660560543062
 30
0.0
 10
664.7790923827497
 20
57.05094817733819
 30
0.0
  0
LINE
  5
112
330
1F
100
AcDbEntity
  8
0
  6
Continuous
 62
     7
370
    15
100
AcDbLine
 10
664.7790923827
 20
22.6896304235
 30
0.0
 11
664.7790923827
 21
19.4038796768
 31
0.0
  0
LINE
  5
113
330
1F
100
AcDbEntity
  8
0
  6
Continuous
 62
     7
370
    15
100
AcDbLine
 10
632.7791169399
 20
32.8573036537
 30
0.0
 11
632.7791169399
 21
32.2853970871
 31
0.0
  0
LINE
  5
114
330
1F
100
AcDbEntity
  8
0
  6
Continuous
 62
     7
370
    15
100
AcDbLine
 10
632.7791169399
 20
32.2853970871
 30
0.0
 11
632.7791169399
 21
31.2312293396
 31
0.0
  0
LINE
  5
115
330
1F
100
AcDbEntity
  8
0
  6
Continuous
 62
     7
370
    15
100
AcDbLine
 10
632.7791169399
 20
31.2312293396
 30
0.0
 11
632.7791169399
 21
31.1454880581
 31
0.0
  0
SPLINE
  5
116
330
1F
100
AcDbEntity
  8
0
  6
Continuous
 62
     7
370
    15
100
AcDbSpline
210
0.0
220
0.0
230
1.0
 70
     8
 71
     3
 72
    16
 73
    12
 74
     0
 42
0.00000001
 43
0.00000001
 40
0.0
 40
0.0
 40
0.0
 40
0.0
 40
0.0001752030950779
 40
0.1252137312644634
 40
0.2502435821972934
 40
0.3752566856355781
 40
0.5002613892876082
 40
0.6252630987225138
 40
0.7502661995327466
 40
0.8753598194878858
 40
1.0
 40
1.0
 40
1.0
 40
1.0
 10
637.1043279879897
 20
69.8379624233251
 30
0.0
 10
637.104248412472
 20
69.83800221075171
 30
0.0
 10
637.0473775707139
 20
69.86643739416553
 30
0.0
 10
637.2480927006494
 20
69.76709687038176
 30
0.0
 10
637.7180428156288
 20
69.54336900076052
 30
0.0
 10
638.4864169712446
 20
69.19518437604019
 30
0.0
 10
639.3892277984645
 20
68.8165968668355
 30
0.0
 10
640.3079720179462
 20
68.46456240630435
 30
0.0
 10
641.0886146862529
 20
68.19169952752546
 30
0.0
 10
641.6382487023471
 20
68.01458845454839
 30
0.0
 10
641.710391448925
 20
67.99228834099821
 30
0.0
 10
641.7463973277418
 20
67.98115852928215
 30
0.0
  0
LINE
  5
117
330
1F
100
AcDbEntity
  8
0
  6
Continuous
 62
     7
370
    15
100
AcDbLine
 10
-171.351407457
 20
27.2236365423
 30
0.0
 11
-171.351407457
 21
42.6072973356
 31
0.0
  0
LINE
  5
118
330
1F
100
AcDbEntity
  8
0
  6
Continuous
 62
     7
370
    15
100
AcDbLine
 10
-171.351407457
 20
20.6072974548
 30
0.0
 11
-171.351407457
 21
27.2236365423
 31
0.0
  0
LINE
  5
119
330
1F
100
AcDbEntity
  8
0
  6
Continuous
 62
     7
370
    15
100
AcDbLine
 10
-173.3514115101
 20
28.0206549511
 30
0.0
 11
-173.3514115101
 21
40.6072932825
 31
0.0
  0
LINE
  5
11A
330
1F
100
AcDbEntity
  8
0
  6
Continuous
 62
     7
370
    15
100
AcDbLine
 10
-173.3514115101
 20
22.607301508
 30
0.0
 11
-173.3514115101
 21
28.0206549511
 31
0.0
  0
LINE
  5
11B
330
1F
100
AcDbEntity
  8
0
  6
Continuous
 62
     7
370
    15
100
AcDbLine
 10
-157.3514088875
 20
42.6072973356
 30
0.0
 11
-157.3514088875
 21
20.6072974548
 31
0.0
  0
LINE
  5
11C
330
1F
100
AcDbEntity
  8
0
  6
Continuous
 62
     7
370
    15
100
AcDbLine
 10
583.1402197593
 20
-74.9927115097
 30
0.0
 11
542.9485842698
 21
-74.9927115097
 31
0.0
  0
LINE
  5
11D
330
1F
100
AcDbEntity
  8
0
  6
Continuous
 62
     7
370
    15
100
AcDbLine
 10
564.8415044063
 20
-26.1927050009
 30
0.0
 11
-141.144339729
 21
-26.1927050009
 31
0.0
  0
SPLINE
  5
11E
330
1F
100
AcDbEntity
  8
0
  6
Continuous
 62
     7
370
    15
100
AcDbSpline
210
0.0
220
0.0
230
1.0
 70
     8
 71
     3
 72
    12
 73
     8
 74
     0
 42
0.00000001
 43
0.00000001
 40
0.0
 40
0.0
 40
0.0
 40
0.0
 40
0.2301675783809014
 40
0.4604235944409925
 40
0.6906768490947429
 40
0.9209285345190171
 40
1.0
 40
1.0
 40
1.0
 40
1.0
 10
-141.1443397289904
 20
-26.19270500087684
 30
0.0
 10
-141.0489561373236
 20
-26.16662741324222
 30
0.0
 10
-140.8581523045909
 20
-26.11446221813723
 30
0.0
 10
-140.5718625980891
 20
-25.70973930530127
 30
0.0
 10
-140.2857496278587
 20
-25.1217204744584
 30
0.0
 10
-140.0616321912833
 20
-24.5576864168395
 30
0.0
 10
-139.9340479091138
 20
-24.22717931426044
 30
0.0
 10
-139.9014338738116
 20
-24.14269265079444
 30
0.0
  0
LINE
  5
11F
330
1F
100
AcDbEntity
  8
0
  6
Continuous
 62
     7
370
    15
100
AcDbLine
 10
-139.9014338738
 20
-24.1426926508
 30
0.0
 11
563.5985687488
 21
-24.1426926508
 31
0.0
  0
SPLINE
  5
120
330
1F
100
AcDbEntity
  8
0
  6
Continuous
 62
     7
370
    15
100
AcDbSpline
210
0.0
220
0.0
230
1.0
 70
     8
 71
     3
 72
    16
 73
    12
 74
     0
 42
0.00000001
 43
0.00000001
 40
0.0
 40
0.0
 40
0.0
 40
0.0
 40
0.2499999999999922
 40
0.2499999999999922
 40
0.4999999999999845
 40
0.4999999999999845
 40
0.7499999999999767
 40
0.7499999999999767
 40
0.8749999999999883
 40
0.8749999999999883
 40
1.0
 40
1.0
 40
1.0
 40
1.0
 10
563.5985780983783
 20
-24.1426995067851
 30
0.0
 10
563.7512068876565
 20
-24.39317917379499
 30
0.0
 10
563.8997144609574
 20
-24.64037112382963
 30
0.0
 10
564.1900854870612
 20
-25.11423544780089
 30
0.0
 10
564.324753959037
 20
-25.33260989959379
 30
0.0
 10
564.5523846268319
 20
-25.73116757984062
 30
0.0
 10
564.6413225763622
 20
-25.8956304687781
 30
0.0
 10
564.7432572246312
 20
-26.07132516445287
 30
0.0
 10
564.7707455158462
 20
-26.1159125184634
 30
0.0
 10
564.8145992165395
 20
-26.17666192689819
 30
0.0
 10
564.8309804957121
 20
-26.19269950678524
 30
0.0
 10
564.8415070305666
 20
-26.19269950678518
 30
0.0
  0
SPLINE
  5
121
330
1F
100
AcDbEntity
  8
0
  6
Continuous
 62
     7
370
    15
100
AcDbSpline
210
0.0
220
0.0
230
1.0
 70
     8
 71
     3
 72
    32
 73
    28
 74
     0
 42
0.00000001
 43
0.00000001
 40
0.0
 40
0.0
 40
0.0
 40
0.0
 40
0.125
 40
0.125
 40
0.25
 40
0.25
 40
0.375
 40
0.375
 40
0.4375
 40
0.4375
 40
0.46875
 40
0.46875
 40
0.484375
 40
0.484375
 40
0.4921875
 40
0.4921875
 40
0.49609375
 40
0.49609375
 40
0.498046875
 40
0.498046875
 40
0.5
 40
0.5
 40
0.625
 40
0.625
 40
0.75
 40
0.75
 40
1.0
 40
1.0
 40
1.0
 40
1.0
 10
-139.9014219016209
 20
-24.1426995067866
 30
0.0
 10
-140.070027114828
 20
-24.24385831369899
 30
0.0
 10
-140.2257829004431
 20
-24.33625271443832
 30
0.0
 10
-140.5059540951034
 20
-24.50382811115112
 30
0.0
 10
-140.6303804096432
 20
-24.57895653919459
 30
0.0
 10
-140.8478463268575
 20
-24.71189485465555
 30
0.0
 10
-140.9409709987944
 20
-24.76970474207299
 30
0.0
 10
-141.0596805669652
 20
-24.84343066772976
 30
0.0
 10
-141.0957718504467
 20
-24.86584115870377
 30
0.0
 10
-141.1450911725696
 20
-24.89620966879741
 30
0.0
 10
-141.1607283428894
 20
-24.90579130110074
 30
0.0
 10
-141.1830316262143
 20
-24.91935194296388
 30
0.0
 10
-141.1902739766302
 20
-24.92373685581967
 30
0.0
 10
-141.2008557843394
 20
-24.93011127345532
 30
0.0
 10
-141.204336100143
 20
-24.93220225405915
 30
0.0
 10
-141.2094869381858
 20
-24.93528798705299
 30
0.0
 10
-141.211192278213
 20
-24.93630810839895
 30
0.0
 10
-141.2137329781551
 20
-24.93782560593988
 30
0.0
 10
-141.2145769931162
 20
-24.93832932437387
 30
0.0
 10
-141.2162592694397
 20
-24.9393325330825
 30
0.0
 10
-141.2166110353674
 20
-24.93954237367729
 30
0.0
 10
-141.3025337686555
 20
-24.9906990555393
 30
0.0
 10
-141.3889889262044
 20
-25.03775336085096
 30
0.0
 10
-141.5557582860711
 20
-25.12523127012342
 30
0.0
 10
-141.6360679031135
 20
-25.16565487408415
 30
0.0
 10
-141.848140236813
 20
-25.2769796339398
 30
0.0
 10
-141.9514219016208
 20
-25.33771303144036
 30
0.0
 10
-141.9514219016208
 20
-25.38562843897477
 30
0.0
  0
LINE
  5
122
330
1F
100
AcDbEntity
  8
0
  6
Continuous
 62
     7
370
    15
100
AcDbLine
 10
-141.9514164216
 20
238.6002290592
 30
0.0
 11
-141.9514164216
 21
-25.3856283083
 31
0.0
  0
SPLINE
  5
123
330
1F
100
AcDbEntity
  8
0
  6
Continuous
 62
     7
370
    15
100
AcDbSpline
210
0.0
220
0.0
230
1.0
 70
     8
 71
     3
 72
    18
 73
    14
 74
     0
 42
0.00000001
 43
0.00000001
 40
0.0
 40
0.0
 40
0.0
 40
0.0
 40
0.1250000000000239
 40
0.1250000000000239
 40
0.2500000000000479
 40
0.2500000000000479
 40
0.5000000000000518
 40
0.5000000000000518
 40
0.6250000000000389
 40
0.6250000000000389
 40
0.750000000000026
 40
0.750000000000026
 40
1.0
 40
1.0
 40
1.0
 40
1.0
 10
-141.9514219016214
 20
238.6002294254016
 30
0.0
 10
-141.9514219016215
 20
238.5897381884523
 30
0.0
 10
-141.9358906974258
 20
238.5737715823353
 30
0.0
 10
-141.8757326065971
 20
238.5301780945554
 30
0.0
 10
-141.830291078168
 20
238.5021417575407
 30
0.0
 10
-141.657276960632
 20
238.4017003786758
 30
0.0
 10
-141.4891398305956
 20
238.3106435450176
 30
0.0
 10
-141.1943259801785
 20
238.1423170197223
 30
0.0
 10
-141.0874327840827
 20
238.07993306483
 30
0.0
 10
-140.8675230687293
 20
237.9465623274871
 30
0.0
 10
-140.7538772981272
 20
237.8758391294105
 30
0.0
 10
-140.3994426020814
 20
237.6586557008437
 30
0.0
 10
-140.1515418160458
 20
237.5097122844948
 30
0.0
 10
-139.9014317150715
 20
237.3573064730884
 30
0.0
  0
LINE
  5
124
330
1F
100
AcDbEntity
  8
0
  6
Continuous
 62
     7
370
    15
100
AcDbLine
 10
-139.9014338738
 20
237.3573008523
 30
0.0
 11
-139.9014338738
 21
-24.1426926508
 31
0.0
  0
SPLINE
  5
125
330
1F
100
AcDbEntity
  8
0
  6
Continuous
 62
     7
370
    15
100
AcDbSpline
210
0.0
220
0.0
230
1.0
 70
     8
 71
     3
 72
    24
 73
    20
 74
     0
 42
0.00000001
 43
0.00000001
 40
0.0
 40
0.0
 40
0.0
 40
0.0
 40
0.0644512564079554
 40
0.1250748349618275
 40
0.1818723400885736
 40
0.2348457697409609
 40
0.2839976347069096
 40
0.3293311279772364
 40
0.3708503715759484
 40
0.4085607874215044
 40
0.4424696748697079
 40
0.4725871493092024
 40
0.4989277482530512
 40
0.5714944947878847
 40
0.6477865234574206
 40
0.7283531857572818
 40
0.8136604203297757
 40
0.9041000269768547
 40
1.0
 40
1.0
 40
1.0
 40
1.0
 10
-139.9014219016209
 20
-24.14269950678663
 30
0.0
 10
-139.9377541022311
 20
-24.17835937343671
 30
0.0
 10
-140.0082607804308
 20
-24.24756131277184
 30
0.0
 10
-140.110645513172
 20
-24.34754789119417
 30
0.0
 10
-140.2057555216544
 20
-24.44069787448988
 30
0.0
 10
-140.2933409219901
 20
-24.52697373150609
 30
0.0
 10
-140.3732915282734
 20
-24.60638563677453
 30
0.0
 10
-140.445660821968
 20
-24.67893253094375
 30
0.0
 10
-140.5106194746573
 20
-24.74461687019053
 30
0.0
 10
-140.5684298992572
 20
-24.8034403602958
 30
0.0
 10
-140.6194151161588
 20
-24.85540883532547
 30
0.0
 10
-140.6639452945583
 20
-24.90052143253801
 30
0.0
 10
-140.7266900800093
 20
-24.96301733792544
 30
0.0
 10
-140.8109461389348
 20
-25.04045311851619
 30
0.0
 10
-140.9134669546986
 20
-25.12785820612798
 30
0.0
 10
-141.0074683522983
 20
-25.20638894085114
 30
0.0
 10
-141.0847491991958
 20
-25.27582780766352
 30
0.0
 10
-141.1401825191326
 20
-25.33709914662818
 30
0.0
 10
-141.1476029596365
 20
-25.36913904979293
 30
0.0
 10
-141.1514219016209
 20
-25.38562843897482
 30
0.0
  0
LINE
  5
126
330
1F
100
AcDbEntity
  8
0
  6
Continuous
 62
     7
370
    15
100
AcDbLine
 10
-141.9514164216
 20
-25.3856283083
 30
0.0
 11
-141.1514326817
 21
-25.3856283083
 31
0.0
  0
SPLINE
  5
127
330
1F
100
AcDbEntity
  8
0
  6
Continuous
 62
     7
370
    15
100
AcDbSpline
210
0.0
220
0.0
230
1.0
 70
     8
 71
     3
 72
    11
 73
     7
 74
     0
 42
0.00000001
 43
0.00000001
 40
0.0
 40
0.0
 40
0.0
 40
0.0
 40
0.254293927796127
 40
0.5087742774580606
 40
0.7632520788710212
 40
1.0
 40
1.0
 40
1.0
 40
1.0
 10
-141.1443397289904
 20
-25.39270635986274
 30
0.0
 10
-141.0389676999756
 20
-25.37324817996289
 30
0.0
 10
-140.828146394131
 20
-25.33431755544896
 30
0.0
 10
-140.5118940028356
 20
-25.03533466680932
 30
0.0
 10
-140.2028056756376
 20
-24.61938071262476
 30
0.0
 10
-139.9994444930002
 20
-24.29771874088238
 30
0.0
 10
-139.9014338738116
 20
-24.14269265079447
 30
0.0
  0
LINE
  5
128
330
1F
100
AcDbEntity
  8
0
  6
Continuous
 62
     7
370
    15
100
AcDbLine
 10
-141.144339729
 20
-26.1927050009
 30
0.0
 11
-141.144339729
 21
-25.3927063599
 31
0.0
  0
LINE
  5
129
330
1F
100
AcDbEntity
  8
0
  6
Continuous
 62
     7
370
    15
100
AcDbLine
 10
563.5985687488
 20
237.3573008523
 30
0.0
 11
-139.9014338738
 21
237.3573008523
 31
0.0
  0
LINE
  5
12A
330
1F
100
AcDbEntity
  8
0
  6
Continuous
 62
     7
370
    15
100
AcDbLine
 10
563.5985687488
 20
-24.1426926508
 30
0.0
 11
563.5985687488
 21
237.3573008523
 31
0.0
  0
SPLINE
  5
12B
330
1F
100
AcDbEntity
  8
0
  6
Continuous
 62
     7
370
    15
100
AcDbSpline
210
0.0
220
0.0
230
1.0
 70
     8
 71
     3
 72
    14
 73
    10
 74
     0
 42
0.00000001
 43
0.00000001
 40
0.0
 40
0.0
 40
0.0
 40
0.0
 40
0.25
 40
0.25
 40
0.5
 40
0.5
 40
0.75
 40
0.75
 40
1.0
 40
1.0
 40
1.0
 40
1.0
 10
565.6485780983791
 20
-25.38562843897321
 30
0.0
 10
565.6485780983791
 20
-25.28203477473334
 30
0.0
 10
565.5952220855494
 20
-25.17847361694189
 30
0.0
 10
565.3898401945055
 20
-24.97131879491052
 30
0.0
 10
565.2378951252954
 20
-24.86774138389486
 30
0.0
 10
564.8583988743277
 20
-24.66058656186351
 30
0.0
 10
564.6309970081396
 20
-24.5570091508478
 30
0.0
 10
564.1351612613157
 20
-24.34985432881645
 30
0.0
 10
563.866964579101
 20
-24.24629317102489
 30
0.0
 10
563.5985780983792
 20
-24.1426995067851
 30
0.0
  0
SPLINE
  5
12C
330
1F
100
AcDbEntity
  8
0
  6
Continuous
 62
     7
370
    15
100
AcDbSpline
210
0.0
220
0.0
230
1.0
 70
     8
 71
     3
 72
    22
 73
    18
 74
     0
 42
0.00000001
 43
0.00000001
 40
0.0
 40
0.0
 40
0.0
 40
0.0
 40
0.125
 40
0.125
 40
0.25
 40
0.25
 40
0.375
 40
0.375
 40
0.5
 40
0.5
 40
0.625
 40
0.625
 40
0.75
 40
0.75
 40
0.875
 40
0.875
 40
1.0
 40
1.0
 40
1.0
 40
1.0
 10
563.5985780983783
 20
237.357300493215
 30
0.0
 10
563.733947451235
 20
237.4095512893448
 30
0.0
 10
563.8672039585161
 20
237.460994683957
 30
0.0
 10
564.1290136049669
 20
237.564020428886
 30
0.0
 10
564.258507260664
 20
237.6159886859066
 30
0.0
 10
564.5075196632832
 20
237.7200218922752
 30
0.0
 10
564.6253826012562
 20
237.7713758449693
 30
0.0
 10
564.8475915285442
 20
237.8744843326351
 30
0.0
 10
564.9528939454428
 20
237.9267796117306
 30
0.0
 10
565.1428270189056
 20
238.0304375361692
 30
0.0
 10
565.2275767357745
 20
238.0817433783531
 30
0.0
 10
565.3764455363784
 20
238.1850196944456
 30
0.0
 10
565.4408714809247
 20
238.2374489618524
 30
0.0
 10
565.5434708363221
 20
238.3408196465015
 30
0.0
 10
565.5823625748756
 20
238.3921174136384
 30
0.0
 10
565.6350184274388
 20
238.4956468778231
 30
0.0
 10
565.6485780983786
 20
238.5479786278603
 30
0.0
 10
565.6485780983786
 20
238.6002294254031
 30
0.0
  0
LINE
  5
12D
330
1F
100
AcDbEntity
  8
0
  6
Continuous
 62
     7
370
    15
100
AcDbLine
 10
565.6485810989
 20
-25.3856283083
 30
0.0
 11
565.6485810989
 21
238.6002290592
 31
0.0
  0
SPLINE
  5
12E
330
1F
100
AcDbEntity
  8
0
  6
Continuous
 62
     7
370
    15
100
AcDbSpline
210
0.0
220
0.0
230
1.0
 70
     8
 71
     3
 72
    18
 73
    14
 74
     0
 42
0.00000001
 43
0.00000001
 40
0.0
 40
0.0
 40
0.0
 40
0.0
 40
0.2499999999999793
 40
0.2499999999999793
 40
0.4999999999999587
 40
0.4999999999999587
 40
0.624999999999969
 40
0.624999999999969
 40
0.7499999999999793
 40
0.7499999999999793
 40
0.8749999999999897
 40
0.8749999999999897
 40
1.0
 40
1.0
 40
1.0
 40
1.0
 10
563.5985780983783
 20
-24.14269950678513
 30
0.0
 10
563.739342781475
 20
-24.28355892065942
 30
0.0
 10
563.8763085069916
 20
-24.42252552889884
 30
0.0
 10
564.1467445856453
 20
-24.69223717406854
 30
0.0
 10
564.2816591427547
 20
-24.82396378611648
 30
0.0
 10
564.4557258552001
 20
-25.00760559352011
 30
0.0
 10
564.5104667668896
 20
-25.06705675996865
 30
0.0
 10
564.6084912880991
 20
-25.17416397108319
 30
0.0
 10
564.6521674012499
 20
-25.2222158121006
 30
0.0
 10
564.7288759958
 20
-25.30401244641756
 30
0.0
 10
564.7605914321554
 20
-25.33629991841782
 30
0.0
 10
564.8109280191613
 20
-25.38057270640515
 30
0.0
 10
564.8298096859037
 20
-25.39269950678519
 30
0.0
 10
564.8415070305666
 20
-25.39269950678516
 30
0.0
  0
LINE
  5
12F
330
1F
100
AcDbEntity
  8
0
  6
Continuous
 62
     7
370
    15
100
AcDbLine
 10
564.8415044063
 20
-26.1927050009
 30
0.0
 11
564.8415044063
 21
-25.3927063599
 31
0.0
  0
LINE
  5
130
330
1F
100
AcDbEntity
  8
0
  6
Continuous
 62
     7
370
    15
100
AcDbLine
 10
565.6485810989
 20
-25.3856283083
 30
0.0
 11
564.8485675567
 21
-25.3856283083
 31
0.0
  0
SPLINE
  5
131
330
1F
100
AcDbEntity
  8
0
  6
Continuous
 62
     7
370
    15
100
AcDbSpline
210
0.0
220
0.0
230
1.0
 70
     8
 71
     3
 72
    14
 73
    10
 74
     0
 42
0.00000001
 43
0.00000001
 40
0.0
 40
0.0
 40
0.0
 40
0.0
 40
0.25
 40
0.25
 40
0.5
 40
0.5
 40
0.75
 40
0.75
 40
1.0
 40
1.0
 40
1.0
 40
1.0
 10
564.8485780983791
 20
-25.38562843897324
 30
0.0
 10
564.8485780983791
 20
-25.28205102795758
 30
0.0
 10
564.8160439442145
 20
-25.17847361694195
 30
0.0
 10
564.6908110838218
 20
-24.97131879491046
 30
0.0
 10
564.5981616513769
 20
-24.86774138389486
 30
0.0
 10
564.3667614983477
 20
-24.66058656186357
 30
0.0
 10
564.2281018238427
 20
-24.55700915084785
 30
0.0
 10
563.9257629538281
 20
-24.34985432881645
 30
0.0
 10
563.7622027157536
 20
-24.24627691780082
 30
0.0
 10
563.5985780983791
 20
-24.14269950678513
 30
0.0
  0
SPLINE
  5
132
330
1F
100
AcDbEntity
  8
0
  6
Continuous
 62
     7
370
    15
100
AcDbSpline
210
0.0
220
0.0
230
1.0
 70
     8
 71
     3
 72
    14
 73
    10
 74
     0
 42
0.00000001
 43
0.00000001
 40
0.0
 40
0.0
 40
0.0
 40
0.0
 40
0.25
 40
0.25
 40
0.5
 40
0.5
 40
0.75
 40
0.75
 40
1.0
 40
1.0
 40
1.0
 40
1.0
 10
-139.9014219016217
 20
237.3573004932134
 30
0.0
 10
-140.0049993126373
 20
237.5209251105878
 30
0.0
 10
-140.1085767236531
 20
237.6844853486625
 30
0.0
 10
-140.3157315456843
 20
237.986824218677
 30
0.0
 10
-140.4193089567001
 20
238.1254838931821
 30
0.0
 10
-140.6264637787314
 20
238.3568840462111
 30
0.0
 10
-140.7300411897471
 20
238.4495334786562
 30
0.0
 10
-140.9371960117786
 20
238.5747663390488
 30
0.0
 10
-141.0407734227941
 20
238.6073004932134
 30
0.0
 10
-141.1443508338098
 20
238.6073004932134
 30
0.0
  0
LINE
  5
133
330
1F
100
AcDbEntity
  8
0
  6
Continuous
 62
     7
370
    15
100
AcDbLine
 10
-141.144339729
 20
238.6072996602
 30
0.0
 11
-141.144339729
 21
239.4073020265
 31
0.0
  0
SPLINE
  5
134
330
1F
100
AcDbEntity
  8
0
  6
Continuous
 62
     7
370
    15
100
AcDbSpline
210
0.0
220
0.0
230
1.0
 70
     8
 71
     3
 72
    14
 73
    10
 74
     0
 42
0.00000001
 43
0.00000001
 40
0.0
 40
0.0
 40
0.0
 40
0.0
 40
0.25
 40
0.25
 40
0.5
 40
0.5
 40
0.75
 40
0.75
 40
1.0
 40
1.0
 40
1.0
 40
1.0
 10
-139.9014219016217
 20
237.3573004932134
 30
0.0
 10
-140.0050155658615
 20
237.6256869739356
 30
0.0
 10
-140.1085767236531
 20
237.8938836561499
 30
0.0
 10
-140.3157315456844
 20
238.3897194029738
 30
0.0
 10
-140.4193089567001
 20
238.6171212691621
 30
0.0
 10
-140.6264637787314
 20
238.9966175201297
 30
0.0
 10
-140.7300411897471
 20
239.1485625893397
 30
0.0
 10
-140.9371960117784
 20
239.3539444803835
 30
0.0
 10
-141.0407571695699
 20
239.4073004932135
 30
0.0
 10
-141.1443508338098
 20
239.4073004932135
 30
0.0
  0
LWPOLYLINE
  5
135
330
1F
100
AcDbEntity
  8
0
  6
Continuous
 62
     7
370
    15
100
AcDbPolyline
 90
        2
 70
   128
 43
0.0
 10
-139.9014338738
 20
237.3573008523
 10
-139.9014338738
 20
237.3573008523
  0
SPLINE
  5
136
330
1F
100
AcDbEntity
  8
0
  6
Continuous
 62
     7
370
    15
100
AcDbSpline
210
0.0
220
0.0
230
1.0
 70
     8
 71
     3
 72
    12
 73
     8
 74
     0
 42
0.00000001
 43
0.00000001
 40
0.0
 40
0.0
 40
0.0
 40
0.0
 40
0.17398304356865
 40
0.3320922363341272
 40
0.5068892619616411
 40
0.776235159943278
 40
1.0
 40
1.0
 40
1.0
 40
1.0
 10
-141.1514326817187
 20
238.6002290592199
 30
0.0
 10
-141.1381642658014
 20
238.5762994773781
 30
0.0
 10
-141.1128380166212
 20
238.5306235989397
 30
0.0
 10
-140.9357352594228
 20
238.3697872976366
 30
0.0
 10
-140.6574226050586
 20
238.1167666526931
 30
0.0
 10
-140.3030916722236
 20
237.7553831747582
 30
0.0
 10
-140.0268069451862
 20
237.4815578781156
 30
0.0
 10
-139.9014338738116
 20
237.3573008522993
 30
0.0
  0
LINE
  5
137
330
1F
100
AcDbEntity
  8
0
  6
Continuous
 62
     7
370
    15
100
AcDbLine
 10
-141.9514164216
 20
238.6002290592
 30
0.0
 11
-141.1514326817
 21
238.6002290592
 31
0.0
  0
SPLINE
  5
138
330
1F
100
AcDbEntity
  8
0
  6
Continuous
 62
     7
370
    15
100
AcDbSpline
210
0.0
220
0.0
230
1.0
 70
     8
 71
     3
 72
    32
 73
    28
 74
     0
 42
0.00000001
 43
0.00000001
 40
0.0
 40
0.0
 40
0.0
 40
0.0
 40
0.25
 40
0.25
 40
0.375
 40
0.375
 40
0.4375
 40
0.4375
 40
0.46875
 40
0.46875
 40
0.484375
 40
0.484375
 40
0.4921875
 40
0.4921875
 40
0.49609375
 40
0.49609375
 40
0.498046875
 40
0.498046875
 40
0.5
 40
0.5
 40
0.625
 40
0.625
 40
0.75
 40
0.75
 40
0.875
 40
0.875
 40
1.0
 40
1.0
 40
1.0
 40
1.0
 10
564.8415070305659
 20
239.4073004932149
 30
0.0
 10
564.8008325271998
 20
239.407300493215
 30
0.0
 10
564.7438702735468
 20
239.3149187281958
 30
0.0
 10
564.6333527866367
 20
239.1100533204836
 30
0.0
 10
564.5923702999836
 20
239.0307502318776
 30
0.0
 10
564.52468158348
 20
238.9033403772229
 30
0.0
 10
564.5010828468914
 20
238.859448013803
 30
0.0
 10
564.4641309953776
 20
238.7923493410269
 30
0.0
 10
564.4515547537674
 20
238.7697720774481
 30
0.0
 10
564.4323019546948
 20
238.7356894369242
 30
0.0
 10
564.4258196155612
 20
238.7242923663916
 30
0.0
 10
564.415998997696
 20
238.7071543535148
 30
0.0
 10
564.4127092735472
 20
238.7014346105407
 30
0.0
 10
564.4077504100322
 20
238.6928458353103
 30
0.0
 10
564.406093409312
 20
238.6899813831776
 30
0.0
 10
564.4036018389089
 20
238.6856825929527
 30
0.0
 10
564.4027703038879
 20
238.6842493108572
 30
0.0
 10
564.4011052107373
 20
238.6813820721886
 30
0.0
 10
564.399882200121
 20
238.6792788083402
 30
0.0
 10
564.3709495823897
 20
238.6295556400669
 30
0.0
 10
564.3328993948098
 20
238.5680500750522
 30
0.0
 10
564.2376736455622
 20
238.4150507910817
 30
0.0
 10
564.180498083894
 20
238.3234819544433
 30
0.0
 10
564.0470215864694
 20
238.1061320185315
 30
0.0
 10
563.970720650713
 20
237.9802439578516
 30
0.0
 10
563.7989934051116
 20
237.6935224366577
 30
0.0
 10
563.7036299706766
 20
237.5326653505168
 30
0.0
 10
563.5985780983779
 20
237.3573004932147
 30
0.0
  0
LINE
  5
139
330
1F
100
AcDbEntity
  8
0
  6
Continuous
 62
     7
370
    15
100
AcDbLine
 10
564.8415044063
 20
239.4073020265
 30
0.0
 11
-140.7514259106
 21
239.4073020265
 31
0.0
  0
SPLINE
  5
13A
330
1F
100
AcDbEntity
  8
0
  6
Continuous
 62
     7
370
    15
100
AcDbSpline
210
0.0
220
0.0
230
1.0
 70
     8
 71
     3
 72
    11
 73
     7
 74
     0
 42
0.00000001
 43
0.00000001
 40
0.0
 40
0.0
 40
0.0
 40
0.0
 40
0.2543064586480652
 40
0.5087865609628034
 40
0.7632610500340453
 40
1.0
 40
1.0
 40
1.0
 40
1.0
 10
563.5985687487928
 20
237.3573008522993
 30
0.0
 10
563.7652070744886
 20
237.4626782732305
 30
0.0
 10
564.0985975086368
 20
237.6735050681289
 30
0.0
 10
564.5165310065216
 20
237.989754123075
 30
0.0
 10
564.7966821757652
 20
238.2988223711626
 30
0.0
 10
564.8316938012364
 20
238.5022079469585
 30
0.0
 10
564.8485675566999
 20
238.6002290592199
 30
0.0
  0
LINE
  5
13B
330
1F
100
AcDbEntity
  8
0
  6
Continuous
 62
     7
370
    15
100
AcDbLine
 10
564.8485675567
 20
238.6002290592
 30
0.0
 11
565.6485810989
 21
238.6002290592
 31
0.0
  0
LWPOLYLINE
  5
13C
330
1F
100
AcDbEntity
  8
0
  6
Continuous
 62
     7
370
    15
100
AcDbPolyline
 90
        2
 70
   128
 43
0.0
 10
563.5985687488
 20
237.3573008523
 10
563.5985687488
 20
237.3573008523
  0
LINE
  5
13D
330
1F
100
AcDbEntity
  8
0
  6
Continuous
 62
     7
370
    15
100
AcDbLine
 10
564.8415044063
 20
239.4073020265
 30
0.0
 11
564.8415044063
 21
238.6072996602
 31
0.0
  0
SPLINE
  5
13E
330
1F
100
AcDbEntity
  8
0
  6
Continuous
 62
     7
370
    15
100
AcDbSpline
210
0.0
220
0.0
230
1.0
 70
     8
 71
     3
 72
    24
 73
    20
 74
     0
 42
0.00000001
 43
0.00000001
 40
0.0
 40
0.0
 40
0.0
 40
0.0
 40
0.0459084819137735
 40
0.0908676285698128
 40
0.134921945276456
 40
0.1781187407982323
 40
0.2205082016902057
 40
0.2621434405670507
 40
0.3030805121973502
 40
0.3433783912463569
 40
0.3830989057910152
 40
0.422306621481824
 40
0.461068672485559
 40
0.4994545371300996
 40
0.5585300488469661
 40
0.638053147053002
 40
0.7381162600158477
 40
0.858759459687104
 40
1.0
 40
1.0
 40
1.0
 40
1.0
 10
564.8415070305659
 20
238.6073004932149
 30
0.0
 10
564.834522435227
 20
238.6064197027386
 30
0.0
 10
564.8206976780467
 20
238.6046763355326
 30
0.0
 10
564.7961380889014
 20
238.5909930393862
 30
0.0
 10
564.7690299263614
 20
238.5701612961014
 30
0.0
 10
564.7390995332233
 20
238.5422061671523
 30
0.0
 10
564.7064172787848
 20
238.5081632383632
 30
0.0
 10
564.6709641930859
 20
238.4687953565177
 30
0.0
 10
564.6327440711985
 20
238.4249132980241
 30
0.0
 10
564.5917566189117
 20
238.3772796305706
 30
0.0
 10
564.5479960669157
 20
238.3266299881068
 30
0.0
 10
564.5014823401601
 20
238.2736413351222
 30
0.0
 10
564.4521402389375
 20
238.2190052571276
 30
0.0
 10
564.3907897684936
 20
238.1529705846951
 30
0.0
 10
564.3032314294339
 20
238.0662220930017
 30
0.0
 10
564.1790881371252
 20
237.9452060716035
 30
0.0
 10
564.0185144280614
 20
237.7857192684434
 30
0.0
 10
563.8214409161473
 20
237.5852677591031
 30
0.0
 10
563.6766613752628
 20
237.4371721888219
 30
0.0
 10
563.5985780983779
 20
237.3573004932148
 30
0.0
  0
LINE
  5
13F
330
1F
100
AcDbEntity
  8
0
  6
Continuous
 62
     7
370
    15
100
AcDbLine
 10
566.1790922397
 20
93.600225781
 30
0.0
 11
565.6485810989
 21
93.600225781
 31
0.0
  0
LINE
  5
140
330
1F
100
AcDbEntity
  8
0
  6
Continuous
 62
     7
370
    15
100
AcDbLine
 10
565.6485810989
 20
33.6002308474
 30
0.0
 11
566.1790922397
 21
33.6002308474
 31
0.0
  0
LINE
  5
141
330
1F
100
AcDbEntity
  8
0
  6
Continuous
 62
     7
370
    15
100
AcDbLine
 10
566.3281038516
 20
195.6002294616
 30
0.0
 11
565.6485810989
 21
195.6002294616
 31
0.0
  0
LINE
  5
142
330
1F
100
AcDbEntity
  8
0
  6
Continuous
 62
     7
370
    15
100
AcDbLine
 10
565.6485810989
 20
115.6002331123
 30
0.0
 11
566.3281038516
 21
115.6002331123
 31
0.0
  0
LINE
  5
143
330
1F
100
AcDbEntity
  8
0
  6
Continuous
 62
     7
370
    15
100
AcDbLine
 10
562.0385810846
 20
241.8572987959
 30
0.0
 11
562.0385810846
 21
239.4073020265
 31
0.0
  0
LINE
  5
144
330
1F
100
AcDbEntity
  8
0
  6
Continuous
 62
     7
370
    15
100
AcDbLine
 10
-106.9414362199
 20
239.4073020265
 30
0.0
 11
-106.9414362199
 21
241.8572987959
 31
0.0
  0
LINE
  5
145
330
1F
100
AcDbEntity
  8
0
  6
Continuous
 62
     7
370
    15
100
AcDbLine
 10
-106.9414362199
 20
241.8572987959
 30
0.0
 11
562.0385810846
 21
241.8572987959
 31
0.0
  0
LINE
  5
146
330
1F
100
AcDbEntity
  8
0
  6
Continuous
 62
     7
370
    15
100
AcDbLine
 10
-106.9414362199
 20
274.7573006496
 30
0.0
 11
562.0385810846
 21
274.7573006496
 31
0.0
  0
LINE
  5
147
330
1F
100
AcDbEntity
  8
0
  6
Continuous
 62
     7
370
    15
100
AcDbLine
 10
562.0385810846
 20
241.8572987959
 30
0.0
 11
562.0385810846
 21
274.7573006496
 31
0.0
  0
LINE
  5
148
330
1F
100
AcDbEntity
  8
0
  6
Continuous
 62
     7
370
    15
100
AcDbLine
 10
-106.9414362199
 20
274.7573006496
 30
0.0
 11
-106.9414362199
 21
241.8572987959
 31
0.0
  0
LINE
  5
149
330
1F
100
AcDbEntity
  8
0
  6
Continuous
 62
     7
370
    15
100
AcDbLine
 10
562.0385810846
 20
277.2072974191
 30
0.0
 11
562.0385810846
 21
274.7573006496
 31
0.0
  0
LINE
  5
14A
330
1F
100
AcDbEntity
  8
0
  6
Continuous
 62
     7
370
    15
100
AcDbLine
 10
-106.9414362199
 20
277.2072974191
 30
0.0
 11
562.0385810846
 21
277.2072974191
 31
0.0
  0
LINE
  5
14B
330
1F
100
AcDbEntity
  8
0
  6
Continuous
 62
     7
370
    15
100
AcDbLine
 10
-141.9514164216
 20
239.4073020265
 30
0.0
 11
-140.7514259106
 21
239.4073020265
 31
0.0
  0
LINE
  5
14C
330
1F
100
AcDbEntity
  8
0
  6
Continuous
 62
     7
370
    15
100
AcDbLine
 10
-141.9514164216
 20
284.957301949
 30
0.0
 11
-141.9514164216
 21
239.4073020265
 31
0.0
  0
LINE
  5
14D
330
1F
100
AcDbEntity
  8
0
  6
Continuous
 62
     7
370
    15
100
AcDbLine
 10
-140.7514259106
 20
284.957301949
 30
0.0
 11
-141.9514164216
 21
284.957301949
 31
0.0
  0
LINE
  5
14E
330
1F
100
AcDbEntity
  8
0
  6
Continuous
 62
     7
370
    15
100
AcDbLine
 10
-140.7514259106
 20
284.957301949
 30
0.0
 11
-140.7514259106
 21
239.4073020265
 31
0.0
  0
LWPOLYLINE
  5
14F
330
1F
100
AcDbEntity
  8
0
  6
Continuous
 62
     7
370
    15
100
AcDbPolyline
 90
        3
 70
   128
 43
0.0
 10
-140.7225474602
 20
285.2243680105
 10
-140.7274052388
 20
285.2011669025
 10
-140.7514259106
 20
284.957301949
  0
ARC
  5
150
330
1F
100
AcDbEntity
  8
0
  6
Continuous
 62
     7
370
    15
100
AcDbCircle
 10
-139.5014219016
 20
284.9573004932
 30
0.0
 40
2.450000000000079
100
AcDbArc
 50
113.3114456815
 51
180.0
  0
ARC
  5
151
330
1F
100
AcDbEntity
  8
0
  6
Continuous
 62
     7
370
    15
100
AcDbCircle
 10
-109.4014219016
 20
284.9573004932
 30
0.0
 40
2.450000000000079
100
AcDbArc
 50
9.5338099944
 51
66.6885543185
  0
LINE
  5
152
330
1F
100
AcDbEntity
  8
0
  6
Continuous
 62
     7
370
    15
100
AcDbLine
 10
562.6593187564
 20
276.0072994576
 30
0.0
 11
562.4985799306
 21
276.0072994576
 31
0.0
  0
LINE
  5
153
330
1F
100
AcDbEntity
  8
0
  6
Continuous
 62
     7
370
    15
100
AcDbLine
 10
601.4295175784
 20
277.2072974191
 30
0.0
 11
562.4985799306
 21
277.2072974191
 31
0.0
  0
LINE
  5
154
330
1F
100
AcDbEntity
  8
0
  6
Continuous
 62
     7
370
    15
100
AcDbLine
 10
562.4985799306
 20
277.2072974191
 30
0.0
 11
562.4985799306
 21
276.0072994576
 31
0.0
  0
LINE
  5
155
330
1F
100
AcDbEntity
  8
0
  6
Continuous
 62
     7
370
    15
100
AcDbLine
 10
587.5492647403
 20
222.464719002
 30
0.0
 11
610.7203617805
 21
232.5398001418
 31
0.0
  0
LINE
  5
156
330
1F
100
AcDbEntity
  8
0
  6
Continuous
 62
     7
370
    15
100
AcDbLine
 10
587.4548211807
 20
222.6818903879
 30
0.0
 11
587.5492647403
 21
222.464719002
 31
0.0
  0
ARC
  5
157
330
1F
100
AcDbEntity
  8
0
  6
Continuous
 62
     7
370
    15
100
AcDbCircle
 10
601.4295084274
 20
253.9073004932
 30
0.0
 40
23.30000000000007
100
AcDbArc
 50
293.5
 51
90.0
  0
LINE
  5
158
330
1F
100
AcDbEntity
  8
0
  6
Continuous
 62
     7
370
    15
100
AcDbLine
 10
562.4985799306
 20
277.2072974191
 30
0.0
 11
562.0385810846
 21
277.1637264237
 31
0.0
  0
LWPOLYLINE
  5
159
330
1F
100
AcDbEntity
  8
0
  6
Continuous
 62
     7
370
    15
100
AcDbPolyline
 90
        3
 70
   128
 43
0.0
 10
562.4985799306
 20
276.0072994576
 10
562.2547224277
 20
275.9832787857
 10
562.0385810846
 20
275.9195837722
  0
LINE
  5
15A
330
1F
100
AcDbEntity
  8
0
  6
Continuous
 62
     7
370
    15
100
AcDbLine
 10
568.8295021766
 20
237.1070842788
 30
0.0
 11
568.8295021766
 21
222.4070831732
 31
0.0
  0
LINE
  5
15B
330
1F
100
AcDbEntity
  8
0
  6
Continuous
 62
     7
370
    15
100
AcDbLine
 10
568.8295021766
 20
239.9070832477
 30
0.0
 11
568.8295021766
 21
237.1070842788
 31
0.0
  0
LINE
  5
15C
330
1F
100
AcDbEntity
  8
0
  6
Continuous
 62
     7
370
    15
100
AcDbLine
 10
562.3295113557
 20
239.9070832477
 30
0.0
 11
568.8295021766
 21
239.9070832477
 31
0.0
  0
LINE
  5
15D
330
1F
100
AcDbEntity
  8
0
  6
Continuous
 62
     7
370
    15
100
AcDbLine
 10
562.3295113557
 20
274.9070796714
 30
0.0
 11
562.3295113557
 21
239.9070832477
 31
0.0
  0
ARC
  5
15E
330
1F
100
AcDbEntity
  8
0
  6
Continuous
 62
     7
370
    15
100
AcDbCircle
 10
564.3295084274
 20
274.9070831009
 30
0.0
 40
2.0
100
AcDbArc
 50
90.0
 51
180.0
  0
LINE
  5
15F
330
1F
100
AcDbEntity
  8
0
  6
Continuous
 62
     7
370
    15
100
AcDbLine
 10
601.3295009845
 20
276.9070837245
 30
0.0
 11
564.3295005077
 21
276.9070837245
 31
0.0
  0
ARC
  5
160
330
1F
100
AcDbEntity
  8
0
  6
Continuous
 62
     7
370
    15
100
AcDbCircle
 10
601.4295084274
 20
253.9073004932
 30
0.0
 40
23.00000000000009
100
AcDbArc
 50
296.1145004007
 51
90.2491128697
  0
LINE
  5
161
330
1F
100
AcDbEntity
  8
0
  6
Continuous
 62
     7
370
    15
100
AcDbLine
 10
587.2126177066
 20
222.5756134436
 30
0.0
 11
611.5533366912
 21
233.2552272425
 31
0.0
  0
ARC
  5
162
330
1F
100
AcDbEntity
  8
0
  6
Continuous
 62
     7
370
    15
100
AcDbCircle
 10
586.4090394742
 20
224.4070831009
 30
0.0
 40
2.0
100
AcDbArc
 50
270.0
 51
293.6896982314
  0
LINE
  5
163
330
1F
100
AcDbEntity
  8
0
  6
Continuous
 62
     7
370
    15
100
AcDbLine
 10
568.8295021766
 20
222.4070831732
 30
0.0
 11
586.4090278858
 21
222.4070831732
 31
0.0
  0
ARC
  5
164
330
1F
100
AcDbEntity
  8
0
  6
Continuous
 62
     7
370
    15
100
AcDbCircle
 10
589.4295084274
 20
244.2127414295
 30
0.0
 40
0.25035110109327
100
AcDbArc
 50
79.8945592916
 51
263.994223505
  0
ARC
  5
165
330
1F
100
AcDbEntity
  8
0
  6
Continuous
 62
     7
370
    15
100
AcDbCircle
 10
588.9295084274
 20
241.4073004932
 30
0.0
 40
2.599999999999997
100
AcDbArc
 50
280.4998591652
 51
79.5001408348
  0
ARC
  5
166
330
1F
100
AcDbEntity
  8
0
  6
Continuous
 62
     7
370
    15
100
AcDbCircle
 10
589.4295084274
 20
238.6018595569
 30
0.0
 40
0.2503511010932254
100
AcDbArc
 50
96.005776495
 51
280.1054407084
  0
ARC
  5
167
330
1F
100
AcDbEntity
  8
0
  6
Continuous
 62
     7
370
    15
100
AcDbCircle
 10
588.9295084274
 20
241.4073004932
 30
0.0
 40
3.100000000000009
100
AcDbArc
 50
280.1054407084
 51
79.8945592916
  0
ARC
  5
168
330
1F
100
AcDbEntity
  8
0
  6
Continuous
 62
     7
370
    15
100
AcDbCircle
 10
588.9295084274
 20
241.4073004932
 30
0.0
 40
3.100000000000001
100
AcDbArc
 50
100.8891073053
 51
259.1110070997
  0
ARC
  5
169
330
1F
100
AcDbEntity
  8
0
  6
Continuous
 62
     7
370
    15
100
AcDbCircle
 10
588.3911957504
 20
238.6089873453
 30
0.0
 40
0.250379496815768
100
AcDbArc
 50
259.1110070997
 51
83.3730607602
  0
ARC
  5
16A
330
1F
100
AcDbEntity
  8
0
  6
Continuous
 62
     7
370
    15
100
AcDbCircle
 10
588.9295084274
 20
241.4073004932
 30
0.0
 40
2.600000000000018
100
AcDbArc
 50
101.3148497955
 51
258.700947069
  0
ARC
  5
16B
330
1F
100
AcDbEntity
  8
0
  6
Continuous
 62
     7
370
    15
100
AcDbCircle
 10
588.3911957504
 20
244.205583521
 30
0.0
 40
0.2504090746769227
100
AcDbArc
 50
276.4642622073
 51
100.8891073053
  0
LINE
  5
16C
330
1F
100
AcDbEntity
  8
0
  6
Continuous
 62
     7
370
    15
100
AcDbLine
 10
568.8295021766
 20
222.4070831732
 30
0.0
 11
566.3795128578
 21
222.4070831732
 31
0.0
  0
LINE
  5
16D
330
1F
100
AcDbEntity
  8
0
  6
Continuous
 62
     7
370
    15
100
AcDbLine
 10
566.3795128578
 20
237.1070842788
 30
0.0
 11
566.3795128578
 21
222.4070831732
 31
0.0
  0
LINE
  5
16E
330
1F
100
AcDbEntity
  8
0
  6
Continuous
 62
     7
370
    15
100
AcDbLine
 10
566.3795128578
 20
237.1070842788
 30
0.0
 11
568.8295021766
 21
237.1070842788
 31
0.0
  0
LINE
  5
16F
330
1F
100
AcDbEntity
  8
0
  6
Continuous
 62
     7
370
    15
100
AcDbLine
 10
566.3795128578
 20
237.1070842788
 30
0.0
 11
565.6485810989
 21
237.1070842788
 31
0.0
  0
LINE
  5
170
330
1F
100
AcDbEntity
  8
0
  6
Continuous
 62
     7
370
    15
100
AcDbLine
 10
565.6485810989
 20
222.4070831732
 30
0.0
 11
566.3795128578
 21
222.4070831732
 31
0.0
  0
LINE
  5
171
330
1F
100
AcDbEntity
  8
0
  6
Continuous
 62
     7
370
    15
100
AcDbLine
 10
-140.7514259106
 20
238.4073
 30
0.0
 11
-140.7514259106
 21
238.2151458011
 31
0.0
  0
LINE
  5
172
330
1F
100
AcDbEntity
  8
0
  6
Continuous
 62
     7
370
    15
100
AcDbLine
 10
-140.7514259106
 20
257.4073012517
 30
0.0
 11
-140.7414123303
 21
257.4073012517
 31
0.0
  0
LINE
  5
173
330
1F
100
AcDbEntity
  8
0
  6
Continuous
 62
     7
370
    15
100
AcDbLine
 10
587.2136309856
 20
222.5756264821
 30
0.0
 11
587.4549999946
 21
222.6815271721
 31
0.0
  0
ARC
  5
174
330
1F
100
AcDbEntity
  8
0
  6
Continuous
 62
     7
370
    15
100
AcDbCircle
 10
586.4100352781
 20
224.4070831009
 30
0.0
 40
2.000000000000024
100
AcDbArc
 50
270.0
 51
293.6906453817
  0
ARC
  5
175
330
1F
100
AcDbEntity
  8
0
  6
Continuous
 62
     7
370
    15
100
AcDbCircle
 10
632.6879563654
 20
122.0817249764
 30
0.0
 40
10.00000000000003
100
AcDbArc
 50
319.9999998858
 51
70.0000000349
  0
LINE
  5
176
330
1F
100
AcDbEntity
  8
0
  6
Continuous
 62
     7
370
    15
100
AcDbLine
 10
636.1081555599
 20
131.4786497102
 30
0.0
 11
636.3817706817
 21
132.2304058418
 31
0.0
  0
ARC
  5
177
330
1F
100
AcDbEntity
  8
0
  6
Continuous
 62
     7
370
    15
100
AcDbCircle
 10
632.6879563654
 20
122.0817249764
 30
0.0
 40
10.8
100
AcDbArc
 50
319.9999998858
 51
70.0000000349
  0
LINE
  5
178
330
1F
100
AcDbEntity
  8
0
  6
Continuous
 62
     7
370
    15
100
AcDbLine
 10
640.9612253421
 20
115.1396158681
 30
0.0
 11
640.3484001869
 21
115.6538474903
 31
0.0
  0
LINE
  5
179
330
1F
100
AcDbEntity
  8
0
  6
Continuous
 62
     7
370
    15
100
AcDbLine
 10
636.4338353389
 20
132.2304058418
 30
0.0
 11
636.3817706817
 21
132.2304058418
 31
0.0
  0
ARC
  5
17A
330
1F
100
AcDbEntity
  8
0
  6
Continuous
 62
     7
370
    15
100
AcDbCircle
 10
632.7400155971
 20
122.0817249764
 30
0.0
 40
10.80000000000003
100
AcDbArc
 50
319.9999998858
 51
70.0000000349
  0
LINE
  5
17B
330
1F
100
AcDbEntity
  8
0
  6
Continuous
 62
     7
370
    15
100
AcDbLine
 10
641.0132899993
 20
115.1396158681
 30
0.0
 11
640.9612253421
 21
115.1396158681
 31
0.0
  0
LINE
  5
17C
330
1F
100
AcDbEntity
  8
0
  6
Continuous
 62
     7
370
    15
100
AcDbLine
 10
627.9297128433
 20
100.8538130269
 30
0.0
 11
628.5425379985
 21
100.3395888553
 31
0.0
  0
LINE
  5
17D
330
1F
100
AcDbEntity
  8
0
  6
Continuous
 62
     7
370
    15
100
AcDbLine
 10
627.9297128433
 20
100.8538130269
 30
0.0
 11
640.3484001869
 21
115.6538474903
 31
0.0
  0
LINE
  5
17E
330
1F
100
AcDbEntity
  8
0
  6
Continuous
 62
     7
370
    15
100
AcDbLine
 10
628.5425379985
 20
100.3395888553
 30
0.0
 11
640.9612253421
 21
115.1396158681
 31
0.0
  0
LINE
  5
17F
330
1F
100
AcDbEntity
  8
0
  6
Continuous
 62
     7
370
    15
100
AcDbLine
 10
628.5946026557
 20
100.3395888553
 30
0.0
 11
641.0132899993
 21
115.1396158681
 31
0.0
  0
LINE
  5
180
330
1F
100
AcDbEntity
  8
0
  6
Continuous
 62
     7
370
    15
100
AcDbLine
 10
628.5946026557
 20
100.3395888553
 30
0.0
 11
628.5425379985
 21
100.3395888553
 31
0.0
  0
LINE
  5
181
330
1F
100
AcDbEntity
  8
0
  6
Continuous
 62
     7
370
    15
100
AcDbLine
 10
636.1081555599
 20
131.4786497102
 30
0.0
 11
616.6577592605
 21
138.5580125794
 31
0.0
  0
LINE
  5
182
330
1F
100
AcDbEntity
  8
0
  6
Continuous
 62
     7
370
    15
100
AcDbLine
 10
616.9313743823
 20
139.3097687111
 30
0.0
 11
616.6577592605
 21
138.5580125794
 31
0.0
  0
LINE
  5
183
330
1F
100
AcDbEntity
  8
0
  6
Continuous
 62
     7
370
    15
100
AcDbLine
 10
636.3817706817
 20
132.2304058418
 30
0.0
 11
616.9313743823
 21
139.3097687111
 31
0.0
  0
LINE
  5
184
330
1F
100
AcDbEntity
  8
0
  6
Continuous
 62
     7
370
    15
100
AcDbLine
 10
616.9834390395
 20
139.3097687111
 30
0.0
 11
616.9313743823
 21
139.3097687111
 31
0.0
  0
LINE
  5
185
330
1F
100
AcDbEntity
  8
0
  6
Continuous
 62
     7
370
    15
100
AcDbLine
 10
636.4338353389
 20
132.2304058418
 30
0.0
 11
616.9834390395
 21
139.3097687111
 31
0.0
  0
ARC
  5
186
330
1F
100
AcDbEntity
  8
0
  6
Continuous
 62
     7
370
    15
100
AcDbCircle
 10
626.9721431058
 20
101.6573004932
 30
0.0
 40
1.250000000000057
100
AcDbArc
 50
270.0
 51
319.9999998858
  0
ARC
  5
187
330
1F
100
AcDbEntity
  8
0
  6
Continuous
 62
     7
370
    15
100
AcDbCircle
 10
626.9721431058
 20
101.6573004932
 30
0.0
 40
2.050000000000057
100
AcDbArc
 50
270.0
 51
319.9999998858
  0
LINE
  5
188
330
1F
100
AcDbEntity
  8
0
  6
Continuous
 62
     7
370
    15
100
AcDbLine
 10
626.9721344226
 20
99.6073010907
 30
0.0
 11
626.9721344226
 21
100.4072997317
 31
0.0
  0
ARC
  5
189
330
1F
100
AcDbEntity
  8
0
  6
Continuous
 62
     7
370
    15
100
AcDbCircle
 10
627.0242023375
 20
101.6573004932
 30
0.0
 40
2.050000000000048
100
AcDbArc
 50
270.0
 51
319.9999998858
  0
LINE
  5
18A
330
1F
100
AcDbEntity
  8
0
  6
Continuous
 62
     7
370
    15
100
AcDbLine
 10
627.0241990798
 20
99.6073010907
 30
0.0
 11
626.9721344226
 21
99.6073010907
 31
0.0
  0
LINE
  5
18B
330
1F
100
AcDbEntity
  8
0
  6
Continuous
 62
     7
370
    15
100
AcDbLine
 10
568.3280781024
 20
100.4072997317
 30
0.0
 11
568.3280781024
 21
99.6073010907
 31
0.0
  0
LINE
  5
18C
330
1F
100
AcDbEntity
  8
0
  6
Continuous
 62
     7
370
    15
100
AcDbLine
 10
568.3280781024
 20
99.6073010907
 30
0.0
 11
626.9721344226
 21
99.6073010907
 31
0.0
  0
LINE
  5
18D
330
1F
100
AcDbEntity
  8
0
  6
Continuous
 62
     7
370
    15
100
AcDbLine
 10
568.3280781024
 20
100.4072997317
 30
0.0
 11
626.9721344226
 21
100.4072997317
 31
0.0
  0
ARC
  5
18E
330
1F
100
AcDbEntity
  8
0
  6
Continuous
 62
     7
370
    15
100
AcDbCircle
 10
620.3515826068
 20
148.7066954983
 30
0.0
 40
10.79999999999999
100
AcDbArc
 50
198.000000295
 51
250.0000000349
  0
LINE
  5
18F
330
1F
100
AcDbEntity
  8
0
  6
Continuous
 62
     7
370
    15
100
AcDbLine
 10
610.0801780933
 20
145.3693110094
 30
0.0
 11
610.8410313838
 21
145.6165249989
 31
0.0
  0
ARC
  5
190
330
1F
100
AcDbEntity
  8
0
  6
Continuous
 62
     7
370
    15
100
AcDbCircle
 10
620.3515826068
 20
148.7066954983
 30
0.0
 40
10.00000000000001
100
AcDbArc
 50
198.000000295
 51
250.0000000349
  0
LINE
  5
191
330
1F
100
AcDbEntity
  8
0
  6
Continuous
 62
     7
370
    15
100
AcDbLine
 10
610.8930662387
 20
145.6165249989
 30
0.0
 11
610.8410313838
 21
145.6165249989
 31
0.0
  0
ARC
  5
192
330
1F
100
AcDbEntity
  8
0
  6
Continuous
 62
     7
370
    15
100
AcDbCircle
 10
620.4036418386
 20
148.7066954983
 30
0.0
 40
10.00000000000001
100
AcDbArc
 50
198.000000295
 51
250.0000000349
  0
LINE
  5
193
330
1F
100
AcDbEntity
  8
0
  6
Continuous
 62
     7
370
    15
100
AcDbLine
 10
586.148913216
 20
221.6889254347
 30
0.0
 11
586.1503437274
 21
221.6889254347
 31
0.0
  0
LINE
  5
194
330
1F
100
AcDbEntity
  8
0
  6
Continuous
 62
     7
370
    15
100
AcDbLine
 10
586.6981700176
 20
220.0029316888
 30
0.0
 11
586.1503437274
 21
221.6889254347
 31
0.0
  0
LINE
  5
195
330
1F
100
AcDbEntity
  8
0
  6
Continuous
 62
     7
370
    15
100
AcDbLine
 10
586.6981998199
 20
220.0029316888
 30
0.0
 11
586.6981700176
 21
220.0029316888
 31
0.0
  0
LINE
  5
196
330
1F
100
AcDbEntity
  8
0
  6
Continuous
 62
     7
370
    15
100
AcDbLine
 10
586.5436747783
 20
220.4784594074
 30
0.0
 11
586.6981998199
 21
220.0029316888
 31
0.0
  0
LINE
  5
197
330
1F
100
AcDbEntity
  8
0
  6
Continuous
 62
     7
370
    15
100
AcDbLine
 10
586.5671590083
 20
220.4784594074
 30
0.0
 11
586.5436747783
 21
220.4784594074
 31
0.0
  0
LINE
  5
198
330
1F
100
AcDbEntity
  8
0
  6
Continuous
 62
     7
370
    15
100
AcDbLine
 10
586.7216840499
 20
220.0029316888
 30
0.0
 11
586.5671590083
 21
220.4784594074
 31
0.0
  0
LINE
  5
199
330
1F
100
AcDbEntity
  8
0
  6
Continuous
 62
     7
370
    15
100
AcDbLine
 10
586.7217138522
 20
220.0029316888
 30
0.0
 11
586.7216840499
 21
220.0029316888
 31
0.0
  0
LINE
  5
19A
330
1F
100
AcDbEntity
  8
0
  6
Continuous
 62
     7
370
    15
100
AcDbLine
 10
586.1738875621
 20
221.6889254347
 30
0.0
 11
586.7217138522
 21
220.0029316888
 31
0.0
  0
LINE
  5
19B
330
1F
100
AcDbEntity
  8
0
  6
Continuous
 62
     7
370
    15
100
AcDbLine
 10
586.1738875621
 20
221.6889254347
 30
0.0
 11
586.1747518295
 21
221.6889254347
 31
0.0
  0
LINE
  5
19C
330
1F
100
AcDbEntity
  8
0
  6
Continuous
 62
     7
370
    15
100
AcDbLine
 10
586.1747518295
 20
221.6889254347
 30
0.0
 11
586.568053078
 21
220.4784594074
 31
0.0
  0
LINE
  5
19D
330
1F
100
AcDbEntity
  8
0
  6
Continuous
 62
     7
370
    15
100
AcDbLine
 10
586.5680828803
 20
220.4784594074
 30
0.0
 11
586.568053078
 21
220.4784594074
 31
0.0
  0
LINE
  5
19E
330
1F
100
AcDbEntity
  8
0
  6
Continuous
 62
     7
370
    15
100
AcDbLine
 10
586.5689471477
 20
220.4784594074
 30
0.0
 11
586.5680828803
 21
220.4784594074
 31
0.0
  0
LINE
  5
19F
330
1F
100
AcDbEntity
  8
0
  6
Continuous
 62
     7
370
    15
100
AcDbLine
 10
610.8930662387
 20
145.6165249989
 30
0.0
 11
609.3272224182
 21
150.4357281671
 31
0.0
  0
LINE
  5
1A0
330
1F
100
AcDbEntity
  8
0
  6
Continuous
 62
     7
370
    15
100
AcDbLine
 10
587.9243567699
 20
216.3070097164
 30
0.0
 11
586.5689471477
 21
220.4784594074
 31
0.0
  0
LINE
  5
1A1
330
1F
100
AcDbEntity
  8
0
  6
Continuous
 62
     7
370
    15
100
AcDbLine
 10
610.8410313838
 20
145.6165249989
 30
0.0
 11
586.5169122928
 21
220.4784594074
 31
0.0
  0
LINE
  5
1A2
330
1F
100
AcDbEntity
  8
0
  6
Continuous
 62
     7
370
    15
100
AcDbLine
 10
586.5177765601
 20
220.4784594074
 30
0.0
 11
586.5169122928
 21
220.4784594074
 31
0.0
  0
LINE
  5
1A3
330
1F
100
AcDbEntity
  8
0
  6
Continuous
 62
     7
370
    15
100
AcDbLine
 10
586.5178063625
 20
220.4784594074
 30
0.0
 11
586.5177765601
 21
220.4784594074
 31
0.0
  0
LINE
  5
1A4
330
1F
100
AcDbEntity
  8
0
  6
Continuous
 62
     7
370
    15
100
AcDbLine
 10
586.1245051139
 20
221.6889254347
 30
0.0
 11
586.5178063625
 21
220.4784594074
 31
0.0
  0
LINE
  5
1A5
330
1F
100
AcDbEntity
  8
0
  6
Continuous
 62
     7
370
    15
100
AcDbLine
 10
586.1245051139
 20
221.6889254347
 30
0.0
 11
586.1253693813
 21
221.6889254347
 31
0.0
  0
LINE
  5
1A6
330
1F
100
AcDbEntity
  8
0
  6
Continuous
 62
     7
370
    15
100
AcDbLine
 10
586.1253693813
 20
221.6889254347
 30
0.0
 11
586.6731658691
 21
220.0029316888
 31
0.0
  0
LINE
  5
1A7
330
1F
100
AcDbEntity
  8
0
  6
Continuous
 62
     7
370
    15
100
AcDbLine
 10
586.6731956714
 20
220.0029316888
 30
0.0
 11
586.6731658691
 21
220.0029316888
 31
0.0
  0
LINE
  5
1A8
330
1F
100
AcDbEntity
  8
0
  6
Continuous
 62
     7
370
    15
100
AcDbLine
 10
586.5187004321
 20
220.4784594074
 30
0.0
 11
586.6731956714
 21
220.0029316888
 31
0.0
  0
LINE
  5
1A9
330
1F
100
AcDbEntity
  8
0
  6
Continuous
 62
     7
370
    15
100
AcDbLine
 10
586.5421846622
 20
220.4784594074
 30
0.0
 11
586.5187004321
 21
220.4784594074
 31
0.0
  0
LINE
  5
1AA
330
1F
100
AcDbEntity
  8
0
  6
Continuous
 62
     7
370
    15
100
AcDbLine
 10
586.6966799014
 20
220.0029316888
 30
0.0
 11
586.5421846622
 21
220.4784594074
 31
0.0
  0
LINE
  5
1AB
330
1F
100
AcDbEntity
  8
0
  6
Continuous
 62
     7
370
    15
100
AcDbLine
 10
586.6967097038
 20
220.0029316888
 30
0.0
 11
586.6966799014
 21
220.0029316888
 31
0.0
  0
LINE
  5
1AC
330
1F
100
AcDbEntity
  8
0
  6
Continuous
 62
     7
370
    15
100
AcDbLine
 10
586.148913216
 20
221.6889254347
 30
0.0
 11
586.6967097038
 21
220.0029316888
 31
0.0
  0
LINE
  5
1AD
330
1F
100
AcDbEntity
  8
0
  6
Continuous
 62
     7
370
    15
100
AcDbLine
 10
587.983156752
 20
215.9947074548
 30
0.0
 11
587.9762426132
 21
215.9947074548
 31
0.0
  0
LINE
  5
1AE
330
1F
100
AcDbEntity
  8
0
  6
Continuous
 62
     7
370
    15
100
AcDbLine
 10
587.9762426132
 20
215.9947074548
 30
0.0
 11
588.0258634799
 21
215.8419752092
 31
0.0
  0
LINE
  5
1AF
330
1F
100
AcDbEntity
  8
0
  6
Continuous
 62
     7
370
    15
100
AcDbLine
 10
610.0801780933
 20
145.3693110094
 30
0.0
 11
585.7560590022
 21
220.231245418
 31
0.0
  0
LINE
  5
1B0
330
1F
100
AcDbEntity
  8
0
  6
Continuous
 62
     7
370
    15
100
AcDbLine
 10
585.7560590022
 20
220.231245418
 30
0.0
 11
586.5169122928
 21
220.4784594074
 31
0.0
  0
ARC
  5
1B1
330
1F
100
AcDbEntity
  8
0
  6
Continuous
 62
     7
370
    15
100
AcDbCircle
 10
584.5672346918
 20
219.8449750204
 30
0.0
 40
2.050000000000091
100
AcDbArc
 50
18.000000295
 51
90.0
  0
ARC
  5
1B2
330
1F
100
AcDbEntity
  8
0
  6
Continuous
 62
     7
370
    15
100
AcDbCircle
 10
584.5672346918
 20
219.8449750204
 30
0.0
 40
1.250000000000012
100
AcDbArc
 50
18.000000295
 51
90.0
  0
LINE
  5
1B3
330
1F
100
AcDbEntity
  8
0
  6
Continuous
 62
     7
370
    15
100
AcDbLine
 10
584.5672443622
 20
221.0949744627
 30
0.0
 11
584.5672443622
 21
221.8949749664
 31
0.0
  0
LINE
  5
1B4
330
1F
100
AcDbEntity
  8
0
  6
Continuous
 62
     7
370
    15
100
AcDbLine
 10
584.5681086295
 20
221.8949749664
 30
0.0
 11
584.5672443622
 21
221.8949749664
 31
0.0
  0
ARC
  5
1B5
330
1F
100
AcDbEntity
  8
0
  6
Continuous
 62
     7
370
    15
100
AcDbCircle
 10
584.5681023456
 20
219.8449750204
 30
0.0
 40
2.049999999999869
100
AcDbArc
 50
18.000000295
 51
90.0
  0
LINE
  5
1B6
330
1F
100
AcDbEntity
  8
0
  6
Continuous
 62
     7
370
    15
100
AcDbLine
 10
568.3280781024
 20
221.8949749664
 30
0.0
 11
568.3280781024
 21
221.0949744627
 31
0.0
  0
LINE
  5
1B7
330
1F
100
AcDbEntity
  8
0
  6
Continuous
 62
     7
370
    15
100
AcDbLine
 10
568.3280781024
 20
221.8949749664
 30
0.0
 11
584.5672443622
 21
221.8949749664
 31
0.0
  0
LINE
  5
1B8
330
1F
100
AcDbEntity
  8
0
  6
Continuous
 62
     7
370
    15
100
AcDbLine
 10
568.3280781024
 20
221.0949744627
 30
0.0
 11
584.5672443622
 21
221.0949744627
 31
0.0
  0
LINE
  5
1B9
330
1F
100
AcDbEntity
  8
0
  6
Continuous
 62
     7
370
    15
100
AcDbLine
 10
566.3281932586
 20
221.0949744627
 30
0.0
 11
566.3281932586
 21
221.8949749664
 31
0.0
  0
LINE
  5
1BA
330
1F
100
AcDbEntity
  8
0
  6
Continuous
 62
     7
370
    15
100
AcDbLine
 10
566.3281932586
 20
221.8949749664
 30
0.0
 11
568.3280781024
 21
221.8949749664
 31
0.0
  0
LINE
  5
1BB
330
1F
100
AcDbEntity
  8
0
  6
Continuous
 62
     7
370
    15
100
AcDbLine
 10
568.3280781024
 20
221.0949744627
 30
0.0
 11
566.3281932586
 21
221.0949744627
 31
0.0
  0
LINE
  5
1BC
330
1F
100
AcDbEntity
  8
0
  6
Continuous
 62
     7
370
    15
100
AcDbLine
 10
566.3281932586
 20
99.6073010907
 30
0.0
 11
566.3281932586
 21
100.4072997317
 31
0.0
  0
LINE
  5
1BD
330
1F
100
AcDbEntity
  8
0
  6
Continuous
 62
     7
370
    15
100
AcDbLine
 10
568.3280781024
 20
99.6073010907
 30
0.0
 11
566.3281932586
 21
99.6073010907
 31
0.0
  0
LINE
  5
1BE
330
1F
100
AcDbEntity
  8
0
  6
Continuous
 62
     7
370
    15
100
AcDbLine
 10
566.3281932586
 20
100.4072997317
 30
0.0
 11
568.3280781024
 21
100.4072997317
 31
0.0
  0
ARC
  5
1BF
330
1F
100
AcDbEntity
  8
0
  6
Continuous
 62
     7
370
    15
100
AcDbCircle
 10
587.3133138834
 20
222.0751959883
 30
0.0
 40
1.250000000000108
100
AcDbArc
 50
164.6027587958
 51
198.000000295
  0
ARC
  5
1C0
330
1F
100
AcDbEntity
  8
0
  6
Continuous
 62
     7
370
    15
100
AcDbCircle
 10
587.3141815373
 20
222.0751959883
 30
0.0
 40
1.25000000000018
100
AcDbArc
 50
164.6027587958
 51
198.000000295
  0
ARC
  5
1C1
330
1F
100
AcDbEntity
  8
0
  6
Continuous
 62
     7
370
    15
100
AcDbCircle
 10
587.3133138834
 20
222.0751959883
 30
0.0
 40
2.050000000000121
100
AcDbArc
 50
170.6830265593
 51
188.1696804819
  0
LINE
  5
1C2
330
1F
100
AcDbEntity
  8
0
  6
Continuous
 62
     7
370
    15
100
AcDbLine
 10
584.5690325015
 20
221.8949749664
 30
0.0
 11
584.5925167316
 21
221.8949749664
 31
0.0
  0
ARC
  5
1C3
330
1F
100
AcDbEntity
  8
0
  6
Continuous
 62
     7
370
    15
100
AcDbCircle
 10
584.592512341
 20
219.8449750204
 30
0.0
 40
2.049999999999896
100
AcDbArc
 50
70.2417719216
 51
90.0
  0
LINE
  5
1C4
330
1F
100
AcDbEntity
  8
0
  6
Continuous
 62
     7
370
    15
100
AcDbLine
 10
587.9771366828
 20
215.9919516713
 30
0.0
 11
587.9833355659
 21
215.9939642594
 31
0.0
  0
ARC
  5
1C5
330
1F
100
AcDbEntity
  8
0
  6
Continuous
 62
     7
370
    15
100
AcDbCircle
 10
587.3377238787
 20
222.0751959883
 30
0.0
 40
1.250000000000129
100
AcDbArc
 50
164.602758796
 51
198.000000295
  0
ARC
  5
1C6
330
1F
100
AcDbEntity
  8
0
  6
Continuous
 62
     7
370
    15
100
AcDbCircle
 10
587.3391699685
 20
222.0751959883
 30
0.0
 40
1.250000000000019
100
AcDbArc
 50
164.602758796
 51
198.000000295
  0
ARC
  5
1C7
330
1F
100
AcDbEntity
  8
0
  6
Continuous
 62
     7
370
    15
100
AcDbCircle
 10
584.5940162743
 20
219.8449750204
 30
0.0
 40
2.04999999999994
100
AcDbArc
 50
69.5201382414
 51
90.0
  0
LINE
  5
1C8
330
1F
100
AcDbEntity
  8
0
  6
Continuous
 62
     7
370
    15
100
AcDbLine
 10
584.6174910777
 20
221.8949749664
 30
0.0
 11
584.5940068477
 21
221.8949749664
 31
0.0
  0
ARC
  5
1C9
330
1F
100
AcDbEntity
  8
0
  6
Continuous
 62
     7
370
    15
100
AcDbCircle
 10
584.6175007722
 20
219.8449750204
 30
0.0
 40
2.0499999999999
100
AcDbArc
 50
71.0221465577
 51
90.0
  0
LINE
  5
1CA
330
1F
100
AcDbEntity
  8
0
  6
Continuous
 62
     7
370
    15
100
AcDbLine
 10
584.5925167316
 20
221.8949749664
 30
0.0
 11
584.5940068477
 21
221.8949749664
 31
0.0
  0
ARC
  5
1CB
330
1F
100
AcDbEntity
  8
0
  6
Continuous
 62
     7
370
    15
100
AcDbCircle
 10
587.36271231
 20
222.0751959883
 30
0.0
 40
1.250000000000246
100
AcDbArc
 50
164.6027587962
 51
198.000000295
  0
ARC
  5
1CC
330
1F
100
AcDbEntity
  8
0
  6
Continuous
 62
     7
370
    15
100
AcDbCircle
 10
587.3635799638
 20
222.0751959883
 30
0.0
 40
1.250000000000155
100
AcDbArc
 50
164.6027587962
 51
198.000000295
  0
ARC
  5
1CD
330
1F
100
AcDbEntity
  8
0
  6
Continuous
 62
     7
370
    15
100
AcDbCircle
 10
584.6184262697
 20
219.8449750204
 30
0.0
 40
2.049999999999943
100
AcDbArc
 50
71.0509180242
 51
90.0
  0
LINE
  5
1CE
330
1F
100
AcDbEntity
  8
0
  6
Continuous
 62
     7
370
    15
100
AcDbLine
 10
584.6192792171
 20
221.8949749664
 30
0.0
 11
584.6184149497
 21
221.8949749664
 31
0.0
  0
LINE
  5
1CF
330
1F
100
AcDbEntity
  8
0
  6
Continuous
 62
     7
370
    15
100
AcDbLine
 10
584.6184149497
 20
221.8949749664
 30
0.0
 11
584.6174910777
 21
221.8949749664
 31
0.0
  0
LINE
  5
1D0
330
1F
100
AcDbEntity
  8
0
  6
Continuous
 62
     7
370
    15
100
AcDbLine
 10
-17.9514333493
 20
-27.8927039757
 30
0.0
 11
-17.9514333493
 21
-26.1927050009
 31
0.0
  0
LINE
  5
1D1
330
1F
100
AcDbEntity
  8
0
  6
Continuous
 62
     7
370
    15
100
AcDbLine
 10
-107.9514071232
 20
-27.8927039757
 30
0.0
 11
-17.9514333493
 21
-27.8927039757
 31
0.0
  0
LINE
  5
1D2
330
1F
100
AcDbEntity
  8
0
  6
Continuous
 62
     7
370
    15
100
AcDbLine
 10
-107.9514071232
 20
-27.8927039757
 30
0.0
 11
-107.9514071232
 21
-26.1927050009
 31
0.0
  0
LINE
  5
1D3
330
1F
100
AcDbEntity
  8
0
  6
Continuous
 62
     7
370
    15
100
AcDbLine
 10
-62.9514202363
 20
-90.8926975384
 30
0.0
 11
-93.9110860116
 21
-90.8926975384
 31
0.0
  0
LINE
  5
1D4
330
1F
100
AcDbEntity
  8
0
  6
Continuous
 62
     7
370
    15
100
AcDbLine
 10
-31.9917842633
 20
-90.8926975384
 30
0.0
 11
-62.9514202363
 21
-90.8926975384
 31
0.0
  0
LINE
  5
1D5
330
1F
100
AcDbEntity
  8
0
  6
Continuous
 62
     7
370
    15
100
AcDbLine
 10
-62.9514202363
 20
-125.8926939621
 30
0.0
 11
-89.4514366872
 21
-125.8926939621
 31
0.0
  0
LINE
  5
1D6
330
1F
100
AcDbEntity
  8
0
  6
Continuous
 62
     7
370
    15
100
AcDbLine
 10
-36.4514335877
 20
-125.8926939621
 30
0.0
 11
-62.9514202363
 21
-125.8926939621
 31
0.0
  0
LINE
  5
1D7
330
1F
100
AcDbEntity
  8
0
  6
Continuous
 62
     7
370
    15
100
AcDbLine
 10
-62.9514202363
 20
-119.8927116051
 30
0.0
 11
-91.4514109379
 21
-119.8927116051
 31
0.0
  0
LINE
  5
1D8
330
1F
100
AcDbEntity
  8
0
  6
Continuous
 62
     7
370
    15
100
AcDbLine
 10
-34.4514295346
 20
-119.8927116051
 30
0.0
 11
-62.9514202363
 21
-119.8927116051
 31
0.0
  0
LINE
  5
1D9
330
1F
100
AcDbEntity
  8
0
  6
Continuous
 62
     7
370
    15
100
AcDbLine
 10
-138.4514316804
 20
287.2073027835
 30
0.0
 11
-105.9514328725
 21
287.2073027835
 31
0.0
  0
LINE
  5
1DA
330
1F
100
AcDbEntity
  8
0
  6
Continuous
 62
     7
370
    15
100
AcDbLine
 10
-138.4514316804
 20
477.035557066
 30
0.0
 11
-138.4514316804
 21
287.2073027835
 31
0.0
  0
LINE
  5
1DB
330
1F
100
AcDbEntity
  8
0
  6
Continuous
 62
     7
370
    15
100
AcDbLine
 10
539.0485778564
 20
309.1282296524
 30
0.0
 11
-138.4514316804
 21
477.035557066
 31
0.0
  0
ARC
  5
1DC
330
1F
100
AcDbEntity
  8
0
  6
Continuous
 62
     7
370
    15
100
AcDbCircle
 10
536.6430170592
 20
299.4218783644
 30
0.0
 40
10.00000000000014
100
AcDbArc
 50
28.590234854
 51
76.0806356206
  0
LINE
  5
1DD
330
1F
100
AcDbEntity
  8
0
  6
Continuous
 62
     7
370
    15
100
AcDbLine
 10
558.2310810798
 20
280.7072970614
 30
0.0
 11
545.4236671441
 21
304.2072999821
 31
0.0
  0
LINE
  5
1DE
330
1F
100
AcDbEntity
  8
0
  6
Continuous
 62
     7
370
    15
100
AcDbLine
 10
-105.9514328725
 20
280.7072970614
 30
0.0
 11
558.2310810798
 21
280.7072970614
 31
0.0
  0
LINE
  5
1DF
330
1F
100
AcDbEntity
  8
0
  6
Continuous
 62
     7
370
    15
100
AcDbLine
 10
-105.9514328725
 20
287.2073027835
 30
0.0
 11
-105.9514328725
 21
280.7072970614
 31
0.0
  0
SPLINE
  5
1E0
330
1F
100
AcDbEntity
  8
0
  6
Continuous
 62
     7
370
    15
100
AcDbSpline
210
0.0
220
0.0
230
1.0
 70
     8
 71
     3
 72
    22
 73
    18
 74
     0
 42
0.00000001
 43
0.00000001
 40
0.0
 40
0.0
 40
0.0
 40
0.0
 40
0.125
 40
0.125
 40
0.25
 40
0.25
 40
0.375
 40
0.375
 40
0.5
 40
0.5
 40
0.625
 40
0.625
 40
0.75
 40
0.75
 40
0.875
 40
0.875
 40
1.0
 40
1.0
 40
1.0
 40
1.0
 10
558.2310831648379
 20
280.7073004932202
 30
0.0
 10
558.2654320869805
 20
280.4762983734377
 30
0.0
 10
558.2993050622284
 20
280.2485201408682
 30
0.0
 10
558.3673896956747
 20
279.7994293407961
 30
0.0
 10
558.4018302444335
 20
279.5767873321588
 30
0.0
 10
558.4696985597486
 20
279.1552089065253
 30
0.0
 10
558.5034179691899
 20
278.9542181842367
 30
0.0
 10
558.5716959505254
 20
278.5723620608065
 30
0.0
 10
558.6059325735247
 20
278.3936360168653
 30
0.0
 10
558.6736630804478
 20
278.0715295098396
 30
0.0
 10
558.7075851799076
 20
277.925865487619
 30
0.0
 10
558.7761638626823
 20
277.6695168952997
 30
0.0
 10
558.8099285311991
 20
277.5620945795437
 30
0.0
 10
558.8776935665485
 20
277.3873760080137
 30
0.0
 10
558.9120202815955
 20
277.3197482227857
 30
0.0
 10
558.9803061972002
 20
277.2299545193694
 30
0.0
 10
559.0142291760812
 20
277.20730049322
 30
0.0
 10
559.0485780983752
 20
277.2073004932202
 30
0.0
  0
LINE
  5
1E1
330
1F
100
AcDbEntity
  8
0
  6
Continuous
 62
     7
370
    15
100
AcDbLine
 10
-105.9514328725
 20
277.2072974191
 30
0.0
 11
-105.9514328725
 21
280.7072970614
 31
0.0
  0
SPLINE
  5
1E2
330
1F
100
AcDbEntity
  8
0
  6
Continuous
 62
     7
370
    15
100
AcDbSpline
210
0.0
220
0.0
230
1.0
 70
     8
 71
     3
 72
    12
 73
     8
 74
     0
 42
0.00000001
 43
0.00000001
 40
0.0
 40
0.0
 40
0.0
 40
0.0
 40
0.2274176745036086
 40
0.4548405143991793
 40
0.6821813082666247
 40
0.9095281616115074
 40
1.0
 40
1.0
 40
1.0
 40
1.0
 10
558.2310810798017
 20
280.7072970614439
 30
0.0
 10
558.2930736874243
 20
280.5286632200908
 30
0.0
 10
558.4170603107223
 20
280.1713914800315
 30
0.0
 10
558.6030400024202
 20
279.7027510023432
 30
0.0
 10
558.7888894040534
 20
279.3630959138521
 30
0.0
 10
558.9377984329313
 20
279.2211044766609
 30
0.0
 10
559.0240273380663
 20
279.2103600373461
 30
0.0
 10
559.0485736840574
 20
279.2073014721876
 30
0.0
  0
LINE
  5
1E3
330
1F
100
AcDbEntity
  8
0
  6
Continuous
 62
     7
370
    15
100
AcDbLine
 10
559.0485736841
 20
279.2073014722
 30
0.0
 11
559.0485736841
 21
277.2072974191
 31
0.0
  0
SPLINE
  5
1E4
330
1F
100
AcDbEntity
  8
0
  6
Continuous
 62
     7
370
    15
100
AcDbSpline
210
0.0
220
0.0
230
1.0
 70
     8
 71
     3
 72
    11
 73
     7
 74
     0
 42
0.00000001
 43
0.00000001
 40
0.0
 40
0.0
 40
0.0
 40
0.0
 40
0.249997018118382
 40
0.5000000000046815
 40
0.7500033514700808
 40
1.0
 40
1.0
 40
1.0
 40
1.0
 10
-141.9514164215716
 20
477.4073112354284
 30
0.0
 10
-141.8988119839418
 20
477.3763230266016
 30
0.0
 10
-141.7936018537849
 20
477.3143458697134
 30
0.0
 10
-140.9842296174228
 20
477.2214468185715
 30
0.0
 10
-139.827315819427
 20
477.1284715318411
 30
0.0
 10
-138.9100556278254
 20
477.0665282777888
 30
0.0
 10
-138.4514316803606
 20
477.0355570659643
 30
0.0
  0
LINE
  5
1E5
330
1F
100
AcDbEntity
  8
0
  6
Continuous
 62
     7
370
    15
100
AcDbLine
 10
-138.4514316804
 20
287.2073027835
 30
0.0
 11
-141.9514164216
 21
287.2073027835
 31
0.0
  0
LINE
  5
1E6
330
1F
100
AcDbEntity
  8
0
  6
Continuous
 62
     7
370
    15
100
AcDbLine
 10
-141.9514164216
 20
287.2073027835
 30
0.0
 11
-141.9514164216
 21
477.4073112354
 31
0.0
  0
LINE
  5
1E7
330
1F
100
AcDbEntity
  8
0
  6
Continuous
 62
     7
370
    15
100
AcDbLine
 10
-139.9514123685
 20
477.4073112354
 30
0.0
 11
-141.9514164216
 21
477.4073112354
 31
0.0
  0
SPLINE
  5
1E8
330
1F
100
AcDbEntity
  8
0
  6
Continuous
 62
     7
370
    15
100
AcDbSpline
210
0.0
220
0.0
230
1.0
 70
     8
 71
     3
 72
    11
 73
     7
 74
     0
 42
0.00000001
 43
0.00000001
 40
0.0
 40
0.0
 40
0.0
 40
0.0
 40
0.2500007236562768
 40
0.5000000000020683
 40
0.7500012481403519
 40
1.0
 40
1.0
 40
1.0
 40
1.0
 10
-139.9514123684557
 20
477.4073112354284
 30
0.0
 10
-139.9288667013155
 20
477.3763232773576
 30
0.0
 10
-139.8837754975569
 20
477.3143475406123
 30
0.0
 10
-139.5369255572502
 20
477.2214463646382
 30
0.0
 10
-139.0410948438261
 20
477.1284706833642
 30
0.0
 10
-138.6479854139753
 20
477.0665281686804
 30
0.0
 10
-138.4514316803606
 20
477.0355570659643
 30
0.0
  0
LINE
  5
1E9
330
1F
100
AcDbEntity
  8
0
  6
Continuous
 62
     7
370
    15
100
AcDbLine
 10
459.5308110231
 20
-77.3926925316
 30
0.0
 11
-31.051431585
 21
-77.3926925316
 31
0.0
  0
LINE
  5
1EA
330
1F
100
AcDbEntity
  8
0
  6
Continuous
 62
     7
370
    15
100
AcDbLine
 10
460.0485816711
 20
-77.3926925316
 30
0.0
 11
460.0485816711
 21
-74.9427032127
 31
0.0
  0
LINE
  5
1EB
330
1F
100
AcDbEntity
  8
0
  6
Continuous
 62
     7
370
    15
100
AcDbLine
 10
460.0485816711
 20
-77.3926925316
 30
0.0
 11
459.5308110231
 21
-77.3926925316
 31
0.0
  0
LINE
  5
1EC
330
1F
100
AcDbEntity
  8
0
  6
Continuous
 62
     7
370
    15
100
AcDbLine
 10
460.0485816711
 20
-74.9427032127
 30
0.0
 11
460.0485816711
 21
-26.1927050009
 31
0.0
  0
LINE
  5
1ED
330
1F
100
AcDbEntity
  8
0
  6
Continuous
 62
     7
370
    15
100
AcDbLine
 10
460.4146883005
 20
-77.7588140621
 30
0.0
 11
461.2632200235
 21
-76.9102823391
 31
0.0
  0
SPLINE
  5
1EE
330
1F
100
AcDbEntity
  8
0
  6
Continuous
 62
     7
370
    15
100
AcDbSpline
210
0.0
220
0.0
230
1.0
 70
     8
 71
     3
 72
    10
 73
     6
 74
     0
 42
0.00000001
 43
0.00000001
 40
0.0
 40
0.0
 40
0.0
 40
0.0
 40
0.277425051544656
 40
0.7623501512211741
 40
1.0
 40
1.0
 40
1.0
 40
1.0
 10
460.4146883004515
 20
-77.75881406211799
 30
0.0
 10
460.3464829679851
 20
-77.69909829265953
 30
0.0
 10
460.1590581293471
 20
-77.53500234810268
 30
0.0
 10
459.8437684013619
 20
-77.41072815939326
 30
0.0
 10
459.6082660875974
 20
-77.39715624074334
 30
0.0
 10
459.5308110230773
 20
-77.39269253158521
 30
0.0
  0
SPLINE
  5
1EF
330
1F
100
AcDbEntity
  8
0
  6
Continuous
 62
     7
370
    15
100
AcDbSpline
210
0.0
220
0.0
230
1.0
 70
     8
 71
     3
 72
     9
 73
     5
 74
     0
 42
0.00000001
 43
0.00000001
 40
0.0
 40
0.0
 40
0.0
 40
0.0
 40
0.6141686119721665
 40
0.9999999999999999
 40
0.9999999999999999
 40
0.9999999999999999
 40
0.9999999999999999
 10
461.263220023474
 20
-76.91028233909559
 30
0.0
 10
461.0434374099764
 20
-76.72000597498568
 30
0.0
 10
460.685583541815
 20
-76.41019469449884
 30
0.0
 10
460.225930313985
 20
-76.31890928654988
 30
0.0
 10
460.0485816710798
 20
-76.28368851089424
 30
0.0
  0
LINE
  5
1F0
330
1F
100
AcDbEntity
  8
0
  6
Continuous
 62
     7
370
    15
100
AcDbLine
 10
461.2632200235
 20
-76.9102823391
 30
0.0
 11
467.9681763166
 21
-83.6152386322
 31
0.0
  0
LINE
  5
1F1
330
1F
100
AcDbEntity
  8
0
  6
Continuous
 62
     7
370
    15
100
AcDbLine
 10
467.9681763166
 20
-83.6152386322
 30
0.0
 11
467.1196445936
 21
-84.4637703552
 31
0.0
  0
LINE
  5
1F2
330
1F
100
AcDbEntity
  8
0
  6
Continuous
 62
     7
370
    15
100
AcDbLine
 10
460.4146883005
 20
-77.7588140621
 30
0.0
 11
467.1196445936
 21
-84.4637703552
 31
0.0
  0
LINE
  5
1F3
330
1F
100
AcDbEntity
  8
0
  6
Continuous
 62
     7
370
    15
100
AcDbLine
 10
629.0790990108
 20
38.2573056564
 30
0.0
 11
629.0790990108
 21
49.6864515886
 31
0.0
  0
LINE
  5
1F4
330
1F
100
AcDbEntity
  8
0
  6
Continuous
 62
     7
370
    15
100
AcDbLine
 10
629.0790990108
 20
26.8281597242
 30
0.0
 11
629.0790990108
 21
38.2573056564
 31
0.0
  0
SPLINE
  5
1F5
330
1F
100
AcDbEntity
  8
0
  6
Continuous
 62
     7
370
    15
100
AcDbSpline
210
0.0
220
0.0
230
1.0
 70
    24
 71
     3
 72
    13
 73
     9
 74
     0
 42
0.00000001
 43
0.00000001
 40
0.0
 40
0.0
 40
0.0
 40
0.0
 40
0.2394560916026059
 40
0.3683603859887499
 40
0.4999987565620512
 40
0.6316391065404882
 40
0.7605429539738284
 40
1.0
 40
1.0
 40
1.0
 40
1.0
 10
643.5790911429732
 20
33.35729721641592
 30
0.0
 10
643.5790911429732
 20
33.42274955675284
 30
0.0
 10
643.5790911429733
 20
33.52343628052337
 30
0.0
 10
643.5790911429731
 20
34.13447191681706
 30
0.0
 10
643.5790911429731
 20
34.76686011185201
 30
0.0
 10
643.5790911429733
 20
35.55188027520126
 30
0.0
 10
643.5790911429731
 20
36.69267869895698
 30
0.0
 10
643.5790911429731
 20
37.6409024129109
 30
0.0
 10
643.5790911429731
 20
38.25730565643365
 30
0.0
  0
SPLINE
  5
1F6
330
1F
100
AcDbEntity
  8
0
  6
Continuous
 62
     7
370
    15
100
AcDbSpline
210
0.0
220
0.0
230
1.0
 70
     8
 71
     3
 72
    16
 73
    12
 74
     0
 42
0.00000001
 43
0.00000001
 40
0.0
 40
0.0
 40
0.0
 40
0.0
 40
0.125
 40
0.125
 40
0.25
 40
0.25
 40
0.5
 40
0.5
 40
0.75
 40
0.75
 40
1.0
 40
1.0
 40
1.0
 40
1.0
 10
627.3791034730833
 20
64.36292261348936
 30
0.0
 10
627.4857627192783
 20
64.34852460557117
 30
0.0
 10
627.5880465400099
 20
64.33266553434477
 30
0.0
 10
627.7825162860219
 20
64.29833267638627
 30
0.0
 10
627.8747022113022
 20
64.27985888965415
 30
0.0
 10
628.1340925771792
 20
64.22097657286518
 30
0.0
 10
628.2841296078124
 20
64.17710708621577
 30
0.0
 10
628.5276475529797
 20
64.08259818422208
 30
0.0
 10
628.6209512761516
 20
64.03202860278428
 30
0.0
 10
628.7466792362034
 20
63.92751933432169
 30
0.0
 10
628.7791034730833
 20
63.87357964729689
 30
0.0
 10
628.7791034730833
 20
63.81958498512596
 30
0.0
  0
LINE
  5
1F7
330
1F
100
AcDbEntity
  8
0
  6
Continuous
 62
     7
370
    15
100
AcDbLine
 10
628.7791088336
 20
63.8195920334
 30
0.0
 11
628.7791088336
 21
8.8950145588
 31
0.0
  0
SPLINE
  5
1F8
330
1F
100
AcDbEntity
  8
0
  6
Continuous
 62
     7
370
    15
100
AcDbSpline
210
0.0
220
0.0
230
1.0
 70
     8
 71
     3
 72
    19
 73
    15
 74
     0
 42
0.00000001
 43
0.00000001
 40
0.0
 40
0.0
 40
0.0
 40
0.0
 40
0.057095908092662
 40
0.115651805237113
 40
0.1756735616979767
 40
0.2371666253302755
 40
0.3001360595090862
 40
0.3645865770444711
 40
0.4305225705602838
 40
0.4979481397533506
 40
0.616204390729849
 40
0.7486213188526917
 40
0.8538534972356744
 40
1.0
 40
1.0
 40
1.0
 40
1.0
 10
627.3791034730833
 20
8.351283823122808
 30
0.0
 10
627.4277290400647
 20
8.358109779285305
 30
0.0
 10
627.526223569532
 20
8.371936236890337
 30
0.0
 10
627.6680046887924
 20
8.395299427167464
 30
0.0
 10
627.8066505178953
 20
8.420889287446332
 30
0.0
 10
627.9406075870273
 20
8.448888910880498
 30
0.0
 10
628.0689540562554
 20
8.479247455846634
 30
0.0
 10
628.1905254144104
 20
8.511979154472021
 30
0.0
 10
628.3041821514006
 20
8.547079935493251
 30
0.0
 10
628.434167331091
 20
8.593691237317291
 30
0.0
 10
628.5722556005063
 20
8.655840117641201
 30
0.0
 10
628.6837115533411
 20
8.728651023341778
 30
0.0
 10
628.7625729891773
 20
8.809759376024823
 30
0.0
 10
628.773026191669
 20
8.863672181777915
 30
0.0
 10
628.7791034730833
 20
8.895016001305766
 30
0.0
  0
LINE
  5
1F9
330
1F
100
AcDbEntity
  8
0
  6
Continuous
 62
     7
370
    15
100
AcDbLine
 10
627.3791149371
 20
64.3629181728
 30
0.0
 11
627.3791149371
 21
8.351286088
 31
0.0
  0
SPLINE
  5
1FA
330
1F
100
AcDbEntity
  8
0
  6
Continuous
 62
     7
370
    15
100
AcDbSpline
210
0.0
220
0.0
230
1.0
 70
     8
 71
     3
 72
    19
 73
    15
 74
     0
 42
0.00000001
 43
0.00000001
 40
0.0
 40
0.0
 40
0.0
 40
0.0
 40
0.0571115640935943
 40
0.1156812592866335
 40
0.1757147833893927
 40
0.2372174247608606
 40
0.3001940990521333
 40
0.3646493820584508
 40
0.4305875391447039
 40
0.4980125516486578
 40
0.6162616165384447
 40
0.7486631924159511
 40
0.8538790033185848
 40
1.0
 40
1.0
 40
1.0
 40
1.0
 10
627.3791034730833
 20
66.35730049321586
 30
0.0
 10
627.4277286691441
 20
66.32548755782052
 30
0.0
 10
627.5262205245617
 20
66.26104946219941
 30
0.0
 10
627.6680019898338
 20
66.15243050588066
 30
0.0
 10
627.8066477459718
 20
66.03333110817105
 30
0.0
 10
627.9406049177767
 20
65.90279759103416
 30
0.0
 10
628.0689514879148
 20
65.76099537940027
 30
0.0
 10
628.1905229939287
 20
65.60789710708883
 30
0.0
 10
628.3041799070588
 20
65.44364920422014
 30
0.0
 10
628.4341636148124
 20
65.22580711688283
 30
0.0
 10
628.57225179035
 20
64.93629883963997
 30
0.0
 10
628.6837097833231
 20
64.59594576529761
 30
0.0
 10
628.7625726328155
 20
64.21821534368274
 30
0.0
 10
628.7730260912078
 20
63.96613705851506
 30
0.0
 10
628.7791034730833
 20
63.81958498512596
 30
0.0
  0
SPLINE
  5
1FB
330
1F
100
AcDbEntity
  8
0
  6
Continuous
 62
     7
370
    15
100
AcDbSpline
210
0.0
220
0.0
230
1.0
 70
     8
 71
     3
 72
    10
 73
     6
 74
     0
 42
0.00000001
 43
0.00000001
 40
0.0
 40
0.0
 40
0.0
 40
0.0
 40
0.5
 40
0.5
 40
1.0
 40
1.0
 40
1.0
 40
1.0
 10
627.3791034730833
 20
66.35730049321586
 30
0.0
 10
627.3785618758811
 20
66.35764196392869
 30
0.0
 10
627.3791034730833
 20
66.13469931245223
 30
0.0
 10
627.3791034730833
 20
65.41170293729489
 30
0.0
 10
627.3796452643368
 20
64.91250822587597
 30
0.0
 10
627.3791034730833
 20
64.36292261348936
 30
0.0
  0
SPLINE
  5
1FC
330
1F
100
AcDbEntity
  8
0
  6
Continuous
 62
     7
370
    15
100
AcDbSpline
210
0.0
220
0.0
230
1.0
 70
     8
 71
     3
 72
    19
 73
    15
 74
     0
 42
0.00000001
 43
0.00000001
 40
0.0
 40
0.0
 40
0.0
 40
0.0
 40
0.0571143122037922
 40
0.1156859695386074
 40
0.1757206699038269
 40
0.2372237019665127
 40
0.3001999818643151
 40
0.364654086023462
 40
0.4305902805559926
 40
0.4980125476391986
 40
0.6162771910106132
 40
0.7486631870564231
 40
0.853889661372897
 40
0.9999999999999999
 40
0.9999999999999999
 40
0.9999999999999999
 40
0.9999999999999999
 10
627.3791034730833
 20
6.357300493215867
 30
0.0
 10
627.4277309876455
 20
6.389115000442369
 30
0.0
 10
627.5262268103442
 20
6.453555802964194
 30
0.0
 10
627.6680126223911
 20
6.562178975596384
 30
0.0
 10
627.8066604725809
 20
6.681281465907324
 30
0.0
 10
627.9406176965716
 20
6.811816654773955
 30
0.0
 10
628.0689625830839
 20
6.953618773753445
 30
0.0
 10
628.1905310205829
 20
7.106714878710591
 30
0.0
 10
628.3041838964482
 20
7.270958286995005
 30
0.0
 10
628.4341728224707
 20
7.488809797943363
 30
0.0
 10
628.5722576692967
 20
7.778316919139966
 30
0.0
 10
628.6837162954993
 20
8.118680724445825
 30
0.0
 10
628.7625741110182
 20
8.496396378191134
 30
0.0
 10
628.7730269150327
 20
8.748474636280202
 30
0.0
 10
628.7791034730833
 20
8.895016001305766
 30
0.0
  0
SPLINE
  5
1FD
330
1F
100
AcDbEntity
  8
0
  6
Continuous
 62
     7
370
    15
100
AcDbSpline
210
0.0
220
0.0
230
1.0
 70
     8
 71
     3
 72
    10
 73
     6
 74
     0
 42
0.00000001
 43
0.00000001
 40
0.0
 40
0.0
 40
0.0
 40
0.0
 40
0.5
 40
0.5
 40
1.0
 40
1.0
 40
1.0
 40
1.0
 10
627.3791034730833
 20
8.351283823122808
 30
0.0
 10
627.3796453713063
 20
7.80169821125437
 30
0.0
 10
627.3791034730833
 20
7.302602018780469
 30
0.0
 10
627.3791034730833
 20
6.579802799764057
 30
0.0
 10
627.3785617689498
 20
6.356958955084147
 30
0.0
 10
627.3791034730833
 20
6.357300493215867
 30
0.0
  0
LINE
  5
1FE
330
1F
100
AcDbEntity
  8
0
  6
Continuous
 62
     7
370
    15
100
AcDbLine
 10
602.9778674358
 20
-74.1426896706
 30
0.0
 11
602.9778674358
 21
-31.1927002325
 31
0.0
  0
LINE
  5
1FF
330
1F
100
AcDbEntity
  8
0
  6
Continuous
 62
     7
370
    15
100
AcDbLine
 10
602.9778674358
 20
-74.1426896706
 30
0.0
 11
583.7556973213
 21
-74.1426896706
 31
0.0
  0
LINE
  5
200
330
1F
100
AcDbEntity
  8
0
  6
Continuous
 62
     7
370
    15
100
AcDbLine
 10
583.7556973213
 20
-74.1426896706
 30
0.0
 11
542.9485842698
 21
-74.1426896706
 31
0.0
  0
LINE
  5
201
330
1F
100
AcDbEntity
  8
0
  6
Continuous
 62
     7
370
    15
100
AcDbLine
 10
602.9778674358
 20
-31.1927002325
 30
0.0
 11
542.9485842698
 21
-31.1927002325
 31
0.0
  0
LINE
  5
202
330
1F
100
AcDbEntity
  8
0
  6
Continuous
 62
     7
370
    15
100
AcDbLine
 10
479.148577165
 20
-31.1927002325
 30
0.0
 11
460.0485816711
 21
-31.1927002325
 31
0.0
  0
LINE
  5
203
330
1F
100
AcDbEntity
  8
0
  6
Continuous
 62
     7
370
    15
100
AcDbLine
 10
479.148577165
 20
-76.1927020206
 30
0.0
 11
460.0485816711
 21
-76.1927020206
 31
0.0
  0
LINE
  5
204
330
1F
100
AcDbEntity
  8
0
  6
Continuous
 62
     7
370
    15
100
AcDbLine
 10
601.7985895389
 20
-76.1927020206
 30
0.0
 11
585.0056961292
 21
-76.1927020206
 31
0.0
  0
LINE
  5
205
330
1F
100
AcDbEntity
  8
0
  6
Continuous
 62
     7
370
    15
100
AcDbLine
 10
585.0056961292
 20
-76.1927020206
 30
0.0
 11
583.7556973213
 21
-76.1927020206
 31
0.0
  0
LINE
  5
206
330
1F
100
AcDbEntity
  8
0
  6
Continuous
 62
     7
370
    15
100
AcDbLine
 10
583.7556973213
 20
-76.1927020206
 30
0.0
 11
583.7556973213
 21
-74.1426896706
 31
0.0
  0
SPLINE
  5
207
330
1F
100
AcDbEntity
  8
0
  6
Continuous
 62
     7
370
    15
100
AcDbSpline
210
0.0
220
0.0
230
1.0
 70
     8
 71
     3
 72
    14
 73
    10
 74
     0
 42
0.00000001
 43
0.00000001
 40
0.0
 40
0.0
 40
0.0
 40
0.0
 40
0.25
 40
0.25
 40
0.5
 40
0.5
 40
0.75
 40
0.75
 40
1.0
 40
1.0
 40
1.0
 40
1.0
 10
602.9778674202596
 20
-74.14269950677915
 30
0.0
 10
602.8795776869274
 20
-74.41108653945338
 30
0.0
 10
602.7813191999461
 20
-74.67928266971569
 30
0.0
 10
602.5847709796325
 20
-75.1751184165394
 30
0.0
 10
602.4864968694758
 20
-75.4025202827276
 30
0.0
 10
602.2899486491622
 20
-75.78201653369521
 30
0.0
 10
602.1916745390055
 20
-75.93396160290517
 30
0.0
 10
601.9951263186917
 20
-76.13934349394891
 30
0.0
 10
601.8968678317107
 20
-76.19269950677882
 30
0.0
 10
601.7985780983784
 20
-76.19269950677877
 30
0.0
  0
SPLINE
  5
208
330
1F
100
AcDbEntity
  8
0
  6
Continuous
 62
     7
370
    15
100
AcDbSpline
210
0.0
220
0.0
230
1.0
 70
     8
 71
     3
 72
    10
 73
     6
 74
     0
 42
0.00000001
 43
0.00000001
 40
0.0
 40
0.0
 40
0.0
 40
0.0
 40
0.0729055895498925
 40
0.5393547537676167
 40
1.0
 40
1.0
 40
1.0
 40
1.0
 10
602.6210442298261
 20
-75.06709810638374
 30
0.0
 10
602.6425751250007
 20
-75.05335372713617
 30
0.0
 10
602.8018604519152
 20
-74.95167295985222
 30
0.0
 10
602.9871952770474
 20
-74.62269198465849
 30
0.0
 10
603.0282095779171
 20
-74.30202127365082
 30
0.0
 10
603.0485883468
 20
-74.1426896705622
 30
0.0
  0
LINE
  5
209
330
1F
100
AcDbEntity
  8
0
  6
Continuous
 62
     7
370
    15
100
AcDbLine
 10
603.0485883468
 20
-74.1426896706
 30
0.0
 11
603.8485720867
 21
-74.1426896706
 31
0.0
  0
SPLINE
  5
20A
330
1F
100
AcDbEntity
  8
0
  6
Continuous
 62
     7
370
    15
100
AcDbSpline
210
0.0
220
0.0
230
1.0
 70
     8
 71
     3
 72
    12
 73
     8
 74
     0
 42
0.00000001
 43
0.00000001
 40
0.0
 40
0.0
 40
0.0
 40
0.0
 40
0.2286645883254224
 40
0.4574104567288996
 40
0.6861587252097572
 40
0.9148989851182905
 40
0.9999999999999999
 40
0.9999999999999999
 40
0.9999999999999999
 40
0.9999999999999999
 10
601.798589538893
 20
-76.19270202064466
 30
0.0
 10
602.044051311287
 20
-76.16696362601827
 30
0.0
 10
602.5350621068039
 20
-76.11547768791237
 30
0.0
 10
603.1782461901123
 20
-75.71587065309171
 30
0.0
 10
603.6424154081564
 20
-75.13450135696492
 30
0.0
 10
603.8311845644015
 20
-74.56901078131483
 30
0.0
 10
603.8448630394344
 20
-74.23363104260977
 30
0.0
 10
603.8485720866529
 20
-74.1426896705622
 30
0.0
  0
LINE
  5
20B
330
1F
100
AcDbEntity
  8
0
  6
Continuous
 62
     7
370
    15
100
AcDbLine
 10
603.8485720867
 20
-33.2426976814
 30
0.0
 11
603.0485883468
 21
-33.2426976814
 31
0.0
  0
LINE
  5
20C
330
1F
100
AcDbEntity
  8
0
  6
Continuous
 62
     7
370
    15
100
AcDbLine
 10
605.0985708946
 20
-31.9926988735
 30
0.0
 11
605.0985708946
 21
-31.1927002325
 31
0.0
  0
ARC
  5
20D
330
1F
100
AcDbEntity
  8
0
  6
Continuous
 62
     7
370
    15
100
AcDbCircle
 10
605.0985780984
 20
-33.2426995068
 30
0.0
 40
1.250000000000085
100
AcDbArc
 50
90.0
 51
180.0
  0
ARC
  5
20E
330
1F
100
AcDbEntity
  8
0
  6
Continuous
 62
     7
370
    15
100
AcDbCircle
 10
605.0985780984
 20
-33.2426995068
 30
0.0
 40
2.049999999999997
100
AcDbArc
 50
90.0
 51
180.0
  0
LINE
  5
20F
330
1F
100
AcDbEntity
  8
0
  6
Continuous
 62
     7
370
    15
100
AcDbLine
 10
621.3985636943
 20
-31.9926988735
 30
0.0
 11
621.3985636943
 21
-31.1927002325
 31
0.0
  0
LINE
  5
210
330
1F
100
AcDbEntity
  8
0
  6
Continuous
 62
     7
370
    15
100
AcDbLine
 10
605.0985708946
 20
-31.1927002325
 30
0.0
 11
621.3985636943
 21
-31.1927002325
 31
0.0
  0
LINE
  5
211
330
1F
100
AcDbEntity
  8
0
  6
Continuous
 62
     7
370
    15
100
AcDbLine
 10
605.0985708946
 20
-31.9926988735
 30
0.0
 11
621.3985636943
 21
-31.9926988735
 31
0.0
  0
ARC
  5
212
330
1F
100
AcDbEntity
  8
0
  6
Continuous
 62
     7
370
    15
100
AcDbCircle
 10
621.3985780984
 20
-33.2426995068
 30
0.0
 40
2.050000000000182
100
AcDbArc
 50
0.0
 51
90.0
  0
LINE
  5
213
330
1F
100
AcDbEntity
  8
0
  6
Continuous
 62
     7
370
    15
100
AcDbLine
 10
622.6485923045
 20
-33.2426976814
 30
0.0
 11
623.4485760444
 21
-33.2426976814
 31
0.0
  0
ARC
  5
214
330
1F
100
AcDbEntity
  8
0
  6
Continuous
 62
     7
370
    15
100
AcDbCircle
 10
621.3985780984
 20
-33.2426995068
 30
0.0
 40
1.250000000000114
100
AcDbArc
 50
0.0
 51
90.0
  0
LINE
  5
215
330
1F
100
AcDbEntity
  8
0
  6
Continuous
 62
     7
370
    15
100
AcDbLine
 10
623.4485760444
 20
-42.9927062645
 30
0.0
 11
622.6485923045
 21
-42.9927062645
 31
0.0
  0
LINE
  5
216
330
1F
100
AcDbEntity
  8
0
  6
Continuous
 62
     7
370
    15
100
AcDbLine
 10
622.6485923045
 20
-42.9927062645
 30
0.0
 11
622.6485923045
 21
-33.2426976814
 31
0.0
  0
LINE
  5
217
330
1F
100
AcDbEntity
  8
0
  6
Continuous
 62
     7
370
    15
100
AcDbLine
 10
623.4485760444
 20
-42.9927062645
 30
0.0
 11
623.4485760444
 21
-33.2426976814
 31
0.0
  0
LINE
  5
218
330
1F
100
AcDbEntity
  8
0
  6
Continuous
 62
     7
370
    15
100
AcDbLine
 10
623.4485760444
 20
-47.9927014961
 30
0.0
 11
622.6485923045
 21
-47.9927014961
 31
0.0
  0
LINE
  5
219
330
1F
100
AcDbEntity
  8
0
  6
Continuous
 62
     7
370
    15
100
AcDbLine
 10
623.4485760444
 20
-47.9927014961
 30
0.0
 11
623.4485760444
 21
-42.9927062645
 31
0.0
  0
LINE
  5
21A
330
1F
100
AcDbEntity
  8
0
  6
Continuous
 62
     7
370
    15
100
AcDbLine
 10
622.6485923045
 20
-47.9927014961
 30
0.0
 11
622.6485923045
 21
-42.9927062645
 31
0.0
  0
LINE
  5
21B
330
1F
100
AcDbEntity
  8
0
  6
Continuous
 62
     7
370
    15
100
AcDbLine
 10
603.8485720867
 20
-74.1426896706
 30
0.0
 11
603.8485720867
 21
-33.2426976814
 31
0.0
  0
LINE
  5
21C
330
1F
100
AcDbEntity
  8
0
  6
Continuous
 62
     7
370
    15
100
AcDbLine
 10
603.0485883468
 20
-74.1426896706
 30
0.0
 11
603.0485883468
 21
-33.2426976814
 31
0.0
  0
ARC
  5
21D
330
1F
100
AcDbEntity
  8
0
  6
Continuous
 62
     7
370
    15
100
AcDbCircle
 10
585.0056848796
 20
-74.1426995068
 30
0.0
 40
2.049999999999955
100
AcDbArc
 50
180.0
 51
232.4281306803
  0
LINE
  5
21E
330
1F
100
AcDbEntity
  8
0
  6
Continuous
 62
     7
370
    15
100
AcDbLine
 10
583.3808735126
 20
-75.3926884785
 30
0.0
 11
542.9485842698
 21
-75.3926884785
 31
0.0
  0
LINE
  5
21F
330
1F
100
AcDbEntity
  8
0
  6
Continuous
 62
     7
370
    15
100
AcDbLine
 10
583.7556973213
 20
-76.1927020206
 30
0.0
 11
542.9485842698
 21
-76.1927020206
 31
0.0
  0
LINE
  5
220
330
1F
100
AcDbEntity
  8
0
  6
Continuous
 62
     7
370
    15
100
AcDbLine
 10
-140.7414123303
 20
241.8572987959
 30
0.0
 11
-106.9414362199
 21
241.8572987959
 31
0.0
  0
LINE
  5
221
330
1F
100
AcDbEntity
  8
0
  6
Continuous
 62
     7
370
    15
100
AcDbLine
 10
-140.7414123303
 20
239.4073020265
 30
0.0
 11
-140.7414123303
 21
241.8572987959
 31
0.0
  0
ARC
  5
222
330
1F
100
AcDbEntity
  8
0
  6
Continuous
 62
     7
370
    15
100
AcDbCircle
 10
-138.8414219016
 20
284.9573004932
 30
0.0
 40
1.900000000000006
100
AcDbArc
 50
90.0
 51
180.0
  0
LINE
  5
223
330
1F
100
AcDbEntity
  8
0
  6
Continuous
 62
     7
370
    15
100
AcDbLine
 10
-108.841423679
 20
286.8572968588
 30
0.0
 11
-138.8414248711
 21
286.8572968588
 31
0.0
  0
ARC
  5
224
330
1F
100
AcDbEntity
  8
0
  6
Continuous
 62
     7
370
    15
100
AcDbCircle
 10
-108.8414219016
 20
284.9573004932
 30
0.0
 40
1.900000000000006
100
AcDbArc
 50
0.0
 51
90.0
  0
LINE
  5
225
330
1F
100
AcDbEntity
  8
0
  6
Continuous
 62
     7
370
    15
100
AcDbLine
 10
-106.9414362199
 20
241.8572987959
 30
0.0
 11
-106.9414362199
 21
284.957301949
 31
0.0
  0
LINE
  5
226
330
1F
100
AcDbEntity
  8
0
  6
Continuous
 62
     7
370
    15
100
AcDbLine
 10
-140.7414123303
 20
284.957301949
 30
0.0
 11
-140.7414123303
 21
241.8572987959
 31
0.0
  0
SPLINE
  5
227
330
1F
100
AcDbEntity
  8
0
  6
Continuous
 62
     7
370
    15
100
AcDbSpline
210
0.0
220
0.0
230
1.0
 70
     8
 71
     3
 72
    14
 73
    10
 74
     0
 42
0.00000001
 43
0.00000001
 40
0.0
 40
0.0
 40
0.0
 40
0.0
 40
0.25
 40
0.25
 40
0.5
 40
0.5
 40
0.75
 40
0.75
 40
1.0
 40
1.0
 40
1.0
 40
1.0
 10
623.4368700561445
 20
99.10730049321796
 30
0.0
 10
623.4612271957637
 20
99.10730049321796
 30
0.0
 10
623.4855756256342
 20
99.05394448038803
 30
0.0
 10
623.5342811951241
 20
98.8485625893442
 30
0.0
 10
623.5586339798689
 20
98.69661752013424
 30
0.0
 10
623.6073395493588
 20
98.31712126916655
 30
0.0
 10
623.6316923341036
 20
98.08971940297833
 30
0.0
 10
623.6803979035934
 20
97.59388365615453
 30
0.0
 10
623.704746333464
 20
97.32569285225831
 30
0.0
 10
623.7291034730833
 20
97.057300493218
 30
0.0
  0
LINE
  5
228
330
1F
100
AcDbEntity
  8
0
  6
Continuous
 62
     7
370
    15
100
AcDbLine
 10
623.729105305
 20
97.0573026285
 30
0.0
 11
568.2291045898
 21
97.0573026285
 31
0.0
  0
SPLINE
  5
229
330
1F
100
AcDbEntity
  8
0
  6
Continuous
 62
     7
370
    15
100
AcDbSpline
210
0.0
220
0.0
230
1.0
 70
     8
 71
     3
 72
    22
 73
    18
 74
     0
 42
0.00000001
 43
0.00000001
 40
0.0
 40
0.0
 40
0.0
 40
0.0
 40
0.125
 40
0.125
 40
0.25
 40
0.25
 40
0.375
 40
0.375
 40
0.5
 40
0.5
 40
0.625
 40
0.625
 40
0.75
 40
0.75
 40
0.875
 40
0.875
 40
1.0
 40
1.0
 40
1.0
 40
1.0
 10
568.2291034730833
 20
97.05730049321798
 30
0.0
 10
568.1768526769536
 20
97.19266984607471
 30
0.0
 10
568.1254092823414
 20
97.32592635335565
 30
0.0
 10
568.0223835374123
 20
97.58773599980636
 30
0.0
 10
567.9704152803918
 20
97.71722965550364
 30
0.0
 10
567.866382074023
 20
97.96624205812293
 30
0.0
 10
567.8150281213291
 20
98.0841049960957
 30
0.0
 10
567.7119196336633
 20
98.30631392338364
 30
0.0
 10
567.6596243545677
 20
98.41161634028234
 30
0.0
 10
567.555966430129
 20
98.60154941374506
 30
0.0
 10
567.5046605879451
 20
98.686299130614
 30
0.0
 10
567.4013842718526
 20
98.83516793121784
 30
0.0
 10
567.3489550044459
 20
98.89959387576423
 30
0.0
 10
567.2455843197968
 20
99.00219323116163
 30
0.0
 10
567.1942865526601
 20
99.04108496971519
 30
0.0
 10
567.0907570884752
 20
99.09374082227819
 30
0.0
 10
567.038425338438
 20
99.10730049321795
 30
0.0
 10
566.9861745408951
 20
99.10730049321796
 30
0.0
  0
LINE
  5
22A
330
1F
100
AcDbEntity
  8
0
  6
Continuous
 62
     7
370
    15
100
AcDbLine
 10
566.9861689323
 20
99.1073000774
 30
0.0
 11
623.4368637317
 21
99.1073000774
 31
0.0
  0
SPLINE
  5
22B
330
1F
100
AcDbEntity
  8
0
  6
Continuous
 62
     7
370
    15
100
AcDbSpline
210
0.0
220
0.0
230
1.0
 70
     8
 71
     3
 72
    22
 73
    18
 74
     0
 42
0.00000001
 43
0.00000001
 40
0.0
 40
0.0
 40
0.0
 40
0.0
 40
0.0665934317305301
 40
0.1284381314630652
 40
0.1855358635554188
 40
0.2378889626424722
 40
0.2855005533446421
 40
0.3283748910187119
 40
0.3665179131523768
 40
0.3999381788483589
 40
0.4925488738128421
 40
0.5819204715307761
 40
0.66857302513521
 40
0.7530767954276482
 40
0.836046353498177
 40
0.918130729514397
 40
1.0
 40
1.0
 40
1.0
 40
1.0
 10
568.2291034730833
 20
-24.14269950678172
 30
0.0
 10
568.1917849709788
 20
-24.1798996026811
 30
0.0
 10
568.1198091235902
 20
-24.25164708112454
 30
0.0
 10
568.0159826641027
 20
-24.35461631658472
 30
0.0
 10
567.920931241366
 20
-24.44911669460506
 30
0.0
 10
567.8348274109528
 20
-24.53511084133636
 30
0.0
 10
567.7576717869733
 20
-24.61260988208905
 30
0.0
 10
567.6892885592965
 20
-24.68161445030301
 30
0.0
 10
567.6293766834517
 20
-24.74212976262477
 30
0.0
 10
567.5445710525221
 20
-24.82732007533142
 30
0.0
 10
567.4350853126225
 20
-24.93331115896
 30
0.0
 10
567.306517593526
 20
-25.05280923776515
 30
0.0
 10
567.1943500125926
 20
-25.15489040362695
 30
0.0
 10
567.1018171622943
 20
-25.23962277364497
 30
0.0
 10
567.0329072788888
 20
-25.30653870979682
 30
0.0
 10
566.9877703720641
 20
-25.35722164115395
 30
0.0
 10
566.9819899114417
 20
-25.37616779208418
 30
0.0
 10
566.9791034730833
 20
-25.3856284389698
 30
0.0
  0
LINE
  5
22C
330
1F
100
AcDbEntity
  8
0
  6
Continuous
 62
     7
370
    15
100
AcDbLine
 10
566.1790922397
 20
-25.3856283083
 30
0.0
 11
566.9791057819
 21
-25.3856283083
 31
0.0
  0
SPLINE
  5
22D
330
1F
100
AcDbEntity
  8
0
  6
Continuous
 62
     7
370
    15
100
AcDbSpline
210
0.0
220
0.0
230
1.0
 70
     8
 71
     3
 72
    26
 73
    22
 74
     0
 42
0.00000001
 43
0.00000001
 40
0.0
 40
0.0
 40
0.0
 40
0.0
 40
0.125
 40
0.125
 40
0.25
 40
0.25
 40
0.375
 40
0.375
 40
0.390625
 40
0.390625
 40
0.3984375
 40
0.3984375
 40
0.40625
 40
0.40625
 40
0.4375
 40
0.4375
 40
0.5
 40
0.5
 40
0.75
 40
0.75
 40
1.0
 40
1.0
 40
1.0
 40
1.0
 10
568.2291034730833
 20
-24.14269950678177
 30
0.0
 10
568.0707639895593
 20
-24.23918581405321
 30
0.0
 10
567.9255927719813
 20
-24.32671916471327
 30
0.0
 10
567.6659569926168
 20
-24.48416176933219
 30
0.0
 10
567.5514734706784
 20
-24.55402405387078
 30
0.0
 10
567.3527450723262
 20
-24.67603058740628
 30
0.0
 10
567.268421117041
 20
-24.72817483640316
 30
0.0
 10
567.1887652599066
 20
-24.77687072153242
 30
0.0
 10
567.1801250111617
 20
-24.78214295328301
 30
0.0
 10
567.1674749430878
 20
-24.78984366767989
 30
0.0
 10
567.163309970371
 20
-24.79237596694067
 30
0.0
 10
567.1550825668922
 20
-24.79737135438592
 30
0.0
 10
567.1465773687202
 20
-24.80252794477825
 30
0.0
 10
567.1104533928144
 20
-24.82436232013638
 30
0.0
 10
567.081908156536
 20
-24.84144485837561
 30
0.0
 10
566.9974707806451
 20
-24.89153758695142
 30
0.0
 10
566.9427768914597
 20
-24.92339289114615
 30
0.0
 10
566.6791291289421
 20
-25.07497017117408
 30
0.0
 10
566.4998571157626
 20
-25.17159442417008
 30
0.0
 10
566.2496126344994
 20
-25.31556778810948
 30
0.0
 10
566.1791034730832
 20
-25.36289145697748
 30
0.0
 10
566.1791034730832
 20
-25.38562843896985
 30
0.0
  0
LINE
  5
22E
330
1F
100
AcDbEntity
  8
0
  6
Continuous
 62
     7
370
    15
100
AcDbLine
 10
566.1790922397
 20
98.3002308354
 30
0.0
 11
566.1790922397
 21
-25.3856283083
 31
0.0
  0
SPLINE
  5
22F
330
1F
100
AcDbEntity
  8
0
  6
Continuous
 62
     7
370
    15
100
AcDbSpline
210
0.0
220
0.0
230
1.0
 70
     8
 71
     3
 72
    26
 73
    22
 74
     0
 42
0.00000001
 43
0.00000001
 40
0.0
 40
0.0
 40
0.0
 40
0.0
 40
0.25
 40
0.25
 40
0.375
 40
0.375
 40
0.4375
 40
0.4375
 40
0.46875
 40
0.46875
 40
0.484375
 40
0.484375
 40
0.4921875
 40
0.4921875
 40
0.49609375
 40
0.49609375
 40
0.5
 40
0.5
 40
0.75
 40
0.75
 40
1.0
 40
1.0
 40
1.0
 40
1.0
 10
566.1791034730832
 20
98.30022942540614
 30
0.0
 10
566.1791034730832
 20
98.24997794623911
 30
0.0
 10
566.2800146593585
 20
98.18840886308664
 30
0.0
 10
566.4894975414268
 20
98.07807877579033
 30
0.0
 10
566.5690846951946
 20
98.03836156162969
 30
0.0
 10
566.6936119800927
 20
97.97437496279598
 30
0.0
 10
566.7360012280919
 20
97.95231096691927
 30
0.0
 10
566.7999298539379
 20
97.91811227870602
 30
0.0
 10
566.8212983655305
 20
97.90652893356858
 30
0.0
 10
566.8533311557566
 20
97.88887824226286
 30
0.0
 10
566.8640055161636
 20
97.88294873289433
 30
0.0
 10
566.8799994794527
 20
97.8739855504417
 30
0.0
 10
566.8853278767255
 20
97.87098633655751
 30
0.0
 10
566.8933145478152
 20
97.86647028613126
 30
0.0
 10
566.8959757843963
 20
97.8649620643892
 30
0.0
 10
566.9012960310529
 20
97.86193987770504
 30
0.0
 10
566.9045223678364
 20
97.86010212958963
 30
0.0
 10
567.0404013178007
 20
97.78255366062115
 30
0.0
 10
567.2141558614876
 20
97.67757523757105
 30
0.0
 10
567.6558870375447
 20
97.41037237657007
 30
0.0
 10
567.9243903092689
 20
97.24856995570137
 30
0.0
 10
568.2291034730833
 20
97.05730049321795
 30
0.0
  0
LINE
  5
230
330
1F
100
AcDbEntity
  8
0
  6
Continuous
 62
     7
370
    15
100
AcDbLine
 10
568.2291045898
 20
97.0573026285
 30
0.0
 11
568.2291045898
 21
-24.1426926508
 31
0.0
  0
SPLINE
  5
231
330
1F
100
AcDbEntity
  8
0
  6
Continuous
 62
     7
370
    15
100
AcDbSpline
210
0.0
220
0.0
230
1.0
 70
     8
 71
     3
 72
    14
 73
    10
 74
     0
 42
0.00000001
 43
0.00000001
 40
0.0
 40
0.0
 40
0.0
 40
0.0
 40
0.25
 40
0.25
 40
0.5
 40
0.5
 40
0.75
 40
0.75
 40
1.0
 40
1.0
 40
1.0
 40
1.0
 10
566.9861745408951
 20
-25.39269950678177
 30
0.0
 10
567.0907127102245
 20
-25.3926995067818
 30
0.0
 10
567.192329470998
 20
-25.36074242309977
 30
0.0
 10
567.4012000063445
 20
-25.2345271157989
 30
0.0
 10
567.5030222004862
 20
-25.14340202841991
 30
0.0
 10
567.7116864574954
 20
-24.91039981669349
 30
0.0
 10
567.8137162114245
 20
-24.77376215638816
 30
0.0
 10
568.0221826932052
 20
-24.46957648518447
 30
0.0
 10
568.1245653060263
 20
-24.30784186183765
 30
0.0
 10
568.2291034730833
 20
-24.14269950678177
 30
0.0
  0
SPLINE
  5
232
330
1F
100
AcDbEntity
  8
0
  6
Continuous
 62
     7
370
    15
100
AcDbSpline
210
0.0
220
0.0
230
1.0
 70
     8
 71
     3
 72
    22
 73
    18
 74
     0
 42
0.00000001
 43
0.00000001
 40
0.0
 40
0.0
 40
0.0
 40
0.0
 40
0.125
 40
0.125
 40
0.25
 40
0.25
 40
0.375
 40
0.375
 40
0.5
 40
0.5
 40
0.625
 40
0.625
 40
0.75
 40
0.75
 40
0.875
 40
0.875
 40
1.0
 40
1.0
 40
1.0
 40
1.0
 10
566.9861745408951
 20
-26.1926995067818
 30
0.0
 10
567.0384253377844
 20
-26.19269950678177
 30
0.0
 10
567.089868731111
 20
-26.17940095809909
 30
0.0
 10
567.1928944695771
 20
-26.12737853519126
 30
0.0
 10
567.244862713824
 20
-26.08824686654293
 30
0.0
 10
567.3488959341847
 20
-25.98511265805184
 30
0.0
 10
567.4002498896396
 20
-25.92202910865035
 30
0.0
 10
567.5033583750749
 20
-25.77374419765102
 30
0.0
 10
567.555653648119
 20
-25.68748389546246
 30
0.0
 10
567.6593115838402
 20
-25.49762586369572
 30
0.0
 10
567.7106174275883
 20
-25.39440349093164
 30
0.0
 10
567.8138937389921
 20
-25.17206184341716
 30
0.0
 10
567.8663230060442
 20
-25.05175696518758
 30
0.0
 10
567.9696936993595
 20
-24.80438113430625
 30
0.0
 10
568.0209914668803
 20
-24.67663433356482
 30
0.0
 10
568.1245209239005
 20
-24.41362025498803
 30
0.0
 10
568.1768526747811
 20
-24.27806886526679
 30
0.0
 10
568.2291034730833
 20
-24.14269950678177
 30
0.0
  0
LINE
  5
233
330
1F
100
AcDbEntity
  8
0
  6
Continuous
 62
     7
370
    15
100
AcDbLine
 10
566.9861689323
 20
-25.3927063599
 30
0.0
 11
566.9861689323
 21
-26.1927050009
 31
0.0
  0
SPLINE
  5
234
330
1F
100
AcDbEntity
  8
0
  6
Continuous
 62
     7
370
    15
100
AcDbSpline
210
0.0
220
0.0
230
1.0
 70
     8
 71
     3
 72
    24
 73
    20
 74
     0
 42
0.00000001
 43
0.00000001
 40
0.0
 40
0.0
 40
0.0
 40
0.0
 40
0.0482709739203968
 40
0.0951899915963408
 40
0.140787781817161
 40
0.1850978369947547
 40
0.2281566691902894
 40
0.2700040801835991
 40
0.3106834421101963
 40
0.3502419834076683
 40
0.388731072620161
 40
0.4262064900238109
 40
0.4627286741411344
 40
0.4983629271939949
 40
0.5714748250345946
 40
0.6580627100687823
 40
0.7582848643929895
 40
0.8722416604954315
 40
1.0
 40
1.0
 40
1.0
 40
1.0
 10
566.9791034730833
 20
98.30022942540617
 30
0.0
 10
566.980063023344
 20
98.29175933984725
 30
0.0
 10
566.9819552491228
 20
98.27505639586887
 30
0.0
 10
566.9967324643856
 20
98.24699043328768
 30
0.0
 10
567.0189870900489
 20
98.21714046572144
 30
0.0
 10
567.0485028612861
 20
98.18528342370985
 30
0.0
 10
567.0840020093549
 20
98.15147592751428
 30
0.0
 10
567.1245176467506
 20
98.11570261075943
 30
0.0
 10
567.1690581957995
 20
98.07796672995175
 30
0.0
 10
567.2167054809922
 20
98.03826563859401
 30
0.0
 10
567.2666010962688
 20
97.99660161495648
 30
0.0
 10
567.3179472808326
 20
97.95296286303139
 30
0.0
 10
567.370040996243
 20
97.90738665333171
 30
0.0
 10
567.440810917623
 20
97.84267470709106
 30
0.0
 10
567.5385420044927
 20
97.74795499830019
 30
0.0
 10
567.6738368692276
 20
97.61456871644423
 30
0.0
 10
567.8358248408068
 20
97.4537347154573
 30
0.0
 10
568.024664293296
 20
97.26577329280724
 30
0.0
 10
568.1584114968017
 20
97.12938723421973
 30
0.0
 10
568.2291034730833
 20
97.05730049321798
 30
0.0
  0
LWPOLYLINE
  5
235
330
1F
100
AcDbEntity
  8
0
  6
Continuous
 62
     7
370
    15
100
AcDbPolyline
 90
        2
 70
   128
 43
0.0
 10
568.2291045898
 20
97.0573026285
 10
568.2291045898
 20
97.0573026285
  0
LINE
  5
236
330
1F
100
AcDbEntity
  8
0
  6
Continuous
 62
     7
370
    15
100
AcDbLine
 10
566.1790922397
 20
98.3002308354
 30
0.0
 11
566.9791057819
 21
98.3002308354
 31
0.0
  0
LINE
  5
237
330
1F
100
AcDbEntity
  8
0
  6
Continuous
 62
     7
370
    15
100
AcDbLine
 10
566.9861689323
 20
-26.1927050009
 30
0.0
 11
623.279090237
 21
-26.1927050009
 31
0.0
  0
LINE
  5
238
330
1F
100
AcDbEntity
  8
0
  6
Continuous
 62
     7
370
    15
100
AcDbLine
 10
568.2291045898
 20
-24.1426926508
 30
0.0
 11
623.729105305
 21
-24.1426926508
 31
0.0
  0
SPLINE
  5
239
330
1F
100
AcDbEntity
  8
0
  6
Continuous
 62
     7
370
    15
100
AcDbSpline
210
0.0
220
0.0
230
1.0
 70
     8
 71
     3
 72
    14
 73
    10
 74
     0
 42
0.00000001
 43
0.00000001
 40
0.0
 40
0.0
 40
0.0
 40
0.0
 40
0.25
 40
0.25
 40
0.5
 40
0.5
 40
0.75
 40
0.75
 40
1.0
 40
1.0
 40
1.0
 40
1.0
 10
623.7291034730832
 20
-24.14269950678177
 30
0.0
 10
623.6915968414439
 20
-24.41109133429179
 30
0.0
 10
623.6541034730833
 20
-24.6792826697183
 30
0.0
 10
623.5791034730834
 20
-25.1751184165421
 30
0.0
 10
623.5416034730833
 20
-25.40252028273035
 30
0.0
 10
623.4666034730834
 20
-25.78201653369805
 30
0.0
 10
623.4291034730833
 20
-25.93396160290801
 30
0.0
 10
623.3541034730833
 20
-26.13934349395183
 30
0.0
 10
623.3166101047226
 20
-26.1926995067818
 30
0.0
 10
623.2791034730833
 20
-26.1926995067818
 30
0.0
  0
SPLINE
  5
23A
330
1F
100
AcDbEntity
  8
0
  6
Continuous
 62
     7
370
    15
100
AcDbSpline
210
0.0
220
0.0
230
1.0
 70
     8
 71
     3
 72
    14
 73
    10
 74
     0
 42
0.00000001
 43
0.00000001
 40
0.0
 40
0.0
 40
0.0
 40
0.0
 40
0.25
 40
0.25
 40
0.5
 40
0.5
 40
0.75
 40
0.75
 40
1.0
 40
1.0
 40
1.0
 40
1.0
 10
568.2291034730833
 20
97.05730049321797
 30
0.0
 10
568.1245653023958
 20
97.22244285400919
 30
0.0
 10
568.0229485765984
 20
97.38301468107544
 30
0.0
 10
567.8140781963056
 20
97.68787995045405
 30
0.0
 10
567.7122558434862
 20
97.82428090361752
 30
0.0
 10
567.5035917329328
 20
98.05745069770009
 30
0.0
 10
567.401561827627
 20
98.14880080587074
 30
0.0
 10
567.193095485989
 20
98.27498859581506
 30
0.0
 10
567.0907127093094
 20
98.30730049321797
 30
0.0
 10
566.9861745408951
 20
98.30730049321798
 30
0.0
  0
LINE
  5
23B
330
1F
100
AcDbEntity
  8
0
  6
Continuous
 62
     7
370
    15
100
AcDbLine
 10
566.9861689323
 20
98.3073014364
 30
0.0
 11
566.9861689323
 21
99.1073000774
 31
0.0
  0
LINE
  5
23C
330
1F
100
AcDbEntity
  8
0
  6
Continuous
 62
     7
370
    15
100
AcDbLine
 10
623.729105305
 20
97.0573026285
 30
0.0
 11
623.729105305
 21
-24.1426926508
 31
0.0
  0
LINE
  5
23D
330
1F
100
AcDbEntity
  8
0
  6
Continuous
 62
     7
370
    15
100
AcDbLine
 10
625.7791176551
 20
-24.1426926508
 30
0.0
 11
623.729105305
 21
-24.1426926508
 31
0.0
  0
LINE
  5
23E
330
1F
100
AcDbEntity
  8
0
  6
Continuous
 62
     7
370
    15
100
AcDbLine
 10
623.729105305
 20
97.0573026285
 30
0.0
 11
625.7791176551
 21
97.0573026285
 31
0.0
  0
LINE
  5
23F
330
1F
100
AcDbEntity
  8
0
  6
Continuous
 62
     7
370
    15
100
AcDbLine
 10
625.7791176551
 20
97.0573026285
 30
0.0
 11
625.7791176551
 21
-24.1426926508
 31
0.0
  0
SPLINE
  5
240
330
1F
100
AcDbEntity
  8
0
  6
Continuous
 62
     7
370
    15
100
AcDbSpline
210
0.0
220
0.0
230
1.0
 70
     8
 71
     3
 72
    12
 73
     8
 74
     0
 42
0.00000001
 43
0.00000001
 40
0.0
 40
0.0
 40
0.0
 40
0.0
 40
0.1986303306175143
 40
0.4263150452576118
 40
0.6540176540679137
 40
0.8817209907269126
 40
1.0
 40
1.0
 40
1.0
 40
1.0
 10
624.9791041129438
 20
97.05730262851769
 30
0.0
 10
624.9672252689477
 20
97.18718127341614
 30
0.0
 10
624.9417300190526
 20
97.46593638702721
 30
0.0
 10
624.7283929842869
 20
97.85040198037925
 30
0.0
 10
624.3897392531701
 20
98.14914937146966
 30
0.0
 10
624.0318602134897
 20
98.29041817415673
 30
0.0
 10
623.8062376147216
 20
98.30300011883293
 30
0.0
 10
623.7291053050367
 20
98.3073014364248
 30
0.0
  0
LINE
  5
241
330
1F
100
AcDbEntity
  8
0
  6
Continuous
 62
     7
370
    15
100
AcDbLine
 10
623.729105305
 20
98.3073014364
 30
0.0
 11
623.729105305
 21
99.1073000774
 31
0.0
  0
SPLINE
  5
242
330
1F
100
AcDbEntity
  8
0
  6
Continuous
 62
     7
370
    15
100
AcDbSpline
210
0.0
220
0.0
230
1.0
 70
     8
 71
     3
 72
    12
 73
     8
 74
     0
 42
0.00000001
 43
0.00000001
 40
0.0
 40
0.0
 40
0.0
 40
0.0
 40
0.2196149814178411
 40
0.4392510895824654
 40
0.6588866853329868
 40
0.8785188489168442
 40
1.0
 40
1.0
 40
1.0
 40
1.0
 10
625.7791176551191
 20
97.05730262851769
 30
0.0
 10
625.7553937608226
 20
97.29305959834272
 30
0.0
 10
625.707943690014
 20
97.76459621758305
 30
0.0
 10
625.3384950367613
 20
98.389322230349
 30
0.0
 10
624.7969925238552
 20
98.85368267943419
 30
0.0
 10
624.2238123988989
 20
99.07906560179232
 30
0.0
 10
623.8590194991332
 20
99.09988546949238
 30
0.0
 10
623.7291053050367
 20
99.1073000774389
 30
0.0
  0
SPLINE
  5
243
330
1F
100
AcDbEntity
  8
0
  6
Continuous
 62
     7
370
    15
100
AcDbSpline
210
0.0
220
0.0
230
1.0
 70
     8
 71
     3
 72
    11
 73
     7
 74
     0
 42
0.00000001
 43
0.00000001
 40
0.0
 40
0.0
 40
0.0
 40
0.0
 40
0.2499969118926947
 40
0.4999973148244767
 40
0.7499977177562588
 40
1.0
 40
1.0
 40
1.0
 40
1.0
 10
623.7291053050367
 20
-26.19270500087684
 30
0.0
 10
623.9977256463026
 20
-26.16188394480373
 30
0.0
 10
624.5349700799368
 20
-26.10024140226219
 30
0.0
 10
625.2125895670525
 20
-25.62619099884819
 30
0.0
 10
625.6866387757451
 20
-24.94856696124245
 30
0.0
 10
625.7482912847521
 20
-24.41131809404568
 30
0.0
 10
625.7791176551191
 20
-24.14269265079444
 30
0.0
  0
LINE
  5
244
330
1F
100
AcDbEntity
  8
0
  6
Continuous
 62
     7
370
    15
100
AcDbLine
 10
623.729105305
 20
-25.3927063599
 30
0.0
 11
623.729105305
 21
-26.1927050009
 31
0.0
  0
SPLINE
  5
245
330
1F
100
AcDbEntity
  8
0
  6
Continuous
 62
     7
370
    15
100
AcDbSpline
210
0.0
220
0.0
230
1.0
 70
     8
 71
     3
 72
    14
 73
    10
 74
     0
 42
0.00000001
 43
0.00000001
 40
0.0
 40
0.0
 40
0.0
 40
0.0
 40
0.25
 40
0.25
 40
0.5
 40
0.5
 40
0.75
 40
0.75
 40
1.0
 40
1.0
 40
1.0
 40
1.0
 10
623.7291034730833
 20
-25.39269950678175
 30
0.0
 10
623.8927280904578
 20
-25.39269950678172
 30
0.0
 10
624.0562883285324
 20
-25.36016535261718
 30
0.0
 10
624.3586271985469
 20
-25.23493249222456
 30
0.0
 10
624.4972868730518
 20
-25.14228305977947
 30
0.0
 10
624.7286870260809
 20
-24.91088290675042
 30
0.0
 10
624.8213364585263
 20
-24.77222323224537
 30
0.0
 10
624.9465693189187
 20
-24.46988436223083
 30
0.0
 10
624.9791034730833
 20
-24.30632412415626
 30
0.0
 10
624.9791034730832
 20
-24.14269950678175
 30
0.0
  0
LINE
  5
246
330
1F
100
AcDbEntity
  8
0
  6
Continuous
 62
     7
370
    15
100
AcDbLine
 10
623.729105305
 20
-26.1927050009
 30
0.0
 11
623.279090237
 21
-26.1927050009
 31
0.0
  0
LINE
  5
247
330
1F
100
AcDbEntity
  8
0
  6
Continuous
 62
     7
370
    15
100
AcDbLine
 10
623.4368637317
 20
99.1073000774
 30
0.0
 11
623.729105305
 21
99.1073000774
 31
0.0
  0
LINE
  5
248
330
1F
100
AcDbEntity
  8
0
  6
Continuous
 62
     7
370
    15
100
AcDbLine
 10
625.7791176551
 20
64.3629181728
 30
0.0
 11
627.3791149371
 21
64.3629181728
 31
0.0
  0
LINE
  5
249
330
1F
100
AcDbEntity
  8
0
  6
Continuous
 62
     7
370
    15
100
AcDbLine
 10
625.7791176551
 20
8.351286088
 30
0.0
 11
627.3791149371
 21
8.351286088
 31
0.0
  0
LINE
  5
24A
330
1F
100
AcDbEntity
  8
0
  6
Continuous
 62
     7
370
    15
100
AcDbLine
 10
625.7791176551
 20
66.3573044882
 30
0.0
 11
627.3791149371
 21
66.3573044882
 31
0.0
  0
SPLINE
  5
24B
330
1F
100
AcDbEntity
  8
0
  6
Continuous
 62
     7
370
    15
100
AcDbSpline
210
0.0
220
0.0
230
1.0
 70
    24
 71
     3
 72
    11
 73
     7
 74
     0
 42
0.00000001
 43
0.00000001
 40
0.0
 40
0.0
 40
0.0
 40
0.0
 40
0.2833542511177035
 40
0.5581095551005729
 40
0.7754847033070991
 40
0.9999999999999999
 40
0.9999999999999999
 40
0.9999999999999999
 40
0.9999999999999999
 10
627.3791149371473
 20
64.36291817283684
 30
0.0
 10
627.3791149371474
 20
64.65996833158147
 30
0.0
 10
627.3791149371474
 20
65.24505407243608
 30
0.0
 10
627.3791149371473
 20
65.89318616421458
 30
0.0
 10
627.3791149371474
 20
66.28705948003352
 30
0.0
 10
627.3791149371473
 20
66.33363860738137
 30
0.0
 10
627.3791149371473
 20
66.3573044881826
 30
0.0
  0
SPLINE
  5
24C
330
1F
100
AcDbEntity
  8
0
  6
Continuous
 62
     7
370
    15
100
AcDbSpline
210
0.0
220
0.0
230
1.0
 70
    24
 71
     3
 72
    11
 73
     7
 74
     0
 42
0.00000001
 43
0.00000001
 40
0.0
 40
0.0
 40
0.0
 40
0.0
 40
0.2832780532572191
 40
0.5580045423085006
 40
0.7754037677077298
 40
1.0
 40
1.0
 40
1.0
 40
1.0
 10
627.3791149371473
 20
6.357302103996821
 30
0.0
 10
627.3791149371473
 20
6.39558351458866
 30
0.0
 10
627.3791149371473
 20
6.470990701098772
 30
0.0
 10
627.3791149371473
 20
7.003930849510065
 30
0.0
 10
627.3791149371473
 20
7.654358717132687
 30
0.0
 10
627.3791149371473
 20
8.116468786742882
 30
0.0
 10
627.3791149371473
 20
8.351286087990351
 30
0.0
  0
LINE
  5
24D
330
1F
100
AcDbEntity
  8
0
  6
Continuous
 62
     7
370
    15
100
AcDbLine
 10
625.7791176551
 20
6.357302104
 30
0.0
 11
627.3791149371
 21
6.357302104
 31
0.0
  0
LINE
  5
24E
330
1F
100
AcDbEntity
  8
0
  6
Continuous
 62
     7
370
    15
100
AcDbLine
 10
556.0485825055
 20
-27.8927039757
 30
0.0
 11
556.0485825055
 21
-26.1927050009
 31
0.0
  0
LINE
  5
24F
330
1F
100
AcDbEntity
  8
0
  6
Continuous
 62
     7
370
    15
100
AcDbLine
 10
466.0485789293
 20
-27.8927039757
 30
0.0
 11
556.0485825055
 21
-27.8927039757
 31
0.0
  0
LINE
  5
250
330
1F
100
AcDbEntity
  8
0
  6
Continuous
 62
     7
370
    15
100
AcDbLine
 10
466.0485789293
 20
-27.8927039757
 30
0.0
 11
466.0485789293
 21
-26.1927050009
 31
0.0
  0
LINE
  5
251
330
1F
100
AcDbEntity
  8
0
  6
Continuous
 62
     7
370
    15
100
AcDbLine
 10
511.0485807174
 20
-90.8926975384
 30
0.0
 11
480.0889298433
 21
-90.8926975384
 31
0.0
  0
LINE
  5
252
330
1F
100
AcDbEntity
  8
0
  6
Continuous
 62
     7
370
    15
100
AcDbLine
 10
542.0082315915
 20
-90.8926975384
 30
0.0
 11
511.0485807174
 21
-90.8926975384
 31
0.0
  0
LINE
  5
253
330
1F
100
AcDbEntity
  8
0
  6
Continuous
 62
     8
370
    15
100
AcDbLine
 10
592.3261895889
 20
207.4752321065
 30
0.0
 11
592.3263386005
 21
207.4752828636
 31
0.0
  0
LINE
  5
254
330
1F
100
AcDbEntity
  8
0
  6
Continuous
 62
     8
370
    15
100
AcDbLine
 10
591.3991287464
 20
210.3284016781
 30
0.0
 11
591.399277758
 21
210.3284524352
 31
0.0
  0
LINE
  5
255
330
1F
100
AcDbEntity
  8
0
  6
Continuous
 62
     8
370
    15
100
AcDbLine
 10
511.0485807174
 20
-123.892689909
 30
0.0
 11
482.5485751146
 21
-123.892689909
 31
0.0
  0
LINE
  5
256
330
1F
100
AcDbEntity
  8
0
  6
Continuous
 62
     8
370
    15
100
AcDbLine
 10
539.5485714191
 20
-123.892689909
 30
0.0
 11
511.0485807174
 21
-123.892689909
 31
0.0
  0
LWPOLYLINE
  5
257
330
1F
100
AcDbEntity
  8
0
  6
Continuous
 62
     8
370
    15
100
AcDbPolyline
 90
        8
 70
   128
 43
0.0
 10
585.6873348468
 20
220.3998930351
 10
585.6637612098
 20
220.3922301129
 10
585.6198027843
 20
220.3779529378
 10
585.5606451743
 20
220.3587378905
 10
585.4885831588
 20
220.335324441
 10
585.4063883537
 20
220.3086122469
 10
585.3171602004
 20
220.2796257631
 10
585.2243855708
 20
220.2494844393
  0
LWPOLYLINE
  5
258
330
1F
100
AcDbEntity
  8
0
  6
Continuous
 62
     8
370
    15
100
AcDbPolyline
 90
        8
 70
   128
 43
0.0
 10
584.7488895171
 20
221.081708704
 10
584.7488895171
 20
221.0569150344
 10
584.7488895171
 20
221.0107102588
 10
584.7488895171
 20
220.9485277132
 10
584.7488895171
 20
220.8727608964
 10
584.7488597148
 20
220.7863173977
 10
584.7488597148
 20
220.6925201759
 10
584.7488597148
 20
220.5949753121
  0
LINE
  5
259
330
1F
100
AcDbEntity
  8
0
  6
Continuous
 62
     8
370
    15
100
AcDbLine
 10
664.1894534343
 20
18.4919584141
 30
0.0
 11
664.1894534343
 21
21.9366449461
 31
0.0
  0
LINE
  5
25A
330
1F
100
AcDbEntity
  8
0
  6
Continuous
 62
     8
370
    15
100
AcDbLine
 10
634.7790911907
 20
32.2613317118
 30
0.0
 11
632.7791169399
 21
32.2853970871
 31
0.0
  0
LINE
  5
25B
330
1F
100
AcDbEntity
  8
0
  6
Continuous
 62
     8
370
    15
100
AcDbLine
 10
634.7790911907
 20
31.2023061857
 30
0.0
 11
632.7791169399
 21
31.2312293396
 31
0.0
  0
LINE
  5
25C
330
1F
100
AcDbEntity
  8
0
  6
Continuous
 62
     8
370
    15
100
AcDbLine
 10
-139.5014271027
 20
287.2073027835
 30
0.0
 11
-139.5014271027
 21
286.7389816389
 31
0.0
  0
LINE
  5
25D
330
1F
100
AcDbEntity
  8
0
  6
Continuous
 62
     8
370
    15
100
AcDbLine
 10
-109.4014093167
 20
286.8572968588
 30
0.0
 11
-109.4014093167
 21
287.2073027835
 31
0.0
  0
LINE
  5
25E
330
1F
100
AcDbEntity
  8
0
  6
Continuous
 62
     8
370
    15
100
AcDbLine
 10
601.4295175784
 20
276.9072997913
 30
0.0
 11
601.4295175784
 21
277.2072974191
 31
0.0
  0
LINE
  5
25F
330
1F
100
AcDbEntity
  8
0
  6
Continuous
 62
     8
370
    15
100
AcDbLine
 10
610.7203617805
 20
232.5398001418
 30
0.0
 11
610.5925694221
 21
232.8336882935
 31
0.0
  0
LINE
  5
260
330
1F
100
AcDbEntity
  8
0
  6
Continuous
 62
     8
370
    15
100
AcDbLine
 10
-140.7514259106
 20
256.4072992251
 30
0.0
 11
-140.7414123303
 21
256.4072992251
 31
0.0
  0
LINE
  5
261
330
1F
100
AcDbEntity
  8
0
  6
Continuous
 62
     8
370
    15
100
AcDbLine
 10
586.1245051139
 20
221.6889254347
 30
0.0
 11
585.7031896823
 21
221.55203778
 31
0.0
  0
LINE
  5
262
330
1F
100
AcDbEntity
  8
0
  6
Continuous
 62
     8
370
    15
100
AcDbLine
 10
586.5186706298
 20
220.4784519569
 30
0.0
 11
586.5187004321
 21
220.4784594074
 31
0.0
  0
LINE
  5
263
330
1F
100
AcDbEntity
  8
0
  6
Continuous
 62
     8
370
    15
100
AcDbLine
 10
586.148913216
 20
221.6889254347
 30
0.0
 11
586.1276045554
 21
221.682005708
 31
0.0
  0
LINE
  5
264
330
1F
100
AcDbEntity
  8
0
  6
Continuous
 62
     8
370
    15
100
AcDbLine
 10
586.543644976
 20
220.4784519569
 30
0.0
 11
586.5436747783
 21
220.4784594074
 31
0.0
  0
LINE
  5
265
330
1F
100
AcDbEntity
  8
0
  6
Continuous
 62
     8
370
    15
100
AcDbLine
 10
586.1738875621
 20
221.6889254347
 30
0.0
 11
586.1526087039
 21
221.682005708
 31
0.0
  0
LINE
  5
266
330
1F
100
AcDbEntity
  8
0
  6
Continuous
 62
     8
370
    15
100
AcDbLine
 10
-62.9514202363
 20
-29.3926995649
 30
0.0
 11
-94.8514088875
 21
-29.3926995649
 31
0.0
  0
LINE
  5
267
330
1F
100
AcDbEntity
  8
0
  6
Continuous
 62
     8
370
    15
100
AcDbLine
 10
-31.051431585
 20
-29.3926995649
 30
0.0
 11
-62.9514202363
 21
-29.3926995649
 31
0.0
  0
LINE
  5
268
330
1F
100
AcDbEntity
  8
0
  6
Continuous
 62
     8
370
    15
100
AcDbLine
 10
-62.9514202363
 20
-84.860141243
 30
0.0
 11
-94.8514088875
 21
-84.860141243
 31
0.0
  0
LINE
  5
269
330
1F
100
AcDbEntity
  8
0
  6
Continuous
 62
     8
370
    15
100
AcDbLine
 10
-31.051431585
 20
-84.860141243
 30
0.0
 11
-62.9514202363
 21
-84.860141243
 31
0.0
  0
LINE
  5
26A
330
1F
100
AcDbEntity
  8
0
  6
Continuous
 62
     8
370
    15
100
AcDbLine
 10
-62.9514202363
 20
-85.6325876369
 30
0.0
 11
-94.7875127083
 21
-85.6325876369
 31
0.0
  0
LINE
  5
26B
330
1F
100
AcDbEntity
  8
0
  6
Continuous
 62
     8
370
    15
100
AcDbLine
 10
-31.1153277642
 20
-85.6325876369
 30
0.0
 11
-62.9514202363
 21
-85.6325876369
 31
0.0
  0
LINE
  5
26C
330
1F
100
AcDbEntity
  8
0
  6
Continuous
 62
     8
370
    15
100
AcDbLine
 10
-62.9514202363
 20
-123.892689909
 30
0.0
 11
-91.4514109379
 21
-123.892689909
 31
0.0
  0
LINE
  5
26D
330
1F
100
AcDbEntity
  8
0
  6
Continuous
 62
     8
370
    15
100
AcDbLine
 10
-34.4514295346
 20
-123.892689909
 30
0.0
 11
-62.9514202363
 21
-123.892689909
 31
0.0
  0
LINE
  5
26E
330
1F
100
AcDbEntity
  8
0
  6
Continuous
 62
     8
370
    15
100
AcDbLine
 10
460.0485816711
 20
-74.9427032127
 30
0.0
 11
-31.051431585
 21
-74.9427032127
 31
0.0
  0
LINE
  5
26F
330
1F
100
AcDbEntity
  8
0
  6
Continuous
 62
     8
370
    15
100
AcDbLine
 10
643.0790975803
 20
38.2573056564
 30
0.0
 11
643.0790975803
 21
43.6573076591
 31
0.0
  0
LINE
  5
270
330
1F
100
AcDbEntity
  8
0
  6
Continuous
 62
     8
370
    15
100
AcDbLine
 10
643.0790975803
 20
32.8573036537
 30
0.0
 11
643.0790975803
 21
38.2573056564
 31
0.0
  0
LINE
  5
271
330
1F
100
AcDbEntity
  8
0
  6
Continuous
 62
     8
370
    15
100
AcDbLine
 10
479.148577165
 20
-74.1426896706
 30
0.0
 11
460.0485816711
 21
-74.1426896706
 31
0.0
  0
LINE
  5
272
330
1F
100
AcDbEntity
  8
0
  6
Continuous
 62
     8
370
    15
100
AcDbLine
 10
511.0485807174
 20
-29.3926995649
 30
0.0
 11
479.148577165
 21
-29.3926995649
 31
0.0
  0
LINE
  5
273
330
1F
100
AcDbEntity
  8
0
  6
Continuous
 62
     8
370
    15
100
AcDbLine
 10
542.9485842698
 20
-29.3926995649
 30
0.0
 11
511.0485807174
 21
-29.3926995649
 31
0.0
  0
LINE
  5
274
330
1F
100
AcDbEntity
  8
0
  6
Continuous
 62
     8
370
    15
100
AcDbLine
 10
511.0485807174
 20
-85.6325876369
 30
0.0
 11
479.2124882453
 21
-85.6325876369
 31
0.0
  0
LINE
  5
275
330
1F
100
AcDbEntity
  8
0
  6
Continuous
 62
     8
370
    15
100
AcDbLine
 10
542.8846582883
 20
-85.6325876369
 30
0.0
 11
511.0485807174
 21
-85.6325876369
 31
0.0
  0
LINE
  5
276
330
1F
100
AcDbEntity
  8
0
  6
Continuous
 62
     8
370
    15
100
AcDbLine
 10
511.0485807174
 20
-84.860141243
 30
0.0
 11
479.148577165
 21
-84.860141243
 31
0.0
  0
LINE
  5
277
330
1F
100
AcDbEntity
  8
0
  6
Continuous
 62
     8
370
    15
100
AcDbLine
 10
542.9485842698
 20
-84.860141243
 30
0.0
 11
511.0485807174
 21
-84.860141243
 31
0.0
  0
ENDSEC
  0
SECTION
  2
OBJECTS
  0
DICTIONARY
  5
C
330
0
100
AcDbDictionary
281
     1
  3
ACAD_GROUP
350
D
  3
ACAD_LAYOUT
350
1A
  3
ACAD_MATERIAL
350
3B
  3
ACAD_MLEADERSTYLE
350
279
  3
ACAD_MLINESTYLE
350
17
  3
ACAD_PLOTSETTINGS
350
19
  3
ACAD_PLOTSTYLENAME
350
E
  3
ACAD_TABLESTYLE
350
278
  3
ACAD_VISUALSTYLE
350
2A
  0
DICTIONARY
  5
D
102
{ACAD_REACTORS
330
C
102
}
330
C
100
AcDbDictionary
281
     1
  0
DICTIONARY
  5
1A
102
{ACAD_REACTORS
330
C
102
}
330
C
100
AcDbDictionary
281
     1
  3
Layout1
350
1E
  3
Layout2
350
26
  3
Model
350
22
  0
DICTIONARY
  5
3B
102
{ACAD_REACTORS
330
C
102
}
330
C
100
AcDbDictionary
281
     1
  3
ByBlock
350
3D
  3
ByLayer
350
3C
  3
Global
350
3E
  0
DICTIONARY
  5
279
102
{ACAD_REACTORS
330
C
102
}
330
C
100
AcDbDictionary
281
     1
  0
DICTIONARY
  5
17
102
{ACAD_REACTORS
330
C
102
}
330
C
100
AcDbDictionary
281
     1
  3
Standard
350
18
  0
DICTIONARY
  5
19
102
{ACAD_REACTORS
330
C
102
}
330
C
100
AcDbDictionary
281
     1
  0
ACDBDICTIONARYWDFLT
  5
E
102
{ACAD_REACTORS
330
C
102
}
330
C
100
AcDbDictionary
281
     1
  3
Normal
350
F
100
AcDbDictionaryWithDefault
340
F
  0
DICTIONARY
  5
278
102
{ACAD_REACTORS
330
C
102
}
330
C
100
AcDbDictionary
281
     1
  0
DICTIONARY
  5
2A
102
{ACAD_REACTORS
330
C
102
}
330
C
100
AcDbDictionary
281
     1
  3
2dWireframe
350
2F
  3
3D Hidden
350
31
  3
3dWireframe
350
30
  3
Basic
350
32
  3
Brighten
350
36
  3
ColorChange
350
3A
  3
Conceptual
350
34
  3
Dim
350
35
  3
Facepattern
350
39
  3
Flat
350
2B
  3
FlatWithEdges
350
2C
  3
Gouraud
350
2D
  3
GouraudWithEdges
350
2E
  3
Linepattern
350
38
  3
Realistic
350
33
  3
Thicken
350
37
  0
LAYOUT
  5
1E
102
{ACAD_REACTORS
330
1A
102
}
330
1A
100
AcDbPlotSettings
  1

  2
none_device
  4

  6

 40
0.0
 41
0.0
 42
0.0
 43
0.0
 44
0.0
 45
0.0
 46
0.0
 47
0.0
 48
0.0
 49
0.0
140
0.0
141
0.0
142
1.0
143
1.0
 70
   688
 72
     0
 73
     0
 74
     5
  7

 75
    16
 76
     0
 77
     2
 78
   300
147
1.0
148
0.0
149
0.0
100
AcDbLayout
  1
Layout1
 70
     1
 71
     1
 10
0.0
 20
0.0
 11
420.0
 21
297.0
 12
0.0
 22
0.0
 32
0.0
 14
1.0000000000E+20
 24
1.0000000000E+20
 34
1.0000000000E+20
 15
-1.0000000000E+20
 25
-1.0000000000E+20
 35
-1.0000000000E+20
146
0.0
 13
0.0
 23
0.0
 33
0.0
 16
1.0
 26
0.0
 36
0.0
 17
0.0
 27
1.0
 37
0.0
 76
     0
330
1B
  0
LAYOUT
  5
26
102
{ACAD_REACTORS
330
1A
102
}
330
1A
100
AcDbPlotSettings
  1

  2
none_device
  4

  6

 40
0.0
 41
0.0
 42
0.0
 43
0.0
 44
0.0
 45
0.0
 46
0.0
 47
0.0
 48
0.0
 49
0.0
140
0.0
141
0.0
142
1.0
143
1.0
 70
   688
 72
     0
 73
     0
 74
     5
  7

 75
    16
 76
     0
 77
     2
 78
   300
147
1.0
148
0.0
149
0.0
100
AcDbLayout
  1
Layout2
 70
     1
 71
     2
 10
0.0
 20
0.0
 11
0.0
 21
0.0
 12
0.0
 22
0.0
 32
0.0
 14
0.0
 24
0.0
 34
0.0
 15
0.0
 25
0.0
 35
0.0
146
0.0
 13
0.0
 23
0.0
 33
0.0
 16
1.0
 26
0.0
 36
0.0
 17
0.0
 27
1.0
 37
0.0
 76
     0
330
23
  0
LAYOUT
  5
22
102
{ACAD_REACTORS
330
1A
102
}
330
1A
100
AcDbPlotSettings
  1

  2
none_device
  4

  6

 40
0.0
 41
0.0
 42
0.0
 43
0.0
 44
0.0
 45
0.0
 46
0.0
 47
0.0
 48
0.0
 49
0.0
140
0.0
141
0.0
142
1.0
143
1.0
 70
  1712
 72
     0
 73
     0
 74
     0
  7

 75
     0
 76
     0
 77
     2
 78
   300
147
1.0
148
0.0
149
0.0
100
AcDbLayout
  1
Model
 70
     1
 71
     0
 10
0.0
 20
0.0
 11
420.0
 21
297.0
 12
0.0
 22
0.0
 32
0.0
 14
0.0
 24
0.0
 34
0.0
 15
420.0
 25
297.0
 35
0.0
146
0.0
 13
0.0
 23
0.0
 33
0.0
 16
1.0
 26
0.0
 36
0.0
 17
0.0
 27
1.0
 37
0.0
 76
     0
330
1F
331
29
  0
MATERIAL
  5
3D
102
{ACAD_REACTORS
330
3B
102
}
330
3B
100
AcDbMaterial
  1
ByBlock
 72
     1
 94
      127
  0
MATERIAL
  5
3C
102
{ACAD_REACTORS
330
3B
102
}
330
3B
100
AcDbMaterial
  1
ByLayer
 72
     1
 94
      127
  0
MATERIAL
  5
3E
102
{ACAD_REACTORS
330
3B
102
}
330
3B
100
AcDbMaterial
  1
Global
 72
     1
 94
      127
  0
MLINESTYLE
  5
18
102
{ACAD_REACTORS
330
17
102
}
330
17
100
AcDbMlineStyle
  2
Standard
 70
     0
  3

 62
   256
 51
90.0
 52
90.0
 71
     2
 49
0.5
 62
   256
  6
BYLAYER
 49
-0.5
 62
   256
  6
BYLAYER
  0
ACDBPLACEHOLDER
  5
F
102
{ACAD_REACTORS
330
E
102
}
330
E
  0
VISUALSTYLE
  5
2F
102
{ACAD_REACTORS
330
2A
102
}
330
2A
100
AcDbVisualStyle
  2
2dWireframe
 70
     4
 71
     0
 72
     2
 73
     0
 90
        0
 40
-0.6
 41
-30.0
 62
     5
 63
     7
421
 16777215
 74
     1
 91
        4
 64
     7
 65
   257
 75
     1
175
     1
 42
1.0
 92
        0
 66
   257
 43
1.0
 76
     1
 77
     6
 78
     2
 67
     7
 79
     5
170
     0
171
     0
290
     0
174
     0
 93
        1
 44
0.0
173
     0
291
     0
 45
0.0
  0
VISUALSTYLE
  5
31
102
{ACAD_REACTORS
330
2A
102
}
330
2A
100
AcDbVisualStyle
  2
3D Hidden
 70
     6
 71
     1
 72
     2
 73
     2
 90
        0
 40
-0.6
 41
-30.0
 62
     5
 63
     7
421
 16777215
 74
     2
 91
        2
 64
     7
 65
   257
 75
     2
175
     1
 42
40.0
 92
        0
 66
   257
 43
1.0
 76
     1
 77
     6
 78
     2
 67
     7
 79
     3
170
     0
171
     0
290
     0
174
     0
 93
        1
 44
0.0
173
     0
291
     0
 45
0.0
  0
VISUALSTYLE
  5
30
102
{ACAD_REACTORS
330
2A
102
}
330
2A
100
AcDbVisualStyle
  2
3dWireframe
 70
     5
 71
     0
 72
     2
 73
     0
 90
        0
 40
-0.6
 41
-30.0
 62
     5
 63
     7
421
 16777215
 74
     1
 91
        4
 64
     7
 65
   257
 75
     1
175
     1
 42
1.0
 92
        0
 66
   257
 43
1.0
 76
     1
 77
     6
 78
     2
 67
     7
 79
     5
170
     0
171
     0
290
     0
174
     0
 93
        1
 44
0.0
173
     0
291
     0
 45
0.0
  0
VISUALSTYLE
  5
32
102
{ACAD_REACTORS
330
2A
102
}
330
2A
100
AcDbVisualStyle
  2
Basic
 70
     7
 71
     1
 72
     0
 73
     1
 90
        0
 40
-0.6
 41
-30.0
 62
     5
 63
     7
421
 16777215
 74
     0
 91
        4
 64
     7
 65
   257
 75
     1
175
     1
 42
1.0
 92
        8
 66
     7
 43
1.0
 76
     1
 77
     6
 78
     2
 67
     7
 79
     5
170
     0
171
     0
290
     0
174
     0
 93
        1
 44
0.0
173
     0
291
     1
 45
0.0
  0
VISUALSTYLE
  5
36
102
{ACAD_REACTORS
330
2A
102
}
330
2A
100
AcDbVisualStyle
  2
Brighten
 70
    12
 71
     2
 72
     2
 73
     0
 90
        0
 40
-0.6
 41
-30.0
 62
     5
 63
     7
421
 16777215
 74
     1
 91
        4
 64
     7
 65
   257
 75
     1
175
     1
 42
1.0
 92
        8
 66
     7
 43
1.0
 76
     1
 77
     6
 78
     2
 67
     7
 79
     5
170
     0
171
     0
290
     0
174
     0
 93
        1
 44
50.0
173
     0
291
     1
 45
0.0
  0
VISUALSTYLE
  5
3A
102
{ACAD_REACTORS
330
2A
102
}
330
2A
100
AcDbVisualStyle
  2
ColorChange
 70
    16
 71
     2
 72
     2
 73
     3
 90
        0
 40
-0.6
 41
-30.0
 62
     5
 63
     8
421
  8421504
 74
     1
 91
        4
 64
     7
 65
   257
 75
     1
175
     1
 42
1.0
 92
        8
 66
     8
424
  8421504
 43
1.0
 76
     1
 77
     6
 78
     2
 67
     7
 79
     5
170
     0
171
     0
290
     0
174
     0
 93
        1
 44
0.0
173
     0
291
     1
 45
0.0
  0
VISUALSTYLE
  5
34
102
{ACAD_REACTORS
330
2A
102
}
330
2A
100
AcDbVisualStyle
  2
Conceptual
 70
     9
 71
     3
 72
     2
 73
     0
 90
        0
 40
-0.6
 41
-30.0
 62
     5
 63
     7
421
 16777215
 74
     2
 91
        2
 64
     7
 65
   257
 75
     1
175
     1
 42
40.0
 92
        8
 66
     7
 43
1.0
 76
     1
 77
     6
 78
     2
 67
     7
 79
     3
170
     0
171
     0
290
     0
174
     0
 93
        1
 44
0.0
173
     0
291
     0
 45
0.0
  0
VISUALSTYLE
  5
35
102
{ACAD_REACTORS
330
2A
102
}
330
2A
100
AcDbVisualStyle
  2
Dim
 70
    11
 71
     2
 72
     2
 73
     0
 90
        0
 40
-0.6
 41
-30.0
 62
     5
 63
     7
421
 16777215
 74
     1
 91
        4
 64
     7
 65
   257
 75
     1
175
     1
 42
1.0
 92
        8
 66
     7
 43
1.0
 76
     1
 77
     6
 78
     2
 67
     7
 79
     5
170
     0
171
     0
290
     0
174
     0
 93
        1
 44
-50.0
173
     0
291
     1
 45
0.0
  0
VISUALSTYLE
  5
39
102
{ACAD_REACTORS
330
2A
102
}
330
2A
100
AcDbVisualStyle
  2
Facepattern
 70
    15
 71
     2
 72
     2
 73
     0
 90
        0
 40
-0.6
 41
-30.0
 62
     5
 63
     7
421
 16777215
 74
     1
 91
        4
 64
     7
 65
   257
 75
     1
175
     1
 42
1.0
 92
        8
 66
     7
 43
1.0
 76
     1
 77
     6
 78
     2
 67
     7
 79
     5
170
     0
171
     0
290
     0
174
     0
 93
        1
 44
0.0
173
     0
291
     1
 45
0.0
  0
VISUALSTYLE
  5
2B
102
{ACAD_REACTORS
330
2A
102
}
330
2A
100
AcDbVisualStyle
  2
Flat
 70
     0
 71
     2
 72
     1
 73
     1
 90
        2
 40
-0.6
 41
30.0
 62
     5
 63
     7
421
 16777215
 74
     0
 91
        4
 64
     7
 65
   257
 75
     1
175
     1
 42
1.0
 92
        8
 66
     7
 43
1.0
 76
     1
 77
     6
 78
     2
 67
     7
 79
     5
170
     0
171
     0
290
     0
174
     0
 93
       13
 44
0.0
173
     0
291
     1
 45
0.0
  0
VISUALSTYLE
  5
2C
102
{ACAD_REACTORS
330
2A
102
}
330
2A
100
AcDbVisualStyle
  2
FlatWithEdges
 70
     1
 71
     2
 72
     1
 73
     1
 90
        2
 40
-0.6
 41
30.0
 62
     5
 63
     7
421
 16777215
 74
     1
 91
        4
 64
     7
 65
   257
 75
     1
175
     1
 42
1.0
 92
        0
 66
   257
 43
1.0
 76
     1
 77
     6
 78
     2
 67
     7
 79
     5
170
     0
171
     0
290
     0
174
     0
 93
       13
 44
0.0
173
     0
291
     1
 45
0.0
  0
VISUALSTYLE
  5
2D
102
{ACAD_REACTORS
330
2A
102
}
330
2A
100
AcDbVisualStyle
  2
Gouraud
 70
     2
 71
     2
 72
     2
 73
     1
 90
        2
 40
-0.6
 41
30.0
 62
     5
 63
     7
421
 16777215
 74
     0
 91
        4
 64
     7
 65
   257
 75
     1
175
     1
 42
1.0
 92
        0
 66
     7
 43
1.0
 76
     1
 77
     6
 78
     2
 67
     7
 79
     5
170
     0
171
     0
290
     0
174
     0
 93
       13
 44
0.0
173
     0
291
     1
 45
0.0
  0
VISUALSTYLE
  5
2E
102
{ACAD_REACTORS
330
2A
102
}
330
2A
100
AcDbVisualStyle
  2
GouraudWithEdges
 70
     3
 71
     2
 72
     2
 73
     1
 90
        2
 40
-0.6
 41
30.0
 62
     5
 63
     7
421
 16777215
 74
     1
 91
        4
 64
     7
 65
   257
 75
     1
175
     1
 42
1.0
 92
        0
 66
   257
 43
1.0
 76
     1
 77
     6
 78
     2
 67
     7
 79
     5
170
     0
171
     0
290
     0
174
     0
 93
       13
 44
0.0
173
     0
291
     1
 45
0.0
  0
VISUALSTYLE
  5
38
102
{ACAD_REACTORS
330
2A
102
}
330
2A
100
AcDbVisualStyle
  2
Linepattern
 70
    14
 71
     2
 72
     2
 73
     0
 90
        0
 40
-0.6
 41
-30.0
 62
     5
 63
     7
421
 16777215
 74
     1
 91
        4
 64
     7
 65
   257
 75
     7
175
     7
 42
1.0
 92
        8
 66
     7
 43
1.0
 76
     1
 77
     6
 78
     2
 67
     7
 79
     5
170
     0
171
     0
290
     0
174
     0
 93
        1
 44
0.0
173
     0
291
     1
 45
0.0
  0
VISUALSTYLE
  5
33
102
{ACAD_REACTORS
330
2A
102
}
330
2A
100
AcDbVisualStyle
  2
Realistic
 70
     8
 71
     2
 72
     2
 73
     0
 90
        0
 40
-0.6
 41
-30.0
 62
     5
 63
     7
421
 16777215
 74
     1
 91
        0
 64
     7
 65
   257
 75
     1
175
     1
 42
1.0
 92
        8
 66
     8
424
  7895160
 43
1.0
 76
     1
 77
     6
 78
     2
 67
     7
 79
     5
170
     0
171
     0
290
     0
174
     0
 93
       13
 44
0.0
173
     0
291
     0
 45
0.0
  0
VISUALSTYLE
  5
37
102
{ACAD_REACTORS
330
2A
102
}
330
2A
100
AcDbVisualStyle
  2
Thicken
 70
    13
 71
     2
 72
     2
 73
     0
 90
        0
 40
-0.6
 41
-30.0
 62
     5
 63
     7
421
 16777215
 74
     1
 91
        4
 64
     7
 65
   257
 75
     1
175
     1
 42
1.0
 92
       12
 66
     7
 43
1.0
 76
     1
 77
     6
 78
     2
 67
     7
 79
     5
170
     0
171
     0
290
     0
174
     0
 93
        1
 44
0.0
173
     0
291
     1
 45
0.0
  0
ENDSEC
  0
EOF
