  0
SECTION
  2
HEADER
  9
$ACADVER
  1
AC1015
  9
$ACADMAINTVER
 70
     6
  9
$DWGCODEPAGE
  3
ANSI_1252
  9
$INSBASE
 10
0.0
 20
0.0
 30
0.0
  9
$EXTMIN
 10
0.0
 20
0.0
 30
0.0
  9
$EXTMAX
 10
841.0
 20
594.0
 30
0.0
  9
$LIMMIN
 10
0.0
 20
0.0
  9
$LIMMAX
 10
841.0
 20
594.0
  9
$ORTHOMODE
 70
     0
  9
$REGENMODE
 70
     1
  9
$FILLMODE
 70
     1
  9
$QTEXTMODE
 70
     0
  9
$MIRRTEXT
 70
     1
  9
$LTSCALE
 40
1.0
  9
$ATTMODE
 70
     1
  9
$TEXTSIZE
 40
3.5
  9
$TRACEWID
 40
1.0
  9
$TEXTSTYLE
  7
Standard
  9
$CLAYER
  8
0
  9
$CELTYPE
  6
ByLayer
  9
$CECOLOR
 62
   256
  9
$CELTSCALE
 40
1.0
  9
$DISPSILH
 70
     0
  9
$DIMSCALE
 40
1.0
  9
$DIMASZ
 40
3.302
  9
$DIMEXO
 40
1.0
  9
$DIMDLI
 40
3.75
  9
$DIMRND
 40
0.0
  9
$DIMDLE
 40
0.0
  9
$DIMEXE
 40
1.0
  9
$DIMTP
 40
0.0
  9
$DIMTM
 40
0.0
  9
$DIMTXT
 40
3.5
  9
$DIMCEN
 40
2.5
  9
$DIMTSZ
 40
0.0
  9
$DIMTOL
 70
     0
  9
$DIMLIM
 70
     0
  9
$DIMTIH
 70
     1
  9
$DIMTOH
 70
     1
  9
$DIMSE1
 70
     0
  9
$DIMSE2
 70
     0
  9
$DIMTAD
 70
     1
  9
$DIMZIN
 70
     0
  9
$DIMBLK
  1

  9
$DIMASO
 70
     1
  9
$DIMSHO
 70
     1
  9
$DIMPOST
  1

  9
$DIMAPOST
  1

  9
$DIMALT
 70
     0
  9
$DIMALTD
 70
     3
  9
$DIMALTF
 40
0.0393700787
  9
$DIMLFAC
 40
1.0
  9
$DIMTOFL
 70
     1
  9
$DIMTVP
 40
0.0
  9
$DIMTIX
 70
     0
  9
$DIMSOXD
 70
     0
  9
$DIMSAH
 70
     0
  9
$DIMBLK1
  1

  9
$DIMBLK2
  1

  9
$DIMSTYLE
  2
ISO-25
  9
$DIMCLRD
 70
     0
  9
$DIMCLRE
 70
     0
  9
$DIMCLRT
 70
     0
  9
$DIMTFAC
 40
1.0
  9
$DIMGAP
 40
1.524
  9
$DIMJUST
 70
     0
  9
$DIMSD1
 70
     0
  9
$DIMSD2
 70
     0
  9
$DIMTOLJ
 70
     0
  9
$DIMTZIN
 70
     0
  9
$DIMALTZ
 70
     0
  9
$DIMALTTZ
 70
     0
  9
$DIMUPT
 70
     0
  9
$DIMDEC
 70
     1
  9
$DIMTDEC
 70
     1
  9
$DIMALTU
 70
     2
  9
$DIMALTTD
 70
     3
  9
$DIMTXSTY
  7
Standard
  9
$DIMAUNIT
 70
     0
  9
$DIMADEC
 70
     1
  9
$DIMALTRND
 40
0.0
  9
$DIMAZIN
 70
     0
  9
$DIMDSEP
 70
    44
  9
$DIMATFIT
 70
     3
  9
$DIMFRAC
 70
     0
  9
$DIMLDRBLK
  1

  9
$DIMLUNIT
 70
     2
  9
$DIMLWD
 70
    -2
  9
$DIMLWE
 70
    -2
  9
$DIMTMOVE
 70
     0
  9
$LUNITS
 70
     2
  9
$LUPREC
 70
     1
  9
$SKETCHINC
 40
1.0
  9
$FILLETRAD
 40
10.0
  9
$AUNITS
 70
     0
  9
$AUPREC
 70
     1
  9
$MENU
  1
.
  9
$ELEVATION
 40
0.0
  9
$PELEVATION
 40
0.0
  9
$THICKNESS
 40
0.0
  9
$LIMCHECK
 70
     0
  9
$CHAMFERA
 40
10.0
  9
$CHAMFERB
 40
10.0
  9
$CHAMFERC
 40
20.0
  9
$CHAMFERD
 40
0.0
  9
$SKPOLY
 70
     0
  9
$TDCREATE
 40
2457053.481561933
  9
$TDUCREATE
 40
2457053.481561933
  9
$TDUPDATE
 40
2457053.481562662
  9
$TDUUPDATE
 40
2457053.481562662
  9
$TDINDWG
 40
0.0000000116
  9
$TDUSRTIMER
 40
0.0000000116
  9
$USRTIMER
 70
     1
  9
$ANGBASE
 50
0.0
  9
$ANGDIR
 70
     0
  9
$PDMODE
 70
     0
  9
$PDSIZE
 40
-1.0
  9
$PLINEWID
 40
0.0
  9
$SPLFRAME
 70
     0
  9
$SPLINETYPE
 70
     6
  9
$SPLINESEGS
 70
     8
  9
$HANDSEED
  5
1F9
  9
$SURFTAB1
 70
     6
  9
$SURFTAB2
 70
     6
  9
$SURFTYPE
 70
     6
  9
$SURFU
 70
     6
  9
$SURFV
 70
     6
  9
$UCSBASE
  2

  9
$UCSNAME
  2

  9
$UCSORG
 10
0.0
 20
0.0
 30
0.0
  9
$UCSXDIR
 10
1.0
 20
0.0
 30
0.0
  9
$UCSYDIR
 10
0.0
 20
1.0
 30
0.0
  9
$UCSORTHOREF
  2

  9
$UCSORTHOVIEW
 70
     0
  9
$UCSORGTOP
 10
0.0
 20
0.0
 30
0.0
  9
$UCSORGBOTTOM
 10
0.0
 20
0.0
 30
0.0
  9
$UCSORGLEFT
 10
0.0
 20
0.0
 30
0.0
  9
$UCSORGRIGHT
 10
0.0
 20
0.0
 30
0.0
  9
$UCSORGFRONT
 10
0.0
 20
0.0
 30
0.0
  9
$UCSORGBACK
 10
0.0
 20
0.0
 30
0.0
  9
$PUCSBASE
  2

  9
$PUCSNAME
  2

  9
$PUCSORG
 10
0.0
 20
0.0
 30
0.0
  9
$PUCSXDIR
 10
1.0
 20
0.0
 30
0.0
  9
$PUCSYDIR
 10
0.0
 20
1.0
 30
0.0
  9
$PUCSORTHOREF
  2

  9
$PUCSORTHOVIEW
 70
     0
  9
$PUCSORGTOP
 10
0.0
 20
0.0
 30
0.0
  9
$PUCSORGBOTTOM
 10
0.0
 20
0.0
 30
0.0
  9
$PUCSORGLEFT
 10
0.0
 20
0.0
 30
0.0
  9
$PUCSORGRIGHT
 10
0.0
 20
0.0
 30
0.0
  9
$PUCSORGFRONT
 10
0.0
 20
0.0
 30
0.0
  9
$PUCSORGBACK
 10
0.0
 20
0.0
 30
0.0
  9
$USERI1
 70
     0
  9
$USERI2
 70
     0
  9
$USERI3
 70
     0
  9
$USERI4
 70
     0
  9
$USERI5
 70
     0
  9
$USERR1
 40
0.0
  9
$USERR2
 40
0.0
  9
$USERR3
 40
0.0
  9
$USERR4
 40
0.0
  9
$USERR5
 40
0.0
  9
$WORLDVIEW
 70
     1
  9
$SHADEDGE
 70
     3
  9
$SHADEDIF
 70
    70
  9
$TILEMODE
 70
     1
  9
$MAXACTVP
 70
    64
  9
$PINSBASE
 10
0.0
 20
0.0
 30
0.0
  9
$PLIMCHECK
 70
     0
  9
$PEXTMIN
 10
1.0000000000E+20
 20
1.0000000000E+20
 30
1.0000000000E+20
  9
$PEXTMAX
 10
-1.0000000000E+20
 20
-1.0000000000E+20
 30
-1.0000000000E+20
  9
$PLIMMIN
 10
0.0
 20
0.0
  9
$PLIMMAX
 10
420.0
 20
297.0
  9
$UNITMODE
 70
     0
  9
$VISRETAIN
 70
     1
  9
$PLINEGEN
 70
     0
  9
$PSLTSCALE
 70
     1
  9
$TREEDEPTH
 70
  3020
  9
$CMLSTYLE
  2
Standard
  9
$CMLJUST
 70
     0
  9
$CMLSCALE
 40
20.0
  9
$PROXYGRAPHICS
 70
     1
  9
$MEASUREMENT
 70
     1
  9
$CELWEIGHT
370
    -1
  9
$ENDCAPS
280
     0
  9
$JOINSTYLE
280
     0
  9
$LWDISPLAY
290
     1
  9
$INSUNITS
 70
     4
  9
$HYPERLINKBASE
  1

  9
$STYLESHEET
  1

  9
$XEDIT
290
     1
  9
$CEPSNTYPE
380
     0
  9
$PSTYLEMODE
290
     1
  9
$FINGERPRINTGUID
  2
{23411C4B-8DBC-4C2B-BBC6-EA09FB62C495}
  9
$VERSIONGUID
  2
{FAEB1C32-E019-11D5-929B-00C0DF256EC4}
  9
$EXTNAMES
290
     1
  9
$PSVPSCALE
 40
0.0
  9
$OLESTARTUP
290
     0
  0
ENDSEC
  0
SECTION
  2
CLASSES
  0
CLASS
  1
ACDBDICTIONARYWDFLT
  2
AcDbDictionaryWithDefault
  3
ObjectDBX Classes
 90
        0
280
     0
281
     0
  0
CLASS
  1
VISUALSTYLE
  2
AcDbVisualStyle
  3
ObjectDBX Classes
 90
     4095
280
     0
281
     0
  0
CLASS
  1
MATERIAL
  2
AcDbMaterial
  3
ObjectDBX Classes
 90
     1153
280
     0
281
     0
  0
CLASS
  1
ACDBPLACEHOLDER
  2
AcDbPlaceHolder
  3
ObjectDBX Classes
 90
        0
280
     0
281
     0
  0
CLASS
  1
LAYOUT
  2
AcDbLayout
  3
ObjectDBX Classes
 90
        0
280
     0
281
     0
  0
ENDSEC
  0
SECTION
  2
TABLES
  0
TABLE
  2
VPORT
  5
8
330
0
100
AcDbSymbolTable
 70
     1
  0
VPORT
  5
29
330
8
100
AcDbSymbolTableRecord
100
AcDbViewportTableRecord
  2
*Active
 70
     0
 10
0.0
 20
0.0
 11
1.0
 21
1.0
 12
420.5
 22
297.0
 13
0.0
 23
0.0
 14
10.0
 24
10.0
 15
10.0
 25
10.0
 16
0.0
 26
0.0
 36
1.0
 17
0.0
 27
0.0
 37
0.0
 40
594.0
 41
1.4158249158
 42
50.0
 43
0.0
 44
0.0
 50
0.0
 51
0.0
 71
     0
 72
  2000
 73
     1
 74
     3
 75
     0
 76
     0
 77
     0
 78
     0
281
     0
 65
     1
110
0.0
120
0.0
130
0.0
111
1.0
121
0.0
131
0.0
112
0.0
122
1.0
132
0.0
 79
     0
146
0.0
  0
ENDTAB
  0
TABLE
  2
LTYPE
  5
5
330
0
100
AcDbSymbolTable
 70
     6
  0
LTYPE
  5
14
330
5
100
AcDbSymbolTableRecord
100
AcDbLinetypeTableRecord
  2
ByBlock
 70
     0
  3

 72
    65
 73
     0
 40
0.0
  0
LTYPE
  5
15
330
5
100
AcDbSymbolTableRecord
100
AcDbLinetypeTableRecord
  2
ByLayer
 70
     0
  3

 72
    65
 73
     0
 40
0.0
  0
LTYPE
  5
16
330
5
100
AcDbSymbolTableRecord
100
AcDbLinetypeTableRecord
  2
Continuous
 70
     0
  3
Solid line
 72
    65
 73
     0
 40
0.0
  0
LTYPE
  5
3F
330
5
100
AcDbSymbolTableRecord
100
AcDbLinetypeTableRecord
  2
HIDDEN
 70
     0
  3
Hidden __ __ __ __ __ __ __ __ __ __ __ __ __ __
 72
    65
 73
     2
 40
1.905
 49
1.27
 74
     0
 49
-0.635
 74
     0
  0
LTYPE
  5
40
330
5
100
AcDbSymbolTableRecord
100
AcDbLinetypeTableRecord
  2
PHANTOM
 70
     0
  3
Phantom ______  __  __  ______  __  __  ______
 72
    65
 73
     6
 40
12.7
 49
6.35
 74
     0
 49
-1.27
 74
     0
 49
1.27
 74
     0
 49
-1.27
 74
     0
 49
1.27
 74
     0
 49
-1.27
 74
     0
  0
LTYPE
  5
41
330
5
100
AcDbSymbolTableRecord
100
AcDbLinetypeTableRecord
  2
CENTER
 70
     0
  3
Center ____ _ ____ _ ____ _ ____ _ ____ _ ____
 72
    65
 73
     4
 40
10.16
 49
6.35
 74
     0
 49
-1.27
 74
     0
 49
1.27
 74
     0
 49
-1.27
 74
     0
  0
LTYPE
  5
42
330
5
100
AcDbSymbolTableRecord
100
AcDbLinetypeTableRecord
  2
CENTERX2
 70
     0
  3
Center (2x) ________  __  ________  __  _____
 72
    65
 73
     4
 40
20.32
 49
12.7
 74
     0
 49
-2.54
 74
     0
 49
2.54
 74
     0
 49
-2.54
 74
     0
  0
LTYPE
  5
43
330
5
100
AcDbSymbolTableRecord
100
AcDbLinetypeTableRecord
  2
DOT2
 70
     0
  3
Dot (.5x) ........................................
 72
    65
 73
     2
 40
0.635
 49
0.0
 74
     0
 49
-0.635
 74
     0
  0
ENDTAB
  0
TABLE
  2
LAYER
  5
2
330
0
100
AcDbSymbolTable
 70
     4
  0
LAYER
  5
10
330
2
100
AcDbSymbolTableRecord
100
AcDbLayerTableRecord
  2
0
 70
     0
 62
     7
  6
Continuous
370
    -3
390
F
  0
LAYER
  5
44
330
2
100
AcDbSymbolTableRecord
100
AcDbLayerTableRecord
  2
FORMAT
 70
     0
 62
     7
  6
Continuous
370
    -3
390
F
  0
LAYER
  5
45
330
2
100
AcDbSymbolTableRecord
100
AcDbLayerTableRecord
  2
SLD-0
 70
     0
 62
     1
  6
Continuous
370
    -3
390
F
  0
LAYER
  5
46
330
2
100
AcDbSymbolTableRecord
100
AcDbLayerTableRecord
  2
WATERMARK
 70
     0
 62
     1
  6
Continuous
370
    -3
390
F
  0
ENDTAB
  0
TABLE
  2
STYLE
  5
3
330
0
100
AcDbSymbolTable
 70
     1
  0
STYLE
  5
11
330
3
100
AcDbSymbolTableRecord
100
AcDbTextStyleTableRecord
  2
Standard
 70
     0
 40
0.0
 41
1.0
 50
0.0
 71
     0
 42
3.5
  3
txt
  4

  0
ENDTAB
  0
TABLE
  2
VIEW
  5
6
330
0
100
AcDbSymbolTable
 70
     0
  0
ENDTAB
  0
TABLE
  2
UCS
  5
7
330
0
100
AcDbSymbolTable
 70
     0
  0
ENDTAB
  0
TABLE
  2
APPID
  5
9
330
0
100
AcDbSymbolTable
 70
     1
  0
APPID
  5
12
330
9
100
AcDbSymbolTableRecord
100
AcDbRegAppTableRecord
  2
ACAD
 70
     0
  0
ENDTAB
  0
TABLE
  2
DIMSTYLE
  5
A
330
0
100
AcDbSymbolTable
 70
     1
100
AcDbDimStyleTable
  0
DIMSTYLE
105
27
330
A
100
AcDbSymbolTableRecord
100
AcDbDimStyleTableRecord
  2
ISO-25
 70
     0
 41
2.5
 42
0.625
 43
3.75
 44
1.25
 73
     0
 74
     0
 77
     1
 78
     8
140
2.5
141
2.5
143
0.0393700787
147
0.625
171
     3
172
     1
178
     0
271
     2
272
     2
274
     3
278
    44
283
     0
284
     8
340
11
  0
ENDTAB
  0
TABLE
  2
BLOCK_RECORD
  5
1
330
0
100
AcDbSymbolTable
 70
     1
  0
BLOCK_RECORD
  5
1F
330
1
100
AcDbSymbolTableRecord
100
AcDbBlockTableRecord
  2
*Model_Space
340
22
  0
BLOCK_RECORD
  5
1B
330
1
100
AcDbSymbolTableRecord
100
AcDbBlockTableRecord
  2
*Paper_Space
340
1E
  0
BLOCK_RECORD
  5
23
330
1
100
AcDbSymbolTableRecord
100
AcDbBlockTableRecord
  2
*Paper_Space0
340
26
  0
ENDTAB
  0
ENDSEC
  0
SECTION
  2
BLOCKS
  0
BLOCK
  5
20
330
1F
100
AcDbEntity
  8
0
100
AcDbBlockBegin
  2
*Model_Space
 70
     0
 10
0.0
 20
0.0
 30
0.0
  3
*Model_Space
  1

  0
ENDBLK
  5
21
330
1F
100
AcDbEntity
  8
0
100
AcDbBlockEnd
  0
BLOCK
  5
1C
330
1B
100
AcDbEntity
 67
     1
  8
0
100
AcDbBlockBegin
  2
*Paper_Space
 70
     0
 10
0.0
 20
0.0
 30
0.0
  3
*Paper_Space
  1

  0
ENDBLK
  5
1D
330
1B
100
AcDbEntity
 67
     1
  8
0
100
AcDbBlockEnd
  0
BLOCK
  5
24
330
23
100
AcDbEntity
  8
0
100
AcDbBlockBegin
  2
*Paper_Space0
 70
     0
 10
0.0
 20
0.0
 30
0.0
  3
*Paper_Space0
  1

  0
ENDBLK
  5
25
330
23
100
AcDbEntity
  8
0
100
AcDbBlockEnd
  0
ENDSEC
  0
SECTION
  2
ENTITIES
  0
ARC
  5
47
330
1F
100
AcDbEntity
  8
0
  6
Continuous
 62
     7
370
    15
100
AcDbCircle
 10
-84.7497073687
 20
402.5903789591
 30
0.0
 40
2.0
100
AcDbArc
 50
90.0
 51
180.0
  0
ARC
  5
48
330
1F
100
AcDbEntity
  8
0
  6
Continuous
 62
     7
370
    15
100
AcDbCircle
 10
-69.7497073687
 20
402.5903789591
 30
0.0
 40
2.0
100
AcDbArc
 50
0.0
 51
90.0
  0
LINE
  5
49
330
1F
100
AcDbEntity
  8
0
  6
Continuous
 62
     7
370
    15
100
AcDbLine
 10
-67.7496858147
 20
393.0903778623
 30
0.0
 11
-67.7496858147
 21
402.5903747629
 31
0.0
  0
LINE
  5
4A
330
1F
100
AcDbEntity
  8
0
  6
Continuous
 62
     7
370
    15
100
AcDbLine
 10
-86.7496796158
 20
402.5903747629
 30
0.0
 11
-86.7496796158
 21
393.0903778623
 31
0.0
  0
ARC
  5
4B
330
1F
100
AcDbEntity
  8
0
  6
Continuous
 62
     7
370
    15
100
AcDbCircle
 10
752.5610982757
 20
269.2769634648
 30
0.0
 40
2.000000000000051
100
AcDbArc
 50
205.0
 51
292.0
  0
ARC
  5
4C
330
1F
100
AcDbEntity
  8
0
  6
Continuous
 62
     7
370
    15
100
AcDbCircle
 10
772.7605008148
 20
225.9592049294
 30
0.0
 40
1.999999999999992
100
AcDbArc
 50
118.0
 51
205.0
  0
LINE
  5
4D
330
1F
100
AcDbEntity
  8
0
  6
Continuous
 62
     7
370
    15
100
AcDbLine
 10
771.8215592
 20
227.7250991415
 30
0.0
 11
773.0770937893
 21
228.3926786136
 31
0.0
  0
LINE
  5
4E
330
1F
100
AcDbEntity
  8
0
  6
Continuous
 62
     7
370
    15
100
AcDbLine
 10
754.6287484261
 20
267.955283935
 30
0.0
 11
753.3103123102
 21
267.4225972246
 31
0.0
  0
LINE
  5
4F
330
1F
100
AcDbEntity
  8
0
  6
Continuous
 62
     7
370
    15
100
AcDbLine
 10
783.7868340108
 20
185.7497499536
 30
0.0
 11
784.2289142105
 21
185.9848083209
 31
0.0
  0
LINE
  5
50
330
1F
100
AcDbEntity
  8
0
  6
Continuous
 62
     7
370
    15
100
AcDbLine
 10
777.5780416819
 20
218.7403694939
 30
0.0
 11
784.9506445023
 21
226.5917838763
 31
0.0
  0
LINE
  5
51
330
1F
100
AcDbEntity
  8
0
  6
Continuous
 62
     7
370
    15
100
AcDbLine
 10
760.8614049646
 20
278.2513306688
 30
0.0
 11
750.1078516039
 21
277.650381739
 31
0.0
  0
LINE
  5
52
330
1F
100
AcDbEntity
  8
0
  6
Continuous
 62
     7
370
    15
100
AcDbLine
 10
761.3613612744
 20
278.2580659937
 30
0.0
 11
760.8614049646
 21
278.2513306688
 31
0.0
  0
LINE
  5
53
330
1F
100
AcDbEntity
  8
0
  6
Continuous
 62
     7
370
    15
100
AcDbLine
 10
784.9506445023
 20
226.5917838763
 30
0.0
 11
798.8509841058
 21
242.7112491082
 31
0.0
  0
ARC
  5
54
330
1F
100
AcDbEntity
  8
0
  6
Continuous
 62
     7
370
    15
100
AcDbCircle
 10
798.093669003
 20
243.3643064104
 30
0.0
 40
1.000000000000013
100
AcDbArc
 50
319.227745318
 51
25.0
  0
LINE
  5
55
330
1F
100
AcDbEntity
  8
0
  6
Continuous
 62
     7
370
    15
100
AcDbLine
 10
632.7945448253
 20
28.190377469
 30
0.0
 11
632.7945448253
 21
32.1903781246
 31
0.0
  0
LINE
  5
56
330
1F
100
AcDbEntity
  8
0
  6
Continuous
 62
     7
370
    15
100
AcDbLine
 10
575.7945410702
 20
32.1903781246
 30
0.0
 11
575.7945410702
 21
28.190377469
 31
0.0
  0
ARC
  5
57
330
1F
100
AcDbEntity
  8
0
  6
Continuous
 62
     7
370
    15
100
AcDbCircle
 10
630.7945441696
 20
28.1903789591
 30
0.0
 40
2.000000000000004
100
AcDbArc
 50
270.0
 51
0.0
  0
ARC
  5
58
330
1F
100
AcDbEntity
  8
0
  6
Continuous
 62
     7
370
    15
100
AcDbCircle
 10
577.7945441696
 20
28.1903789591
 30
0.0
 40
2.000000000000114
100
AcDbArc
 50
180.0
 51
270.0
  0
LINE
  5
59
330
1F
100
AcDbEntity
  8
0
  6
Continuous
 62
     7
370
    15
100
AcDbLine
 10
53.7945560905
 20
28.190377469
 30
0.0
 11
53.7945560905
 21
32.1903781246
 31
0.0
  0
LINE
  5
5A
330
1F
100
AcDbEntity
  8
0
  6
Continuous
 62
     7
370
    15
100
AcDbLine
 10
-3.2054849175
 20
32.1903781246
 30
0.0
 11
-3.2054849175
 21
28.190377469
 31
0.0
  0
ARC
  5
5B
330
1F
100
AcDbEntity
  8
0
  6
Continuous
 62
     7
370
    15
100
AcDbCircle
 10
51.7945441696
 20
28.1903789591
 30
0.0
 40
2.000000000000114
100
AcDbArc
 50
270.0
 51
0.0
  0
ARC
  5
5C
330
1F
100
AcDbEntity
  8
0
  6
Continuous
 62
     7
370
    15
100
AcDbCircle
 10
-1.2054558304
 20
28.1903789591
 30
0.0
 40
2.000000000000113
100
AcDbArc
 50
180.0
 51
270.0
  0
LINE
  5
5D
330
1F
100
AcDbEntity
  8
0
  6
Continuous
 62
     7
370
    15
100
AcDbLine
 10
632.594545165
 20
32.1903781246
 30
0.0
 11
632.594545165
 21
61.1903772901
 31
0.0
  0
LINE
  5
5E
330
1F
100
AcDbEntity
  8
0
  6
Continuous
 62
     7
370
    15
100
AcDbLine
 10
575.9945444557
 20
61.1903772901
 30
0.0
 11
575.9945444557
 21
32.1903781246
 31
0.0
  0
LINE
  5
5F
330
1F
100
AcDbEntity
  8
0
  6
Continuous
 62
     7
370
    15
100
AcDbLine
 10
53.5945229027
 20
32.1903781246
 30
0.0
 11
53.5945229027
 21
61.1903772901
 31
0.0
  0
LINE
  5
60
330
1F
100
AcDbEntity
  8
0
  6
Continuous
 62
     7
370
    15
100
AcDbLine
 10
-3.0054517296
 20
61.1903772901
 30
0.0
 11
-3.0054517296
 21
32.1903781246
 31
0.0
  0
ARC
  5
61
330
1F
100
AcDbEntity
  8
0
  6
Continuous
 62
     7
370
    15
100
AcDbCircle
 10
58.6945441696
 20
122.6903789591
 30
0.0
 40
1.5
100
AcDbArc
 50
90.0
 51
180.0
  0
ARC
  5
62
330
1F
100
AcDbEntity
  8
0
  6
Continuous
 62
     7
370
    15
100
AcDbCircle
 10
-8.1054558304
 20
122.6903789591
 30
0.0
 40
1.5
100
AcDbArc
 50
0.0
 51
90.0
  0
ARC
  5
63
330
1F
100
AcDbEntity
  8
0
  6
Continuous
 62
     7
370
    15
100
AcDbCircle
 10
52.4945441696
 20
67.2229449047
 30
0.0
 40
4.700000000000045
100
AcDbArc
 50
350.5402980318
 51
0.0
  0
ARC
  5
64
330
1F
100
AcDbEntity
  8
0
  6
Continuous
 62
     7
370
    15
100
AcDbCircle
 10
-1.9054558304
 20
67.2229449047
 30
0.0
 40
4.700000000000042
100
AcDbArc
 50
180.0
 51
189.4597019682
  0
LINE
  5
65
330
1F
100
AcDbEntity
  8
0
  6
Continuous
 62
     7
370
    15
100
AcDbLine
 10
57.1945242378
 20
67.2229447614
 30
0.0
 11
57.1945242378
 21
122.6903789889
 31
0.0
  0
LINE
  5
66
330
1F
100
AcDbEntity
  8
0
  6
Continuous
 62
     7
370
    15
100
AcDbLine
 10
-6.6054530647
 20
122.6903789889
 30
0.0
 11
-6.6054530647
 21
67.2229447614
 31
0.0
  0
LINE
  5
67
330
1F
100
AcDbEntity
  8
0
  6
Continuous
 62
     7
370
    15
100
AcDbLine
 10
-6.5415568855
 20
66.4504834663
 30
0.0
 11
-5.6651301888
 21
61.1903772901
 31
0.0
  0
LINE
  5
68
330
1F
100
AcDbEntity
  8
0
  6
Continuous
 62
     7
370
    15
100
AcDbLine
 10
56.2542013618
 20
61.1903772901
 30
0.0
 11
57.1306280586
 21
66.4504834663
 31
0.0
  0
ARC
  5
69
330
1F
100
AcDbEntity
  8
0
  6
Continuous
 62
     7
370
    15
100
AcDbCircle
 10
637.6945441696
 20
122.6903789591
 30
0.0
 40
1.5
100
AcDbArc
 50
90.0
 51
180.0
  0
ARC
  5
6A
330
1F
100
AcDbEntity
  8
0
  6
Continuous
 62
     7
370
    15
100
AcDbCircle
 10
570.8945441696
 20
122.6903789591
 30
0.0
 40
1.500000000000114
100
AcDbArc
 50
0.0
 51
90.0
  0
LINE
  5
6B
330
1F
100
AcDbEntity
  8
0
  6
Continuous
 62
     7
370
    15
100
AcDbLine
 10
636.1945427749
 20
67.2229447614
 30
0.0
 11
636.1945427749
 21
122.6903789889
 31
0.0
  0
LINE
  5
6C
330
1F
100
AcDbEntity
  8
0
  6
Continuous
 62
     7
370
    15
100
AcDbLine
 10
572.3945431206
 20
122.6903789889
 30
0.0
 11
572.3945431206
 21
67.2229447614
 31
0.0
  0
ARC
  5
6D
330
1F
100
AcDbEntity
  8
0
  6
Continuous
 62
     7
370
    15
100
AcDbCircle
 10
631.4945441696
 20
67.2229449047
 30
0.0
 40
4.700000000000045
100
AcDbArc
 50
350.5402980318
 51
0.0
  0
ARC
  5
6E
330
1F
100
AcDbEntity
  8
0
  6
Continuous
 62
     7
370
    15
100
AcDbCircle
 10
577.0945441696
 20
67.2229449047
 30
0.0
 40
4.700000000000116
100
AcDbArc
 50
180.0
 51
189.4597019682
  0
LINE
  5
6F
330
1F
100
AcDbEntity
  8
0
  6
Continuous
 62
     7
370
    15
100
AcDbLine
 10
572.4584542009
 20
66.4504834663
 30
0.0
 11
573.3348957989
 21
61.1903772901
 31
0.0
  0
LINE
  5
70
330
1F
100
AcDbEntity
  8
0
  6
Continuous
 62
     7
370
    15
100
AcDbLine
 10
635.2541938219
 20
61.1903772901
 30
0.0
 11
636.1306316945
 21
66.4504834663
 31
0.0
  0
LINE
  5
71
330
1F
100
AcDbEntity
  8
0
  6
Continuous
 62
     7
370
    15
100
AcDbLine
 10
733.2449972424
 20
300.2142862629
 30
0.0
 11
732.2767495903
 21
299.7627810787
 31
0.0
  0
LINE
  5
72
330
1F
100
AcDbEntity
  8
0
  6
Continuous
 62
     7
370
    15
100
AcDbLine
 10
734.6142388675
 20
299.0091846537
 30
0.0
 11
733.2449972424
 21
300.2142862629
 31
0.0
  0
ARC
  5
73
330
1F
100
AcDbEntity
  8
0
  6
Continuous
 62
     7
370
    15
100
AcDbCircle
 10
754.2035409324
 20
290.1266101273
 30
0.0
 40
0.5000000000000067
100
AcDbArc
 50
295.0
 51
25.0
  0
ARC
  5
74
330
1F
100
AcDbEntity
  8
0
  6
Continuous
 62
     7
370
    15
100
AcDbCircle
 10
750.0618819674
 20
299.0084264402
 30
0.0
 40
0.5000000000001097
100
AcDbArc
 50
25.0
 51
115.0
  0
LINE
  5
75
330
1F
100
AcDbEntity
  8
0
  6
Continuous
 62
     7
370
    15
100
AcDbLine
 10
743.2672649416
 20
284.4752476763
 30
0.0
 11
754.4148497078
 21
289.6734581541
 31
0.0
  0
LINE
  5
76
330
1F
100
AcDbEntity
  8
0
  6
Continuous
 62
     7
370
    15
100
AcDbLine
 10
749.85057188
 20
299.4615839075
 30
0.0
 11
737.1622629258
 21
293.5449288439
 31
0.0
  0
ARC
  5
77
330
1F
100
AcDbEntity
  8
0
  6
Continuous
 62
     7
370
    15
100
AcDbCircle
 10
-34.2497073687
 20
380.5903789591
 30
0.0
 40
3.5
100
AcDbArc
 50
214.849904579
 51
236.6604895166
  0
SPLINE
  5
78
330
1F
100
AcDbEntity
  8
0
  6
Continuous
 62
     7
370
    15
100
AcDbSpline
210
0.0
220
0.0
230
1.0
 70
     8
 71
     3
 72
    12
 73
     8
 74
     0
 42
0.00000001
 43
0.00000001
 12
1.0
 22
0.0
 32
0.0
 13
1.0
 23
0.0
 33
0.0
 40
0.0
 40
0.0
 40
0.0
 40
0.0
 40
0.241690662560726
 40
0.4825036864443505
 40
0.7084273386661322
 40
0.9128266726186536
 40
1.0
 40
1.0
 40
1.0
 40
1.0
 10
657.2502933236997
 20
378.5903857301576
 30
0.0
 10
657.4284497780958
 20
378.1654667902034
 30
0.0
 10
657.784115756662
 20
377.3171718962439
 30
0.0
 10
658.2613767109493
 20
376.2128904893397
 30
0.0
 10
658.5392283284208
 20
375.435538841933
 30
0.0
 10
658.6492262766924
 20
375.1214357166538
 30
0.0
 10
658.6725959297369
 20
375.0975325646937
 30
0.0
 10
658.6795829030912
 20
375.0903860877855
 30
0.0
  0
SPLINE
  5
79
330
1F
100
AcDbEntity
  8
0
  6
Continuous
 62
     7
370
    15
100
AcDbSpline
210
0.0
220
0.0
230
1.0
 70
     8
 71
     3
 72
    11
 73
     7
 74
     0
 42
0.00000001
 43
0.00000001
 12
1.0
 22
0.0
 32
0.0
 13
1.0
 23
0.0
 33
0.0
 40
0.0
 40
0.0
 40
0.0
 40
0.0
 40
0.2499974105921756
 40
0.4999991665752621
 40
0.7499978500376802
 40
1.0
 40
1.0
 40
1.0
 40
1.0
 10
-35.54261403351616
 20
375.0903860877855
 30
0.0
 10
-35.60155024050277
 20
375.1429959921987
 30
0.0
 10
-35.71942367888986
 20
375.2482167154771
 30
0.0
 10
-35.89610615494171
 20
376.0575870405638
 30
0.0
 10
-36.07292356370856
 20
377.2144857983196
 30
0.0
 10
-36.19077687186883
 20
378.1317502997504
 30
0.0
 10
-36.24970393448662
 20
378.5903857301576
 30
0.0
  0
SPLINE
  5
7A
330
1F
100
AcDbEntity
  8
0
  6
Continuous
 62
     7
370
    15
100
AcDbSpline
210
0.0
220
0.0
230
1.0
 70
     8
 71
     3
 72
    13
 73
     9
 74
     0
 42
0.00000001
 43
0.00000001
 12
1.0
 22
0.0
 32
0.0
 13
1.0
 23
0.0
 33
0.0
 40
0.0
 40
0.0
 40
0.0
 40
0.0
 40
0.1264699182590514
 40
0.250372600292755
 40
0.3742036399383902
 40
0.5004655415002031
 40
0.7030634426106298
 40
1.0
 40
1.0
 40
1.0
 40
1.0
 10
658.7502926382463
 20
377.1610961507661
 30
0.0
 10
658.7420516111257
 20
377.1744387815662
 30
0.0
 10
658.7257368430162
 20
377.2008531986397
 30
0.0
 10
658.6029728354292
 20
377.3013244147835
 30
0.0
 10
658.4286153708616
 20
377.4459094507978
 30
0.0
 10
658.1734080436523
 20
377.6764294648174
 30
0.0
 10
657.7875821296593
 20
378.0653528476418
 30
0.0
 10
657.4506027953348
 20
378.3946454539387
 30
0.0
 10
657.2502933236997
 20
378.5903857301576
 30
0.0
  0
LWPOLYLINE
  5
7B
330
1F
100
AcDbEntity
  8
0
  6
Continuous
 62
     7
370
    15
100
AcDbPolyline
 90
        2
 70
   128
 43
0.0
 10
657.2502933237
 20
378.5903857302
 10
657.2502933237
 20
378.5903857302
  0
SPLINE
  5
7C
330
1F
100
AcDbEntity
  8
0
  6
Continuous
 62
     7
370
    15
100
AcDbSpline
210
0.0
220
0.0
230
1.0
 70
     8
 71
     3
 72
    13
 73
     9
 74
     0
 42
0.00000001
 43
0.00000001
 12
1.0
 22
0.0
 32
0.0
 13
1.0
 23
0.0
 33
0.0
 40
0.0
 40
0.0
 40
0.0
 40
0.0
 40
0.1446407060842199
 40
0.2829357397691375
 40
0.4154696186357931
 40
0.5429026619087292
 40
0.7331635352436211
 40
1.0
 40
1.0
 40
1.0
 40
1.0
 10
660.7502929660718
 20
377.1610961507661
 30
0.0
 10
660.7314531032351
 20
377.1743036293785
 30
0.0
 10
660.6945999194171
 20
377.200139148527
 30
0.0
 10
660.4137164971866
 20
377.2988611346623
 30
0.0
 10
660.0130659347232
 20
377.4410492400792
 30
0.0
 10
659.4299983772962
 20
377.6658790179138
 30
0.0
 10
658.5279304846043
 20
378.0549186359121
 30
0.0
 10
657.7212206127919
 20
378.3930166532341
 30
0.0
 10
657.2502933236997
 20
378.5903857301576
 30
0.0
  0
LINE
  5
7D
330
1F
100
AcDbEntity
  8
0
  6
Continuous
 62
     7
370
    15
100
AcDbLine
 10
660.7502929661
 20
377.1610961508
 30
0.0
 11
658.7502926382
 21
377.1610961508
 31
0.0
  0
LINE
  5
7E
330
1F
100
AcDbEntity
  8
0
  6
Continuous
 62
     7
370
    15
100
AcDbLine
 10
657.2502933237
 20
408.5903869223
 30
0.0
 11
660.7502929661
 21
408.5903869223
 31
0.0
  0
LINE
  5
7F
330
1F
100
AcDbEntity
  8
0
  6
Continuous
 62
     7
370
    15
100
AcDbLine
 10
660.7502929661
 20
377.1610961508
 30
0.0
 11
660.7502929661
 21
408.5903869223
 31
0.0
  0
LINE
  5
80
330
1F
100
AcDbEntity
  8
0
  6
Continuous
 62
     7
370
    15
100
AcDbLine
 10
657.2502933237
 20
408.5903869223
 30
0.0
 11
-36.2497039345
 21
578.5903738092
 31
0.0
  0
SPLINE
  5
81
330
1F
100
AcDbEntity
  8
0
  6
Continuous
 62
     7
370
    15
100
AcDbSpline
210
0.0
220
0.0
230
1.0
 70
     8
 71
     3
 72
    12
 73
     8
 74
     0
 42
0.00000001
 43
0.00000001
 12
1.0
 22
0.0
 32
0.0
 13
1.0
 23
0.0
 33
0.0
 40
0.0
 40
0.0
 40
0.0
 40
0.0
 40
0.3400890462819455
 40
0.5596677583601924
 40
0.7367084999582114
 40
0.9144508960078092
 40
1.0
 40
1.0
 40
1.0
 40
1.0
 10
657.2502933236997
 20
378.5903857301576
 30
0.0
 10
657.4747200765855
 20
378.3613949684674
 30
0.0
 10
657.8440481072197
 20
377.9845561738005
 30
0.0
 10
658.2890342069433
 20
377.5384406397958
 30
0.0
 10
658.5348944796747
 20
377.2436133836325
 30
0.0
 10
658.6465702451403
 20
377.106204341554
 30
0.0
 10
658.6714869323944
 20
377.0942571429978
 30
0.0
 10
658.6795829030912
 20
377.0903752397401
 30
0.0
  0
LINE
  5
82
330
1F
100
AcDbEntity
  8
0
  6
Continuous
 62
     7
370
    15
100
AcDbLine
 10
658.6795829031
 20
375.0903860878
 30
0.0
 11
658.6795829031
 21
377.0903752397
 31
0.0
  0
LINE
  5
83
330
1F
100
AcDbEntity
  8
0
  6
Continuous
 62
     7
370
    15
100
AcDbLine
 10
-39.7496886757
 20
578.5903738092
 30
0.0
 11
-36.2497039345
 21
578.5903738092
 31
0.0
  0
LINE
  5
84
330
1F
100
AcDbEntity
  8
0
  6
Continuous
 62
     7
370
    15
100
AcDbLine
 10
-39.7496886757
 20
388.8403878759
 30
0.0
 11
-39.7496886757
 21
578.5903738092
 31
0.0
  0
LINE
  5
85
330
1F
100
AcDbEntity
  8
0
  6
Continuous
 62
     7
370
    15
100
AcDbLine
 10
-36.2497039345
 20
378.5903857302
 30
0.0
 11
-39.7496886757
 21
378.5903857302
 31
0.0
  0
SPLINE
  5
86
330
1F
100
AcDbEntity
  8
0
  6
Continuous
 62
     7
370
    15
100
AcDbSpline
210
0.0
220
0.0
230
1.0
 70
     8
 71
     3
 72
    12
 73
     8
 74
     0
 42
0.00000001
 43
0.00000001
 12
1.0
 22
0.0
 32
0.0
 13
1.0
 23
0.0
 33
0.0
 40
0.0
 40
0.0
 40
0.0
 40
0.0
 40
0.1846118315892712
 40
0.4010392393793655
 40
0.6174716769197591
 40
0.8339083095920349
 40
1.0
 40
1.0
 40
1.0
 40
1.0
 10
-39.74968867569756
 20
378.5903857301576
 30
0.0
 10
-39.72096278732101
 20
378.2524928427131
 30
0.0
 10
-39.65856045738475
 20
377.5184753888703
 30
0.0
 10
-39.12846052759239
 20
376.4871548390988
 30
0.0
 10
-38.26790570394872
 20
375.6511383734181
 30
0.0
 10
-37.25305989080413
 20
375.1674615202992
 30
0.0
 10
-36.55346442948964
 20
375.1137202508864
 30
0.0
 10
-36.24970393448662
 20
375.0903860877855
 30
0.0
  0
SPLINE
  5
87
330
1F
100
AcDbEntity
  8
0
  6
Continuous
 62
     7
370
    15
100
AcDbSpline
210
0.0
220
0.0
230
1.0
 70
     8
 71
     3
 72
    12
 73
     8
 74
     0
 42
0.00000001
 43
0.00000001
 12
1.0
 22
0.0
 32
0.0
 13
1.0
 23
0.0
 33
0.0
 40
0.0
 40
0.0
 40
0.0
 40
0.0
 40
0.224284901492972
 40
0.4485590051263071
 40
0.6727833005948795
 40
0.897007907054774
 40
1.0
 40
1.0
 40
1.0
 40
1.0
 10
-37.7497144249041
 20
378.5903857301576
 30
0.0
 10
-37.7315992301161
 20
378.4142138530394
 30
0.0
 10
-37.69536971266879
 20
378.0618785803334
 30
0.0
 10
-37.4138826650296
 20
377.5977911469318
 30
0.0
 10
-37.00287562315335
 20
377.2580067799464
 30
0.0
 10
-36.58618618220549
 20
377.1068230222004
 30
0.0
 10
-36.33025786910532
 20
377.0943128429923
 30
0.0
 10
-36.24970393448662
 20
377.0903752397401
 30
0.0
  0
LINE
  5
88
330
1F
100
AcDbEntity
  8
0
  6
Continuous
 62
     7
370
    15
100
AcDbLine
 10
-36.2497039345
 20
375.0903860878
 30
0.0
 11
-36.2497039345
 21
377.0903752397
 31
0.0
  0
LINE
  5
89
330
1F
100
AcDbEntity
  8
0
  6
Continuous
 62
     7
370
    15
100
AcDbLine
 10
-36.2497039345
 20
377.0903752397
 30
0.0
 11
-36.0479422119
 21
377.0903752397
 31
0.0
  0
ARC
  5
8A
330
1F
100
AcDbEntity
  8
0
  6
Continuous
 62
     7
370
    15
100
AcDbCircle
 10
774.4819557491
 20
180.1491447295
 30
0.0
 40
10.80000000000015
100
AcDbArc
 50
335.0
 51
25.0
  0
ARC
  5
8B
330
1F
100
AcDbEntity
  8
0
  6
Continuous
 62
     7
370
    15
100
AcDbCircle
 10
774.4819557491
 20
180.1491447295
 30
0.0
 40
10.00000000000014
100
AcDbArc
 50
335.0
 51
25.0
  0
LINE
  5
8C
330
1F
100
AcDbEntity
  8
0
  6
Continuous
 62
     7
370
    15
100
AcDbLine
 10
695.2418599072
 20
125.149144626
 30
0.0
 11
753.8711584899
 21
125.149144626
 31
0.0
  0
LINE
  5
8D
330
1F
100
AcDbEntity
  8
0
  6
Continuous
 62
     7
370
    15
100
AcDbLine
 10
695.2418599072
 20
125.949144664
 30
0.0
 11
753.8711584899
 21
125.949144664
 31
0.0
  0
ARC
  5
8E
330
1F
100
AcDbEntity
  8
0
  6
Continuous
 62
     7
370
    15
100
AcDbCircle
 10
753.8711572586
 20
135.9491447295
 30
0.0
 40
10.8
100
AcDbArc
 50
270.0
 51
335.0
  0
ARC
  5
8F
330
1F
100
AcDbEntity
  8
0
  6
Continuous
 62
     7
370
    15
100
AcDbCircle
 10
753.8711572586
 20
135.9491447295
 30
0.0
 40
10.00000000000002
100
AcDbArc
 50
270.0
 51
335.0
  0
LINE
  5
90
330
1F
100
AcDbEntity
  8
0
  6
Continuous
 62
     7
370
    15
100
AcDbLine
 10
763.6592842433
 20
131.3848675441
 30
0.0
 11
784.2700786683
 21
175.5848669659
 31
0.0
  0
LINE
  5
91
330
1F
100
AcDbEntity
  8
0
  6
Continuous
 62
     7
370
    15
100
AcDbLine
 10
762.9342384431
 20
131.7229620859
 30
0.0
 11
783.5450328681
 21
175.9229631375
 31
0.0
  0
LINE
  5
92
330
1F
100
AcDbEntity
  8
0
  6
Continuous
 62
     7
370
    15
100
AcDbLine
 10
743.0853366646
 20
313.7330518316
 30
0.0
 11
743.4234328362
 21
313.0080060314
 31
0.0
  0
LWPOLYLINE
  5
93
330
1F
100
AcDbEntity
  8
0
  6
Continuous
 62
     7
370
    15
100
AcDbPolyline
 90
        9
 70
   128
 43
0.0
 10
743.4234328362
 20
313.0080060314
 10
743.3886013719
 20
312.9917637657
 10
743.2854555342
 20
312.9436628174
 10
743.1179515812
 20
312.8655658316
 10
742.8925268146
 20
312.7604381393
 10
742.6178499851
 20
312.6323626589
 10
742.3044748399
 20
312.486226971
 10
741.964437792
 20
312.3276637148
 10
741.6108146104
 20
312.162767465
  0
LWPOLYLINE
  5
94
330
1F
100
AcDbEntity
  8
0
  6
Continuous
 62
     7
370
    15
100
AcDbPolyline
 90
        9
 70
   128
 43
0.0
 10
741.2727221641
 20
312.8878132652
 10
741.6263453457
 20
313.052709515
 10
741.9663786683
 20
313.2112727712
 10
742.2797575387
 20
313.3574084591
 10
742.5544343683
 20
313.4854988407
 10
742.7798554096
 20
313.5906116318
 10
742.9473593625
 20
313.6687086176
 10
743.0505089256
 20
313.7168095659
 10
743.0853366646
 20
313.7330518316
  0
LINE
  5
95
330
1F
100
AcDbEntity
  8
0
  6
Continuous
 62
     7
370
    15
100
AcDbLine
 10
784.2700786683
 20
184.7134226214
 30
0.0
 11
728.3632091972
 21
304.6060906004
 31
0.0
  0
LINE
  5
96
330
1F
100
AcDbEntity
  8
0
  6
Continuous
 62
     7
370
    15
100
AcDbLine
 10
783.5450328681
 20
184.3753264498
 30
0.0
 11
727.638163397
 21
304.2679981541
 31
0.0
  0
LINE
  5
97
330
1F
100
AcDbEntity
  8
0
  6
Continuous
 62
     7
370
    15
100
AcDbLine
 10
728.9678238127
 20
306.2672422479
 30
0.0
 11
741.6108146104
 21
312.162767465
 31
0.0
  0
LINE
  5
98
330
1F
100
AcDbEntity
  8
0
  6
Continuous
 62
     7
370
    15
100
AcDbLine
 10
728.6297276411
 20
306.9922880482
 30
0.0
 11
741.2727221641
 21
312.8878132652
 31
0.0
  0
ARC
  5
99
330
1F
100
AcDbEntity
  8
0
  6
Continuous
 62
     7
370
    15
100
AcDbCircle
 10
729.4960949567
 20
305.1343636007
 30
0.0
 40
2.050000000000033
100
AcDbArc
 50
115.0
 51
205.0
  0
ARC
  5
9A
330
1F
100
AcDbEntity
  8
0
  6
Continuous
 62
     7
370
    15
100
AcDbCircle
 10
729.4960949567
 20
305.1343636007
 30
0.0
 40
1.250000000000077
100
AcDbArc
 50
115.0
 51
205.0
  0
LINE
  5
9B
330
1F
100
AcDbEntity
  8
0
  6
Continuous
 62
     7
370
    15
100
AcDbLine
 10
693.2418598122
 20
125.149144626
 30
0.0
 11
693.2418598122
 21
125.949144664
 31
0.0
  0
LINE
  5
9C
330
1F
100
AcDbEntity
  8
0
  6
Continuous
 62
     7
370
    15
100
AcDbLine
 10
695.2418599072
 20
125.149144626
 30
0.0
 11
693.2418598122
 21
125.149144626
 31
0.0
  0
LINE
  5
9D
330
1F
100
AcDbEntity
  8
0
  6
Continuous
 62
     7
370
    15
100
AcDbLine
 10
693.2418598122
 20
125.949144664
 30
0.0
 11
695.2418599072
 21
125.949144664
 31
0.0
  0
LWPOLYLINE
  5
9E
330
1F
100
AcDbEntity
  8
0
  6
Continuous
 62
     7
370
    15
100
AcDbPolyline
 90
        9
 70
   128
 43
0.0
 10
746.3403723928
 20
313.0700693678
 10
745.9867492113
 20
312.905173118
 10
745.6467158887
 20
312.7466247629
 10
745.3333370182
 20
312.6004890751
 10
745.0586601886
 20
312.4723986935
 10
744.8332391474
 20
312.3672859024
 10
744.6657351944
 20
312.2891740154
 10
744.5625856313
 20
312.2410879682
 10
744.5277578923
 20
312.2248457025
  0
LINE
  5
9F
330
1F
100
AcDbEntity
  8
0
  6
Continuous
 62
     7
370
    15
100
AcDbLine
 10
744.5277578923
 20
312.2248457025
 30
0.0
 11
743.6825193259
 21
314.0374527525
 31
0.0
  0
LWPOLYLINE
  5
A0
330
1F
100
AcDbEntity
  8
0
  6
Continuous
 62
     7
370
    15
100
AcDbPolyline
 90
        9
 70
   128
 43
0.0
 10
743.6825193259
 20
314.0374527525
 10
743.7173507902
 20
314.0536950182
 10
743.820496628
 20
314.1017959665
 10
743.988000581
 20
314.1799078535
 10
744.2134253475
 20
314.2850206446
 10
744.4881021771
 20
314.4131110262
 10
744.8014773223
 20
314.5592318128
 10
745.1415143701
 20
314.7177950691
 10
745.4951375517
 20
314.8826913189
  0
ARC
  5
A1
330
1F
100
AcDbEntity
  8
0
  6
Continuous
 62
     7
370
    15
100
AcDbCircle
 10
-110.4997073687
 20
377.3403789591
 30
0.0
 40
2.25
100
AcDbArc
 50
180.0
 51
270.0
  0
ARC
  5
A2
330
1F
100
AcDbEntity
  8
0
  6
Continuous
 62
     7
370
    15
100
AcDbCircle
 10
-110.4997073687
 20
377.3403789591
 30
0.0
 40
4.25
100
AcDbArc
 50
180.0
 51
270.0
  0
ARC
  5
A3
330
1F
100
AcDbEntity
  8
0
  6
Continuous
 62
     7
370
    15
100
AcDbCircle
 10
758.8153424351
 20
332.1277855457
 30
0.0
 40
10.00000000000001
100
AcDbArc
 50
295.0
 51
335.0
  0
ARC
  5
A4
330
1F
100
AcDbEntity
  8
0
  6
Continuous
 62
     7
370
    15
100
AcDbCircle
 10
758.8153424351
 20
332.1277855457
 30
0.0
 40
12.0
100
AcDbArc
 50
295.0
 51
335.0
  0
LINE
  5
A5
330
1F
100
AcDbEntity
  8
0
  6
Continuous
 62
     7
370
    15
100
AcDbLine
 10
-37.4997325447
 20
373.0903820347
 30
0.0
 11
773.2534341309
 21
373.0903820347
 31
0.0
  0
LINE
  5
A6
330
1F
100
AcDbEntity
  8
0
  6
Continuous
 62
     7
370
    15
100
AcDbLine
 10
-37.4997325447
 20
375.0903860878
 30
0.0
 11
773.2534341309
 21
375.0903860878
 31
0.0
  0
LINE
  5
A7
330
1F
100
AcDbEntity
  8
0
  6
Continuous
 62
     7
370
    15
100
AcDbLine
 10
-99.7496910599
 20
375.0903860878
 30
0.0
 11
-99.7496910599
 21
373.0903820347
 31
0.0
  0
LINE
  5
A8
330
1F
100
AcDbEntity
  8
0
  6
Continuous
 62
     7
370
    15
100
AcDbLine
 10
-101.7497249153
 20
375.0903860878
 30
0.0
 11
-99.7496910599
 21
375.0903860878
 31
0.0
  0
LINE
  5
A9
330
1F
100
AcDbEntity
  8
0
  6
Continuous
 62
     7
370
    15
100
AcDbLine
 10
-99.7496910599
 20
373.0903820347
 30
0.0
 11
-101.7497249153
 21
373.0903820347
 31
0.0
  0
LINE
  5
AA
330
1F
100
AcDbEntity
  8
0
  6
Continuous
 62
     7
370
    15
100
AcDbLine
 10
784.1291285846
 20
358.018960173
 30
0.0
 11
769.691035876
 21
327.0563737701
 31
0.0
  0
LINE
  5
AB
330
1F
100
AcDbEntity
  8
0
  6
Continuous
 62
     7
370
    15
100
AcDbLine
 10
782.316514084
 20
358.8641987394
 30
0.0
 11
767.8784213755
 21
327.9015974354
 31
0.0
  0
LINE
  5
AC
330
1F
100
AcDbEntity
  8
0
  6
Continuous
 62
     7
370
    15
100
AcDbLine
 10
763.8867579195
 20
321.2520883631
 30
0.0
 11
746.3403723928
 21
313.0700693678
 31
0.0
  0
LINE
  5
AD
330
1F
100
AcDbEntity
  8
0
  6
Continuous
 62
     7
370
    15
100
AcDbLine
 10
763.0415268037
 20
323.0647103142
 30
0.0
 11
745.4951375517
 21
314.8826913189
 31
0.0
  0
LINE
  5
AE
330
1F
100
AcDbEntity
  8
0
  6
Continuous
 62
     7
370
    15
100
AcDbLine
 10
-101.7497249153
 20
375.0903860878
 30
0.0
 11
-110.4996867683
 21
375.0903860878
 31
0.0
  0
LINE
  5
AF
330
1F
100
AcDbEntity
  8
0
  6
Continuous
 62
     7
370
    15
100
AcDbLine
 10
-101.7497249153
 20
373.0903820347
 30
0.0
 11
-110.4996867683
 21
373.0903820347
 31
0.0
  0
ARC
  5
B0
330
1F
100
AcDbEntity
  8
0
  6
Continuous
 62
     7
370
    15
100
AcDbCircle
 10
-37.4997073687
 20
377.3403789591
 30
0.0
 40
2.25
100
AcDbArc
 50
180.0
 51
270.0
  0
ARC
  5
B1
330
1F
100
AcDbEntity
  8
0
  6
Continuous
 62
     7
370
    15
100
AcDbCircle
 10
-37.4997073687
 20
377.3403789591
 30
0.0
 40
4.25
100
AcDbArc
 50
180.0
 51
270.0
  0
LINE
  5
B2
330
1F
100
AcDbEntity
  8
0
  6
Continuous
 62
     7
370
    15
100
AcDbLine
 10
-114.7497363594
 20
377.3403720211
 30
0.0
 11
-114.7497363594
 21
388.8403878759
 31
0.0
  0
LINE
  5
B3
330
1F
100
AcDbEntity
  8
0
  6
Continuous
 62
     7
370
    15
100
AcDbLine
 10
-112.749702504
 20
377.3403720211
 30
0.0
 11
-112.749702504
 21
388.8403878759
 31
0.0
  0
ARC
  5
B4
330
1F
100
AcDbEntity
  8
0
  6
Continuous
 62
     7
370
    15
100
AcDbCircle
 10
773.2534368601
 20
363.0903789591
 30
0.0
 40
10.00000000000014
100
AcDbArc
 50
335.0
 51
90.0
  0
ARC
  5
B5
330
1F
100
AcDbEntity
  8
0
  6
Continuous
 62
     7
370
    15
100
AcDbCircle
 10
773.2534368601
 20
363.0903789591
 30
0.0
 40
12.00000000000011
100
AcDbArc
 50
335.0
 51
90.0
  0
ARC
  5
B6
330
1F
100
AcDbEntity
  8
0
  6
Continuous
 62
     7
370
    15
100
AcDbCircle
 10
-110.4997073687
 20
388.8403789591
 30
0.0
 40
4.25
100
AcDbArc
 50
90.0
 51
180.0
  0
ARC
  5
B7
330
1F
100
AcDbEntity
  8
0
  6
Continuous
 62
     7
370
    15
100
AcDbCircle
 10
-110.4997073687
 20
388.8403789591
 30
0.0
 40
2.25
100
AcDbArc
 50
90.0
 51
180.0
  0
LINE
  5
B8
330
1F
100
AcDbEntity
  8
0
  6
Continuous
 62
     7
370
    15
100
AcDbLine
 10
-110.4996867683
 20
393.0903778623
 30
0.0
 11
-43.9996786621
 21
393.0903778623
 31
0.0
  0
LINE
  5
B9
330
1F
100
AcDbEntity
  8
0
  6
Continuous
 62
     7
370
    15
100
AcDbLine
 10
-110.4996867683
 20
391.0903738092
 30
0.0
 11
-43.9996786621
 21
391.0903738092
 31
0.0
  0
LINE
  5
BA
330
1F
100
AcDbEntity
  8
0
  6
Continuous
 62
     7
370
    15
100
AcDbLine
 10
-39.7496886757
 20
388.8403878759
 30
0.0
 11
-39.7496886757
 21
377.3403720211
 31
0.0
  0
LINE
  5
BB
330
1F
100
AcDbEntity
  8
0
  6
Continuous
 62
     7
370
    15
100
AcDbLine
 10
-41.7497225311
 20
388.8403878759
 30
0.0
 11
-41.7497225311
 21
377.3403720211
 31
0.0
  0
ARC
  5
BC
330
1F
100
AcDbEntity
  8
0
  6
Continuous
 62
     7
370
    15
100
AcDbCircle
 10
-43.9997073687
 20
388.8403789591
 30
0.0
 40
4.250000000000057
100
AcDbArc
 50
0.0
 51
90.0
  0
ARC
  5
BD
330
1F
100
AcDbEntity
  8
0
  6
Continuous
 62
     7
370
    15
100
AcDbCircle
 10
-43.9997073687
 20
388.8403789591
 30
0.0
 40
2.250000000000057
100
AcDbArc
 50
0.0
 51
90.0
  0
LINE
  5
BE
330
1F
100
AcDbEntity
  8
0
  6
Continuous
 62
     7
370
    15
100
AcDbLine
 10
572.3945431206
 20
73.1903792571
 30
0.0
 11
57.1945242378
 21
73.1903792571
 31
0.0
  0
ARC
  5
BF
330
1F
100
AcDbEntity
  8
0
  6
Continuous
 62
     7
370
    15
100
AcDbCircle
 10
200.4945441696
 20
86.3903789591
 30
0.0
 40
2.0
100
AcDbArc
 50
180.0
 51
270.0
  0
LINE
  5
C0
330
1F
100
AcDbEntity
  8
0
  6
Continuous
 62
     7
370
    15
100
AcDbLine
 10
218.4945575687
 20
125.890378908
 30
0.0
 11
218.4945575687
 21
86.3903791856
 31
0.0
  0
LINE
  5
C1
330
1F
100
AcDbEntity
  8
0
  6
Continuous
 62
     7
370
    15
100
AcDbLine
 10
237.4945513698
 20
86.3903791856
 30
0.0
 11
237.4945513698
 21
125.890378908
 31
0.0
  0
LINE
  5
C2
330
1F
100
AcDbEntity
  8
0
  6
Continuous
 62
     7
370
    15
100
AcDbLine
 10
257.4945322964
 20
125.890378908
 30
0.0
 11
257.4945322964
 21
86.3903791856
 31
0.0
  0
LINE
  5
C3
330
1F
100
AcDbEntity
  8
0
  6
Continuous
 62
     7
370
    15
100
AcDbLine
 10
333.4945373032
 20
84.3903788577
 30
0.0
 11
317.4945346805
 21
84.3903788577
 31
0.0
  0
ARC
  5
C4
330
1F
100
AcDbEntity
  8
0
  6
Continuous
 62
     7
370
    15
100
AcDbCircle
 10
395.4945441696
 20
86.3903789591
 30
0.0
 40
2.0
100
AcDbArc
 50
180.0
 51
270.0
  0
ARC
  5
C5
330
1F
100
AcDbEntity
  8
0
  6
Continuous
 62
     7
370
    15
100
AcDbCircle
 10
434.4945441696
 20
86.3903789591
 30
0.0
 40
2.0
100
AcDbArc
 50
180.0
 51
270.0
  0
ARC
  5
C6
330
1F
100
AcDbEntity
  8
0
  6
Continuous
 62
     7
370
    15
100
AcDbCircle
 10
489.4945441696
 20
86.3903789591
 30
0.0
 40
2.0
100
AcDbArc
 50
270.0
 51
0.0
  0
LINE
  5
C7
330
1F
100
AcDbEntity
  8
0
  6
Continuous
 62
     7
370
    15
100
AcDbLine
 10
510.494538376
 20
86.3903791856
 30
0.0
 11
510.494538376
 21
125.890378908
 31
0.0
  0
ARC
  5
C8
330
1F
100
AcDbEntity
  8
0
  6
Continuous
 62
     7
370
    15
100
AcDbCircle
 10
512.4945441696
 20
86.3903789591
 30
0.0
 40
2.0
100
AcDbArc
 50
180.0
 51
270.0
  0
LINE
  5
C9
330
1F
100
AcDbEntity
  8
0
  6
Continuous
 62
     7
370
    15
100
AcDbLine
 10
528.4945450518
 20
84.3903788577
 30
0.0
 11
512.4945424292
 21
84.3903788577
 31
0.0
  0
ARC
  5
CA
330
1F
100
AcDbEntity
  8
0
  6
Continuous
 62
     7
370
    15
100
AcDbCircle
 10
528.4945441696
 20
86.3903789591
 30
0.0
 40
2.0
100
AcDbArc
 50
270.0
 51
0.0
  0
LINE
  5
CB
330
1F
100
AcDbEntity
  8
0
  6
Continuous
 62
     7
370
    15
100
AcDbLine
 10
530.4945491049
 20
125.890378908
 30
0.0
 11
530.4945491049
 21
86.3903791856
 31
0.0
  0
ARC
  5
CC
330
1F
100
AcDbEntity
  8
0
  6
Continuous
 62
     7
370
    15
100
AcDbCircle
 10
83.4945441696
 20
86.3903789591
 30
0.0
 40
2.0
100
AcDbArc
 50
180.0
 51
270.0
  0
ARC
  5
CD
330
1F
100
AcDbEntity
  8
0
  6
Continuous
 62
     7
370
    15
100
AcDbCircle
 10
99.4945441696
 20
86.3903789591
 30
0.0
 40
2.0
100
AcDbArc
 50
270.0
 51
0.0
  0
ARC
  5
CE
330
1F
100
AcDbEntity
  8
0
  6
Continuous
 62
     7
370
    15
100
AcDbCircle
 10
473.4945441696
 20
86.3903789591
 30
0.0
 40
2.0
100
AcDbArc
 50
180.0
 51
270.0
  0
ARC
  5
CF
330
1F
100
AcDbEntity
  8
0
  6
Continuous
 62
     7
370
    15
100
AcDbCircle
 10
411.4945441696
 20
86.3903789591
 30
0.0
 40
2.0
100
AcDbArc
 50
270.0
 51
0.0
  0
LINE
  5
D0
330
1F
100
AcDbEntity
  8
0
  6
Continuous
 62
     7
370
    15
100
AcDbLine
 10
138.4945444557
 20
84.3903788577
 30
0.0
 11
122.4945716354
 21
84.3903788577
 31
0.0
  0
LINE
  5
D1
330
1F
100
AcDbEntity
  8
0
  6
Continuous
 62
     7
370
    15
100
AcDbLine
 10
120.49453778
 20
86.3903791856
 30
0.0
 11
120.49453778
 21
125.890378908
 31
0.0
  0
LINE
  5
D2
330
1F
100
AcDbEntity
  8
0
  6
Continuous
 62
     7
370
    15
100
AcDbLine
 10
452.494540045
 20
125.890378908
 30
0.0
 11
452.494540045
 21
86.3903791856
 31
0.0
  0
LINE
  5
D3
330
1F
100
AcDbEntity
  8
0
  6
Continuous
 62
     7
370
    15
100
AcDbLine
 10
432.4945442173
 20
86.3903791856
 30
0.0
 11
432.4945442173
 21
125.890378908
 31
0.0
  0
ARC
  5
D4
330
1F
100
AcDbEntity
  8
0
  6
Continuous
 62
     7
370
    15
100
AcDbCircle
 10
239.4945441696
 20
86.3903789591
 30
0.0
 40
2.000000000000028
100
AcDbArc
 50
180.0
 51
270.0
  0
ARC
  5
D5
330
1F
100
AcDbEntity
  8
0
  6
Continuous
 62
     7
370
    15
100
AcDbCircle
 10
122.4945441696
 20
86.3903789591
 30
0.0
 40
2.0
100
AcDbArc
 50
180.0
 51
270.0
  0
LINE
  5
D6
330
1F
100
AcDbEntity
  8
0
  6
Continuous
 62
     7
370
    15
100
AcDbLine
 10
198.4945468399
 20
86.3903791856
 30
0.0
 11
198.4945468399
 21
125.890378908
 31
0.0
  0
ARC
  5
D7
330
1F
100
AcDbEntity
  8
0
  6
Continuous
 62
     7
370
    15
100
AcDbCircle
 10
372.4945441696
 20
86.3903789591
 30
0.0
 40
2.0
100
AcDbArc
 50
270.0
 51
0.0
  0
ARC
  5
D8
330
1F
100
AcDbEntity
  8
0
  6
Continuous
 62
     7
370
    15
100
AcDbCircle
 10
356.4945441696
 20
86.3903789591
 30
0.0
 40
2.000000000000057
100
AcDbArc
 50
180.0
 51
270.0
  0
LINE
  5
D9
330
1F
100
AcDbEntity
  8
0
  6
Continuous
 62
     7
370
    15
100
AcDbLine
 10
335.4945413563
 20
125.890378908
 30
0.0
 11
335.4945413563
 21
86.3903791856
 31
0.0
  0
LINE
  5
DA
330
1F
100
AcDbEntity
  8
0
  6
Continuous
 62
     7
370
    15
100
AcDbLine
 10
450.494550893
 20
84.3903788577
 30
0.0
 11
434.4945482704
 21
84.3903788577
 31
0.0
  0
LINE
  5
DB
330
1F
100
AcDbEntity
  8
0
  6
Continuous
 62
     7
370
    15
100
AcDbLine
 10
471.4945487472
 20
86.3903791856
 30
0.0
 11
471.4945487472
 21
125.890378908
 31
0.0
  0
LINE
  5
DC
330
1F
100
AcDbEntity
  8
0
  6
Continuous
 62
     7
370
    15
100
AcDbLine
 10
140.4945187065
 20
125.890378908
 30
0.0
 11
140.4945187065
 21
86.3903791856
 31
0.0
  0
LINE
  5
DD
330
1F
100
AcDbEntity
  8
0
  6
Continuous
 62
     7
370
    15
100
AcDbLine
 10
354.4945351574
 20
86.3903791856
 30
0.0
 11
354.4945351574
 21
125.890378908
 31
0.0
  0
LINE
  5
DE
330
1F
100
AcDbEntity
  8
0
  6
Continuous
 62
     7
370
    15
100
AcDbLine
 10
177.4945191833
 20
84.3903788577
 30
0.0
 11
161.4945463631
 21
84.3903788577
 31
0.0
  0
LINE
  5
DF
330
1F
100
AcDbEntity
  8
0
  6
Continuous
 62
     7
370
    15
100
AcDbLine
 10
101.4945439789
 20
125.890378908
 30
0.0
 11
101.4945439789
 21
86.3903791856
 31
0.0
  0
ARC
  5
E0
330
1F
100
AcDbEntity
  8
0
  6
Continuous
 62
     7
370
    15
100
AcDbCircle
 10
450.4945441696
 20
86.3903789591
 30
0.0
 40
2.0
100
AcDbArc
 50
270.0
 51
0.0
  0
LINE
  5
E1
330
1F
100
AcDbEntity
  8
0
  6
Continuous
 62
     7
370
    15
100
AcDbLine
 10
372.4945418331
 20
84.3903788577
 30
0.0
 11
356.4945392105
 21
84.3903788577
 31
0.0
  0
ARC
  5
E2
330
1F
100
AcDbEntity
  8
0
  6
Continuous
 62
     7
370
    15
100
AcDbCircle
 10
161.4945441696
 20
86.3903789591
 30
0.0
 40
2.0
100
AcDbArc
 50
180.0
 51
270.0
  0
LINE
  5
E3
330
1F
100
AcDbEntity
  8
0
  6
Continuous
 62
     7
370
    15
100
AcDbLine
 10
315.4945306274
 20
86.3903791856
 30
0.0
 11
315.4945306274
 21
125.890378908
 31
0.0
  0
LINE
  5
E4
330
1F
100
AcDbEntity
  8
0
  6
Continuous
 62
     7
370
    15
100
AcDbLine
 10
99.4945697281
 20
84.3903788577
 30
0.0
 11
83.4945373032
 21
84.3903788577
 31
0.0
  0
LINE
  5
E5
330
1F
100
AcDbEntity
  8
0
  6
Continuous
 62
     7
370
    15
100
AcDbLine
 10
491.4945445749
 20
125.890378908
 30
0.0
 11
491.4945445749
 21
86.3903791856
 31
0.0
  0
LINE
  5
E6
330
1F
100
AcDbEntity
  8
0
  6
Continuous
 62
     7
370
    15
100
AcDbLine
 10
159.4945721123
 20
86.3903791856
 30
0.0
 11
159.4945721123
 21
125.890378908
 31
0.0
  0
LINE
  5
E7
330
1F
100
AcDbEntity
  8
0
  6
Continuous
 62
     7
370
    15
100
AcDbLine
 10
393.4945396873
 20
86.3903791856
 30
0.0
 11
393.4945396873
 21
125.890378908
 31
0.0
  0
LINE
  5
E8
330
1F
100
AcDbEntity
  8
0
  6
Continuous
 62
     7
370
    15
100
AcDbLine
 10
81.4945630524
 20
86.3903791856
 30
0.0
 11
81.4945630524
 21
125.890378908
 31
0.0
  0
ARC
  5
E9
330
1F
100
AcDbEntity
  8
0
  6
Continuous
 62
     7
370
    15
100
AcDbCircle
 10
177.4945441696
 20
86.3903789591
 30
0.0
 40
2.0
100
AcDbArc
 50
270.0
 51
0.0
  0
ARC
  5
EA
330
1F
100
AcDbEntity
  8
0
  6
Continuous
 62
     7
370
    15
100
AcDbCircle
 10
216.4945441696
 20
86.3903789591
 30
0.0
 40
2.0
100
AcDbArc
 50
270.0
 51
0.0
  0
LINE
  5
EB
330
1F
100
AcDbEntity
  8
0
  6
Continuous
 62
     7
370
    15
100
AcDbLine
 10
489.4945405218
 20
84.3903788577
 30
0.0
 11
473.4945378992
 21
84.3903788577
 31
0.0
  0
ARC
  5
EC
330
1F
100
AcDbEntity
  8
0
  6
Continuous
 62
     7
370
    15
100
AcDbCircle
 10
138.4945441696
 20
86.3903789591
 30
0.0
 40
2.0
100
AcDbArc
 50
270.0
 51
0.0
  0
LINE
  5
ED
330
1F
100
AcDbEntity
  8
0
  6
Continuous
 62
     7
370
    15
100
AcDbLine
 10
216.4945535156
 20
84.3903788577
 30
0.0
 11
200.494550893
 21
84.3903788577
 31
0.0
  0
LINE
  5
EE
330
1F
100
AcDbEntity
  8
0
  6
Continuous
 62
     7
370
    15
100
AcDbLine
 10
413.4945504162
 20
125.890378908
 30
0.0
 11
413.4945504162
 21
86.3903791856
 31
0.0
  0
ARC
  5
EF
330
1F
100
AcDbEntity
  8
0
  6
Continuous
 62
     7
370
    15
100
AcDbCircle
 10
317.4945441696
 20
86.3903789591
 30
0.0
 40
2.000000000000057
100
AcDbArc
 50
180.0
 51
270.0
  0
LINE
  5
F0
330
1F
100
AcDbEntity
  8
0
  6
Continuous
 62
     7
370
    15
100
AcDbLine
 10
179.4945530388
 20
125.890378908
 30
0.0
 11
179.4945530388
 21
86.3903791856
 31
0.0
  0
LINE
  5
F1
330
1F
100
AcDbEntity
  8
0
  6
Continuous
 62
     7
370
    15
100
AcDbLine
 10
255.4945580456
 20
84.3903788577
 30
0.0
 11
239.494555423
 21
84.3903788577
 31
0.0
  0
LINE
  5
F2
330
1F
100
AcDbEntity
  8
0
  6
Continuous
 62
     7
370
    15
100
AcDbLine
 10
411.4945463631
 20
84.3903788577
 30
0.0
 11
395.4945437405
 21
84.3903788577
 31
0.0
  0
ARC
  5
F3
330
1F
100
AcDbEntity
  8
0
  6
Continuous
 62
     7
370
    15
100
AcDbCircle
 10
255.4945441696
 20
86.3903789591
 30
0.0
 40
2.000000000000028
100
AcDbArc
 50
270.0
 51
0.0
  0
LINE
  5
F4
330
1F
100
AcDbEntity
  8
0
  6
Continuous
 62
     7
370
    15
100
AcDbLine
 10
374.4945458862
 20
125.890378908
 30
0.0
 11
374.4945458862
 21
86.3903791856
 31
0.0
  0
ARC
  5
F5
330
1F
100
AcDbEntity
  8
0
  6
Continuous
 62
     7
370
    15
100
AcDbCircle
 10
333.4945441696
 20
86.3903789591
 30
0.0
 40
2.0
100
AcDbArc
 50
270.0
 51
0.0
  0
LINE
  5
F6
330
1F
100
AcDbEntity
  8
0
  6
Continuous
 62
     7
370
    15
100
AcDbLine
 10
700.3238338772
 20
98.5903789501
 30
0.0
 11
699.1445438731
 21
98.5903789501
 31
0.0
  0
SPLINE
  5
F7
330
1F
100
AcDbEntity
  8
0
  6
Continuous
 62
     7
370
    15
100
AcDbSpline
210
0.0
220
0.0
230
1.0
 70
     8
 71
     3
 72
    16
 73
    12
 74
     0
 42
0.00000001
 43
0.00000001
 12
1.0
 22
0.0
 32
0.0
 13
1.0
 23
0.0
 33
0.0
 40
0.0
 40
0.0
 40
0.0
 40
0.0
 40
0.12634234856025
 40
0.2476545931503511
 40
0.3659208289172566
 40
0.4841746857436949
 40
0.6042965139015564
 40
0.7264205989975772
 40
0.8498578526714106
 40
0.9858934873177109
 40
1.0
 40
1.0
 40
1.0
 40
1.0
 10
699.1445438730757
 20
98.59037895012929
 30
0.0
 10
696.3835914999253
 20
98.61006704899073
 30
0.0
 10
690.9716093381878
 20
98.64865939881633
 30
0.0
 10
682.9739773836869
 20
98.57711584321488
 30
0.0
 10
675.1658564292826
 20
97.90733264986737
 30
0.0
 10
667.5369486458061
 20
96.21199565530486
 30
0.0
 10
660.0544658476033
 20
93.71997610176288
 30
0.0
 10
652.6487657834141
 20
90.70930182878745
 30
0.0
 10
645.0008180279336
 20
87.38895028056942
 30
0.0
 10
639.5570391073613
 20
84.90313089409779
 30
0.0
 10
636.4833311105181
 20
83.75449554535186
 30
0.0
 10
636.1945427748601
 20
83.64657622088029
 30
0.0
  0
LINE
  5
F8
330
1F
100
AcDbEntity
  8
0
  6
Continuous
 62
     7
370
    15
100
AcDbLine
 10
700.3238338772
 20
117.3403787639
 30
0.0
 11
700.3238338772
 21
98.5903789501
 31
0.0
  0
LINE
  5
F9
330
1F
100
AcDbEntity
  8
0
  6
Continuous
 62
     7
370
    15
100
AcDbLine
 10
636.1945427749
 20
119.3903790068
 30
0.0
 11
699.1445438731
 21
119.3903790068
 31
0.0
  0
SPLINE
  5
FA
330
1F
100
AcDbEntity
  8
0
  6
Continuous
 62
     7
370
    15
100
AcDbSpline
210
0.0
220
0.0
230
1.0
 70
     8
 71
     3
 72
    11
 73
     7
 74
     0
 42
0.00000001
 43
0.00000001
 12
1.0
 22
0.0
 32
0.0
 13
1.0
 23
0.0
 33
0.0
 40
0.0
 40
0.0
 40
0.0
 40
0.0
 40
0.2499994075994145
 40
0.5000008873320541
 40
0.7500004924101159
 40
1.0
 40
1.0
 40
1.0
 40
1.0
 10
700.3238338771503
 20
117.3403787638648
 30
0.0
 10
700.2255596229484
 20
117.6090054716254
 30
0.0
 10
700.0290102999933
 20
118.1462611136732
 30
0.0
 10
699.7341896117352
 20
118.82387061645
 30
0.0
 10
699.4393660919875
 20
119.2979355096607
 30
0.0
 10
699.2428179332722
 20
119.3595645117281
 30
0.0
 10
699.1445438730757
 20
119.3903790067537
 30
0.0
  0
LINE
  5
FB
330
1F
100
AcDbEntity
  8
0
  6
Continuous
 62
     7
370
    15
100
AcDbLine
 10
530.4945491049
 20
119.3903790068
 30
0.0
 11
510.494538376
 21
119.3903790068
 31
0.0
  0
LINE
  5
FC
330
1F
100
AcDbEntity
  8
0
  6
Continuous
 62
     7
370
    15
100
AcDbLine
 10
491.4945445749
 20
119.3903790068
 30
0.0
 11
471.4945487472
 21
119.3903790068
 31
0.0
  0
LINE
  5
FD
330
1F
100
AcDbEntity
  8
0
  6
Continuous
 62
     7
370
    15
100
AcDbLine
 10
452.494540045
 20
119.3903790068
 30
0.0
 11
432.4945442173
 21
119.3903790068
 31
0.0
  0
LINE
  5
FE
330
1F
100
AcDbEntity
  8
0
  6
Continuous
 62
     7
370
    15
100
AcDbLine
 10
413.4945504162
 20
119.3903790068
 30
0.0
 11
393.4945396873
 21
119.3903790068
 31
0.0
  0
LINE
  5
FF
330
1F
100
AcDbEntity
  8
0
  6
Continuous
 62
     7
370
    15
100
AcDbLine
 10
374.4945458862
 20
119.3903790068
 30
0.0
 11
354.4945351574
 21
119.3903790068
 31
0.0
  0
LINE
  5
100
330
1F
100
AcDbEntity
  8
0
  6
Continuous
 62
     7
370
    15
100
AcDbLine
 10
335.4945413563
 20
119.3903790068
 30
0.0
 11
315.4945306274
 21
119.3903790068
 31
0.0
  0
LINE
  5
101
330
1F
100
AcDbEntity
  8
0
  6
Continuous
 62
     7
370
    15
100
AcDbLine
 10
257.4945322964
 20
119.3903790068
 30
0.0
 11
237.4945513698
 21
119.3903790068
 31
0.0
  0
LINE
  5
102
330
1F
100
AcDbEntity
  8
0
  6
Continuous
 62
     7
370
    15
100
AcDbLine
 10
218.4945575687
 20
119.3903790068
 30
0.0
 11
198.4945468399
 21
119.3903790068
 31
0.0
  0
LINE
  5
103
330
1F
100
AcDbEntity
  8
0
  6
Continuous
 62
     7
370
    15
100
AcDbLine
 10
179.4945530388
 20
119.3903790068
 30
0.0
 11
159.4945721123
 21
119.3903790068
 31
0.0
  0
LINE
  5
104
330
1F
100
AcDbEntity
  8
0
  6
Continuous
 62
     7
370
    15
100
AcDbLine
 10
140.4945187065
 20
119.3903790068
 30
0.0
 11
120.49453778
 21
119.3903790068
 31
0.0
  0
LINE
  5
105
330
1F
100
AcDbEntity
  8
0
  6
Continuous
 62
     7
370
    15
100
AcDbLine
 10
101.4945439789
 20
119.3903790068
 30
0.0
 11
81.4945630524
 21
119.3903790068
 31
0.0
  0
LINE
  5
106
330
1F
100
AcDbEntity
  8
0
  6
Continuous
 62
     7
370
    15
100
AcDbLine
 10
700.3945445436
 20
117.3403787639
 30
0.0
 11
701.194544116
 21
117.3403787639
 31
0.0
  0
SPLINE
  5
107
330
1F
100
AcDbEntity
  8
0
  6
Continuous
 62
     7
370
    15
100
AcDbSpline
210
0.0
220
0.0
230
1.0
 70
     8
 71
     3
 72
    12
 73
     8
 74
     0
 42
0.00000001
 43
0.00000001
 12
1.0
 22
0.0
 32
0.0
 13
1.0
 23
0.0
 33
0.0
 40
0.0
 40
0.0
 40
0.0
 40
0.0
 40
0.228671123292861
 40
0.4574144708141519
 40
0.6861581283543323
 40
0.9149027189059902
 40
1.0
 40
1.0
 40
1.0
 40
1.0
 10
699.1445438730757
 20
119.3903790067537
 30
0.0
 10
699.39001603753
 20
119.36464302396
 30
0.0
 10
699.8810378971623
 20
119.3131629298366
 30
0.0
 10
700.5242054657431
 20
118.9135490342325
 30
0.0
 10
700.9883757403207
 20
118.3321782506532
 30
0.0
 10
701.1771522494497
 20
117.7666844521152
 30
0.0
 10
701.1908342756459
 20
117.4313135711804
 30
0.0
 10
701.1945441159646
 20
117.3403787638648
 30
0.0
  0
LINE
  5
108
330
1F
100
AcDbEntity
  8
0
  6
Continuous
 62
     7
370
    15
100
AcDbLine
 10
701.194544116
 20
117.3403787639
 30
0.0
 11
701.194544116
 21
97.7524605792
 31
0.0
  0
LINE
  5
109
330
1F
100
AcDbEntity
  8
0
  6
Continuous
 62
     7
370
    15
100
AcDbLine
 10
700.3945445436
 20
97.7524605792
 30
0.0
 11
701.194544116
 21
97.7524605792
 31
0.0
  0
LINE
  5
10A
330
1F
100
AcDbEntity
  8
0
  6
Continuous
 62
     7
370
    15
100
AcDbLine
 10
700.3945445436
 20
117.3403787639
 30
0.0
 11
700.3945445436
 21
97.7524605792
 31
0.0
  0
LINE
  5
10B
330
1F
100
AcDbEntity
  8
0
  6
Continuous
 62
     7
370
    15
100
AcDbLine
 10
701.194544116
 20
93.5903781306
 30
0.0
 11
700.3945445436
 21
93.5903781306
 31
0.0
  0
LINE
  5
10C
330
1F
100
AcDbEntity
  8
0
  6
Continuous
 62
     7
370
    15
100
AcDbLine
 10
700.3945445436
 20
93.5903781306
 30
0.0
 11
700.3945445436
 21
97.7524605792
 31
0.0
  0
LINE
  5
10D
330
1F
100
AcDbEntity
  8
0
  6
Continuous
 62
     7
370
    15
100
AcDbLine
 10
701.194544116
 20
93.5903781306
 30
0.0
 11
701.194544116
 21
97.7524605792
 31
0.0
  0
LINE
  5
10E
330
1F
100
AcDbEntity
  8
0
  6
Continuous
 62
     7
370
    15
100
AcDbLine
 10
-44.0012879875
 20
373.2903854202
 30
0.0
 11
-99.651343396
 21
373.2903854202
 31
0.0
  0
LINE
  5
10F
330
1F
100
AcDbEntity
  8
0
  6
Continuous
 62
     7
370
    15
100
AcDbLine
 10
-99.651343396
 20
373.2903854202
 30
0.0
 11
-99.651343396
 21
375.2903745722
 31
0.0
  0
LINE
  5
110
330
1F
100
AcDbEntity
  8
0
  6
Continuous
 62
     7
370
    15
100
AcDbLine
 10
-99.651343396
 20
375.2903745722
 30
0.0
 11
-110.5012960938
 21
375.2903745722
 31
0.0
  0
ARC
  5
111
330
1F
100
AcDbEntity
  8
0
  6
Continuous
 62
     7
370
    15
100
AcDbCircle
 10
-110.5013144245
 20
377.4403789591
 30
0.0
 40
2.149999999999977
100
AcDbArc
 50
180.0
 51
270.0
  0
LINE
  5
112
330
1F
100
AcDbEntity
  8
0
  6
Continuous
 62
     7
370
    15
100
AcDbLine
 10
-112.6512952355
 20
377.4403737139
 30
0.0
 11
-112.6512952355
 21
388.9403746675
 31
0.0
  0
ARC
  5
113
330
1F
100
AcDbEntity
  8
0
  6
Continuous
 62
     7
370
    15
100
AcDbCircle
 10
-110.5013144245
 20
388.9403789591
 30
0.0
 40
2.149999999999977
100
AcDbArc
 50
90.0
 51
180.0
  0
LINE
  5
114
330
1F
100
AcDbEntity
  8
0
  6
Continuous
 62
     7
370
    15
100
AcDbLine
 10
-110.5012960938
 20
391.0903738092
 30
0.0
 11
-110.4996867683
 21
391.0903738092
 31
0.0
  0
LINE
  5
115
330
1F
100
AcDbEntity
  8
0
  6
Continuous
 62
     7
370
    15
100
AcDbLine
 10
-44.0012879875
 20
388.790379579
 30
0.0
 11
-44.0012879875
 21
391.0903738092
 31
0.0
  0
ARC
  5
116
330
1F
100
AcDbEntity
  8
0
  6
Continuous
 62
     7
370
    15
100
AcDbCircle
 10
-44.0013144245
 20
388.9403789591
 30
0.0
 40
2.149999999999991
100
AcDbArc
 50
359.9999999959
 51
90.0
  0
ARC
  5
117
330
1F
100
AcDbEntity
  8
0
  6
Continuous
 62
     7
370
    15
100
AcDbCircle
 10
-37.5013144245
 20
377.4403789586
 30
0.0
 40
4.349999999999964
100
AcDbArc
 50
179.999999996
 51
252.5584061437
  0
LINE
  5
118
330
1F
100
AcDbEntity
  8
0
  6
Continuous
 62
     7
370
    15
100
AcDbLine
 10
-38.8051338699
 20
373.2903854202
 30
0.0
 11
-44.0012879875
 21
373.2903854202
 31
0.0
  0
LINE
  5
119
330
1F
100
AcDbEntity
  8
0
  6
Continuous
 62
     7
370
    15
100
AcDbLine
 10
-99.651343396
 20
375.5903796505
 30
0.0
 11
-99.651343396
 21
375.2903745722
 31
0.0
  0
LINE
  5
11A
330
1F
100
AcDbEntity
  8
0
  6
Continuous
 62
     7
370
    15
100
AcDbLine
 10
-110.4996867683
 20
391.0903738092
 30
0.0
 11
-110.4996867683
 21
388.790379579
 31
0.0
  0
LINE
  5
11B
330
1F
100
AcDbEntity
  8
0
  6
Continuous
 62
     7
370
    15
100
AcDbLine
 10
-41.8512888458
 20
388.9403746675
 30
0.0
 11
-41.8512888458
 21
377.4403737139
 31
0.0
  0
LINE
  5
11C
330
1F
100
AcDbEntity
  8
0
  6
Continuous
 62
     7
370
    15
100
AcDbLine
 10
-44.0012879875
 20
373.2903854202
 30
0.0
 11
-44.0012879875
 21
375.5903796505
 31
0.0
  0
LINE
  5
11D
330
1F
100
AcDbEntity
  8
0
  6
Continuous
 62
     7
370
    15
100
AcDbLine
 10
-84.749705365
 20
404.590378816
 30
0.0
 11
-69.7497196701
 21
404.590378816
 31
0.0
  0
LWPOLYLINE
  5
11E
330
1F
100
AcDbEntity
  8
0
  6
Continuous
 62
     7
370
    15
100
AcDbPolyline
 90
       22
 70
   128
 43
0.0
 10
749.9256998095
 20
270.1961950611
 10
750.4903718624
 20
268.9852521967
 10
751.1879175696
 20
267.4893544268
 10
752.0093887839
 20
265.7277093481
 10
752.9442503843
 20
263.7228922199
 10
753.9805106613
 20
261.5006224464
 10
755.1048703286
 20
259.0894208502
 10
756.3029087874
 20
256.5202222418
 10
757.55925549
 20
253.8259730886
 10
758.8577948305
 20
251.0412440847
 10
760.1818747613
 20
248.2017533134
 10
761.5144930574
 20
245.3439415645
 10
762.8385729882
 20
242.5044507932
 10
764.1371123287
 20
239.7197217893
 10
765.3934590313
 20
237.0254726361
 10
766.5914974901
 20
234.4562740277
 10
767.7158571574
 20
232.0450724315
 10
768.7521137092
 20
229.8228101086
 10
769.6869827601
 20
227.8179929804
 10
770.5084539744
 20
226.0563330006
 10
771.2059996817
 20
224.5604426812
 10
771.7706642839
 20
223.3495072674
  0
SPLINE
  5
11F
330
1F
100
AcDbEntity
  8
0
  6
Continuous
 62
     7
370
    15
100
AcDbSpline
210
0.0
220
0.0
230
1.0
 70
     8
 71
     3
 72
    11
 73
     7
 74
     0
 42
0.00000001
 43
0.00000001
 12
1.0
 22
0.0
 32
0.0
 13
1.0
 23
0.0
 33
0.0
 40
0.0
 40
0.0
 40
0.0
 40
0.0
 40
0.1499507758577147
 40
0.4331745140227612
 40
0.7165914904107348
 40
1.0
 40
1.0
 40
1.0
 40
1.0
 10
773.3378343078534
 20
219.9886993717058
 30
0.0
 10
773.237713142368
 20
220.2034139521255
 30
0.0
 10
772.9484853144058
 20
220.8236767249912
 30
0.0
 10
772.4921466273264
 20
221.8022956343125
 30
0.0
 10
772.0343807276521
 20
222.7839782926699
 30
0.0
 10
771.8585688897941
 20
223.1609994863506
 30
0.0
 10
771.7706642839353
 20
223.3495072673662
 30
0.0
  0
SPLINE
  5
120
330
1F
100
AcDbEntity
  8
0
  6
Continuous
 62
     7
370
    15
100
AcDbSpline
210
0.0
220
0.0
230
1.0
 70
     8
 71
     3
 72
    11
 73
     7
 74
     0
 42
0.00000001
 43
0.00000001
 12
1.0
 22
0.0
 32
0.0
 13
1.0
 23
0.0
 33
0.0
 40
0.0
 40
0.0
 40
0.0
 40
0.0
 40
0.149951990764089
 40
0.4331752245443065
 40
0.7165931275209508
 40
1.0
 40
1.0
 40
1.0
 40
1.0
 10
749.9256998094957
 20
270.1961950610979
 30
0.0
 10
749.8835421884576
 20
270.2866039458261
 30
0.0
 10
749.7617589639309
 20
270.547773462439
 30
0.0
 10
749.4318203009024
 20
271.2553235517512
 30
0.0
 10
748.9284926009367
 20
272.3347116078731
 30
0.0
 10
748.5485149258892
 20
273.1495678587652
 30
0.0
 10
748.3585297855775
 20
273.5569880555971
 30
0.0
  0
SPLINE
  5
121
330
1F
100
AcDbEntity
  8
0
  6
Continuous
 62
     7
370
    15
100
AcDbSpline
210
0.0
220
0.0
230
1.0
 70
     8
 71
     3
 72
    12
 73
     8
 74
     0
 42
0.00000001
 43
0.00000001
 12
1.0
 22
0.0
 32
0.0
 13
1.0
 23
0.0
 33
0.0
 40
0.0
 40
0.0
 40
0.0
 40
0.0
 40
0.1175335207881536
 40
0.3293294782270382
 40
0.5373946018252945
 40
0.8742803753788743
 40
1.0
 40
1.0
 40
1.0
 40
1.0
 10
736.660917082731
 20
290.3608934234483
 30
0.0
 10
736.9873677787133
 20
290.383503361775
 30
0.0
 10
737.9020841647601
 20
290.4468565153428
 30
0.0
 10
739.3628785472197
 20
289.9527015671551
 30
0.0
 10
741.0528319753396
 20
288.6653142275578
 30
0.0
 10
742.0462462587574
 20
287.0469917996885
 30
0.0
 10
742.6013345159683
 20
285.8933575410643
 30
0.0
 10
742.7521876785199
 20
285.5798409532411
 30
0.0
  0
SPLINE
  5
122
330
1F
100
AcDbEntity
  8
0
  6
Continuous
 62
     7
370
    15
100
AcDbSpline
210
0.0
220
0.0
230
1.0
 70
     8
 71
     3
 72
     9
 73
     5
 74
     0
 42
0.00000001
 43
0.00000001
 12
1.0
 22
0.0
 32
0.0
 13
1.0
 23
0.0
 33
0.0
 40
0.0
 40
0.0
 40
0.0
 40
0.0
 40
0.0000244888729386
 40
1.0
 40
1.0
 40
1.0
 40
1.0
 10
785.2834544870298
 20
194.3712414454324
 30
0.0
 10
785.2834644211624
 20
194.3712215772286
 30
0.0
 10
785.6891234586282
 20
193.5599060074953
 30
0.0
 10
785.9689074820827
 20
192.6934211834043
 30
0.0
 10
786.2486846539418
 20
191.8269575785501
 30
0.0
  0
LINE
  5
123
330
1F
100
AcDbEntity
  8
0
  6
Continuous
 62
     7
370
    15
100
AcDbLine
 10
742.7521876785
 20
285.5798409532
 30
0.0
 11
748.3585297856
 21
273.5569880556
 31
0.0
  0
LINE
  5
124
330
1F
100
AcDbEntity
  8
0
  6
Continuous
 62
     7
370
    15
100
AcDbLine
 10
773.3378343079
 20
219.9886993717
 30
0.0
 11
785.283454487
 21
194.3712414454
 31
0.0
  0
SPLINE
  5
125
330
1F
100
AcDbEntity
  8
0
  6
Continuous
 62
     7
370
    15
100
AcDbSpline
210
0.0
220
0.0
230
1.0
 70
     8
 71
     3
 72
    20
 73
    16
 74
     0
 42
0.00000001
 43
0.00000001
 12
1.0
 22
0.0
 32
0.0
 13
1.0
 23
0.0
 33
0.0
 40
0.0
 40
0.0
 40
0.0
 40
0.0
 40
0.2070574104517778
 40
0.4203770243356496
 40
0.7011166196048157
 40
0.8834527766440117
 40
0.9282290235875055
 40
0.9524785532302583
 40
0.9675017460093143
 40
0.9773830087553811
 40
0.9840946566281401
 40
0.9887400338389811
 40
0.9919928608880738
 40
0.9977344087031325
 40
1.0
 40
1.0
 40
1.0
 40
1.0
 10
786.2486846539418
 20
191.8269575785501
 30
0.0
 10
786.3535482350294
 20
191.3378439592511
 30
0.0
 10
786.5664468706424
 20
190.344824064941
 30
0.0
 10
786.3680106096272
 20
188.6360684509688
 30
0.0
 10
785.7339373535252
 20
187.3392643259372
 30
0.0
 10
785.0631635678685
 20
186.5715560483804
 30
0.0
 10
784.6528289150735
 20
186.2500451309917
 30
0.0
 10
784.5073360741166
 20
186.1499444141333
 30
0.0
 10
784.4194469647043
 20
186.0940725159166
 30
0.0
 10
784.3617756321473
 20
186.0592990522297
 30
0.0
 10
784.3225143459985
 20
186.0364890787837
 30
0.0
 10
784.2952835316823
 20
186.021055465736
 30
0.0
 10
784.2696907371205
 20
186.0068115700601
 30
0.0
 10
784.2484429191172
 20
185.9952274648844
 30
0.0
 10
784.2332211542764
 20
185.9871062028568
 30
0.0
 10
784.2289142105024
 20
185.9848083208902
 30
0.0
  0
SPLINE
  5
126
330
1F
100
AcDbEntity
  8
0
  6
Continuous
 62
     7
370
    15
100
AcDbSpline
210
0.0
220
0.0
230
1.0
 70
     8
 71
     3
 72
    10
 73
     6
 74
     0
 42
0.00000001
 43
0.00000001
 12
1.0
 22
0.0
 32
0.0
 13
1.0
 23
0.0
 33
0.0
 40
0.0
 40
0.0
 40
0.0
 40
0.0
 40
0.4527369542289907
 40
0.9055962334225687
 40
1.0
 40
1.0
 40
1.0
 40
1.0
 10
786.3707624170224
 20
189.0300394247873
 30
0.0
 10
786.3783883455092
 20
189.0825390793539
 30
0.0
 10
786.3936422629317
 20
189.1875525733648
 30
0.0
 10
786.5169889272959
 20
189.67021415558
 30
0.0
 10
786.4749722228493
 20
190.1466643155337
 30
0.0
 10
786.4677242729108
 20
190.2288527439935
 30
0.0
  0
SPLINE
  5
127
330
1F
100
AcDbEntity
  8
0
  6
Continuous
 62
     7
370
    15
100
AcDbSpline
210
0.0
220
0.0
230
1.0
 70
     8
 71
     3
 72
    12
 73
     8
 74
     0
 42
0.00000001
 43
0.00000001
 12
1.0
 22
0.0
 32
0.0
 13
1.0
 23
0.0
 33
0.0
 40
0.0
 40
0.0
 40
0.0
 40
0.0
 40
0.4616925895350245
 40
0.7307675668464525
 40
0.9175820266294497
 40
0.9719295368483155
 40
1.0
 40
1.0
 40
1.0
 40
1.0
 10
786.2276293131749
 20
191.9023425530298
 30
0.0
 10
786.1976164046969
 20
192.0109005399179
 30
0.0
 10
786.1501119383057
 20
192.1827262476251
 30
0.0
 10
786.0784820298898
 20
192.4068397224436
 30
0.0
 10
786.0370016726666
 20
192.5311957891994
 30
0.0
 10
786.0145043025773
 20
192.5968762210199
 30
0.0
 10
786.00756359315
 20
192.6169632497376
 30
0.0
 10
786.0051996800344
 20
192.6238046239717
 30
0.0
  0
LINE
  5
128
330
1F
100
AcDbEntity
  8
0
  6
Continuous
 62
     7
370
    15
100
AcDbLine
 10
741.3823462817
 20
287.8409878563
 30
0.0
 11
740.9367345068
 21
288.5758684229
 31
0.0
  0
LINE
  5
129
330
1F
100
AcDbEntity
  8
0
  6
Continuous
 62
     7
370
    15
100
AcDbLine
 10
785.3296406362
 20
194.2716942381
 30
0.0
 11
785.2876044604
 21
194.3623380016
 31
0.0
  0
SPLINE
  5
12A
330
1F
100
AcDbEntity
  8
0
  6
Continuous
 62
     7
370
    15
100
AcDbSpline
210
0.0
220
0.0
230
1.0
 70
     8
 71
     3
 72
     9
 73
     5
 74
     0
 42
0.00000001
 43
0.00000001
 12
1.0
 22
0.0
 32
0.0
 13
1.0
 23
0.0
 33
0.0
 40
0.0
 40
0.0
 40
0.0
 40
0.0
 40
0.5000136357049408
 40
1.0
 40
1.0
 40
1.0
 40
1.0
 10
785.7974476906697
 20
193.184058482538
 30
0.0
 10
785.7294760470477
 20
193.3527741799866
 30
0.0
 10
785.5935364670676
 20
193.6901963729048
 30
0.0
 10
785.4176043138167
 20
194.0778651404442
 30
0.0
 10
785.3296406361501
 20
194.2716942380769
 30
0.0
  0
SPLINE
  5
12B
330
1F
100
AcDbEntity
  8
0
  6
Continuous
 62
     7
370
    15
100
AcDbSpline
210
0.0
220
0.0
230
1.0
 70
     8
 71
     3
 72
    13
 73
     9
 74
     0
 42
0.00000001
 43
0.00000001
 12
1.0
 22
0.0
 32
0.0
 13
1.0
 23
0.0
 33
0.0
 40
0.0
 40
0.0
 40
0.0
 40
0.0
 40
0.1254670381118495
 40
0.2502460087145158
 40
0.3760724268378069
 40
0.5019151100567169
 40
0.7508322505929635
 40
1.0
 40
1.0
 40
1.0
 40
1.0
 10
740.9367345067899
 20
288.5758684228761
 30
0.0
 10
740.8490568397066
 20
288.6731442945378
 30
0.0
 10
740.6741823342493
 20
288.867162572118
 30
0.0
 10
740.400497054046
 20
289.1265564717986
 30
0.0
 10
740.1335024308675
 20
289.3500430131741
 30
0.0
 10
739.8086361900448
 20
289.5884942608009
 30
0.0
 10
739.4759533129874
 20
289.7860625660679
 30
0.0
 10
739.42303938695
 20
289.8130315868314
 30
0.0
 10
739.3965691122453
 20
289.8265228818757
 30
0.0
  0
SPLINE
  5
12C
330
1F
100
AcDbEntity
  8
0
  6
Continuous
 62
     7
370
    15
100
AcDbSpline
210
0.0
220
0.0
230
1.0
 70
     8
 71
     3
 72
     9
 73
     5
 74
     0
 42
0.00000001
 43
0.00000001
 12
1.0
 22
0.0
 32
0.0
 13
1.0
 23
0.0
 33
0.0
 40
0.0
 40
0.0
 40
0.0
 40
0.0
 40
0.8821731640810901
 40
1.0
 40
1.0
 40
1.0
 40
1.0
 10
786.4868946167867
 20
190.0211752604349
 30
0.0
 10
786.4939194182465
 20
190.03187053491
 30
0.0
 10
786.5018824823544
 20
190.0439943161705
 30
0.0
 10
786.4821624642937
 20
190.2943324678327
 30
0.0
 10
786.4798389169614
 20
190.3238290201528
 30
0.0
  0
SPLINE
  5
12D
330
1F
100
AcDbEntity
  8
0
  6
Continuous
 62
     7
370
    15
100
AcDbSpline
210
0.0
220
0.0
230
1.0
 70
     8
 71
     3
 72
     9
 73
     5
 74
     0
 42
0.00000001
 43
0.00000001
 12
1.0
 22
0.0
 32
0.0
 13
1.0
 23
0.0
 33
0.0
 40
0.0
 40
0.0
 40
0.0
 40
0.0
 40
0.0370169907703329
 40
1.0
 40
1.0
 40
1.0
 40
1.0
 10
786.2406380268972
 20
191.848161930929
 30
0.0
 10
786.238075183514
 20
191.8610380442597
 30
0.0
 10
786.1688409391875
 20
192.2088813741146
 30
0.0
 10
785.9796425371782
 20
192.7056646390936
 30
0.0
 10
785.7974476906697
 20
193.184058482538
 30
0.0
  0
LINE
  5
12E
330
1F
100
AcDbEntity
  8
0
  6
Continuous
 62
     7
370
    15
100
AcDbLine
 10
786.00519968
 20
192.623804624
 30
0.0
 11
785.8360938522
 21
193.0689023088
 31
0.0
  0
LWPOLYLINE
  5
12F
330
1F
100
AcDbEntity
  8
0
  6
Continuous
 62
     7
370
    15
100
AcDbPolyline
 90
        6
 70
   128
 43
0.0
 10
762.8900639507
 20
273.9008472513
 10
762.1733851525
 20
275.437767918
 10
761.6054050419
 20
276.6558037351
 10
761.1939914319
 20
277.5380865883
 10
760.9448365662
 20
278.0723975252
 10
760.8614049646
 20
278.2513306688
  0
LWPOLYLINE
  5
130
330
1F
100
AcDbEntity
  8
0
  6
Continuous
 62
     7
370
    15
100
AcDbPolyline
 90
        6
 70
   128
 43
0.0
 10
784.9506445023
 20
226.5917838763
 10
784.8672054502
 20
226.7707095693
 10
784.6180580351
 20
227.3050205063
 10
784.2066369745
 20
228.1873033594
 10
783.6386568639
 20
229.4053466271
 10
782.9219855163
 20
230.9422598432
  0
LWPOLYLINE
  5
131
330
1F
100
AcDbEntity
  8
0
  6
Continuous
 62
     7
370
    15
100
AcDbPolyline
 90
       31
 70
   128
 43
0.0
 10
777.5780416819
 20
218.7403694939
 10
777.5027982685
 20
218.9017267178
 10
777.2778950426
 20
219.3840326022
 10
776.9057981464
 20
220.1819972347
 10
776.390575597
 20
221.2868885349
 10
775.737882385
 20
222.6865918588
 10
774.9548710677
 20
224.3657739114
 10
774.0501098129
 20
226.3060392093
 10
773.0335153434
 20
228.486131246
 10
771.9162337276
 20
230.8821560096
 10
770.7104913685
 20
233.4678725551
 10
769.4295130464
 20
236.2149463247
 10
768.0873207542
 20
239.0932769727
 10
766.6986293885
 20
242.0713336419
 10
765.2786530349
 20
245.11649024
 10
763.8429485056
 20
248.1953756164
 10
762.4072365257
 20
251.2742609929
 10
760.9872601721
 20
254.3194101404
 10
759.5985688064
 20
257.2974668096
 10
758.2563765141
 20
260.1758049082
 10
756.9753981921
 20
262.9228786777
 10
755.7696632835
 20
265.5085877727
 10
754.6523742172
 20
267.9046199869
 10
753.635783473
 20
270.084704573
 10
752.7310222182
 20
272.0249698709
 10
751.9480071756
 20
273.7041519235
 10
751.2953139636
 20
275.103862698
 10
750.7800951394
 20
276.208739097
 10
750.4079982433
 20
277.0067111801
 10
750.1830950174
 20
277.4890170645
 10
750.1078516039
 20
277.650381739
  0
LWPOLYLINE
  5
132
330
1F
100
AcDbEntity
  8
0
  6
Continuous
 62
     7
370
    15
100
AcDbPolyline
 90
       17
 70
   128
 43
0.0
 10
763.6653043124
 20
272.2383395981
 10
764.5442642066
 20
270.3534172129
 10
765.5299015138
 20
268.2397023987
 10
766.6096471044
 20
265.9241811584
 10
767.7697323057
 20
263.4363726925
 10
768.9953453633
 20
260.8080462765
 10
770.2708475086
 20
258.0726997208
 10
771.5799741241
 20
255.2652762483
 10
772.9060210082
 20
252.4215535473
 10
774.2320678923
 20
249.5778382968
 10
775.5412019584
 20
246.7704073738
 10
776.8167041037
 20
244.0350757192
 10
778.0423171613
 20
241.4067418527
 10
779.2023949119
 20
238.9189408373
 10
780.2821479532
 20
236.6034121465
 10
781.2677852604
 20
234.4896973323
 10
782.146737704
 20
232.6047749471
  0
SPLINE
  5
133
330
1F
100
AcDbEntity
  8
0
  6
Continuous
 62
     7
370
    15
100
AcDbSpline
210
0.0
220
0.0
230
1.0
 70
     8
 71
     3
 72
    12
 73
     8
 74
     0
 42
0.00000001
 43
0.00000001
 12
1.0
 22
0.0
 32
0.0
 13
1.0
 23
0.0
 33
0.0
 40
0.0
 40
0.0
 40
0.0
 40
0.0
 40
0.030466654285509
 40
0.0888047842149173
 40
0.3925521251537126
 40
0.6962795772742252
 40
1.0
 40
1.0
 40
1.0
 40
1.0
 10
763.7196935507695
 20
273.2023851226671
 30
0.0
 10
763.7154340272623
 20
273.2120953979492
 30
0.0
 10
763.703018287011
 20
273.2403990932947
 30
0.0
 10
763.6411713731621
 20
273.3638691364754
 30
0.0
 10
763.4954311923899
 20
273.5606786849347
 30
0.0
 10
763.2255130864554
 20
273.7760180999416
 30
0.0
 10
763.0175903182231
 20
273.8461446510508
 30
0.0
 10
762.9136301371495
 20
273.8812075208528
 30
0.0
  0
SPLINE
  5
134
330
1F
100
AcDbEntity
  8
0
  6
Continuous
 62
     7
370
    15
100
AcDbSpline
210
0.0
220
0.0
230
1.0
 70
     8
 71
     3
 72
    11
 73
     7
 74
     0
 42
0.00000001
 43
0.00000001
 12
1.0
 22
0.0
 32
0.0
 13
1.0
 23
0.0
 33
0.0
 40
0.0
 40
0.0
 40
0.0
 40
0.0
 40
0.3704996669071212
 40
0.7442945339504226
 40
0.944266532700499
 40
1.0
 40
1.0
 40
1.0
 40
1.0
 10
762.8900639507215
 20
273.9008472513063
 30
0.0
 10
762.8915543077759
 20
273.8980604566223
 30
0.0
 10
762.894548277024
 20
273.892462081682
 30
0.0
 10
762.9018142700137
 20
273.8857453006636
 30
0.0
 10
762.9093425764091
 20
273.8823634486982
 30
0.0
 10
762.9128628579152
 20
273.8814143795974
 30
0.0
 10
762.9136301371495
 20
273.8812075208528
 30
0.0
  0
SPLINE
  5
135
330
1F
100
AcDbEntity
  8
0
  6
Continuous
 62
     7
370
    15
100
AcDbSpline
210
0.0
220
0.0
230
1.0
 70
     8
 71
     3
 72
    12
 73
     8
 74
     0
 42
0.00000001
 43
0.00000001
 12
1.0
 22
0.0
 32
0.0
 13
1.0
 23
0.0
 33
0.0
 40
0.0
 40
0.0
 40
0.0
 40
0.0
 40
0.0304724354038025
 40
0.0888099457708101
 40
0.3925510391781259
 40
0.6962768380335894
 40
1.0
 40
1.0
 40
1.0
 40
1.0
 10
782.9201973769109
 20
232.0267589043482
 30
0.0
 10
782.9249001516205
 20
232.0172527483974
 30
0.0
 10
782.9386060849141
 20
231.9895476705693
 30
0.0
 10
782.9934292327023
 20
231.8628034693481
 30
0.0
 10
783.0505236654978
 20
231.624657187642
 30
0.0
 10
783.0419735693812
 20
231.2794709650307
 30
0.0
 10
782.9620509570694
 20
231.0751126150143
 30
0.0
 10
782.9220898243825
 20
230.9729338835581
 30
0.0
  0
SPLINE
  5
136
330
1F
100
AcDbEntity
  8
0
  6
Continuous
 62
     7
370
    15
100
AcDbSpline
210
0.0
220
0.0
230
1.0
 70
     8
 71
     3
 72
    10
 73
     6
 74
     0
 42
0.00000001
 43
0.00000001
 12
1.0
 22
0.0
 32
0.0
 13
1.0
 23
0.0
 33
0.0
 40
0.0
 40
0.0
 40
0.0
 40
0.0
 40
0.2117106392724988
 40
0.4879273458666297
 40
1.0
 40
1.0
 40
1.0
 40
1.0
 10
782.9220898243825
 20
230.9729338835581
 30
0.0
 10
782.9209748771046
 20
230.9701947062445
 30
0.0
 10
782.9184052695124
 20
230.9638817522946
 30
0.0
 10
782.9180002297536
 20
230.9527228146416
 30
0.0
 10
782.9204161407937
 20
230.9463800816621
 30
0.0
 10
782.9219855162542
 20
230.9422598432405
 30
0.0
  0
SPLINE
  5
137
330
1F
100
AcDbEntity
  8
0
  6
Continuous
 62
     7
370
    15
100
AcDbSpline
210
0.0
220
0.0
230
1.0
 70
     8
 71
     3
 72
    12
 73
     8
 74
     0
 42
0.00000001
 43
0.00000001
 12
1.0
 22
0.0
 32
0.0
 13
1.0
 23
0.0
 33
0.0
 40
0.0
 40
0.0
 40
0.0
 40
0.0
 40
0.2238992315251316
 40
0.4477945826205221
 40
0.6716784790005722
 40
0.8955877843365396
 40
1.0
 40
1.0
 40
1.0
 40
1.0
 10
761.5952200982015
 20
278.2600776504381
 30
0.0
 10
761.5673509412417
 20
278.2597428173996
 30
0.0
 10
761.5116131103264
 20
278.2590731571256
 30
0.0
 10
761.4396575387598
 20
278.2584630278096
 30
0.0
 10
761.3872545685675
 20
278.2581529494332
 30
0.0
 10
761.3639255123805
 20
278.2580570858927
 30
0.0
 10
761.3619799869123
 20
278.258063844361
 30
0.0
 10
761.3613612744252
 20
278.2580659936769
 30
0.0
  0
LINE
  5
138
330
1F
100
AcDbEntity
  8
0
  6
Continuous
 62
     7
370
    15
100
AcDbLine
 10
761.5952200982
 20
278.2600776504
 30
0.0
 11
780.6900523397
 21
278.4681723665
 31
0.0
  0
LINE
  5
139
330
1F
100
AcDbEntity
  8
0
  6
Continuous
 62
     7
370
    15
100
AcDbLine
 10
780.6900523397
 20
278.4681723665
 30
0.0
 11
782.1686871144
 21
278.4865454983
 31
0.0
  0
LWPOLYLINE
  5
13A
330
1F
100
AcDbEntity
  8
0
  6
Continuous
 62
     7
370
    15
100
AcDbPolyline
 90
        9
 70
   128
 43
0.0
 10
784.4529978725
 20
274.9830142807
 10
786.0748924109
 20
271.5048597406
 10
787.7163894269
 20
267.9846690248
 10
789.3709994647
 20
264.4363300156
 10
791.0321809146
 20
260.8739243101
 10
792.6933623645
 20
257.3115037035
 10
794.3479724023
 20
253.7631795954
 10
795.9894694182
 20
250.242981429
 10
797.6113565061
 20
246.7648268889
  0
LWPOLYLINE
  5
13B
330
1F
100
AcDbEntity
  8
0
  6
Continuous
 62
     7
370
    15
100
AcDbPolyline
 90
        9
 70
   128
 43
0.0
 10
783.0896384808
 20
277.9067562174
 10
783.1475443932
 20
277.7825848411
 10
783.2387022468
 20
277.5870816063
 10
783.3627395126
 20
277.321095879
 10
783.5191271994
 20
276.985715444
 10
783.7072022054
 20
276.5823857139
 10
783.9261747691
 20
276.1127905201
 10
784.1751284692
 20
275.578926618
 10
784.4529978725
 20
274.9830142807
  0
SPLINE
  5
13C
330
1F
100
AcDbEntity
  8
0
  6
Continuous
 62
     7
370
    15
100
AcDbSpline
210
0.0
220
0.0
230
1.0
 70
     8
 71
     3
 72
    11
 73
     7
 74
     0
 42
0.00000001
 43
0.00000001
 12
1.0
 22
0.0
 32
0.0
 13
1.0
 23
0.0
 33
0.0
 40
0.0
 40
0.0
 40
0.0
 40
0.0
 40
0.2933107206992439
 40
0.5866002885490197
 40
0.8805045425441254
 40
1.0
 40
1.0
 40
1.0
 40
1.0
 10
782.1686871144216
 20
278.4865454982622
 30
0.0
 10
782.281385674348
 20
278.47687234814
 30
0.0
 10
782.5067746666572
 20
278.4575267454995
 30
0.0
 10
782.8075415925606
 20
278.2883429855603
 30
0.0
 10
782.9959778205441
 20
278.0877325138353
 30
0.0
 10
783.0686361822677
 20
277.9473380176883
 30
0.0
 10
783.0896384808461
 20
277.9067562173708
 30
0.0
  0
LWPOLYLINE
  5
13D
330
1F
100
AcDbEntity
  8
0
  6
Continuous
 62
     7
370
    15
100
AcDbPolyline
 90
        5
 70
   128
 43
0.0
 10
797.6113565061
 20
246.7648268889
 10
798.2085354421
 20
245.4841763924
 10
798.644908497
 20
244.5483685683
 10
798.9107079598
 20
243.9783544492
 10
798.999973366
 20
243.7869266819
  0
LWPOLYLINE
  5
13E
330
1F
100
AcDbEntity
  8
0
  6
Continuous
 62
     7
370
    15
100
AcDbPolyline
 90
        9
 70
   128
 43
0.0
 10
767.2681070659
 20
296.8927131246
 10
768.0925957653
 20
295.124600942
 10
768.8853971455
 20
293.4244231533
 10
769.6160532329
 20
291.8575362514
 10
770.2564753386
 20
290.4841558288
 10
770.7820541951
 20
289.3570468973
 10
771.1725912783
 20
288.5195271324
 10
771.4130885693
 20
288.0037830423
 10
771.4942924473
 20
287.8296331714
  0
LINE
  5
13F
330
1F
100
AcDbEntity
  8
0
  6
Continuous
 62
     7
370
    15
100
AcDbLine
 10
771.4942924473
 20
287.8296331714
 30
0.0
 11
770.1348297092
 21
287.1957079719
 31
0.0
  0
LWPOLYLINE
  5
140
330
1F
100
AcDbEntity
  8
0
  6
Continuous
 62
     7
370
    15
100
AcDbPolyline
 90
        9
 70
   128
 43
0.0
 10
770.1348297092
 20
287.1957079719
 10
770.0536258313
 20
287.3698578428
 10
769.8131359908
 20
287.8855870317
 10
769.4225914571
 20
288.7231067966
 10
768.8970126006
 20
289.8502157282
 10
768.2565904948
 20
291.2236110519
 10
767.525941858
 20
292.7904979538
 10
766.7331330273
 20
294.4906608414
 10
765.9086517784
 20
296.2587879251
  0
LINE
  5
141
330
1F
100
AcDbEntity
  8
0
  6
Continuous
 62
     7
370
    15
100
AcDbLine
 10
759.3651495668
 20
313.8406680178
 30
0.0
 11
767.2681070659
 21
296.8927131246
 31
0.0
  0
LINE
  5
142
330
1F
100
AcDbEntity
  8
0
  6
Continuous
 62
     7
370
    15
100
AcDbLine
 10
758.0056868288
 20
313.2067428182
 30
0.0
 11
765.9086517784
 21
296.2587879251
 31
0.0
  0
ARC
  5
143
330
1F
100
AcDbEntity
  8
0
  6
Continuous
 62
     7
370
    15
100
AcDbCircle
 10
756.8274871905
 20
312.6573380572
 30
0.0
 40
2.800000000000082
100
AcDbArc
 50
25.0
 51
115.0
  0
ARC
  5
144
330
1F
100
AcDbEntity
  8
0
  6
Continuous
 62
     7
370
    15
100
AcDbCircle
 10
756.8274871905
 20
312.6573380572
 30
0.0
 40
1.300000000000086
100
AcDbArc
 50
25.0
 51
115.0
  0
LINE
  5
145
330
1F
100
AcDbEntity
  8
0
  6
Continuous
 62
     7
370
    15
100
AcDbLine
 10
732.3062427136
 20
302.6572869371
 30
0.0
 11
756.2780834529
 21
313.8355420183
 31
0.0
  0
LINE
  5
146
330
1F
100
AcDbEntity
  8
0
  6
Continuous
 62
     7
370
    15
100
AcDbLine
 10
731.6723137888
 20
304.0167496752
 30
0.0
 11
755.6441582534
 21
315.1950047563
 31
0.0
  0
LINE
  5
147
330
1F
100
AcDbEntity
  8
0
  6
Continuous
 62
     7
370
    15
100
AcDbLine
 10
767.0959092471
 20
225.0928537201
 30
0.0
 11
731.7016318235
 21
300.9961203884
 31
0.0
  0
LWPOLYLINE
  5
148
330
1F
100
AcDbEntity
  8
0
  6
Continuous
 62
     7
370
    15
100
AcDbPolyline
 90
        9
 70
   128
 43
0.0
 10
767.0959092471
 20
225.0928537201
 10
767.5081573221
 20
224.2087901782
 10
767.9045580122
 20
223.3587087344
 10
768.2698823306
 20
222.5752652835
 10
768.5900933835
 20
221.8885676216
 10
768.8528828117
 20
221.3250131558
 10
769.0481550786
 20
220.9062532734
 10
769.1683999988
 20
220.6483812283
 10
769.2089982125
 20
220.5613137435
  0
LINE
  5
149
330
1F
100
AcDbEntity
  8
0
  6
Continuous
 62
     7
370
    15
100
AcDbLine
 10
769.2089982125
 20
220.5613137435
 30
0.0
 11
767.8495429251
 21
219.9273810934
 31
0.0
  0
ARC
  5
14A
330
1F
100
AcDbEntity
  8
0
  6
Continuous
 62
     7
370
    15
100
AcDbCircle
 10
732.8345153103
 20
301.5244004235
 30
0.0
 40
2.750000000000025
100
AcDbArc
 50
115.0
 51
205.0
  0
ARC
  5
14B
330
1F
100
AcDbEntity
  8
0
  6
Continuous
 62
     7
370
    15
100
AcDbCircle
 10
732.8345153103
 20
301.5244004235
 30
0.0
 40
1.250000000000029
100
AcDbArc
 50
115.0
 51
205.0
  0
LINE
  5
14C
330
1F
100
AcDbEntity
  8
0
  6
Continuous
 62
     7
370
    15
100
AcDbLine
 10
632.7945448253
 20
32.1903781246
 30
0.0
 11
575.7945410702
 21
32.1903781246
 31
0.0
  0
LINE
  5
14D
330
1F
100
AcDbEntity
  8
0
  6
Continuous
 62
     7
370
    15
100
AcDbLine
 10
630.7945444974
 20
26.1903808664
 30
0.0
 11
577.7945451233
 21
26.1903808664
 31
0.0
  0
LINE
  5
14E
330
1F
100
AcDbEntity
  8
0
  6
Continuous
 62
     7
370
    15
100
AcDbLine
 10
53.7945560905
 20
32.1903781246
 30
0.0
 11
-3.2054849175
 21
32.1903781246
 31
0.0
  0
LINE
  5
14F
330
1F
100
AcDbEntity
  8
0
  6
Continuous
 62
     7
370
    15
100
AcDbLine
 10
51.7945222351
 20
26.1903808664
 30
0.0
 11
-1.205451062
 21
26.1903808664
 31
0.0
  0
LINE
  5
150
330
1F
100
AcDbEntity
  8
0
  6
Continuous
 62
     7
370
    15
100
AcDbLine
 10
70.2945522758
 20
124.1903787691
 30
0.0
 11
70.2945522758
 21
125.890378908
 31
0.0
  0
LINE
  5
151
330
1F
100
AcDbEntity
  8
0
  6
Continuous
 62
     7
370
    15
100
AcDbLine
 10
-19.7054811028
 20
124.1903787691
 30
0.0
 11
-19.7054811028
 21
125.890378908
 31
0.0
  0
LINE
  5
152
330
1F
100
AcDbEntity
  8
0
  6
Continuous
 62
     7
370
    15
100
AcDbLine
 10
-19.7054811028
 20
124.1903787691
 30
0.0
 11
70.2945522758
 21
124.1903787691
 31
0.0
  0
LINE
  5
153
330
1F
100
AcDbEntity
  8
0
  6
Continuous
 62
     7
370
    15
100
AcDbLine
 10
56.2542013618
 20
61.1903772901
 30
0.0
 11
-5.6651301888
 21
61.1903772901
 31
0.0
  0
LINE
  5
154
330
1F
100
AcDbEntity
  8
0
  6
Continuous
 62
     7
370
    15
100
AcDbLine
 10
649.2945447359
 20
124.1903787691
 30
0.0
 11
649.2945447359
 21
125.890378908
 31
0.0
  0
LINE
  5
155
330
1F
100
AcDbEntity
  8
0
  6
Continuous
 62
     7
370
    15
100
AcDbLine
 10
559.2945448849
 20
124.1903787691
 30
0.0
 11
649.2945447359
 21
124.1903787691
 31
0.0
  0
LINE
  5
156
330
1F
100
AcDbEntity
  8
0
  6
Continuous
 62
     7
370
    15
100
AcDbLine
 10
559.2945448849
 20
124.1903787691
 30
0.0
 11
559.2945448849
 21
125.890378908
 31
0.0
  0
LINE
  5
157
330
1F
100
AcDbEntity
  8
0
  6
Continuous
 62
     7
370
    15
100
AcDbLine
 10
635.2541938219
 20
61.1903772901
 30
0.0
 11
573.3348957989
 21
61.1903772901
 31
0.0
  0
SPLINE
  5
158
330
1F
100
AcDbEntity
  8
0
  6
Continuous
 62
     7
370
    15
100
AcDbSpline
210
0.0
220
0.0
230
1.0
 70
     8
 71
     3
 72
     9
 73
     5
 74
     0
 42
0.00000001
 43
0.00000001
 12
1.0
 22
0.0
 32
0.0
 13
1.0
 23
0.0
 33
0.0
 40
0.0
 40
0.0
 40
0.0
 40
0.0
 40
0.2684664764953996
 40
1.0
 40
1.0
 40
1.0
 40
1.0
 10
754.647941121761
 20
290.3566912959917
 30
0.0
 10
754.651216610186
 20
290.3496638566874
 30
0.0
 10
754.6634173455167
 20
290.3234876301579
 30
0.0
 10
754.610090966362
 20
290.4378604149015
 30
0.0
 10
754.5710809323232
 20
290.521527941118
 30
0.0
  0
LWPOLYLINE
  5
159
330
1F
100
AcDbEntity
  8
0
  6
Continuous
 62
     7
370
    15
100
AcDbPolyline
 90
       11
 70
   128
 43
0.0
 10
737.8583408687
 20
290.3209285091
 10
737.5111922416
 20
291.0654054235
 10
736.6415716502
 20
292.9303006481
 10
735.8303189072
 20
294.6700410198
 10
735.099562237
 20
296.2371514391
 10
734.4692356679
 20
297.5888953756
 10
733.9565276894
 20
298.6884073566
 10
733.5754267666
 20
299.5056764435
 10
733.3363301846
 20
300.0184254001
 10
733.2457534763
 20
300.2126620363
 10
733.2449972424
 20
300.2142862629
  0
LWPOLYLINE
  5
15A
330
1F
100
AcDbEntity
  8
0
  6
Continuous
 62
     7
370
    15
100
AcDbPolyline
 90
       10
 70
   128
 43
0.0
 10
738.6965200099
 20
290.2546928476
 10
738.6494323406
 20
290.355678017
 10
737.8115102443
 20
292.1526090454
 10
737.0260700378
 20
293.8369916033
 10
736.3183580133
 20
295.354689772
 10
735.7111170682
 20
296.6569171499
 10
735.2238714489
 20
297.7018312763
 10
734.8722748253
 20
298.4558300327
 10
734.667629728
 20
298.894684131
 10
734.6142388675
 20
299.0091846537
  0
SPLINE
  5
15B
330
1F
100
AcDbEntity
  8
0
  6
Continuous
 62
     7
370
    15
100
AcDbSpline
210
0.0
220
0.0
230
1.0
 70
     8
 71
     3
 72
    18
 73
    14
 74
     0
 42
0.00000001
 43
0.00000001
 12
1.0
 22
0.0
 32
0.0
 13
1.0
 23
0.0
 33
0.0
 40
0.0
 40
0.0
 40
0.0
 40
0.0
 40
0.141262224148705
 40
0.2173056398503515
 40
0.2949621442846423
 40
0.3726201509619516
 40
0.4486639810490224
 40
0.5899251662403305
 40
0.7311863846778449
 40
0.8072296807964894
 40
0.8848872984521042
 40
0.9625443344354238
 40
1.0
 40
1.0
 40
1.0
 40
1.0
 10
754.4231645557325
 20
290.8387289594514
 30
0.0
 10
754.2784501639512
 20
291.1490661878132
 30
0.0
 10
754.0558340067224
 20
291.6264622530736
 30
0.0
 10
753.6042504382772
 20
292.594901160605
 30
0.0
 10
753.2142761575045
 20
293.4311804612047
 30
0.0
 10
752.7958403397917
 20
294.3285385965142
 30
0.0
 10
752.2527124263485
 20
295.4932851507577
 30
0.0
 10
751.6073057109998
 20
296.8773701449506
 30
0.0
 10
751.0797844468749
 20
298.0086124435033
 30
0.0
 10
750.7661757028005
 20
298.6811644301345
 30
0.0
 10
750.5999537786388
 20
299.0376165766461
 30
0.0
 10
750.5171509484936
 20
299.2152089253078
 30
0.0
 10
750.5235215873465
 20
299.2015369263358
 30
0.0
 10
750.5255944821279
 20
299.1970882963045
 30
0.0
  0
LINE
  5
15C
330
1F
100
AcDbEntity
  8
0
  6
Continuous
 62
     7
370
    15
100
AcDbLine
 10
743.6924509499
 20
314.0161589931
 30
0.0
 11
743.0853366646
 21
313.7330518316
 31
0.0
  0
LINE
  5
15D
330
1F
100
AcDbEntity
  8
0
  6
Continuous
 62
     7
370
    15
100
AcDbLine
 10
728.6297276411
 20
306.9922880482
 30
0.0
 11
727.6327878031
 21
306.5274165224
 31
0.0
  0
SPLINE
  5
15E
330
1F
100
AcDbEntity
  8
0
  6
Continuous
 62
     7
370
    15
100
AcDbSpline
210
0.0
220
0.0
230
1.0
 70
     8
 71
     3
 72
    11
 73
     7
 74
     0
 42
0.00000001
 43
0.00000001
 12
1.0
 22
0.0
 32
0.0
 13
1.0
 23
0.0
 33
0.0
 40
0.0
 40
0.0
 40
0.0
 40
0.0
 40
0.2889746234831559
 40
0.5779516012264927
 40
0.8674421336874044
 40
1.0
 40
1.0
 40
1.0
 40
1.0
 10
727.6327878031175
 20
306.5274165223939
 30
0.0
 10
727.3292598560073
 20
306.4371402062995
 30
0.0
 10
726.7222014889616
 20
306.2565868386345
 30
0.0
 10
725.573688848675
 20
306.495971800566
 30
0.0
 10
724.5391325257633
 20
306.887764919827
 30
0.0
 10
723.9121797478682
 20
307.1546018212699
 30
0.0
 10
723.7152650746743
 20
307.2384105275972
 30
0.0
  0
LINE
  5
15F
330
1F
100
AcDbEntity
  8
0
  6
Continuous
 62
     7
370
    15
100
AcDbLine
 10
727.1714962813
 20
305.2687601398
 30
0.0
 11
727.638163397
 21
304.2679981541
 31
0.0
  0
SPLINE
  5
160
330
1F
100
AcDbEntity
  8
0
  6
Continuous
 62
     7
370
    15
100
AcDbSpline
210
0.0
220
0.0
230
1.0
 70
     8
 71
     3
 72
    11
 73
     7
 74
     0
 42
0.00000001
 43
0.00000001
 12
1.0
 22
0.0
 32
0.0
 13
1.0
 23
0.0
 33
0.0
 40
0.0
 40
0.0
 40
0.0
 40
0.0
 40
0.2888063617998872
 40
0.5776166313752876
 40
0.8669333943842348
 40
1.0
 40
1.0
 40
1.0
 40
1.0
 10
723.7152650746743
 20
307.2384105275972
 30
0.0
 10
724.1629648801486
 20
307.102202758075
 30
0.0
 10
725.0583705488251
 20
306.829785376033
 30
0.0
 10
726.2055096316208
 20
306.3297811216087
 30
0.0
 10
726.8804162847857
 20
305.7935175811579
 30
0.0
 10
727.1017635800983
 20
305.3944738759517
 30
0.0
 10
727.1714962813298
 20
305.2687601398332
 30
0.0
  0
SPLINE
  5
161
330
1F
100
AcDbEntity
  8
0
  6
Continuous
 62
     7
370
    15
100
AcDbSpline
210
0.0
220
0.0
230
1.0
 70
     8
 71
     3
 72
    12
 73
     8
 74
     0
 42
0.00000001
 43
0.00000001
 12
1.0
 22
0.0
 32
0.0
 13
1.0
 23
0.0
 33
0.0
 40
0.0
 40
0.0
 40
0.0
 40
0.0
 40
0.2096814466253859
 40
0.4420460359292582
 40
0.6744337351522802
 40
0.9068228299810077
 40
1.0
 40
1.0
 40
1.0
 40
1.0
 10
-112.3938031700213
 20
128.1903789590751
 30
0.0
 10
-112.6461331249041
 20
128.0860934428084
 30
0.0
 10
-113.1780898530616
 20
127.8662409007144
 30
0.0
 10
-113.8994969233282
 20
127.5302768291523
 30
0.0
 10
-114.4427753202319
 20
127.1833666309075
 30
0.0
 10
-114.671500308715
 20
126.9049969609051
 30
0.0
 10
-114.6888127668628
 20
126.7436325571003
 30
0.0
 10
-114.6937675979693
 20
126.6974500126792
 30
0.0
  0
LINE
  5
162
330
1F
100
AcDbEntity
  8
0
  6
Continuous
 62
     7
370
    15
100
AcDbLine
 10
-114.693767598
 20
372.2833053421
 30
0.0
 11
-114.693767598
 21
126.6974500127
 31
0.0
  0
SPLINE
  5
163
330
1F
100
AcDbEntity
  8
0
  6
Continuous
 62
     7
370
    15
100
AcDbSpline
210
0.0
220
0.0
230
1.0
 70
     8
 71
     3
 72
    12
 73
     8
 74
     0
 42
0.00000001
 43
0.00000001
 12
1.0
 22
0.0
 32
0.0
 13
1.0
 23
0.0
 33
0.0
 40
0.0
 40
0.0
 40
0.0
 40
0.0
 40
0.209684739504267
 40
0.4420510648681755
 40
0.6744388102137377
 40
0.9068280546898723
 40
1.0
 40
1.0
 40
1.0
 40
1.0
 10
-114.6937675979694
 20
372.2833053420885
 30
0.0
 10
-114.6694234478312
 20
372.1790183138789
 30
0.0
 10
-114.6181018422755
 20
371.9591635357915
 30
0.0
 10
-114.1971798557566
 20
371.6232000846342
 30
0.0
 10
-113.5453900406468
 20
371.2763020235549
 30
0.0
 10
-112.8959597379435
 20
370.9979370530775
 30
0.0
 10
-112.5055375907349
 20
370.836557821498
 30
0.0
 10
-112.3938031700213
 20
370.7903729032381
 30
0.0
  0
SPLINE
  5
164
330
1F
100
AcDbEntity
  8
0
  6
Continuous
 62
     7
370
    15
100
AcDbSpline
210
0.0
220
0.0
230
1.0
 70
     8
 71
     3
 72
    11
 73
     7
 74
     0
 42
0.00000001
 43
0.00000001
 12
1.0
 22
0.0
 32
0.0
 13
1.0
 23
0.0
 33
0.0
 40
0.0
 40
0.0
 40
0.0
 40
0.0
 40
0.2543119778616226
 40
0.5088623160159854
 40
0.7634060829260786
 40
1.0
 40
1.0
 40
1.0
 40
1.0
 10
-112.3938031700213
 20
128.1903789590751
 30
0.0
 10
-112.5937649409834
 20
128.0637955958577
 30
0.0
 10
-112.993875902103
 20
127.8105102259842
 30
0.0
 10
-113.4955313347905
 20
127.4305891795997
 30
0.0
 10
-113.8315403195292
 20
127.0593443477031
 30
0.0
 10
-113.873567880767
 20
126.815106025096
 30
0.0
 10
-113.8938136604388
 20
126.6974500126792
 30
0.0
  0
LINE
  5
165
330
1F
100
AcDbEntity
  8
0
  6
Continuous
 62
     7
370
    15
100
AcDbLine
 10
-114.693767598
 20
126.6974500127
 30
0.0
 11
-113.8938136604
 21
126.6974500127
 31
0.0
  0
LINE
  5
166
330
1F
100
AcDbEntity
  8
0
  6
Continuous
 62
     7
370
    15
100
AcDbLine
 10
-114.693767598
 20
372.2833053421
 30
0.0
 11
-113.8938136604
 21
372.2833053421
 31
0.0
  0
SPLINE
  5
167
330
1F
100
AcDbEntity
  8
0
  6
Continuous
 62
     7
370
    15
100
AcDbSpline
210
0.0
220
0.0
230
1.0
 70
     8
 71
     3
 72
    11
 73
     7
 74
     0
 42
0.00000001
 43
0.00000001
 12
1.0
 22
0.0
 32
0.0
 13
1.0
 23
0.0
 33
0.0
 40
0.0
 40
0.0
 40
0.0
 40
0.0
 40
0.2543253945348041
 40
0.5088696098041945
 40
0.7634149016616605
 40
1.0
 40
1.0
 40
1.0
 40
1.0
 10
-113.8938136604388
 20
372.2833053420885
 30
0.0
 10
-113.8704342164749
 20
372.1567232123478
 30
0.0
 10
-113.8236552129501
 20
371.9034500420175
 30
0.0
 10
-113.4648405598327
 20
371.5235165107641
 30
0.0
 10
-112.9655851083156
 20
371.1522835144191
 30
0.0
 10
-112.5796932441381
 20
370.9080324266164
 30
0.0
 10
-112.3938031700214
 20
370.7903729032381
 30
0.0
  0
SPLINE
  5
168
330
1F
100
AcDbEntity
  8
0
  6
Continuous
 62
     7
370
    15
100
AcDbSpline
210
0.0
220
0.0
230
1.0
 70
     8
 71
     3
 72
    12
 73
     8
 74
     0
 42
0.00000001
 43
0.00000001
 12
1.0
 22
0.0
 32
0.0
 13
1.0
 23
0.0
 33
0.0
 40
0.0
 40
0.0
 40
0.0
 40
0.0
 40
0.2096811462840524
 40
0.4420500558441944
 40
0.6744325121727581
 40
0.9068206486325194
 40
1.0
 40
1.0
 40
1.0
 40
1.0
 10
-113.8867207077105
 20
125.8903789080335
 30
0.0
 10
-113.7824444676956
 20
125.9147206734563
 30
0.0
 10
-113.5626091675806
 20
125.966038013881
 30
0.0
 10
-113.2265593697235
 20
126.3869444823519
 30
0.0
 10
-112.8797519025596
 20
127.0387652119404
 30
0.0
 10
-112.6013532271244
 20
127.6881922553463
 30
0.0
 10
-112.4399871119332
 20
128.0786326079652
 30
0.0
 10
-112.3938031700213
 20
128.1903789590751
 30
0.0
  0
LINE
  5
169
330
1F
100
AcDbEntity
  8
0
  6
Continuous
 62
     7
370
    15
100
AcDbLine
 10
-113.8867207077
 20
125.890378908
 30
0.0
 11
-113.8867207077
 21
126.690378946
 31
0.0
  0
SPLINE
  5
16A
330
1F
100
AcDbEntity
  8
0
  6
Continuous
 62
     7
370
    15
100
AcDbSpline
210
0.0
220
0.0
230
1.0
 70
     8
 71
     3
 72
    11
 73
     7
 74
     0
 42
0.00000001
 43
0.00000001
 12
1.0
 22
0.0
 32
0.0
 13
1.0
 23
0.0
 33
0.0
 40
0.0
 40
0.0
 40
0.0
 40
0.0
 40
0.2543215286763417
 40
0.5088762457921229
 40
0.7634107869353483
 40
1.0
 40
1.0
 40
1.0
 40
1.0
 10
-113.8867207077105
 20
126.6903789460315
 30
0.0
 10
-113.7601404781368
 20
126.7137354923225
 30
0.0
 10
-113.5068639570645
 20
126.7604700006164
 30
0.0
 10
-113.126898164416
 20
127.1193241327606
 30
0.0
 10
-112.755714615951
 20
127.6185925184878
 30
0.0
 10
-112.5114654187956
 20
128.0044835441197
 30
0.0
 10
-112.3938031700213
 20
128.1903789590751
 30
0.0
  0
LINE
  5
16B
330
1F
100
AcDbEntity
  8
0
  6
Continuous
 62
     7
370
    15
100
AcDbLine
 10
693.2418598122
 20
125.890378908
 30
0.0
 11
-113.8867207077
 21
125.890378908
 31
0.0
  0
CIRCLE
  5
16C
330
1F
100
AcDbEntity
  8
0
  6
Continuous
 62
     7
370
    15
100
AcDbCircle
 10
-37.1465631399
 20
353.0903789591
 30
0.0
 40
6.347663105371623
  0
CIRCLE
  5
16D
330
1F
100
AcDbEntity
  8
0
  6
Continuous
 62
     7
370
    15
100
AcDbCircle
 10
732.8534368601
 20
353.0903789591
 30
0.0
 40
6.347663105371623
  0
CIRCLE
  5
16E
330
1F
100
AcDbEntity
  8
0
  6
Continuous
 62
     7
370
    15
100
AcDbCircle
 10
352.8534368601
 20
353.0903789591
 30
0.0
 40
6.347663105371623
  0
SPLINE
  5
16F
330
1F
100
AcDbEntity
  8
0
  6
Continuous
 62
     7
370
    15
100
AcDbSpline
210
0.0
220
0.0
230
1.0
 70
     8
 71
     3
 72
    12
 73
     8
 74
     0
 42
0.00000001
 43
0.00000001
 12
1.0
 22
0.0
 32
0.0
 13
1.0
 23
0.0
 33
0.0
 40
0.0
 40
0.0
 40
0.0
 40
0.0
 40
0.2096799906314005
 40
0.4420424949998916
 40
0.6744347925032343
 40
0.9068216845575328
 40
1.0
 40
1.0
 40
1.0
 40
1.0
 10
-112.3938031700213
 20
370.7903729032381
 30
0.0
 10
-112.4980856004009
 20
371.0427036205329
 30
0.0
 10
-112.7179314024291
 20
371.5746613886646
 30
0.0
 10
-113.0538781629097
 20
372.2960616381837
 30
0.0
 10
-113.4007880198654
 20
372.8394003410209
 30
0.0
 10
-113.6791679597531
 20
373.06803411949
 30
0.0
 10
-113.8405363147332
 20
373.0854092029098
 30
0.0
 10
-113.8867207077105
 20
373.0903820346696
 30
0.0
  0
SPLINE
  5
170
330
1F
100
AcDbEntity
  8
0
  6
Continuous
 62
     7
370
    15
100
AcDbSpline
210
0.0
220
0.0
230
1.0
 70
     8
 71
     3
 72
    11
 73
     7
 74
     0
 42
0.00000001
 43
0.00000001
 12
1.0
 22
0.0
 32
0.0
 13
1.0
 23
0.0
 33
0.0
 40
0.0
 40
0.0
 40
0.0
 40
0.0
 40
0.2543198068862067
 40
0.5088576230403346
 40
0.7634086976861656
 40
1.0
 40
1.0
 40
1.0
 40
1.0
 10
-112.3938031700213
 20
370.7903729032381
 30
0.0
 10
-112.5203885826649
 20
370.9903459992082
 30
0.0
 10
-112.7736679201183
 20
371.3904636130632
 30
0.0
 10
-113.1535574134
 20
371.8921181987262
 30
0.0
 10
-113.5248167569191
 20
372.2281708609659
 30
0.0
 10
-113.769063205428
 20
372.2701576647269
 30
0.0
 10
-113.8867207077105
 20
372.2903833936555
 30
0.0
  0
LINE
  5
171
330
1F
100
AcDbEntity
  8
0
  6
Continuous
 62
     7
370
    15
100
AcDbLine
 10
-113.8867207077
 20
373.0903820347
 30
0.0
 11
-113.8867207077
 21
372.2903833937
 31
0.0
  0
LINE
  5
172
330
1F
100
AcDbEntity
  8
0
  6
Continuous
 62
     7
370
    15
100
AcDbLine
 10
-113.8867207077
 20
373.0903820347
 30
0.0
 11
-110.4996867683
 21
373.0903820347
 31
0.0
  0
LINE
  5
173
330
1F
100
AcDbEntity
  8
0
  6
Continuous
 62
     7
370
    15
100
AcDbLine
 10
-99.7496910599
 20
373.0903820347
 30
0.0
 11
-37.4997325447
 21
373.0903820347
 31
0.0
  0
CIRCLE
  5
174
330
1F
100
AcDbEntity
  8
0
  6
Continuous
 62
     7
370
    15
100
AcDbCircle
 10
732.8534368601
 20
353.0903789591
 30
0.0
 40
2.700000000000045
  0
CIRCLE
  5
175
330
1F
100
AcDbEntity
  8
0
  6
Continuous
 62
     7
370
    15
100
AcDbCircle
 10
352.8534368601
 20
353.0903789591
 30
0.0
 40
2.700000000000045
  0
CIRCLE
  5
176
330
1F
100
AcDbEntity
  8
0
  6
Continuous
 62
     7
370
    15
100
AcDbCircle
 10
-37.1465631399
 20
353.0903789591
 30
0.0
 40
2.700000000000045
  0
LINE
  5
177
330
1F
100
AcDbEntity
  8
0
  6
Continuous
 62
     8
370
    15
100
AcDbLine
 10
-36.2497039345
 20
378.5903857302
 30
0.0
 11
657.2502933237
 21
378.5903857302
 31
0.0
  0
LINE
  5
178
330
1F
100
AcDbEntity
  8
0
  6
Continuous
 62
     8
370
    15
100
AcDbLine
 10
657.2502933237
 20
378.5903857302
 30
0.0
 11
657.2502933237
 21
408.5903869223
 31
0.0
  0
LINE
  5
179
330
1F
100
AcDbEntity
  8
0
  6
Continuous
 62
     8
370
    15
100
AcDbLine
 10
-36.2497039345
 20
578.5903738092
 30
0.0
 11
-36.2497039345
 21
378.5903857302
 31
0.0
  0
LINE
  5
17A
330
1F
100
AcDbEntity
  8
0
  6
Continuous
 62
     8
370
    15
100
AcDbLine
 10
784.2700786683
 20
175.5848669659
 30
0.0
 11
783.5450328681
 21
175.9229631375
 31
0.0
  0
LINE
  5
17B
330
1F
100
AcDbEntity
  8
0
  6
Continuous
 62
     8
370
    15
100
AcDbLine
 10
783.5450328681
 20
184.3753264498
 30
0.0
 11
784.2700786683
 21
184.7134226214
 31
0.0
  0
LINE
  5
17C
330
1F
100
AcDbEntity
  8
0
  6
Continuous
 62
     8
370
    15
100
AcDbLine
 10
753.8711584899
 20
125.149144626
 30
0.0
 11
753.8711584899
 21
125.949144664
 31
0.0
  0
LINE
  5
17D
330
1F
100
AcDbEntity
  8
0
  6
Continuous
 62
     8
370
    15
100
AcDbLine
 10
695.2418599072
 20
125.949144664
 30
0.0
 11
695.2418599072
 21
125.149144626
 31
0.0
  0
LINE
  5
17E
330
1F
100
AcDbEntity
  8
0
  6
Continuous
 62
     8
370
    15
100
AcDbLine
 10
762.9342384431
 20
131.7229620859
 30
0.0
 11
763.6592842433
 21
131.3848675441
 31
0.0
  0
LINE
  5
17F
330
1F
100
AcDbEntity
  8
0
  6
Continuous
 62
     8
370
    15
100
AcDbLine
 10
741.6108146104
 20
312.162767465
 30
0.0
 11
741.2727221641
 21
312.8878132652
 31
0.0
  0
LINE
  5
180
330
1F
100
AcDbEntity
  8
0
  6
Continuous
 62
     8
370
    15
100
AcDbLine
 10
728.3632091972
 20
304.6060906004
 30
0.0
 11
727.638163397
 21
304.2679981541
 31
0.0
  0
LINE
  5
181
330
1F
100
AcDbEntity
  8
0
  6
Continuous
 62
     8
370
    15
100
AcDbLine
 10
728.6297276411
 20
306.9922880482
 30
0.0
 11
728.9678238127
 21
306.2672422479
 31
0.0
  0
LINE
  5
182
330
1F
100
AcDbEntity
  8
0
  6
Continuous
 62
     8
370
    15
100
AcDbLine
 10
745.4951375517
 20
314.8826913189
 30
0.0
 11
746.3403723928
 21
313.0700693678
 31
0.0
  0
LINE
  5
183
330
1F
100
AcDbEntity
  8
0
  6
Continuous
 62
     8
370
    15
100
AcDbLine
 10
-110.4996867683
 20
375.0903860878
 30
0.0
 11
-110.4996867683
 21
373.0903820347
 31
0.0
  0
LINE
  5
184
330
1F
100
AcDbEntity
  8
0
  6
Continuous
 62
     8
370
    15
100
AcDbLine
 10
-114.7497363594
 20
377.3403720211
 30
0.0
 11
-112.749702504
 21
377.3403720211
 31
0.0
  0
LINE
  5
185
330
1F
100
AcDbEntity
  8
0
  6
Continuous
 62
     8
370
    15
100
AcDbLine
 10
767.8784213755
 20
327.9015974354
 30
0.0
 11
769.691035876
 21
327.0563737701
 31
0.0
  0
LINE
  5
186
330
1F
100
AcDbEntity
  8
0
  6
Continuous
 62
     8
370
    15
100
AcDbLine
 10
763.8867579195
 20
321.2520883631
 30
0.0
 11
763.0415268037
 21
323.0647103142
 31
0.0
  0
LINE
  5
187
330
1F
100
AcDbEntity
  8
0
  6
Continuous
 62
     8
370
    15
100
AcDbLine
 10
773.2534341309
 20
373.0903820347
 30
0.0
 11
773.2534341309
 21
375.0903860878
 31
0.0
  0
LINE
  5
188
330
1F
100
AcDbEntity
  8
0
  6
Continuous
 62
     8
370
    15
100
AcDbLine
 10
-37.4997325447
 20
375.0903860878
 30
0.0
 11
-37.4997325447
 21
373.0903820347
 31
0.0
  0
LINE
  5
189
330
1F
100
AcDbEntity
  8
0
  6
Continuous
 62
     8
370
    15
100
AcDbLine
 10
-101.7497249153
 20
373.0903820347
 30
0.0
 11
-101.7497249153
 21
375.0903860878
 31
0.0
  0
LINE
  5
18A
330
1F
100
AcDbEntity
  8
0
  6
Continuous
 62
     8
370
    15
100
AcDbLine
 10
784.1291285846
 20
358.018960173
 30
0.0
 11
782.316514084
 21
358.8641987394
 31
0.0
  0
LINE
  5
18B
330
1F
100
AcDbEntity
  8
0
  6
Continuous
 62
     8
370
    15
100
AcDbLine
 10
-41.7497225311
 20
377.3403720211
 30
0.0
 11
-39.7496886757
 21
377.3403720211
 31
0.0
  0
LINE
  5
18C
330
1F
100
AcDbEntity
  8
0
  6
Continuous
 62
     8
370
    15
100
AcDbLine
 10
-112.749702504
 20
388.8403878759
 30
0.0
 11
-114.7497363594
 21
388.8403878759
 31
0.0
  0
LINE
  5
18D
330
1F
100
AcDbEntity
  8
0
  6
Continuous
 62
     8
370
    15
100
AcDbLine
 10
-110.4996867683
 20
393.0903778623
 30
0.0
 11
-110.4996867683
 21
391.0903738092
 31
0.0
  0
LINE
  5
18E
330
1F
100
AcDbEntity
  8
0
  6
Continuous
 62
     8
370
    15
100
AcDbLine
 10
-43.9996786621
 20
391.0903738092
 30
0.0
 11
-43.9996786621
 21
393.0903778623
 31
0.0
  0
LINE
  5
18F
330
1F
100
AcDbEntity
  8
0
  6
Continuous
 62
     8
370
    15
100
AcDbLine
 10
-39.7496886757
 20
388.8403878759
 30
0.0
 11
-41.7497225311
 21
388.8403878759
 31
0.0
  0
LINE
  5
190
330
1F
100
AcDbEntity
  8
0
  6
Continuous
 62
     8
370
    15
100
AcDbLine
 10
572.3945431206
 20
75.8903802585
 30
0.0
 11
57.1945242378
 21
75.8903802585
 31
0.0
  0
LINE
  5
191
330
1F
100
AcDbEntity
  8
0
  6
Continuous
 62
     8
370
    15
100
AcDbLine
 10
700.3238338772
 20
117.3403787639
 30
0.0
 11
636.1945427749
 21
117.3403787639
 31
0.0
  0
LINE
  5
192
330
1F
100
AcDbEntity
  8
0
  6
Continuous
 62
     8
370
    15
100
AcDbLine
 10
-99.651343396
 20
375.5903796505
 30
0.0
 11
-44.0012879875
 21
375.5903796505
 31
0.0
  0
LINE
  5
193
330
1F
100
AcDbEntity
  8
0
  6
Continuous
 62
     8
370
    15
100
AcDbLine
 10
-44.0012879875
 20
388.790379579
 30
0.0
 11
-110.4996867683
 21
388.790379579
 31
0.0
  0
LINE
  5
194
330
1F
100
AcDbEntity
  8
0
  6
Continuous
 62
     8
370
    15
100
AcDbLine
 10
-67.7496858147
 20
402.5903747629
 30
0.0
 11
-86.7496796158
 21
402.5903747629
 31
0.0
  0
LINE
  5
195
330
1F
100
AcDbEntity
  8
0
  6
Continuous
 62
     8
370
    15
100
AcDbLine
 10
747.4243648145
 20
271.075587089
 30
0.0
 11
745.9454692695
 21
270.4501108478
 31
0.0
  0
LWPOLYLINE
  5
196
330
1F
100
AcDbEntity
  8
0
  6
Continuous
 62
     8
370
    15
100
AcDbPolyline
 90
       22
 70
   128
 43
0.0
 10
770.8365030381
 20
220.8681063007
 10
770.2313221785
 20
222.1659154843
 10
769.4837309215
 20
223.7691239666
 10
768.6033256146
 20
225.6571606945
 10
767.6014013383
 20
227.8058038305
 10
766.4907954428
 20
230.187493677
 10
765.2857757899
 20
232.771675403
 10
764.0017874333
 20
235.5251939248
 10
762.6553110573
 20
238.4127260398
 10
761.263609657
 20
241.3972349118
 10
759.8445497248
 20
244.4404245566
 10
758.4163181278
 20
247.5032688331
 10
756.9972581956
 20
250.5464584779
 10
755.6055567953
 20
253.5309748005
 10
754.2590804192
 20
256.4185069155
 10
752.9750920627
 20
259.1720179867
 10
751.7700686845
 20
261.7562071632
 10
750.6594665143
 20
264.1378895592
 10
749.6575385127
 20
266.2865326952
 10
748.7771332058
 20
268.1745694231
 10
748.029545674
 20
269.7777853559
 10
747.4243648145
 20
271.075587089
  0
LINE
  5
197
330
1F
100
AcDbEntity
  8
0
  6
Continuous
 62
     8
370
    15
100
AcDbLine
 10
768.0702514741
 20
219.4540755104
 30
0.0
 11
770.8365030381
 21
220.8681063007
 31
0.0
  0
ARC
  5
198
330
1F
100
AcDbEntity
  8
0
  6
Continuous
 62
     8
370
    15
100
AcDbCircle
 10
769.9992294496
 20
222.5998508239
 30
0.0
 40
1.92352960871605
100
AcDbArc
 50
295.8030994917
 51
22.9376759701
  0
ARC
  5
199
330
1F
100
AcDbEntity
  8
0
  6
Continuous
 62
     8
370
    15
100
AcDbCircle
 10
748.2127782987
 20
269.3210598013
 30
0.0
 40
1.923528483053999
100
AcDbArc
 50
27.0625860729
 51
114.1972194045
  0
LWPOLYLINE
  5
19A
330
1F
100
AcDbEntity
  8
0
  6
Continuous
 62
     8
370
    15
100
AcDbPolyline
 90
       26
 70
   128
 43
0.0
 10
753.3103123102
 20
267.4225972246
 10
753.3293299171
 20
267.3818127464
 10
753.4809939358
 20
267.056565101
 10
753.7818334791
 20
266.4114193272
 10
754.2269088122
 20
265.4569552492
 10
754.808903465
 20
264.2088488888
 10
755.5182806942
 20
262.6875893425
 10
756.3433728907
 20
260.9181807588
 10
757.2706348988
 20
258.9296505998
 10
758.2848526332
 20
256.7546473097
 10
759.3693665955
 20
254.428918774
 10
760.5063624474
 20
251.9906119655
 10
761.6771839353
 20
249.4797812055
 10
762.8625936601
 20
246.9376654576
 10
764.0431307051
 20
244.4059879731
 10
765.1994161102
 20
241.9263304423
 10
766.3124583456
 20
239.5394028376
 10
767.363981137
 20
237.2844026636
 10
768.3367214891
 20
235.1983593057
 10
769.2147053573
 20
233.3155156325
 10
769.9835158679
 20
231.6667915534
 10
770.6305317375
 20
230.2792624782
 10
771.1451284382
 20
229.1757122825
 10
771.5188495609
 20
228.3742533277
 10
771.7455707285
 20
227.8880582403
 10
771.8215592
 20
227.7250991415
  0
SPLINE
  5
19B
330
1F
100
AcDbEntity
  8
0
  6
Continuous
 62
     8
370
    15
100
AcDbSpline
210
0.0
220
0.0
230
1.0
 70
     8
 71
     3
 72
    11
 73
     7
 74
     0
 42
0.00000001
 43
0.00000001
 12
1.0
 22
0.0
 32
0.0
 13
1.0
 23
0.0
 33
0.0
 40
0.0
 40
0.0
 40
0.0
 40
0.0
 40
0.2835223604499754
 40
0.5667802093958221
 40
0.8499299706434991
 40
1.0
 40
1.0
 40
1.0
 40
1.0
 10
770.8365030381124
 20
220.8681063007219
 30
0.0
 10
770.8864864615718
 20
220.7769852753735
 30
0.0
 10
770.9864066765764
 20
220.5948282358181
 30
0.0
 10
771.2181318773211
 20
220.1050844727077
 30
0.0
 10
771.4388976232295
 20
219.6117229351736
 30
0.0
 10
771.5734709966877
 20
219.2967952584306
 30
0.0
 10
771.6200880500714
 20
219.1877023528917
 30
0.0
  0
LWPOLYLINE
  5
19C
330
1F
100
AcDbEntity
  8
0
  6
Continuous
 62
     8
370
    15
100
AcDbPolyline
 90
        3
 70
   128
 43
0.0
 10
771.6200880501
 20
219.1877023529
 10
771.1265019867
 20
218.9358727287
 10
768.8527487013
 20
217.7759961437
  0
LWPOLYLINE
  5
19D
330
1F
100
AcDbEntity
  8
0
  6
Continuous
 62
     8
370
    15
100
AcDbPolyline
 90
        3
 70
   128
 43
0.0
 10
745.1624393258
 20
272.1293376039
 10
746.1306012961
 20
272.5397602867
 10
746.6407798025
 20
272.7559910368
  0
SPLINE
  5
19E
330
1F
100
AcDbEntity
  8
0
  6
Continuous
 62
     8
370
    15
100
AcDbSpline
210
0.0
220
0.0
230
1.0
 70
     8
 71
     3
 72
    11
 73
     7
 74
     0
 42
0.00000001
 43
0.00000001
 12
1.0
 22
0.0
 32
0.0
 13
1.0
 23
0.0
 33
0.0
 40
0.0
 40
0.0
 40
0.0
 40
0.0
 40
0.2835193531851758
 40
0.5667787401801984
 40
0.8499287280920281
 40
1.0
 40
1.0
 40
1.0
 40
1.0
 10
746.6407798025052
 20
272.755991036783
 30
0.0
 10
746.7420072815237
 20
272.554983382517
 30
0.0
 10
746.9443694214804
 20
272.1531523830755
 30
0.0
 10
747.1990441370513
 20
271.6141737060483
 30
0.0
 10
747.3562690100148
 20
271.2570993829079
 30
0.0
 10
747.4068449193354
 20
271.1222871225364
 30
0.0
 10
747.4243648144643
 20
271.0755870889528
 30
0.0
  0
LWPOLYLINE
  5
19F
330
1F
100
AcDbEntity
  8
0
  6
Continuous
 62
     8
370
    15
100
AcDbPolyline
 90
        9
 70
   128
 43
0.0
 10
773.3378343079
 20
219.9886993717
 10
773.3052827212
 20
219.973522539
 10
773.2087977025
 20
219.9285284828
 10
773.0518363211
 20
219.855333979
 10
772.840046117
 20
219.7565765332
 10
772.5810266826
 20
219.6357951712
 10
772.2840912434
 20
219.4973335813
 10
771.9598941299
 20
219.3461538504
 10
771.6200880501
 20
219.1877023529
  0
LWPOLYLINE
  5
1A0
330
1F
100
AcDbEntity
  8
0
  6
Continuous
 62
     8
370
    15
100
AcDbPolyline
 90
        9
 70
   128
 43
0.0
 10
748.3585297856
 20
273.5569880556
 10
748.3259781989
 20
273.5418186735
 10
748.2294894549
 20
273.4968171667
 10
748.0725317988
 20
273.4236375641
 10
747.8607415947
 20
273.3248726677
 10
747.6017221603
 20
273.204083855
 10
747.3047829959
 20
273.0656222652
 10
746.9805896077
 20
272.9144499849
 10
746.6407798025
 20
272.7559910368
  0
LWPOLYLINE
  5
1A1
330
1F
100
AcDbEntity
  8
0
  6
Continuous
 62
     8
370
    15
100
AcDbPolyline
 90
        9
 70
   128
 43
0.0
 10
742.7521876785
 20
285.5798409532
 10
742.7196323666
 20
285.56465667
 10
742.6231436226
 20
285.5196700643
 10
742.4661859664
 20
285.4464755606
 10
742.2543957624
 20
285.3477106642
 10
741.9953800532
 20
285.2269367527
 10
741.6984408888
 20
285.0884751629
 10
741.3742437753
 20
284.9373028826
 10
741.0344339702
 20
284.7788439344
  0
SPLINE
  5
1A2
330
1F
100
AcDbEntity
  8
0
  6
Continuous
 62
     8
370
    15
100
AcDbSpline
210
0.0
220
0.0
230
1.0
 70
     8
 71
     3
 72
    11
 73
     7
 74
     0
 42
0.00000001
 43
0.00000001
 12
1.0
 22
0.0
 32
0.0
 13
1.0
 23
0.0
 33
0.0
 40
0.0
 40
0.0
 40
0.0
 40
0.0
 40
0.305205975811485
 40
0.6079695961878308
 40
0.8124393839283975
 40
1.0
 40
1.0
 40
1.0
 40
1.0
 10
741.0344339701574
 20
284.778843934427
 30
0.0
 10
740.8049454418004
 20
285.2612424846732
 30
0.0
 10
740.3478048253887
 20
286.2221792783091
 30
0.0
 10
739.5306842791282
 20
287.3930146674466
 30
0.0
 10
738.5675853435423
 20
288.1891917605665
 30
0.0
 10
737.8915569811965
 20
288.3421956011888
 30
0.0
 10
737.5681221279542
 20
288.4153978179796
 30
0.0
  0
LINE
  5
1A3
330
1F
100
AcDbEntity
  8
0
  6
Continuous
 62
     8
370
    15
100
AcDbLine
 10
746.6407798025
 20
272.7559910368
 30
0.0
 11
741.0344339702
 21
284.7788439344
 31
0.0
  0
SPLINE
  5
1A4
330
1F
100
AcDbEntity
  8
0
  6
Continuous
 62
     8
370
    15
100
AcDbSpline
210
0.0
220
0.0
230
1.0
 70
     8
 71
     3
 72
    11
 73
     7
 74
     0
 42
0.00000001
 43
0.00000001
 12
1.0
 22
0.0
 32
0.0
 13
1.0
 23
0.0
 33
0.0
 40
0.0
 40
0.0
 40
0.0
 40
0.0
 40
0.2499767653059906
 40
0.4998041766077796
 40
0.7495353423445833
 40
1.0
 40
1.0
 40
1.0
 40
1.0
 10
786.2486846539418
 20
191.8269575785501
 30
0.0
 10
786.2233334252866
 20
191.8129260556514
 30
0.0
 10
786.172646114614
 20
191.7848713932895
 30
0.0
 10
785.7578253405001
 20
191.6576125372694
 30
0.0
 10
785.1577954963251
 20
191.4872120292874
 30
0.0
 10
784.6709178235418
 20
191.3576247181778
 30
0.0
 10
784.4271220061223
 20
191.2927360485895
 30
0.0
  0
LINE
  5
1A5
330
1F
100
AcDbEntity
  8
0
  6
Continuous
 62
     8
370
    15
100
AcDbLine
 10
784.4271220061
 20
191.2927360486
 30
0.0
 11
783.5657082292
 21
193.570236976
 31
0.0
  0
LWPOLYLINE
  5
1A6
330
1F
100
AcDbEntity
  8
0
  6
Continuous
 62
     8
370
    15
100
AcDbPolyline
 90
        9
 70
   128
 43
0.0
 10
785.283454487
 20
194.3712414454
 10
785.2509029004
 20
194.3560571622
 10
785.1544178817
 20
194.311063106
 10
784.9974565002
 20
194.2378760527
 10
784.7856662962
 20
194.1391111564
 10
784.5266468617
 20
194.0183297943
 10
784.2297114226
 20
193.8798682045
 10
783.9055143091
 20
193.7286959242
 10
783.5657082292
 20
193.570236976
  0
LINE
  5
1A7
330
1F
100
AcDbEntity
  8
0
  6
Continuous
 62
     8
370
    15
100
AcDbLine
 10
783.5657082292
 20
193.570236976
 30
0.0
 11
771.6200880501
 21
219.1877023529
 31
0.0
  0
LINE
  5
1A8
330
1F
100
AcDbEntity
  8
0
  6
Continuous
 62
     8
370
    15
100
AcDbLine
 10
784.4271220061
 20
191.2927360486
 30
0.0
 11
781.7781053278
 21
190.0574744891
 31
0.0
  0
SPLINE
  5
1A9
330
1F
100
AcDbEntity
  8
0
  6
Continuous
 62
     8
370
    15
100
AcDbSpline
210
0.0
220
0.0
230
1.0
 70
     8
 71
     3
 72
    11
 73
     7
 74
     0
 42
0.00000001
 43
0.00000001
 12
1.0
 22
0.0
 32
0.0
 13
1.0
 23
0.0
 33
0.0
 40
0.0
 40
0.0
 40
0.0
 40
0.0
 40
0.2440017735401649
 40
0.4919399511478039
 40
0.7439061288277234
 40
1.0
 40
1.0
 40
1.0
 40
1.0
 10
785.0619859787862
 20
189.9835796307428
 30
0.0
 10
785.0250445709688
 20
190.0665994954897
 30
0.0
 10
784.9505657911903
 20
190.2339785584176
 30
0.0
 10
784.797665048669
 20
190.5547651220681
 30
0.0
 10
784.6218241063365
 20
190.9125046653393
 30
0.0
 10
784.4923732771852
 20
191.1653076283118
 30
0.0
 10
784.4271220061223
 20
191.2927360485895
 30
0.0
  0
LINE
  5
1AA
330
1F
100
AcDbEntity
  8
0
  6
Continuous
 62
     8
370
    15
100
AcDbLine
 10
785.0619859788
 20
189.9835796307
 30
0.0
 11
782.4443436953
 21
188.6287250768
 31
0.0
  0
SPLINE
  5
1AB
330
1F
100
AcDbEntity
  8
0
  6
Continuous
 62
     8
370
    15
100
AcDbSpline
210
0.0
220
0.0
230
1.0
 70
     8
 71
     3
 72
    11
 73
     7
 74
     0
 42
0.00000001
 43
0.00000001
 12
1.0
 22
0.0
 32
0.0
 13
1.0
 23
0.0
 33
0.0
 40
0.0
 40
0.0
 40
0.0
 40
0.0
 40
0.2501472630240376
 40
0.5002883564170735
 40
0.7504209786355163
 40
1.0
 40
1.0
 40
1.0
 40
1.0
 10
786.2486846539418
 20
191.8269575785501
 30
0.0
 10
786.270335832827
 20
191.6531279210796
 30
0.0
 10
786.3136376565923
 20
191.3054728934726
 30
0.0
 10
786.0815056924909
 20
190.7726917622169
 30
0.0
 10
785.664519619916
 20
190.2975780442404
 30
0.0
 10
785.2626821352009
 20
190.088168437753
 30
0.0
 10
785.0619859787862
 20
189.9835796307428
 30
0.0
  0
SPLINE
  5
1AC
330
1F
100
AcDbEntity
  8
0
  6
Continuous
 62
     8
370
    15
100
AcDbSpline
210
0.0
220
0.0
230
1.0
 70
     8
 71
     3
 72
    14
 73
    10
 74
     0
 42
0.00000001
 43
0.00000001
 12
1.0
 22
0.0
 32
0.0
 13
1.0
 23
0.0
 33
0.0
 40
0.0
 40
0.0
 40
0.0
 40
0.0
 40
0.0024039104963389
 40
0.0051900573550495
 40
0.0347264497462442
 40
0.2932089404188307
 40
0.5746447674363828
 40
0.784499338551402
 40
1.0
 40
1.0
 40
1.0
 40
1.0
 10
784.2289142105024
 20
185.9848083208902
 30
0.0
 10
784.2307820069034
 20
185.9858065689305
 30
0.0
 10
784.2348145906718
 20
185.9879617925095
 30
0.0
 10
784.2617791999762
 20
186.0026268147437
 30
0.0
 10
784.4857684614392
 20
186.1358494429146
 30
0.0
 10
784.8963410496124
 20
186.5800803983016
 30
0.0
 10
785.3054522729985
 20
187.5702089588583
 30
0.0
 10
785.3737606888175
 20
188.7278034579354
 30
0.0
 10
785.1668264848382
 20
189.5612996791969
 30
0.0
 10
785.0619859787862
 20
189.9835796307428
 30
0.0
  0
SPLINE
  5
1AD
330
1F
100
AcDbEntity
  8
0
  6
Continuous
 62
     8
370
    15
100
AcDbSpline
210
0.0
220
0.0
230
1.0
 70
     8
 71
     3
 72
     9
 73
     5
 74
     0
 42
0.00000001
 43
0.00000001
 12
1.0
 22
0.0
 32
0.0
 13
1.0
 23
0.0
 33
0.0
 40
0.0
 40
0.0
 40
0.0
 40
0.0
 40
0.5209748420109831
 40
1.0
 40
1.0
 40
1.0
 40
1.0
 10
762.7872235867421
 20
272.6339803289277
 30
0.0
 10
762.7096649710699
 20
272.866778436708
 30
0.0
 10
762.5607928770298
 20
273.3136293957327
 30
0.0
 10
762.7834199715812
 20
273.7106597318306
 30
0.0
 10
762.8900639507215
 20
273.9008472513063
 30
0.0
  0
LWPOLYLINE
  5
1AE
330
1F
100
AcDbEntity
  8
0
  6
Continuous
 62
     8
370
    15
100
AcDbPolyline
 90
       17
 70
   128
 43
0.0
 10
781.885401139
 20
231.6778109621
 10
780.977108309
 20
233.6256385993
 10
779.9585766885
 20
235.8098806094
 10
778.84280009
 20
238.2026792716
 10
777.6440091226
 20
240.7735021066
 10
776.3774923775
 20
243.4895442079
 10
775.0594250652
 20
246.316160376
 10
773.7066082451
 20
249.21728235
 10
772.3363123629
 20
252.1558956455
 10
770.96600903
 20
255.0945089411
 10
769.6131996605
 20
257.9956309151
 10
768.2951248977
 20
260.8222470831
 10
767.0286156032
 20
263.5382817339
 10
765.8298171851
 20
266.1091045688
 10
764.7140405867
 20
268.501903231
 10
763.6955089662
 20
270.6861452412
 10
762.7872235867
 20
272.6339803289
  0
SPLINE
  5
1AF
330
1F
100
AcDbEntity
  8
0
  6
Continuous
 62
     8
370
    15
100
AcDbSpline
210
0.0
220
0.0
230
1.0
 70
     8
 71
     3
 72
     9
 73
     5
 74
     0
 42
0.00000001
 43
0.00000001
 12
1.0
 22
0.0
 32
0.0
 13
1.0
 23
0.0
 33
0.0
 40
0.0
 40
0.0
 40
0.0
 40
0.0
 40
0.4790267930852142
 40
1.0
 40
1.0
 40
1.0
 40
1.0
 10
782.9219855162542
 20
230.9422598432405
 30
0.0
 10
782.707740650375
 20
230.9828186277656
 30
0.0
 10
782.2604903734136
 20
231.0674877634185
 30
0.0
 10
782.0138790374986
 20
231.4687592624153
 30
0.0
 10
781.8854011389653
 20
231.6778109620912
 30
0.0
  0
ARC
  5
1B0
330
1F
100
AcDbEntity
  8
0
  6
Continuous
 62
     8
370
    15
100
AcDbCircle
 10
781.3840314688
 20
232.3194817841
 30
0.0
 40
0.8143174994688697
100
AcDbArc
 50
308.0022998473
 51
20.5085008308
  0
ARC
  5
1B1
330
1F
100
AcDbEntity
  8
0
  6
Continuous
 62
     8
370
    15
100
AcDbCircle
 10
762.9565129796
 20
271.837477601
 30
0.0
 40
0.8142944763301312
100
AcDbArc
 50
29.4906397489
 51
101.9991404905
  0
SPLINE
  5
1B2
330
1F
100
AcDbEntity
  8
0
  6
Continuous
 62
     8
370
    15
100
AcDbSpline
210
0.0
220
0.0
230
1.0
 70
     8
 71
     3
 72
     9
 73
     5
 74
     0
 42
0.00000001
 43
0.00000001
 12
1.0
 22
0.0
 32
0.0
 13
1.0
 23
0.0
 33
0.0
 40
0.0
 40
0.0
 40
0.0
 40
0.0
 40
0.468440821285778
 40
0.9999999999999999
 40
0.9999999999999999
 40
0.9999999999999999
 40
0.9999999999999999
 10
763.7196935507695
 20
273.2023851226671
 30
0.0
 10
763.6424941915853
 20
273.0681690883114
 30
0.0
 10
763.4776935258956
 20
272.7816525674257
 30
0.0
 10
763.6001901222555
 20
272.426907561874
 30
0.0
 10
763.665304312412
 20
272.2383395980699
 30
0.0
  0
SPLINE
  5
1B3
330
1F
100
AcDbEntity
  8
0
  6
Continuous
 62
     8
370
    15
100
AcDbSpline
210
0.0
220
0.0
230
1.0
 70
     8
 71
     3
 72
     9
 73
     5
 74
     0
 42
0.00000001
 43
0.00000001
 12
1.0
 22
0.0
 32
0.0
 13
1.0
 23
0.0
 33
0.0
 40
0.0
 40
0.0
 40
0.0
 40
0.0
 40
0.5315621113578289
 40
1.0
 40
1.0
 40
1.0
 40
1.0
 10
782.146737703983
 20
232.6047749470575
 30
0.0
 10
782.2493371144392
 20
232.4336825338871
 30
0.0
 10
782.442352019497
 20
232.1118153249295
 30
0.0
 10
782.7677626896452
 20
232.053892261762
 30
0.0
 10
782.9201973769109
 20
232.0267589043482
 30
0.0
  0
SPLINE
  5
1B4
330
1F
100
AcDbEntity
  8
0
  6
Continuous
 62
     8
370
    15
100
AcDbSpline
210
0.0
220
0.0
230
1.0
 70
     8
 71
     3
 72
    11
 73
     7
 74
     0
 42
0.00000001
 43
0.00000001
 12
1.0
 22
0.0
 32
0.0
 13
1.0
 23
0.0
 33
0.0
 40
0.0
 40
0.0
 40
0.0
 40
0.0
 40
0.365828331772721
 40
0.7252597430586941
 40
0.9820711336953282
 40
1.0
 40
1.0
 40
1.0
 40
1.0
 10
766.21290368766
 20
273.7497196744783
 30
0.0
 10
765.8326331830553
 20
273.7581745306301
 30
0.0
 10
765.0787416319939
 20
273.7749364002497
 30
0.0
 10
764.2221862547192
 20
273.5768328913216
 30
0.0
 10
763.8409789014835
 20
273.3377690569878
 30
0.0
 10
763.7271234730434
 20
273.2106787220441
 30
0.0
 10
763.7196935507695
 20
273.2023851226671
 30
0.0
  0
LWPOLYLINE
  5
1B5
330
1F
100
AcDbEntity
  8
0
  6
Continuous
 62
     8
370
    15
100
AcDbPolyline
 90
       10
 70
   128
 43
0.0
 10
766.2129036877
 20
273.7497196745
 10
768.2274289224
 20
269.42956012
 10
770.2916495296
 20
265.0028125595
 10
772.3916254732
 20
260.4994134258
 10
774.5131410453
 20
255.9498057913
 10
776.6418538782
 20
251.3847605537
 10
778.7633694503
 20
246.8351603698
 10
780.8633379433
 20
242.3317537855
 10
782.9275660011
 20
237.905006225
 10
784.9420837852
 20
233.5848541211
  0
SPLINE
  5
1B6
330
1F
100
AcDbEntity
  8
0
  6
Continuous
 62
     8
370
    15
100
AcDbSpline
210
0.0
220
0.0
230
1.0
 70
     8
 71
     3
 72
    11
 73
     7
 74
     0
 42
0.00000001
 43
0.00000001
 12
1.0
 22
0.0
 32
0.0
 13
1.0
 23
0.0
 33
0.0
 40
0.0
 40
0.0
 40
0.0
 40
0.0
 40
0.2357942934870936
 40
0.2749018781372498
 40
0.6342532611686736
 40
1.0
 40
1.0
 40
1.0
 40
1.0
 10
782.9201973769109
 20
232.0267589043482
 30
0.0
 10
783.0724778091329
 20
232.0499443472721
 30
0.0
 10
783.2500146621342
 20
232.0769752041729
 30
0.0
 10
783.6840624549474
 20
232.2893506160791
 30
0.0
 10
784.2330534859005
 20
232.6993679885797
 30
0.0
 10
784.7043547285609
 20
233.2879616142736
 30
0.0
 10
784.9420837852399
 20
233.5848541210993
 30
0.0
  0
LWPOLYLINE
  5
1B7
330
1F
100
AcDbEntity
  8
0
  6
Continuous
 62
     8
370
    15
100
AcDbPolyline
 90
        9
 70
   128
 43
0.0
 10
783.6003832313
 20
275.4162655424
 10
783.3071060273
 20
276.0451988529
 10
783.0445997211
 20
276.6081498216
 10
782.8139744493
 20
277.1027193617
 10
782.6162285897
 20
277.5267915081
 10
782.4521966073
 20
277.8785632204
 10
782.3225788567
 20
278.1565145801
 10
782.2279415819
 20
278.3594683956
 10
782.1686871144
 20
278.4865454983
  0
LINE
  5
1B8
330
1F
100
AcDbEntity
  8
0
  6
Continuous
 62
     8
370
    15
100
AcDbLine
 10
766.0834125969
 20
274.9571309637
 30
0.0
 11
783.6003832313
 21
275.4162655424
 31
0.0
  0
SPLINE
  5
1B9
330
1F
100
AcDbEntity
  8
0
  6
Continuous
 62
     8
370
    15
100
AcDbSpline
210
0.0
220
0.0
230
1.0
 70
     8
 71
     3
 72
    10
 73
     6
 74
     0
 42
0.00000001
 43
0.00000001
 12
1.0
 22
0.0
 32
0.0
 13
1.0
 23
0.0
 33
0.0
 40
0.0
 40
0.0
 40
0.0
 40
0.0
 40
0.2857669734943984
 40
0.6445551889702043
 40
1.0
 40
1.0
 40
1.0
 40
1.0
 10
762.9136301371495
 20
273.8812075208528
 30
0.0
 10
763.0931304855117
 20
274.0532370048771
 30
0.0
 10
763.497998408295
 20
274.4412541897457
 30
0.0
 10
764.6309658082077
 20
274.8284717198595
 30
0.0
 10
765.6007769319998
 20
274.9143785956373
 30
0.0
 10
766.0834125968854
 20
274.9571309636934
 30
0.0
  0
ARC
  5
1BA
330
1F
100
AcDbEntity
  8
0
  6
Continuous
 62
     8
370
    15
100
AcDbCircle
 10
762.023674698
 20
273.9110873479
 30
0.0
 40
4.192335751606552
100
AcDbArc
 50
357.794076686
 51
14.4487149034
  0
LINE
  5
1BB
330
1F
100
AcDbEntity
  8
0
  6
Continuous
 62
     8
370
    15
100
AcDbLine
 10
797.3952002618
 20
245.8331913899
 30
0.0
 11
785.7837758753
 21
232.7095450114
 31
0.0
  0
LWPOLYLINE
  5
1BC
330
1F
100
AcDbEntity
  8
0
  6
Continuous
 62
     8
370
    15
100
AcDbPolyline
 90
        6
 70
   128
 43
0.0
 10
798.8509841058
 20
242.7112491082
 10
798.832469413
 20
242.7509532522
 10
798.6848510596
 20
243.0675209712
 10
798.3922295067
 20
243.6950386714
 10
797.9597978088
 20
244.6224049877
 10
797.3952002618
 20
245.8331913899
  0
SPLINE
  5
1BD
330
1F
100
AcDbEntity
  8
0
  6
Continuous
 62
     8
370
    15
100
AcDbSpline
210
0.0
220
0.0
230
1.0
 70
     8
 71
     3
 72
    10
 73
     6
 74
     0
 42
0.00000001
 43
0.00000001
 12
1.0
 22
0.0
 32
0.0
 13
1.0
 23
0.0
 33
0.0
 40
0.0
 40
0.0
 40
0.0
 40
0.0
 40
0.3554436041407108
 40
0.7142324178100823
 40
0.9999999999999999
 40
0.9999999999999999
 40
0.9999999999999999
 40
0.9999999999999999
 10
785.7837758752744
 20
232.7095450114114
 30
0.0
 10
785.4408000192
 20
232.3673023640433
 30
0.0
 10
784.7516204360514
 20
231.6795960988021
 30
0.0
 10
783.7267316537155
 20
231.0606069491168
 30
0.0
 10
783.1692516255644
 20
230.9998644158877
 30
0.0
 10
782.9220898243825
 20
230.9729338835581
 30
0.0
  0
ARC
  5
1BE
330
1F
100
AcDbEntity
  8
0
  6
Continuous
 62
     8
370
    15
100
AcDbCircle
 10
782.3730284273
 20
230.2721279681
 30
0.0
 40
4.192159347769278
100
AcDbArc
 50
35.5506774469
 51
52.2060308326
  0
LINE
  5
1BF
330
1F
100
AcDbEntity
  8
0
  6
Continuous
 62
     8
370
    15
100
AcDbLine
 10
783.6677066776
 20
274.3421749424
 30
0.0
 11
766.2129036877
 21
273.7497196745
 31
0.0
  0
ARC
  5
1C0
330
1F
100
AcDbEntity
  8
0
  6
Continuous
 62
     8
370
    15
100
AcDbCircle
 10
778.0193260473
 20
274.5272925496
 30
0.0
 40
5.651413298774279
100
AcDbArc
 50
358.1228845474
 51
9.0502714765
  0
LINE
  5
1C1
330
1F
100
AcDbEntity
  8
0
  6
Continuous
 62
     8
370
    15
100
AcDbLine
 10
784.9420837852
 20
233.5848541211
 30
0.0
 11
796.6156683657
 21
246.5751798104
 31
0.0
  0
ARC
  5
1C2
330
1F
100
AcDbEntity
  8
0
  6
Continuous
 62
     8
370
    15
100
AcDbCircle
 10
793.1266873978
 20
242.1291800415
 30
0.0
 40
5.651539802483527
100
AcDbArc
 50
40.9498818238
 51
51.8770883747
  0
LWPOLYLINE
  5
1C3
330
1F
100
AcDbEntity
  8
0
  6
Continuous
 62
     8
370
    15
100
AcDbPolyline
 90
        9
 70
   128
 43
0.0
 10
796.6156683657
 20
246.5751798104
 10
795.0197167489
 20
249.9977157663
 10
793.4044606778
 20
253.4616396974
 10
791.7763076517
 20
256.9532201837
 10
790.1416875216
 20
260.4586736511
 10
788.5070673916
 20
263.9641271185
 10
786.8789143655
 20
267.4557225059
 10
785.263665745
 20
270.9196315359
 10
783.6677066776
 20
274.3421749424
  0
ARC
  5
1C4
330
1F
100
AcDbEntity
  8
0
  6
Continuous
 62
     8
370
    15
100
AcDbCircle
 10
783.3791715438
 20
275.4973205692
 30
0.0
 40
1.190635940443085
100
AcDbArc
 50
284.0245127427
 51
334.4080322242
  0
ARC
  5
1C5
330
1F
100
AcDbEntity
  8
0
  6
Continuous
 62
     8
370
    15
100
AcDbCircle
 10
783.7161987061
 20
274.5886090453
 30
0.0
 40
0.8357203487727907
100
AcDbArc
 50
28.1599402587
 51
97.9657786718
  0
ARC
  5
1C6
330
1F
100
AcDbEntity
  8
0
  6
Continuous
 62
     8
370
    15
100
AcDbCircle
 10
797.3150974656
 20
245.6116383858
 30
0.0
 40
1.19063560456106
100
AcDbArc
 50
75.5920502833
 51
125.9756785981
  0
ARC
  5
1C7
330
1F
100
AcDbEntity
  8
0
  6
Continuous
 62
     8
370
    15
100
AcDbCircle
 10
796.8355825393
 20
246.4539266219
 30
0.0
 40
0.8357536859348309
100
AcDbArc
 50
312.0359282261
 51
21.8390077563
  0
LINE
  5
1C8
330
1F
100
AcDbEntity
  8
0
  6
Continuous
 62
     8
370
    15
100
AcDbLine
 10
765.9086517784
 20
296.2587879251
 30
0.0
 11
767.2681070659
 21
296.8927131246
 31
0.0
  0
LINE
  5
1C9
330
1F
100
AcDbEntity
  8
0
  6
Continuous
 62
     8
370
    15
100
AcDbLine
 10
759.3651495668
 20
313.8406680178
 30
0.0
 11
758.0056868288
 21
313.2067428182
 31
0.0
  0
LINE
  5
1CA
330
1F
100
AcDbEntity
  8
0
  6
Continuous
 62
     8
370
    15
100
AcDbLine
 10
756.2780834529
 20
313.8355420183
 30
0.0
 11
755.6441582534
 21
315.1950047563
 31
0.0
  0
LINE
  5
1CB
330
1F
100
AcDbEntity
  8
0
  6
Continuous
 62
     8
370
    15
100
AcDbLine
 10
731.6723137888
 20
304.0167496752
 30
0.0
 11
732.3062427136
 21
302.6572869371
 31
0.0
  0
LINE
  5
1CC
330
1F
100
AcDbEntity
  8
0
  6
Continuous
 62
     8
370
    15
100
AcDbLine
 10
731.7016318235
 20
300.9961203884
 30
0.0
 11
730.3421690854
 21
300.3621951889
 31
0.0
  0
LINE
  5
1CD
330
1F
100
AcDbEntity
  8
0
  6
Continuous
 62
     8
370
    15
100
AcDbLine
 10
765.7364465091
 20
224.45892107
 30
0.0
 11
767.0959092471
 21
225.0928537201
 31
0.0
  0
LINE
  5
1CE
330
1F
100
AcDbEntity
  8
0
  6
Continuous
 62
     8
370
    15
100
AcDbLine
 10
632.7945448253
 20
28.190377469
 30
0.0
 11
575.7945410702
 21
28.190377469
 31
0.0
  0
LINE
  5
1CF
330
1F
100
AcDbEntity
  8
0
  6
Continuous
 62
     8
370
    15
100
AcDbLine
 10
53.7945560905
 20
28.190377469
 30
0.0
 11
-3.2054849175
 21
28.190377469
 31
0.0
  0
LINE
  5
1D0
330
1F
100
AcDbEntity
  8
0
  6
Continuous
 62
     8
370
    15
100
AcDbLine
 10
57.1945242378
 20
122.6903789889
 30
0.0
 11
-6.6054530647
 21
122.6903789889
 31
0.0
  0
LINE
  5
1D1
330
1F
100
AcDbEntity
  8
0
  6
Continuous
 62
     8
370
    15
100
AcDbLine
 10
57.1306280586
 20
66.4504834663
 30
0.0
 11
-6.5415568855
 21
66.4504834663
 31
0.0
  0
LINE
  5
1D2
330
1F
100
AcDbEntity
  8
0
  6
Continuous
 62
     8
370
    15
100
AcDbLine
 10
57.1945242378
 20
67.2229447614
 30
0.0
 11
-6.6054530647
 21
67.2229447614
 31
0.0
  0
LINE
  5
1D3
330
1F
100
AcDbEntity
  8
0
  6
Continuous
 62
     8
370
    15
100
AcDbLine
 10
636.1945427749
 20
122.6903789889
 30
0.0
 11
572.3945431206
 21
122.6903789889
 31
0.0
  0
LINE
  5
1D4
330
1F
100
AcDbEntity
  8
0
  6
Continuous
 62
     8
370
    15
100
AcDbLine
 10
636.1945427749
 20
67.2229447614
 30
0.0
 11
572.3945431206
 21
67.2229447614
 31
0.0
  0
LINE
  5
1D5
330
1F
100
AcDbEntity
  8
0
  6
Continuous
 62
     8
370
    15
100
AcDbLine
 10
636.1306316945
 20
66.4504834663
 30
0.0
 11
572.4584542009
 21
66.4504834663
 31
0.0
  0
LWPOLYLINE
  5
1D6
330
1F
100
AcDbEntity
  8
0
  6
Continuous
 62
     8
370
    15
100
AcDbPolyline
 90
       12
 70
   128
 43
0.0
 10
754.1574843022
 20
290.2253673624
 10
753.8160018417
 20
290.9576849293
 10
753.3598065171
 20
291.9360057663
 10
752.8199858758
 20
293.0936620783
 10
752.2333271596
 20
294.3517522167
 10
751.6398139092
 20
295.6245498012
 10
751.0798878762
 20
296.8253002714
 10
750.5917109343
 20
297.8722111534
 10
750.208549926
 20
298.6938909839
 10
749.9565191361
 20
299.2343710016
 10
749.8527921531
 20
299.4568155359
 10
749.85057188
 20
299.4615839075
  0
LWPOLYLINE
  5
1D7
330
1F
100
AcDbEntity
  8
0
  6
Continuous
 62
     8
370
    15
100
AcDbPolyline
 90
        3
 70
   128
 43
0.0
 10
754.4148497078
 20
289.6734581541
 10
754.3609894607
 20
289.7889719557
 10
754.1574843022
 20
290.2253673624
  0
LWPOLYLINE
  5
1D8
330
1F
100
AcDbEntity
  8
0
  6
Continuous
 62
     8
370
    15
100
AcDbPolyline
 90
        9
 70
   128
 43
0.0
 10
762.0540492031
 20
325.1160786699
 10
762.2436813805
 20
324.7094110798
 10
762.42602689
 20
324.3183748077
 10
762.5940821859
 20
323.9579902243
 10
762.7413727137
 20
323.6421154093
 10
762.8622583839
 20
323.382879908
 10
762.9520825836
 20
323.1902525972
 10
763.007395694
 20
323.071624453
 10
763.0161426756
 20
323.0528787922
  0
LINE
  5
1D9
330
1F
100
AcDbEntity
  8
0
  6
Continuous
 62
     8
370
    15
100
AcDbLine
 10
723.7152650747
 20
307.2384105276
 30
0.0
 11
762.0540492031
 21
325.1160786699
 31
0.0
  0
LWPOLYLINE
  5
1DA
330
1F
100
AcDbEntity
  8
0
  6
Continuous
 62
     8
370
    15
100
AcDbPolyline
 90
        9
 70
   128
 43
0.0
 10
783.5724361035
 20
184.3165599953
 10
783.5323817822
 20
184.297885115
 10
783.4137610886
 20
184.2425720047
 10
783.2211337778
 20
184.152747805
 10
782.9618982765
 20
184.0318621348
 10
782.6460160109
 20
183.8845678817
 10
782.2856388781
 20
183.7165163111
 10
781.8945951554
 20
183.5341708015
 10
781.4879275653
 20
183.3445386242
  0
LINE
  5
1DB
330
1F
100
AcDbEntity
  8
0
  6
Continuous
 62
     8
370
    15
100
AcDbLine
 10
781.4879275653
 20
183.3445386242
 30
0.0
 11
723.7152650747
 21
307.2384105276
 31
0.0
  0
LWPOLYLINE
  5
1DC
330
1F
100
AcDbEntity
  8
0
  6
Continuous
 62
     8
370
    15
100
AcDbPolyline
 90
        8
 70
   128
 43
0.0
 10
781.4879275653
 20
176.8362180542
 10
781.8945951554
 20
176.6465858768
 10
782.2856388781
 20
176.4642403673
 10
782.6460160109
 20
176.2961925219
 10
782.9618982765
 20
176.1488945435
 10
783.2211337778
 20
176.0280125986
 10
783.4137610886
 20
175.938188399
 10
783.5274196956
 20
175.8851886939
  0
ARC
  5
1DD
330
1F
100
AcDbEntity
  8
0
  6
Continuous
 62
     8
370
    15
100
AcDbCircle
 10
774.5093586778
 20
180.0903789591
 30
0.0
 40
7.699999999999647
100
AcDbArc
 50
335.0
 51
25.0
  0
LINE
  5
1DE
330
1F
100
AcDbEntity
  8
0
  6
Continuous
 62
     8
370
    15
100
AcDbLine
 10
-112.39380317
 20
370.7903729032
 30
0.0
 11
-112.39380317
 21
128.1903789591
 31
0.0
  0
LWPOLYLINE
  5
1DF
330
1F
100
AcDbEntity
  8
0
  6
Continuous
 62
     8
370
    15
100
AcDbPolyline
 90
        9
 70
   128
 43
0.0
 10
780.2320055458
 20
359.8362163853
 10
780.6386731359
 20
359.6465842079
 10
781.0297168586
 20
359.4642386984
 10
781.3900939915
 20
359.2961983036
 10
781.705976257
 20
359.1489003252
 10
781.9652117583
 20
359.0280072044
 10
782.1578390691
 20
358.9381830047
 10
782.2764597628
 20
358.8828698944
 10
782.316514084
 20
358.8641987394
  0
LWPOLYLINE
  5
1E0
330
1F
100
AcDbEntity
  8
0
  6
Continuous
 62
     8
370
    15
100
AcDbPolyline
 90
        9
 70
   128
 43
0.0
 10
767.8629688713
 20
327.868472154
 10
767.82291455
 20
327.887143309
 10
767.7042938563
 20
327.9424564194
 10
767.5116665456
 20
328.032280619
 10
767.2524310443
 20
328.1531737398
 10
766.9365562293
 20
328.3004717182
 10
766.5761716458
 20
328.468512113
 10
766.1851279232
 20
328.6508576225
 10
765.7784603331
 20
328.8404897999
  0
LINE
  5
1E1
330
1F
100
AcDbEntity
  8
0
  6
Continuous
 62
     8
370
    15
100
AcDbLine
 10
765.7784603331
 20
328.8404897999
 30
0.0
 11
780.2320055458
 21
359.8362163853
 31
0.0
  0
LINE
  5
1E2
330
1F
100
AcDbEntity
  8
0
  6
Continuous
 62
     8
370
    15
100
AcDbLine
 10
753.8985617253
 20
128.1903789591
 30
0.0
 11
753.8985617253
 21
125.9491823826
 31
0.0
  0
LINE
  5
1E3
330
1F
100
AcDbEntity
  8
0
  6
Continuous
 62
     8
370
    15
100
AcDbLine
 10
-112.39380317
 20
128.1903789591
 30
0.0
 11
753.8985617253
 21
128.1903789591
 31
0.0
  0
LINE
  5
1E4
330
1F
100
AcDbEntity
  8
0
  6
Continuous
 62
     8
370
    15
100
AcDbLine
 10
773.2534341309
 20
370.7903729032
 30
0.0
 11
-112.39380317
 21
370.7903729032
 31
0.0
  0
ARC
  5
1E5
330
1F
100
AcDbEntity
  8
0
  6
Continuous
 62
     8
370
    15
100
AcDbCircle
 10
773.2534368601
 20
363.0903789591
 30
0.0
 40
7.699999999999726
100
AcDbArc
 50
335.0
 51
90.0
  0
ARC
  5
1E6
330
1F
100
AcDbEntity
  8
0
  6
Continuous
 62
     8
370
    15
100
AcDbCircle
 10
758.7998923086
 20
332.0946526424
 30
0.0
 40
7.700000000000203
100
AcDbArc
 50
295.0
 51
335.0
  0
LINE
  5
1E7
330
1F
100
AcDbEntity
  8
0
  6
Continuous
 62
     8
370
    15
100
AcDbLine
 10
760.8771331403
 20
132.6362181667
 30
0.0
 11
781.4879275653
 21
176.8362180542
 31
0.0
  0
ARC
  5
1E8
330
1F
100
AcDbEntity
  8
0
  6
Continuous
 62
     8
370
    15
100
AcDbCircle
 10
753.8985601874
 20
135.8903789591
 30
0.0
 40
7.699999999999847
100
AcDbArc
 50
270.0
 51
335.0
  0
CIRCLE
  5
1E9
330
1F
100
AcDbEntity
  8
0
  6
Continuous
 62
     8
370
    15
100
AcDbCircle
 10
-37.1465631399
 20
353.0903789591
 30
0.0
 40
4.699999999999989
  0
LWPOLYLINE
  5
1EA
330
1F
100
AcDbEntity
  8
0
  6
Continuous
 62
     8
370
    15
100
AcDbPolyline
 90
        8
 70
   128
 43
0.0
 10
762.9165433142
 20
131.6852248951
 10
762.8029666635
 20
131.7381871145
 10
762.6103319022
 20
131.828011547
 10
762.3510964009
 20
131.9488948889
 10
762.0352215859
 20
132.096191936
 10
761.6748370025
 20
132.2642414111
 10
761.2838007304
 20
132.446586455
 10
760.8771331403
 20
132.6362181667
  0
CIRCLE
  5
1EB
330
1F
100
AcDbEntity
  8
0
  6
Continuous
 62
     8
370
    15
100
AcDbCircle
 10
732.8534368601
 20
353.0903789591
 30
0.0
 40
4.699999999999989
  0
LINE
  5
1EC
330
1F
100
AcDbEntity
  8
0
  6
Continuous
 62
     8
370
    15
100
AcDbLine
 10
773.2534341309
 20
373.0903820347
 30
0.0
 11
773.2534341309
 21
370.7903729032
 31
0.0
  0
CIRCLE
  5
1ED
330
1F
100
AcDbEntity
  8
0
  6
Continuous
 62
     8
370
    15
100
AcDbCircle
 10
352.8534368601
 20
353.0903789591
 30
0.0
 40
4.699999999999989
  0
LINE
  5
1EE
330
1F
100
AcDbEntity
  8
0
  6
CENTERX2
 62
     7
370
     0
100
AcDbLine
 10
756.715608606
 20
296.7045583242
 30
0.0
 11
739.4444024314
 21
288.6508626194
 31
0.0
  0
LINE
  5
1EF
330
1F
100
AcDbEntity
  8
0
  6
CENTERX2
 62
     7
370
     0
100
AcDbLine
 10
738.781296653
 20
288.3416513168
 30
0.0
 11
739.4444024314
 21
288.6508626194
 31
0.0
  0
LINE
  5
1F0
330
1F
100
AcDbEntity
  8
0
  6
CENTERX2
 62
     7
370
     0
100
AcDbLine
 10
738.781296653
 20
288.3416513168
 30
0.0
 11
734.6409711601
 21
286.4109858321
 31
0.0
  0
LINE
  5
1F1
330
1F
100
AcDbEntity
  8
0
  6
CENTERX2
 62
     7
370
     0
100
AcDbLine
 10
754.5040294619
 20
243.8145198414
 30
0.0
 11
767.1923384804
 21
249.7311755058
 31
0.0
  0
LINE
  5
1F2
330
1F
100
AcDbEntity
  8
0
  6
CENTERX2
 62
     7
370
     0
100
AcDbLine
 10
780.678228695
 20
189.5445942299
 30
0.0
 11
786.1912877707
 21
192.1153758968
 31
0.0
  0
LINE
  5
1F3
330
1F
100
AcDbEntity
  8
0
  6
CENTERX2
 62
     7
370
     0
100
AcDbLine
 10
773.6751382739
 20
197.5852587477
 30
0.0
 11
787.8630926296
 21
204.2012105173
 31
0.0
  0
LINE
  5
1F4
330
1F
100
AcDbEntity
  8
0
  6
CENTERX2
 62
     7
370
     0
100
AcDbLine
 10
791.9543046118
 20
261.3039149135
 30
0.0
 11
773.7648798636
 21
252.822046856
 31
0.0
  0
LINE
  5
1F5
330
1F
100
AcDbEntity
  8
0
  6
CENTERX2
 62
     7
370
     0
100
AcDbLine
 10
703.1945441696
 20
98.5903789591
 30
0.0
 11
698.3945441696
 21
98.5903789591
 31
0.0
  0
LINE
  5
1F6
330
1F
100
AcDbEntity
  8
0
  6
CENTERX2
 62
     7
370
     0
100
AcDbLine
 10
604.2945441696
 20
127.1903789591
 30
0.0
 11
604.2945441696
 21
30.1903789591
 31
0.0
  0
LINE
  5
1F7
330
1F
100
AcDbEntity
  8
0
  6
CENTERX2
 62
     7
370
     0
100
AcDbLine
 10
25.2945441696
 20
127.1903789591
 30
0.0
 11
25.2945441696
 21
30.1903789591
 31
0.0
  0
LINE
  5
1F8
330
1F
100
AcDbEntity
  8
0
  6
CENTERX2
 62
     7
370
     0
100
AcDbLine
 10
-77.2497073687
 20
404.5903789591
 30
0.0
 11
-77.2497073687
 21
391.0903789591
 31
0.0
  0
ENDSEC
  0
SECTION
  2
OBJECTS
  0
DICTIONARY
  5
C
330
0
100
AcDbDictionary
281
     1
  3
ACAD_GROUP
350
D
  3
ACAD_LAYOUT
350
1A
  3
ACAD_MLINESTYLE
350
17
  3
ACAD_PLOTSETTINGS
350
19
  3
ACAD_PLOTSTYLENAME
350
E
  0
DICTIONARY
  5
D
102
{ACAD_REACTORS
330
C
102
}
330
C
100
AcDbDictionary
281
     1
  0
DICTIONARY
  5
1A
102
{ACAD_REACTORS
330
C
102
}
330
C
100
AcDbDictionary
281
     1
  3
Layout1
350
1E
  3
Layout2
350
26
  3
Model
350
22
  0
DICTIONARY
  5
17
102
{ACAD_REACTORS
330
C
102
}
330
C
100
AcDbDictionary
281
     1
  3
Standard
350
18
  0
DICTIONARY
  5
19
102
{ACAD_REACTORS
330
C
102
}
330
C
100
AcDbDictionary
281
     1
  0
ACDBDICTIONARYWDFLT
  5
E
102
{ACAD_REACTORS
330
C
102
}
330
C
100
AcDbDictionary
281
     1
  3
Normal
350
F
100
AcDbDictionaryWithDefault
340
F
  0
LAYOUT
  5
1E
102
{ACAD_REACTORS
330
1A
102
}
330
1A
100
AcDbPlotSettings
  1

  2
none_device
  4

  6

 40
0.0
 41
0.0
 42
0.0
 43
0.0
 44
0.0
 45
0.0
 46
0.0
 47
0.0
 48
0.0
 49
0.0
140
0.0
141
0.0
142
1.0
143
1.0
 70
   688
 72
     0
 73
     0
 74
     5
  7

 75
    16
147
1.0
148
0.0
149
0.0
100
AcDbLayout
  1
Layout1
 70
     1
 71
     1
 10
0.0
 20
0.0
 11
420.0
 21
297.0
 12
0.0
 22
0.0
 32
0.0
 14
1.0000000000E+20
 24
1.0000000000E+20
 34
1.0000000000E+20
 15
-1.0000000000E+20
 25
-1.0000000000E+20
 35
-1.0000000000E+20
146
0.0
 13
0.0
 23
0.0
 33
0.0
 16
1.0
 26
0.0
 36
0.0
 17
0.0
 27
1.0
 37
0.0
 76
     0
330
1B
  0
LAYOUT
  5
26
102
{ACAD_REACTORS
330
1A
102
}
330
1A
100
AcDbPlotSettings
  1

  2
none_device
  4

  6

 40
0.0
 41
0.0
 42
0.0
 43
0.0
 44
0.0
 45
0.0
 46
0.0
 47
0.0
 48
0.0
 49
0.0
140
0.0
141
0.0
142
1.0
143
1.0
 70
   688
 72
     0
 73
     0
 74
     5
  7

 75
    16
147
1.0
148
0.0
149
0.0
100
AcDbLayout
  1
Layout2
 70
     1
 71
     2
 10
0.0
 20
0.0
 11
0.0
 21
0.0
 12
0.0
 22
0.0
 32
0.0
 14
0.0
 24
0.0
 34
0.0
 15
0.0
 25
0.0
 35
0.0
146
0.0
 13
0.0
 23
0.0
 33
0.0
 16
1.0
 26
0.0
 36
0.0
 17
0.0
 27
1.0
 37
0.0
 76
     0
330
23
  0
LAYOUT
  5
22
102
{ACAD_REACTORS
330
1A
102
}
330
1A
100
AcDbPlotSettings
  1

  2
none_device
  4

  6

 40
0.0
 41
0.0
 42
0.0
 43
0.0
 44
0.0
 45
0.0
 46
0.0
 47
0.0
 48
0.0
 49
0.0
140
0.0
141
0.0
142
1.0
143
1.0
 70
  1712
 72
     0
 73
     0
 74
     0
  7

 75
     0
147
1.0
148
0.0
149
0.0
100
AcDbLayout
  1
Model
 70
     1
 71
     0
 10
0.0
 20
0.0
 11
841.0
 21
594.0
 12
0.0
 22
0.0
 32
0.0
 14
0.0
 24
0.0
 34
0.0
 15
841.0
 25
594.0
 35
0.0
146
0.0
 13
0.0
 23
0.0
 33
0.0
 16
1.0
 26
0.0
 36
0.0
 17
0.0
 27
1.0
 37
0.0
 76
     0
330
1F
331
29
  0
MLINESTYLE
  5
18
102
{ACAD_REACTORS
330
17
102
}
330
17
100
AcDbMlineStyle
  2
Standard
 70
     0
  3

 62
   256
 51
90.0
 52
90.0
 71
     2
 49
0.5
 62
   256
  6
BYLAYER
 49
-0.5
 62
   256
  6
BYLAYER
  0
ACDBPLACEHOLDER
  5
F
102
{ACAD_REACTORS
330
E
102
}
330
E
  0
ENDSEC
  0
EOF
