  0
SECTION
  2
HEADER
  9
$ACADVER
  1
AC1015
  9
$ACADMAINTVER
 70
     6
  9
$DWGCODEPAGE
  3
ANSI_1252
  9
$INSBASE
 10
0.0
 20
0.0
 30
0.0
  9
$EXTMIN
 10
0.0
 20
0.0
 30
0.0
  9
$EXTMAX
 10
841.0
 20
594.0
 30
0.0
  9
$LIMMIN
 10
0.0
 20
0.0
  9
$LIMMAX
 10
841.0
 20
594.0
  9
$ORTHOMODE
 70
     0
  9
$REGENMODE
 70
     1
  9
$FILLMODE
 70
     1
  9
$QTEXTMODE
 70
     0
  9
$MIRRTEXT
 70
     1
  9
$LTSCALE
 40
1.0
  9
$ATTMODE
 70
     1
  9
$TEXTSIZE
 40
3.5
  9
$TRACEWID
 40
1.0
  9
$TEXTSTYLE
  7
Standard
  9
$CLAYER
  8
0
  9
$CELTYPE
  6
ByLayer
  9
$CECOLOR
 62
   256
  9
$CELTSCALE
 40
1.0
  9
$DISPSILH
 70
     0
  9
$DIMSCALE
 40
1.0
  9
$DIMASZ
 40
3.302
  9
$DIMEXO
 40
1.0
  9
$DIMDLI
 40
3.75
  9
$DIMRND
 40
0.0
  9
$DIMDLE
 40
0.0
  9
$DIMEXE
 40
1.0
  9
$DIMTP
 40
0.0
  9
$DIMTM
 40
0.0
  9
$DIMTXT
 40
3.5
  9
$DIMCEN
 40
2.5
  9
$DIMTSZ
 40
0.0
  9
$DIMTOL
 70
     0
  9
$DIMLIM
 70
     0
  9
$DIMTIH
 70
     1
  9
$DIMTOH
 70
     1
  9
$DIMSE1
 70
     0
  9
$DIMSE2
 70
     0
  9
$DIMTAD
 70
     1
  9
$DIMZIN
 70
     0
  9
$DIMBLK
  1

  9
$DIMASO
 70
     1
  9
$DIMSHO
 70
     1
  9
$DIMPOST
  1

  9
$DIMAPOST
  1

  9
$DIMALT
 70
     0
  9
$DIMALTD
 70
     3
  9
$DIMALTF
 40
0.0393700787
  9
$DIMLFAC
 40
1.0
  9
$DIMTOFL
 70
     1
  9
$DIMTVP
 40
0.0
  9
$DIMTIX
 70
     0
  9
$DIMSOXD
 70
     0
  9
$DIMSAH
 70
     0
  9
$DIMBLK1
  1

  9
$DIMBLK2
  1

  9
$DIMSTYLE
  2
ISO-25
  9
$DIMCLRD
 70
     0
  9
$DIMCLRE
 70
     0
  9
$DIMCLRT
 70
     0
  9
$DIMTFAC
 40
1.0
  9
$DIMGAP
 40
1.524
  9
$DIMJUST
 70
     0
  9
$DIMSD1
 70
     0
  9
$DIMSD2
 70
     0
  9
$DIMTOLJ
 70
     0
  9
$DIMTZIN
 70
     0
  9
$DIMALTZ
 70
     0
  9
$DIMALTTZ
 70
     0
  9
$DIMUPT
 70
     0
  9
$DIMDEC
 70
     1
  9
$DIMTDEC
 70
     1
  9
$DIMALTU
 70
     2
  9
$DIMALTTD
 70
     3
  9
$DIMTXSTY
  7
Standard
  9
$DIMAUNIT
 70
     0
  9
$DIMADEC
 70
     1
  9
$DIMALTRND
 40
0.0
  9
$DIMAZIN
 70
     0
  9
$DIMDSEP
 70
    44
  9
$DIMATFIT
 70
     3
  9
$DIMFRAC
 70
     0
  9
$DIMLDRBLK
  1

  9
$DIMLUNIT
 70
     2
  9
$DIMLWD
 70
    -2
  9
$DIMLWE
 70
    -2
  9
$DIMTMOVE
 70
     0
  9
$LUNITS
 70
     2
  9
$LUPREC
 70
     1
  9
$SKETCHINC
 40
1.0
  9
$FILLETRAD
 40
10.0
  9
$AUNITS
 70
     0
  9
$AUPREC
 70
     1
  9
$MENU
  1
.
  9
$ELEVATION
 40
0.0
  9
$PELEVATION
 40
0.0
  9
$THICKNESS
 40
0.0
  9
$LIMCHECK
 70
     0
  9
$CHAMFERA
 40
10.0
  9
$CHAMFERB
 40
10.0
  9
$CHAMFERC
 40
20.0
  9
$CHAMFERD
 40
0.0
  9
$SKPOLY
 70
     0
  9
$TDCREATE
 40
2457053.500562651
  9
$TDUCREATE
 40
2457053.500562651
  9
$TDUPDATE
 40
2457053.500564097
  9
$TDUUPDATE
 40
2457053.500564097
  9
$TDINDWG
 40
0.0000000116
  9
$TDUSRTIMER
 40
0.0000000116
  9
$USRTIMER
 70
     1
  9
$ANGBASE
 50
0.0
  9
$ANGDIR
 70
     0
  9
$PDMODE
 70
     0
  9
$PDSIZE
 40
-1.0
  9
$PLINEWID
 40
0.0
  9
$SPLFRAME
 70
     0
  9
$SPLINETYPE
 70
     6
  9
$SPLINESEGS
 70
     8
  9
$HANDSEED
  5
2C0
  9
$SURFTAB1
 70
     6
  9
$SURFTAB2
 70
     6
  9
$SURFTYPE
 70
     6
  9
$SURFU
 70
     6
  9
$SURFV
 70
     6
  9
$UCSBASE
  2

  9
$UCSNAME
  2

  9
$UCSORG
 10
0.0
 20
0.0
 30
0.0
  9
$UCSXDIR
 10
1.0
 20
0.0
 30
0.0
  9
$UCSYDIR
 10
0.0
 20
1.0
 30
0.0
  9
$UCSORTHOREF
  2

  9
$UCSORTHOVIEW
 70
     0
  9
$UCSORGTOP
 10
0.0
 20
0.0
 30
0.0
  9
$UCSORGBOTTOM
 10
0.0
 20
0.0
 30
0.0
  9
$UCSORGLEFT
 10
0.0
 20
0.0
 30
0.0
  9
$UCSORGRIGHT
 10
0.0
 20
0.0
 30
0.0
  9
$UCSORGFRONT
 10
0.0
 20
0.0
 30
0.0
  9
$UCSORGBACK
 10
0.0
 20
0.0
 30
0.0
  9
$PUCSBASE
  2

  9
$PUCSNAME
  2

  9
$PUCSORG
 10
0.0
 20
0.0
 30
0.0
  9
$PUCSXDIR
 10
1.0
 20
0.0
 30
0.0
  9
$PUCSYDIR
 10
0.0
 20
1.0
 30
0.0
  9
$PUCSORTHOREF
  2

  9
$PUCSORTHOVIEW
 70
     0
  9
$PUCSORGTOP
 10
0.0
 20
0.0
 30
0.0
  9
$PUCSORGBOTTOM
 10
0.0
 20
0.0
 30
0.0
  9
$PUCSORGLEFT
 10
0.0
 20
0.0
 30
0.0
  9
$PUCSORGRIGHT
 10
0.0
 20
0.0
 30
0.0
  9
$PUCSORGFRONT
 10
0.0
 20
0.0
 30
0.0
  9
$PUCSORGBACK
 10
0.0
 20
0.0
 30
0.0
  9
$USERI1
 70
     0
  9
$USERI2
 70
     0
  9
$USERI3
 70
     0
  9
$USERI4
 70
     0
  9
$USERI5
 70
     0
  9
$USERR1
 40
0.0
  9
$USERR2
 40
0.0
  9
$USERR3
 40
0.0
  9
$USERR4
 40
0.0
  9
$USERR5
 40
0.0
  9
$WORLDVIEW
 70
     1
  9
$SHADEDGE
 70
     3
  9
$SHADEDIF
 70
    70
  9
$TILEMODE
 70
     1
  9
$MAXACTVP
 70
    64
  9
$PINSBASE
 10
0.0
 20
0.0
 30
0.0
  9
$PLIMCHECK
 70
     0
  9
$PEXTMIN
 10
1.0000000000E+20
 20
1.0000000000E+20
 30
1.0000000000E+20
  9
$PEXTMAX
 10
-1.0000000000E+20
 20
-1.0000000000E+20
 30
-1.0000000000E+20
  9
$PLIMMIN
 10
0.0
 20
0.0
  9
$PLIMMAX
 10
420.0
 20
297.0
  9
$UNITMODE
 70
     0
  9
$VISRETAIN
 70
     1
  9
$PLINEGEN
 70
     0
  9
$PSLTSCALE
 70
     1
  9
$TREEDEPTH
 70
  3020
  9
$CMLSTYLE
  2
Standard
  9
$CMLJUST
 70
     0
  9
$CMLSCALE
 40
20.0
  9
$PROXYGRAPHICS
 70
     1
  9
$MEASUREMENT
 70
     1
  9
$CELWEIGHT
370
    -1
  9
$ENDCAPS
280
     0
  9
$JOINSTYLE
280
     0
  9
$LWDISPLAY
290
     1
  9
$INSUNITS
 70
     4
  9
$HYPERLINKBASE
  1

  9
$STYLESHEET
  1

  9
$XEDIT
290
     1
  9
$CEPSNTYPE
380
     0
  9
$PSTYLEMODE
290
     1
  9
$FINGERPRINTGUID
  2
{9267207C-0AC7-4799-A602-08B62BD1E06A}
  9
$VERSIONGUID
  2
{FAEB1C32-E019-11D5-929B-00C0DF256EC4}
  9
$EXTNAMES
290
     1
  9
$PSVPSCALE
 40
0.0
  9
$OLESTARTUP
290
     0
  0
ENDSEC
  0
SECTION
  2
CLASSES
  0
CLASS
  1
ACDBDICTIONARYWDFLT
  2
AcDbDictionaryWithDefault
  3
ObjectDBX Classes
 90
        0
280
     0
281
     0
  0
CLASS
  1
VISUALSTYLE
  2
AcDbVisualStyle
  3
ObjectDBX Classes
 90
     4095
280
     0
281
     0
  0
CLASS
  1
MATERIAL
  2
AcDbMaterial
  3
ObjectDBX Classes
 90
     1153
280
     0
281
     0
  0
CLASS
  1
ACDBPLACEHOLDER
  2
AcDbPlaceHolder
  3
ObjectDBX Classes
 90
        0
280
     0
281
     0
  0
CLASS
  1
LAYOUT
  2
AcDbLayout
  3
ObjectDBX Classes
 90
        0
280
     0
281
     0
  0
ENDSEC
  0
SECTION
  2
TABLES
  0
TABLE
  2
VPORT
  5
8
330
0
100
AcDbSymbolTable
 70
     1
  0
VPORT
  5
29
330
8
100
AcDbSymbolTableRecord
100
AcDbViewportTableRecord
  2
*Active
 70
     0
 10
0.0
 20
0.0
 11
1.0
 21
1.0
 12
420.5
 22
297.0
 13
0.0
 23
0.0
 14
10.0
 24
10.0
 15
10.0
 25
10.0
 16
0.0
 26
0.0
 36
1.0
 17
0.0
 27
0.0
 37
0.0
 40
594.0
 41
1.4158249158
 42
50.0
 43
0.0
 44
0.0
 50
0.0
 51
0.0
 71
     0
 72
  2000
 73
     1
 74
     3
 75
     0
 76
     0
 77
     0
 78
     0
281
     0
 65
     1
110
0.0
120
0.0
130
0.0
111
1.0
121
0.0
131
0.0
112
0.0
122
1.0
132
0.0
 79
     0
146
0.0
  0
ENDTAB
  0
TABLE
  2
LTYPE
  5
5
330
0
100
AcDbSymbolTable
 70
     6
  0
LTYPE
  5
14
330
5
100
AcDbSymbolTableRecord
100
AcDbLinetypeTableRecord
  2
ByBlock
 70
     0
  3

 72
    65
 73
     0
 40
0.0
  0
LTYPE
  5
15
330
5
100
AcDbSymbolTableRecord
100
AcDbLinetypeTableRecord
  2
ByLayer
 70
     0
  3

 72
    65
 73
     0
 40
0.0
  0
LTYPE
  5
16
330
5
100
AcDbSymbolTableRecord
100
AcDbLinetypeTableRecord
  2
Continuous
 70
     0
  3
Solid line
 72
    65
 73
     0
 40
0.0
  0
LTYPE
  5
3F
330
5
100
AcDbSymbolTableRecord
100
AcDbLinetypeTableRecord
  2
HIDDEN
 70
     0
  3
Hidden __ __ __ __ __ __ __ __ __ __ __ __ __ __
 72
    65
 73
     2
 40
1.905
 49
1.27
 74
     0
 49
-0.635
 74
     0
  0
LTYPE
  5
40
330
5
100
AcDbSymbolTableRecord
100
AcDbLinetypeTableRecord
  2
PHANTOM
 70
     0
  3
Phantom ______  __  __  ______  __  __  ______
 72
    65
 73
     6
 40
12.7
 49
6.35
 74
     0
 49
-1.27
 74
     0
 49
1.27
 74
     0
 49
-1.27
 74
     0
 49
1.27
 74
     0
 49
-1.27
 74
     0
  0
LTYPE
  5
41
330
5
100
AcDbSymbolTableRecord
100
AcDbLinetypeTableRecord
  2
CENTER
 70
     0
  3
Center ____ _ ____ _ ____ _ ____ _ ____ _ ____
 72
    65
 73
     4
 40
10.16
 49
6.35
 74
     0
 49
-1.27
 74
     0
 49
1.27
 74
     0
 49
-1.27
 74
     0
  0
LTYPE
  5
42
330
5
100
AcDbSymbolTableRecord
100
AcDbLinetypeTableRecord
  2
CENTERX2
 70
     0
  3
Center (2x) ________  __  ________  __  _____
 72
    65
 73
     4
 40
20.32
 49
12.7
 74
     0
 49
-2.54
 74
     0
 49
2.54
 74
     0
 49
-2.54
 74
     0
  0
LTYPE
  5
43
330
5
100
AcDbSymbolTableRecord
100
AcDbLinetypeTableRecord
  2
DOT2
 70
     0
  3
Dot (.5x) ........................................
 72
    65
 73
     2
 40
0.635
 49
0.0
 74
     0
 49
-0.635
 74
     0
  0
ENDTAB
  0
TABLE
  2
LAYER
  5
2
330
0
100
AcDbSymbolTable
 70
     4
  0
LAYER
  5
10
330
2
100
AcDbSymbolTableRecord
100
AcDbLayerTableRecord
  2
0
 70
     0
 62
     7
  6
Continuous
370
    -3
390
F
  0
LAYER
  5
44
330
2
100
AcDbSymbolTableRecord
100
AcDbLayerTableRecord
  2
FORMAT
 70
     0
 62
     7
  6
Continuous
370
    -3
390
F
  0
LAYER
  5
45
330
2
100
AcDbSymbolTableRecord
100
AcDbLayerTableRecord
  2
SLD-0
 70
     0
 62
     1
  6
Continuous
370
    -3
390
F
  0
LAYER
  5
46
330
2
100
AcDbSymbolTableRecord
100
AcDbLayerTableRecord
  2
WATERMARK
 70
     0
 62
     1
  6
Continuous
370
    -3
390
F
  0
ENDTAB
  0
TABLE
  2
STYLE
  5
3
330
0
100
AcDbSymbolTable
 70
     1
  0
STYLE
  5
11
330
3
100
AcDbSymbolTableRecord
100
AcDbTextStyleTableRecord
  2
Standard
 70
     0
 40
0.0
 41
1.0
 50
0.0
 71
     0
 42
3.5
  3
txt
  4

  0
ENDTAB
  0
TABLE
  2
VIEW
  5
6
330
0
100
AcDbSymbolTable
 70
     0
  0
ENDTAB
  0
TABLE
  2
UCS
  5
7
330
0
100
AcDbSymbolTable
 70
     0
  0
ENDTAB
  0
TABLE
  2
APPID
  5
9
330
0
100
AcDbSymbolTable
 70
     1
  0
APPID
  5
12
330
9
100
AcDbSymbolTableRecord
100
AcDbRegAppTableRecord
  2
ACAD
 70
     0
  0
ENDTAB
  0
TABLE
  2
DIMSTYLE
  5
A
330
0
100
AcDbSymbolTable
 70
     1
100
AcDbDimStyleTable
  0
DIMSTYLE
105
27
330
A
100
AcDbSymbolTableRecord
100
AcDbDimStyleTableRecord
  2
ISO-25
 70
     0
 41
2.5
 42
0.625
 43
3.75
 44
1.25
 73
     0
 74
     0
 77
     1
 78
     8
140
2.5
141
2.5
143
0.0393700787
147
0.625
171
     3
172
     1
178
     0
271
     2
272
     2
274
     3
278
    44
283
     0
284
     8
340
11
  0
ENDTAB
  0
TABLE
  2
BLOCK_RECORD
  5
1
330
0
100
AcDbSymbolTable
 70
     1
  0
BLOCK_RECORD
  5
1F
330
1
100
AcDbSymbolTableRecord
100
AcDbBlockTableRecord
  2
*Model_Space
340
22
  0
BLOCK_RECORD
  5
1B
330
1
100
AcDbSymbolTableRecord
100
AcDbBlockTableRecord
  2
*Paper_Space
340
1E
  0
BLOCK_RECORD
  5
23
330
1
100
AcDbSymbolTableRecord
100
AcDbBlockTableRecord
  2
*Paper_Space0
340
26
  0
ENDTAB
  0
ENDSEC
  0
SECTION
  2
BLOCKS
  0
BLOCK
  5
20
330
1F
100
AcDbEntity
  8
0
100
AcDbBlockBegin
  2
*Model_Space
 70
     0
 10
0.0
 20
0.0
 30
0.0
  3
*Model_Space
  1

  0
ENDBLK
  5
21
330
1F
100
AcDbEntity
  8
0
100
AcDbBlockEnd
  0
BLOCK
  5
1C
330
1B
100
AcDbEntity
 67
     1
  8
0
100
AcDbBlockBegin
  2
*Paper_Space
 70
     0
 10
0.0
 20
0.0
 30
0.0
  3
*Paper_Space
  1

  0
ENDBLK
  5
1D
330
1B
100
AcDbEntity
 67
     1
  8
0
100
AcDbBlockEnd
  0
BLOCK
  5
24
330
23
100
AcDbEntity
  8
0
100
AcDbBlockBegin
  2
*Paper_Space0
 70
     0
 10
0.0
 20
0.0
 30
0.0
  3
*Paper_Space0
  1

  0
ENDBLK
  5
25
330
23
100
AcDbEntity
  8
0
100
AcDbBlockEnd
  0
ENDSEC
  0
SECTION
  2
ENTITIES
  0
ARC
  5
47
330
1F
100
AcDbEntity
  8
0
  6
Continuous
 62
     7
370
    15
100
AcDbCircle
 10
105.2923085664
 20
-275.3011684683
 30
0.0
 40
2.0
100
AcDbArc
 50
270.0
 51
0.0
  0
ARC
  5
48
330
1F
100
AcDbEntity
  8
0
  6
Continuous
 62
     7
370
    15
100
AcDbCircle
 10
52.2923085664
 20
-275.3011684683
 30
0.0
 40
2.0
100
AcDbArc
 50
180.0
 51
270.0
  0
LINE
  5
49
330
1F
100
AcDbEntity
  8
0
  6
Continuous
 62
     7
370
    15
100
AcDbLine
 10
107.2923085664
 20
-275.3011684683
 30
0.0
 11
107.2923085664
 21
-271.3011684683
 31
0.0
  0
LINE
  5
4A
330
1F
100
AcDbEntity
  8
0
  6
Continuous
 62
     7
370
    15
100
AcDbLine
 10
50.2923085664
 20
-271.3011684683
 30
0.0
 11
50.2923085664
 21
-275.3011684683
 31
0.0
  0
LINE
  5
4B
330
1F
100
AcDbEntity
  8
0
  6
Continuous
 62
     7
370
    15
100
AcDbLine
 10
686.2923085664
 20
-275.3011684683
 30
0.0
 11
686.2923085664
 21
-271.3011684683
 31
0.0
  0
LINE
  5
4C
330
1F
100
AcDbEntity
  8
0
  6
Continuous
 62
     7
370
    15
100
AcDbLine
 10
629.2923085664
 20
-271.3011684683
 30
0.0
 11
629.2923085664
 21
-275.3011684683
 31
0.0
  0
ARC
  5
4D
330
1F
100
AcDbEntity
  8
0
  6
Continuous
 62
     7
370
    15
100
AcDbCircle
 10
684.2923085664
 20
-275.3011684683
 30
0.0
 40
2.0
100
AcDbArc
 50
270.0
 51
0.0
  0
ARC
  5
4E
330
1F
100
AcDbEntity
  8
0
  6
Continuous
 62
     7
370
    15
100
AcDbCircle
 10
631.2923085664
 20
-275.3011684683
 30
0.0
 40
2.0
100
AcDbArc
 50
180.0
 51
270.0
  0
LINE
  5
4F
330
1F
100
AcDbEntity
  8
0
  6
Continuous
 62
     7
370
    15
100
AcDbLine
 10
686.0923085664
 20
-271.3011684683
 30
0.0
 11
686.0923085664
 21
-203.3011684683
 31
0.0
  0
LINE
  5
50
330
1F
100
AcDbEntity
  8
0
  6
Continuous
 62
     7
370
    15
100
AcDbLine
 10
629.4923085664
 20
-203.3011684683
 30
0.0
 11
629.4923085664
 21
-271.3011684683
 31
0.0
  0
LINE
  5
51
330
1F
100
AcDbEntity
  8
0
  6
Continuous
 62
     7
370
    15
100
AcDbLine
 10
107.0923085664
 20
-271.3011684683
 30
0.0
 11
107.0923085664
 21
-203.3011684683
 31
0.0
  0
LINE
  5
52
330
1F
100
AcDbEntity
  8
0
  6
Continuous
 62
     7
370
    15
100
AcDbLine
 10
50.4923085664
 20
-203.3011684683
 30
0.0
 11
50.4923085664
 21
-271.3011684683
 31
0.0
  0
ARC
  5
53
330
1F
100
AcDbEntity
  8
0
  6
Continuous
 62
     7
370
    15
100
AcDbCircle
 10
112.1923085664
 20
-110.8011684683
 30
0.0
 40
1.5
100
AcDbArc
 50
90.0
 51
180.0
  0
ARC
  5
54
330
1F
100
AcDbEntity
  8
0
  6
Continuous
 62
     7
370
    15
100
AcDbCircle
 10
45.3923085664
 20
-110.8011684683
 30
0.0
 40
1.5
100
AcDbArc
 50
0.0
 51
90.0
  0
LINE
  5
55
330
1F
100
AcDbEntity
  8
0
  6
Continuous
 62
     7
370
    15
100
AcDbLine
 10
110.6923085664
 20
-197.2686025226
 30
0.0
 11
110.6923085664
 21
-110.8011684683
 31
0.0
  0
LINE
  5
56
330
1F
100
AcDbEntity
  8
0
  6
Continuous
 62
     7
370
    15
100
AcDbLine
 10
46.8923085664
 20
-110.8011684683
 30
0.0
 11
46.8923085664
 21
-197.2686025226
 31
0.0
  0
ARC
  5
57
330
1F
100
AcDbEntity
  8
0
  6
Continuous
 62
     7
370
    15
100
AcDbCircle
 10
105.9923085664
 20
-197.2686025226
 30
0.0
 40
4.700000000000001
100
AcDbArc
 50
350.5402980318
 51
0.0
  0
ARC
  5
58
330
1F
100
AcDbEntity
  8
0
  6
Continuous
 62
     7
370
    15
100
AcDbCircle
 10
51.5923085664
 20
-197.2686025226
 30
0.0
 40
4.700000000000001
100
AcDbArc
 50
180.0
 51
189.4597019682
  0
LINE
  5
59
330
1F
100
AcDbEntity
  8
0
  6
Continuous
 62
     7
370
    15
100
AcDbLine
 10
46.9562217934
 20
-198.0410657471
 30
0.0
 11
47.8326583461
 21
-203.3011684683
 31
0.0
  0
LINE
  5
5A
330
1F
100
AcDbEntity
  8
0
  6
Continuous
 62
     7
370
    15
100
AcDbLine
 10
109.7519587868
 20
-203.3011684683
 30
0.0
 11
110.6283953394
 21
-198.0410657471
 31
0.0
  0
ARC
  5
5B
330
1F
100
AcDbEntity
  8
0
  6
Continuous
 62
     7
370
    15
100
AcDbCircle
 10
691.1923085664
 20
-110.8011684683
 30
0.0
 40
1.5
100
AcDbArc
 50
90.0
 51
180.0
  0
ARC
  5
5C
330
1F
100
AcDbEntity
  8
0
  6
Continuous
 62
     7
370
    15
100
AcDbCircle
 10
624.3923085664
 20
-110.8011684683
 30
0.0
 40
1.499999999999943
100
AcDbArc
 50
0.0
 51
90.0
  0
LINE
  5
5D
330
1F
100
AcDbEntity
  8
0
  6
Continuous
 62
     7
370
    15
100
AcDbLine
 10
689.6923085664
 20
-197.2686025226
 30
0.0
 11
689.6923085664
 21
-110.8011684683
 31
0.0
  0
LINE
  5
5E
330
1F
100
AcDbEntity
  8
0
  6
Continuous
 62
     7
370
    15
100
AcDbLine
 10
625.8923085664
 20
-110.8011684683
 30
0.0
 11
625.8923085664
 21
-197.2686025226
 31
0.0
  0
ARC
  5
5F
330
1F
100
AcDbEntity
  8
0
  6
Continuous
 62
     7
370
    15
100
AcDbCircle
 10
684.9923085664
 20
-197.2686025226
 30
0.0
 40
4.700000000000113
100
AcDbArc
 50
350.5402980318
 51
0.0
  0
ARC
  5
60
330
1F
100
AcDbEntity
  8
0
  6
Continuous
 62
     7
370
    15
100
AcDbCircle
 10
630.5923085664
 20
-197.2686025226
 30
0.0
 40
4.700000000000045
100
AcDbArc
 50
180.0
 51
189.4597019682
  0
LINE
  5
61
330
1F
100
AcDbEntity
  8
0
  6
Continuous
 62
     7
370
    15
100
AcDbLine
 10
625.9562217934
 20
-198.0410657471
 30
0.0
 11
626.8326583461
 21
-203.3011684683
 31
0.0
  0
LINE
  5
62
330
1F
100
AcDbEntity
  8
0
  6
Continuous
 62
     7
370
    15
100
AcDbLine
 10
688.7519587868
 20
-203.3011684683
 30
0.0
 11
689.6283953394
 21
-198.0410657471
 31
0.0
  0
ARC
  5
63
330
1F
100
AcDbEntity
  8
0
  6
Continuous
 62
     7
370
    15
100
AcDbCircle
 10
3.4423085664
 20
-121.3511684683
 30
0.0
 40
0.2500000000000067
100
AcDbArc
 50
180.0
 51
209.473426788
  0
LINE
  5
64
330
1F
100
AcDbEntity
  8
0
  6
Continuous
 62
     7
370
    15
100
AcDbLine
 10
3.1923085664
 20
-120.6511684683
 30
0.0
 11
3.1923085664
 21
-121.3511684683
 31
0.0
  0
SPLINE
  5
65
330
1F
100
AcDbEntity
  8
0
  6
Continuous
 62
     7
370
    15
100
AcDbSpline
210
0.0
220
0.0
230
1.0
 70
     8
 71
     3
 72
    13
 73
     9
 74
     0
 42
0.00000001
 43
0.00000001
 12
1.0
 22
0.0
 32
0.0
 13
1.0
 23
0.0
 33
0.0
 40
0.0
 40
0.0
 40
0.0
 40
0.0
 40
0.0546880530908626
 40
0.2134688124178143
 40
0.374577115228029
 40
0.5445034158395362
 40
0.7475374221079044
 40
1.0
 40
1.0
 40
1.0
 40
1.0
 10
15.84658347732193
 20
-120.1512605333994
 30
0.0
 10
15.8470774352088
 20
-120.1608442608151
 30
0.0
 10
15.84900554560115
 20
-120.1982532888268
 30
0.0
 10
15.83497119748312
 20
-120.262099021495
 30
0.0
 10
15.8073304531855
 20
-120.3294900404739
 30
0.0
 10
15.77042447761207
 20
-120.3770860561806
 30
0.0
 10
15.73564757486279
 20
-120.3999605486574
 30
0.0
 10
15.72381740237561
 20
-120.4004144886959
 30
0.0
 10
15.7172604358759
 20
-120.400666088546
 30
0.0
  0
LINE
  5
66
330
1F
100
AcDbEntity
  8
0
  6
Continuous
 62
     7
370
    15
100
AcDbLine
 10
15.8484583161
 20
-115.0511684683
 30
0.0
 11
15.8484583161
 21
-120.1511684683
 31
0.0
  0
ARC
  5
67
330
1F
100
AcDbEntity
  8
0
  6
Continuous
 62
     7
370
    15
100
AcDbCircle
 10
16.0984583161
 20
-115.0511684683
 30
0.0
 40
0.2500000000000284
100
AcDbArc
 50
90.0
 51
180.0
  0
ARC
  5
68
330
1F
100
AcDbEntity
  8
0
  6
Continuous
 62
     7
370
    15
100
AcDbCircle
 10
20.7984287154
 20
-115.0511684683
 30
0.0
 40
0.2500000000000284
100
AcDbArc
 50
0.0
 51
90.0
  0
LINE
  5
69
330
1F
100
AcDbEntity
  8
0
  6
Continuous
 62
     7
370
    15
100
AcDbLine
 10
21.0484287154
 20
-120.1511684683
 30
0.0
 11
21.0484287154
 21
-115.0511684683
 31
0.0
  0
ARC
  5
6A
330
1F
100
AcDbEntity
  8
0
  6
Continuous
 62
     7
370
    15
100
AcDbCircle
 10
20.3423085664
 20
-121.3511684683
 30
0.0
 40
0.2499999999999716
100
AcDbArc
 50
270.0
 51
0.0
  0
LINE
  5
6B
330
1F
100
AcDbEntity
  8
0
  6
Continuous
 62
     7
370
    15
100
AcDbLine
 10
2.7361884175
 20
-115.0511684683
 30
0.0
 11
2.7361884175
 21
-120.1511684683
 31
0.0
  0
ARC
  5
6C
330
1F
100
AcDbEntity
  8
0
  6
Continuous
 62
     7
370
    15
100
AcDbCircle
 10
2.9861884175
 20
-115.0511684683
 30
0.0
 40
0.2499999999999725
100
AcDbArc
 50
90.0
 51
180.0
  0
SPLINE
  5
6D
330
1F
100
AcDbEntity
  8
0
  6
Continuous
 62
     7
370
    15
100
AcDbSpline
210
0.0
220
0.0
230
1.0
 70
     8
 71
     3
 72
    13
 73
     9
 74
     0
 42
0.00000001
 43
0.00000001
 12
1.0
 22
0.0
 32
0.0
 13
1.0
 23
0.0
 33
0.0
 40
0.0
 40
0.0
 40
0.0
 40
0.0
 40
0.0634888169697341
 40
0.2470479163435849
 40
0.4311284030620035
 40
0.6187780680174334
 40
0.8315552681816697
 40
1.0
 40
1.0
 40
1.0
 40
1.0
 10
8.78315200515628
 20
-120.6510595779952
 30
0.0
 10
8.782679673323967
 20
-120.6408335158416
 30
0.0
 10
8.780841733973698
 20
-120.6010418254622
 30
0.0
 10
8.794186750914257
 20
-120.5334823819724
 30
0.0
 10
8.820134696023441
 20
-120.4633828683992
 30
0.0
 10
8.852102809686734
 20
-120.4169147050116
 30
0.0
 10
8.875118093843504
 20
-120.4008880794759
 30
0.0
 10
8.874375603072803
 20
-120.4015886573246
 30
0.0
 10
8.874047529978723
 20
-120.4018982109938
 30
0.0
  0
ARC
  5
6E
330
1F
100
AcDbEntity
  8
0
  6
Continuous
 62
     7
370
    15
100
AcDbCircle
 10
8.5313567428
 20
-125.7511684683
 30
0.0
 40
0.2500000000000284
100
AcDbArc
 50
270.0
 51
0.0
  0
LINE
  5
6F
330
1F
100
AcDbEntity
  8
0
  6
Continuous
 62
     7
370
    15
100
AcDbLine
 10
8.7813567428
 20
-125.7511684683
 30
0.0
 11
8.7813567428
 21
-120.6511684683
 31
0.0
  0
ARC
  5
70
330
1F
100
AcDbEntity
  8
0
  6
Continuous
 62
     7
370
    15
100
AcDbCircle
 10
3.4746625706
 20
-125.7511684683
 30
0.0
 40
0.2499999999999725
100
AcDbArc
 50
180.0
 51
270.0
  0
LINE
  5
71
330
1F
100
AcDbEntity
  8
0
  6
Continuous
 62
     7
370
    15
100
AcDbLine
 10
3.2246625706
 20
-120.6511684683
 30
0.0
 11
3.2246625706
 21
-125.7511684683
 31
0.0
  0
ARC
  5
72
330
1F
100
AcDbEntity
  8
0
  6
Continuous
 62
     7
370
    15
100
AcDbCircle
 10
3.4423085664
 20
-119.4511684683
 30
0.0
 40
0.2500000000000284
100
AcDbArc
 50
90.0
 51
180.0
  0
ARC
  5
73
330
1F
100
AcDbEntity
  8
0
  6
Continuous
 62
     7
370
    15
100
AcDbCircle
 10
3.4423085664
 20
-120.1511684683
 30
0.0
 40
0.250000000000028
100
AcDbArc
 50
180.0
 51
232.7089330724
  0
LINE
  5
74
330
1F
100
AcDbEntity
  8
0
  6
Continuous
 62
     7
370
    15
100
AcDbLine
 10
3.1923085664
 20
-119.4511684683
 30
0.0
 11
3.1923085664
 21
-120.1511684683
 31
0.0
  0
ARC
  5
75
330
1F
100
AcDbEntity
  8
0
  6
Continuous
 62
     7
370
    15
100
AcDbCircle
 10
20.3099545623
 20
-125.7511684683
 30
0.0
 40
0.2500000000000284
100
AcDbArc
 50
270.0
 51
0.0
  0
LINE
  5
76
330
1F
100
AcDbEntity
  8
0
  6
Continuous
 62
     7
370
    15
100
AcDbLine
 10
20.5599545623
 20
-125.7511684683
 30
0.0
 11
20.5599545623
 21
-121.4741734295
 31
0.0
  0
LINE
  5
77
330
1F
100
AcDbEntity
  8
0
  6
Continuous
 62
     7
370
    15
100
AcDbLine
 10
6.8030574167
 20
-113.699639293
 30
0.0
 11
6.8923085664
 21
-113.7511684683
 31
0.0
  0
LINE
  5
78
330
1F
100
AcDbEntity
  8
0
  6
Continuous
 62
     7
370
    15
100
AcDbLine
 10
16.8923085664
 20
-113.7511684683
 30
0.0
 11
16.9815597162
 21
-113.699639293
 31
0.0
  0
LINE
  5
79
330
1F
100
AcDbEntity
  8
0
  6
Continuous
 62
     7
370
    15
100
AcDbLine
 10
17.1396896199
 20
-114.1439939861
 30
0.0
 11
16.8923085664
 21
-114.0011684683
 31
0.0
  0
LINE
  5
7A
330
1F
100
AcDbEntity
  8
0
  6
Continuous
 62
     7
370
    15
100
AcDbLine
 10
6.644927513
 20
-119.0583429505
 30
0.0
 11
6.8923085664
 21
-119.2011684683
 31
0.0
  0
LINE
  5
7B
330
1F
100
AcDbEntity
  8
0
  6
Continuous
 62
     7
370
    15
100
AcDbLine
 10
6.8923085664
 20
-114.0011684683
 30
0.0
 11
6.644927513
 21
-114.1439939861
 31
0.0
  0
LINE
  5
7C
330
1F
100
AcDbEntity
  8
0
  6
Continuous
 62
     7
370
    15
100
AcDbLine
 10
6.4306171626
 20
-126.534610812
 30
0.0
 11
6.8923085664
 21
-126.8011684683
 31
0.0
  0
LINE
  5
7D
330
1F
100
AcDbEntity
  8
0
  6
Continuous
 62
     7
370
    15
100
AcDbLine
 10
16.8923085664
 20
-126.8011684683
 30
0.0
 11
17.3539999703
 21
-126.534610812
 31
0.0
  0
LINE
  5
7E
330
1F
100
AcDbEntity
  8
0
  6
Continuous
 62
     7
370
    15
100
AcDbLine
 10
17.3539999703
 20
-121.8677261246
 30
0.0
 11
16.8923085664
 21
-121.6011684683
 31
0.0
  0
LINE
  5
7F
330
1F
100
AcDbEntity
  8
0
  6
Continuous
 62
     7
370
    15
100
AcDbLine
 10
8.8923085664
 20
-113.7511684683
 30
0.0
 11
8.8923085664
 21
-114.0011684683
 31
0.0
  0
LINE
  5
80
330
1F
100
AcDbEntity
  8
0
  6
Continuous
 62
     7
370
    15
100
AcDbLine
 10
14.8923085664
 20
-114.0011684683
 30
0.0
 11
14.8923085664
 21
-113.7511684683
 31
0.0
  0
LINE
  5
81
330
1F
100
AcDbEntity
  8
0
  6
Continuous
 62
     7
370
    15
100
AcDbLine
 10
-14.2673930984
 20
638.3656986284
 30
0.0
 11
-14.2673930984
 21
647.8656986284
 31
0.0
  0
LINE
  5
82
330
1F
100
AcDbEntity
  8
0
  6
Continuous
 62
     7
370
    15
100
AcDbLine
 10
-33.2673930984
 20
647.8656986284
 30
0.0
 11
-33.2673930984
 21
638.3656986284
 31
0.0
  0
ARC
  5
83
330
1F
100
AcDbEntity
  8
0
  6
Continuous
 62
     7
370
    15
100
AcDbCircle
 10
-31.2673930984
 20
647.8656986284
 30
0.0
 40
2.000000000000004
100
AcDbArc
 50
90.0
 51
180.0
  0
ARC
  5
84
330
1F
100
AcDbEntity
  8
0
  6
Continuous
 62
     7
370
    15
100
AcDbCircle
 10
-16.2673930984
 20
647.8656986284
 30
0.0
 40
2.0
100
AcDbArc
 50
0.0
 51
90.0
  0
ARC
  5
85
330
1F
100
AcDbEntity
  8
0
  6
Continuous
 62
     7
370
    15
100
AcDbCircle
 10
806.0862656013
 20
514.526650267
 30
0.0
 40
1.999999999999924
100
AcDbArc
 50
205.0
 51
292.0
  0
ARC
  5
86
330
1F
100
AcDbEntity
  8
0
  6
Continuous
 62
     7
370
    15
100
AcDbCircle
 10
826.2856681404
 20
471.2088917316
 30
0.0
 40
2.00000000000035
100
AcDbArc
 50
118.0
 51
205.0
  0
LINE
  5
87
330
1F
100
AcDbEntity
  8
0
  6
Continuous
 62
     7
370
    15
100
AcDbLine
 10
825.3467250148
 20
472.9747869173
 30
0.0
 11
828.0917495673
 21
474.4343423621
 31
0.0
  0
LINE
  5
88
330
1F
100
AcDbEntity
  8
0
  6
Continuous
 62
     7
370
    15
100
AcDbLine
 10
809.7180308966
 20
513.836909207
 30
0.0
 11
806.8354787881
 21
512.6722825579
 31
0.0
  0
LINE
  5
89
330
1F
100
AcDbEntity
  8
0
  6
Continuous
 62
     7
370
    15
100
AcDbLine
 10
837.3119993747
 20
430.9994370097
 30
0.0
 11
837.754079026
 21
431.2344949298
 31
0.0
  0
LINE
  5
8A
330
1F
100
AcDbEntity
  8
0
  6
Continuous
 62
     7
370
    15
100
AcDbLine
 10
837.0464211497
 20
466.7353782159
 30
0.0
 11
844.4190259731
 21
474.5867919814
 31
0.0
  0
LINE
  5
8B
330
1F
100
AcDbEntity
  8
0
  6
Continuous
 62
     7
370
    15
100
AcDbLine
 10
820.3297850539
 20
526.2463358425
 30
0.0
 11
809.5762341366
 21
525.6453843732
 31
0.0
  0
LINE
  5
8C
330
1F
100
AcDbEntity
  8
0
  6
Continuous
 62
     7
370
    15
100
AcDbLine
 10
844.4190259731
 20
474.5867919814
 30
0.0
 11
858.3193620686
 21
490.7062606564
 31
0.0
  0
LINE
  5
8D
330
1F
100
AcDbEntity
  8
0
  6
Continuous
 62
     7
370
    15
100
AcDbLine
 10
820.8365288752
 20
526.2531663454
 30
0.0
 11
820.3297850539
 21
526.2463358425
 31
0.0
  0
ARC
  5
8E
330
1F
100
AcDbEntity
  8
0
  6
Continuous
 62
     7
370
    15
100
AcDbCircle
 10
857.5620506846
 20
491.3593146111
 30
0.0
 40
1.000000000000015
100
AcDbArc
 50
319.227745318
 51
25.0
  0
LINE
  5
8F
330
1F
100
AcDbEntity
  8
0
  6
Continuous
 62
     7
370
    15
100
AcDbLine
 10
824.500391038
 20
488.908023449
 30
0.0
 11
826.3277602705
 21
489.72162065
 31
0.0
  0
LINE
  5
90
330
1F
100
AcDbEntity
  8
0
  6
Continuous
 62
     7
370
    15
100
AcDbLine
 10
824.5081793555
 20
488.8913213484
 30
0.0
 11
826.3355485879
 21
489.7049185493
 31
0.0
  0
LINE
  5
91
330
1F
100
AcDbEntity
  8
0
  6
Continuous
 62
     7
370
    15
100
AcDbLine
 10
821.6208545962
 20
499.8156124427
 30
0.0
 11
817.214417185
 21
497.7608569327
 31
0.0
  0
LINE
  5
92
330
1F
100
AcDbEntity
  8
0
  6
Continuous
 62
     7
370
    15
100
AcDbLine
 10
820.5953632789
 20
490.5103946364
 30
0.0
 11
823.189185116
 21
491.7199136229
 31
0.0
  0
LINE
  5
93
330
1F
100
AcDbEntity
  8
0
  6
Continuous
 62
     7
370
    15
100
AcDbLine
 10
786.6115310621
 20
545.8041611704
 30
0.0
 11
785.6432828238
 21
545.3526596019
 31
0.0
  0
LINE
  5
94
330
1F
100
AcDbEntity
  8
0
  6
Continuous
 62
     7
370
    15
100
AcDbLine
 10
787.980771236
 20
544.5990623749
 30
0.0
 11
786.6115310621
 21
545.8041611704
 31
0.0
  0
ARC
  5
95
330
1F
100
AcDbEntity
  8
0
  6
Continuous
 62
     7
370
    15
100
AcDbCircle
 10
807.5700745703
 20
535.7164879707
 30
0.0
 40
0.4999999999998797
100
AcDbArc
 50
295.0
 51
25.0
  0
ARC
  5
96
330
1F
100
AcDbEntity
  8
0
  6
Continuous
 62
     7
370
    15
100
AcDbCircle
 10
803.4284156052
 20
544.5983042837
 30
0.0
 40
0.4999999999998797
100
AcDbArc
 50
25.0
 51
115.0
  0
LINE
  5
97
330
1F
100
AcDbEntity
  8
0
  6
Continuous
 62
     7
370
    15
100
AcDbLine
 10
796.6337979206
 20
530.0651294578
 30
0.0
 11
807.7813837011
 21
535.2633340772
 31
0.0
  0
LINE
  5
98
330
1F
100
AcDbEntity
  8
0
  6
Continuous
 62
     7
370
    15
100
AcDbLine
 10
803.2171064743
 20
545.0514581772
 30
0.0
 11
790.5287974558
 21
539.1348025128
 31
0.0
  0
LINE
  5
99
330
1F
100
AcDbEntity
  8
0
  6
Continuous
 62
     7
370
    15
100
AcDbLine
 10
705.4239392482
 20
656.9887404639
 30
0.0
 11
697.1614113335
 21
657.1924516877
 31
0.0
  0
LINE
  5
9A
330
1F
100
AcDbEntity
  8
0
  6
Continuous
 62
     7
370
    15
100
AcDbLine
 10
672.8421442069
 20
663.5431842663
 30
0.0
 11
671.0765829183
 21
663.5867138803
 31
0.0
  0
LINE
  5
9B
330
1F
100
AcDbEntity
  8
0
  6
Continuous
 62
     7
370
    15
100
AcDbLine
 10
105.2923085664
 20
-277.3011684683
 30
0.0
 11
52.2923085664
 21
-277.3011684683
 31
0.0
  0
LINE
  5
9C
330
1F
100
AcDbEntity
  8
0
  6
Continuous
 62
     7
370
    15
100
AcDbLine
 10
107.2923085664
 20
-271.3011684683
 30
0.0
 11
50.2923085664
 21
-271.3011684683
 31
0.0
  0
LINE
  5
9D
330
1F
100
AcDbEntity
  8
0
  6
Continuous
 62
     7
370
    15
100
AcDbLine
 10
686.2923085664
 20
-271.3011684683
 30
0.0
 11
629.2923085664
 21
-271.3011684683
 31
0.0
  0
LINE
  5
9E
330
1F
100
AcDbEntity
  8
0
  6
Continuous
 62
     7
370
    15
100
AcDbLine
 10
684.2923085664
 20
-277.3011684683
 30
0.0
 11
631.2923085664
 21
-277.3011684683
 31
0.0
  0
LINE
  5
9F
330
1F
100
AcDbEntity
  8
0
  6
Continuous
 62
     7
370
    15
100
AcDbLine
 10
33.7923085664
 20
-109.3011684683
 30
0.0
 11
33.7923085664
 21
-108.8011684683
 31
0.0
  0
LINE
  5
A0
330
1F
100
AcDbEntity
  8
0
  6
Continuous
 62
     7
370
    15
100
AcDbLine
 10
33.7923085664
 20
-109.3011684683
 30
0.0
 11
123.7923085664
 21
-109.3011684683
 31
0.0
  0
LINE
  5
A1
330
1F
100
AcDbEntity
  8
0
  6
Continuous
 62
     7
370
    15
100
AcDbLine
 10
123.7923085664
 20
-109.3011684683
 30
0.0
 11
123.7923085664
 21
-108.8011684683
 31
0.0
  0
LINE
  5
A2
330
1F
100
AcDbEntity
  8
0
  6
Continuous
 62
     7
370
    15
100
AcDbLine
 10
109.7519587868
 20
-203.3011684683
 30
0.0
 11
47.8326583461
 21
-203.3011684683
 31
0.0
  0
LINE
  5
A3
330
1F
100
AcDbEntity
  8
0
  6
Continuous
 62
     7
370
    15
100
AcDbLine
 10
702.7923085664
 20
-109.3011684683
 30
0.0
 11
702.7923085664
 21
-108.8011684683
 31
0.0
  0
LINE
  5
A4
330
1F
100
AcDbEntity
  8
0
  6
Continuous
 62
     7
370
    15
100
AcDbLine
 10
612.7923085664
 20
-109.3011684683
 30
0.0
 11
702.7923085664
 21
-109.3011684683
 31
0.0
  0
LINE
  5
A5
330
1F
100
AcDbEntity
  8
0
  6
Continuous
 62
     7
370
    15
100
AcDbLine
 10
612.7923085664
 20
-109.3011684683
 30
0.0
 11
612.7923085664
 21
-108.8011684683
 31
0.0
  0
LINE
  5
A6
330
1F
100
AcDbEntity
  8
0
  6
Continuous
 62
     7
370
    15
100
AcDbLine
 10
688.7519587868
 20
-203.3011684683
 30
0.0
 11
626.8326583461
 21
-203.3011684683
 31
0.0
  0
LINE
  5
A7
330
1F
100
AcDbEntity
  8
0
  6
Continuous
 62
     7
370
    15
100
AcDbLine
 10
4.7923085664
 20
370.4988315317
 30
0.0
 11
4.7923085664
 21
371.9988315317
 31
0.0
  0
SPLINE
  5
A8
330
1F
100
AcDbEntity
  8
0
  6
Continuous
 62
     7
370
    15
100
AcDbSpline
210
0.0
220
0.0
230
1.0
 70
     8
 71
     3
 72
    10
 73
     6
 74
     0
 42
0.00000001
 43
0.00000001
 12
1.0
 22
0.0
 32
0.0
 13
1.0
 23
0.0
 33
0.0
 40
0.0
 40
0.0
 40
0.0
 40
0.0
 40
0.2804432289774752
 40
0.7940585657612536
 40
0.9999999999999999
 40
0.9999999999999999
 40
0.9999999999999999
 40
0.9999999999999999
 10
744.2676157433366
 20
371.9745577234814
 30
0.0
 10
744.2044535777445
 20
371.8624891277447
 30
0.0
 10
744.0256136078754
 20
371.5451734673808
 30
0.0
 10
743.7998489646504
 20
370.9991233596244
 30
0.0
 10
743.6384903602321
 20
370.6101562387494
 30
0.0
 10
743.5923085664406
 20
370.4988315316928
 30
0.0
  0
LINE
  5
A9
330
1F
100
AcDbEntity
  8
0
  6
Continuous
 62
     7
370
    15
100
AcDbLine
 10
3.5923085664
 20
371.9988315317
 30
0.0
 11
4.5923085664
 21
371.9988315317
 31
0.0
  0
LINE
  5
AA
330
1F
100
AcDbEntity
  8
0
  6
Continuous
 62
     7
370
    15
100
AcDbLine
 10
4.5923085664
 20
370.4988315317
 30
0.0
 11
4.5923085664
 21
371.9988315317
 31
0.0
  0
ARC
  5
AB
330
1F
100
AcDbEntity
  8
0
  6
Continuous
 62
     7
370
    15
100
AcDbCircle
 10
4.6923085664
 20
370.4988315317
 30
0.0
 40
0.099999999999989
100
AcDbArc
 50
180.0
 51
0.0
  0
SPLINE
  5
AC
330
1F
100
AcDbEntity
  8
0
  6
Continuous
 62
     7
370
    15
100
AcDbSpline
210
0.0
220
0.0
230
1.0
 70
     8
 71
     3
 72
    10
 73
     6
 74
     0
 42
0.00000001
 43
0.00000001
 12
1.0
 22
0.0
 32
0.0
 13
1.0
 23
0.0
 33
0.0
 40
0.0
 40
0.0
 40
0.0
 40
0.0
 40
0.3127604165753887
 40
0.6593519189456789
 40
1.0
 40
1.0
 40
1.0
 40
1.0
 10
743.5923085664405
 20
370.4988315316927
 30
0.0
 10
743.8437896596851
 20
370.6031196317379
 30
0.0
 10
744.3739543884095
 20
370.8229766060985
 30
0.0
 10
745.105515765901
 20
371.1568982905326
 30
0.0
 10
745.4288831508388
 20
371.3862971180582
 30
0.0
 10
745.5891685619406
 20
371.5000045823507
 30
0.0
  0
SPLINE
  5
AD
330
1F
100
AcDbEntity
  8
0
  6
Continuous
 62
     7
370
    15
100
AcDbSpline
210
0.0
220
0.0
230
1.0
 70
     8
 71
     3
 72
    10
 73
     6
 74
     0
 42
0.00000001
 43
0.00000001
 12
1.0
 22
0.0
 32
0.0
 13
1.0
 23
0.0
 33
0.0
 40
0.0
 40
0.0
 40
0.0
 40
0.0
 40
0.4303529957491063
 40
0.8610853432792296
 40
1.0
 40
1.0
 40
1.0
 40
1.0
 10
743.5923085664405
 20
370.4988315316928
 30
0.0
 10
743.7893726265619
 20
370.6254110985419
 30
0.0
 10
744.1836744567662
 20
370.8786818108386
 30
0.0
 10
744.6058228098952
 20
371.1728155989026
 30
0.0
 10
744.7391732519706
 20
371.340367472567
 30
0.0
 10
744.7716922167791
 20
371.3812268308
 30
0.0
  0
SPLINE
  5
AE
330
1F
100
AcDbEntity
  8
0
  6
Continuous
 62
     7
370
    15
100
AcDbSpline
210
0.0
220
0.0
230
1.0
 70
     8
 71
     3
 72
     9
 73
     5
 74
     0
 42
0.00000001
 43
0.00000001
 12
1.0
 22
0.0
 32
0.0
 13
1.0
 23
0.0
 33
0.0
 40
0.0
 40
0.0
 40
0.0
 40
0.0
 40
0.486849628751963
 40
1.0
 40
1.0
 40
1.0
 40
1.0
 10
744.280497890215
 20
371.4852471974647
 30
0.0
 10
744.1687611515093
 20
371.343974230662
 30
0.0
 10
743.9392513971486
 20
371.0537964047798
 30
0.0
 10
743.7099662994473
 20
370.6870351868386
 30
0.0
 10
743.5923085664405
 20
370.4988315316927
 30
0.0
  0
LINE
  5
AF
330
1F
100
AcDbEntity
  8
0
  6
Continuous
 62
     7
370
    15
100
AcDbLine
 10
745.8923085664
 20
-107.9940974005
 30
0.0
 11
745.8923085664
 21
371.1988315317
 31
0.0
  0
SPLINE
  5
B0
330
1F
100
AcDbEntity
  8
0
  6
Continuous
 62
     7
370
    15
100
AcDbSpline
210
0.0
220
0.0
230
1.0
 70
     8
 71
     3
 72
    12
 73
     8
 74
     0
 42
0.00000001
 43
0.00000001
 12
1.0
 22
0.0
 32
0.0
 13
1.0
 23
0.0
 33
0.0
 40
0.0
 40
0.0
 40
0.0
 40
0.0
 40
0.2096821001528679
 40
0.4420453733185997
 40
0.6744332966681218
 40
0.9068208701180485
 40
0.9999999999999999
 40
0.9999999999999999
 40
0.9999999999999999
 40
0.9999999999999999
 10
745.8923085664404
 20
-107.9940974004954
 30
0.0
 10
745.8679685962719
 20
-107.8898121925679
 30
0.0
 10
745.816655817585
 20
-107.6699613152812
 30
0.0
 10
745.3957252306562
 20
-107.3339931853982
 30
0.0
 10
744.743935752761
 20
-106.9870879169815
 30
0.0
 10
744.0944947136583
 20
-106.7087112547486
 30
0.0
 10
743.7040547965519
 20
-106.547350793527
 30
0.0
 10
743.5923085664405
 20
-106.5011684683073
 30
0.0
  0
SPLINE
  5
B1
330
1F
100
AcDbEntity
  8
0
  6
Continuous
 62
     7
370
    15
100
AcDbSpline
210
0.0
220
0.0
230
1.0
 70
     8
 71
     3
 72
    12
 73
     8
 74
     0
 42
0.00000001
 43
0.00000001
 12
1.0
 22
0.0
 32
0.0
 13
1.0
 23
0.0
 33
0.0
 40
0.0
 40
0.0
 40
0.0
 40
0.0
 40
0.2096821001528681
 40
0.4420453733186112
 40
0.6744332966681453
 40
0.9068208701180616
 40
0.9999999999999999
 40
0.9999999999999999
 40
0.9999999999999999
 40
0.9999999999999999
 10
743.5923085664405
 20
-106.5011684683073
 30
0.0
 10
743.6965937743679
 20
-106.7534994262826
 30
0.0
 10
743.9164446516546
 20
-107.2854558137697
 30
0.0
 10
744.2524127815379
 20
-108.0068372435847
 30
0.0
 10
744.5993180499544
 20
-108.550196177571
 30
0.0
 10
744.8776947121872
 20
-108.7788180177144
 30
0.0
 10
745.039055173409
 20
-108.7961950563386
 30
0.0
 10
745.0852374986285
 20
-108.8011684683073
 30
0.0
  0
LINE
  5
B2
330
1F
100
AcDbEntity
  8
0
  6
Continuous
 62
     7
370
    15
100
AcDbLine
 10
745.0852374986
 20
-108.8011684683
 30
0.0
 11
2.0993796343
 21
-108.8011684683
 31
0.0
  0
SPLINE
  5
B3
330
1F
100
AcDbEntity
  8
0
  6
Continuous
 62
     7
370
    15
100
AcDbSpline
210
0.0
220
0.0
230
1.0
 70
     8
 71
     3
 72
    12
 73
     8
 74
     0
 42
0.00000001
 43
0.00000001
 12
1.0
 22
0.0
 32
0.0
 13
1.0
 23
0.0
 33
0.0
 40
0.0
 40
0.0
 40
0.0
 40
0.0
 40
0.2096821001528592
 40
0.4420453733185721
 40
0.674433296668132
 40
0.906820870118057
 40
0.9999999999999999
 40
0.9999999999999999
 40
0.9999999999999999
 40
0.9999999999999999
 10
2.099379634251997
 20
-108.8011684683073
 30
0.0
 10
2.203664842179431
 20
-108.7768284981387
 30
0.0
 10
2.423515719465974
 20
-108.7255157194518
 30
0.0
 10
2.759483849349598
 20
-108.3045851325232
 30
0.0
 10
3.106389117765895
 20
-107.6527956546276
 30
0.0
 10
3.384765779998911
 20
-107.003354615525
 30
0.0
 10
3.546126241220582
 20
-106.6129146984187
 30
0.0
 10
3.592308566440328
 20
-106.5011684683073
 30
0.0
  0
SPLINE
  5
B4
330
1F
100
AcDbEntity
  8
0
  6
Continuous
 62
     7
370
    15
100
AcDbSpline
210
0.0
220
0.0
230
1.0
 70
     8
 71
     3
 72
    11
 73
     7
 74
     0
 42
0.00000001
 43
0.00000001
 12
1.0
 22
0.0
 32
0.0
 13
1.0
 23
0.0
 33
0.0
 40
0.0
 40
0.0
 40
0.0
 40
0.0
 40
0.2543211584721516
 40
0.5088664984542661
 40
0.7634130007197714
 40
1.0
 40
1.0
 40
1.0
 40
1.0
 10
743.5923085664405
 20
-106.5011684683073
 30
0.0
 10
743.7188896742257
 20
-106.7011436584466
 30
0.0
 10
743.9721634697536
 20
-107.1012703148178
 30
0.0
 10
744.352108139239
 20
-107.6028940689133
 30
0.0
 10
744.7233332709097
 20
-107.9389593157722
 30
0.0
 10
744.967579915579
 20
-107.9809438398828
 30
0.0
 10
745.0852374986285
 20
-108.0011684683073
 30
0.0
  0
LINE
  5
B5
330
1F
100
AcDbEntity
  8
0
  6
Continuous
 62
     7
370
    15
100
AcDbLine
 10
745.0852374986
 20
-108.8011684683
 30
0.0
 11
745.0852374986
 21
-108.0011684683
 31
0.0
  0
LINE
  5
B6
330
1F
100
AcDbEntity
  8
0
  6
Continuous
 62
     7
370
    15
100
AcDbLine
 10
745.8923085664
 20
-107.9940974005
 30
0.0
 11
745.0923085664
 21
-107.9940974005
 31
0.0
  0
SPLINE
  5
B7
330
1F
100
AcDbEntity
  8
0
  6
Continuous
 62
     7
370
    15
100
AcDbSpline
210
0.0
220
0.0
230
1.0
 70
     8
 71
     3
 72
    11
 73
     7
 74
     0
 42
0.00000001
 43
0.00000001
 12
1.0
 22
0.0
 32
0.0
 13
1.0
 23
0.0
 33
0.0
 40
0.0
 40
0.0
 40
0.0
 40
0.0
 40
0.2543211584721383
 40
0.5088664984542387
 40
0.7634130007197243
 40
1.0
 40
1.0
 40
1.0
 40
1.0
 10
745.0923085664405
 20
-107.9940974004954
 30
0.0
 10
745.0689545044213
 20
-107.86751629271
 30
0.0
 10
745.0222257940153
 20
-107.6142424971823
 30
0.0
 10
744.6633381778205
 20
-107.2342978276969
 30
0.0
 10
744.1641151985308
 20
-106.863072696026
 30
0.0
 10
743.7782068819354
 20
-106.6188260513569
 30
0.0
 10
743.5923085664405
 20
-106.5011684683073
 30
0.0
  0
SPLINE
  5
B8
330
1F
100
AcDbEntity
  8
0
  6
Continuous
 62
     7
370
    15
100
AcDbSpline
210
0.0
220
0.0
230
1.0
 70
     8
 71
     3
 72
    12
 73
     8
 74
     0
 42
0.00000001
 43
0.00000001
 12
1.0
 22
0.0
 32
0.0
 13
1.0
 23
0.0
 33
0.0
 40
0.0
 40
0.0
 40
0.0
 40
0.0
 40
0.2096821001529046
 40
0.4420453733186416
 40
0.6744332966681208
 40
0.9068208701180595
 40
1.0
 40
1.0
 40
1.0
 40
1.0
 10
3.592308566440383
 20
-106.5011684683073
 30
0.0
 10
3.33997760846505
 20
-106.6054536762349
 30
0.0
 10
2.808021220977841
 20
-106.8253045535217
 30
0.0
 10
2.086639791162914
 20
-107.1612726834045
 30
0.0
 10
1.543280857176921
 20
-107.5081779518213
 30
0.0
 10
1.314659017033315
 20
-107.7865546140542
 30
0.0
 10
1.297281978409059
 20
-107.9479150752758
 30
0.0
 10
1.292308566440414
 20
-107.9940974004955
 30
0.0
  0
LINE
  5
B9
330
1F
100
AcDbEntity
  8
0
  6
Continuous
 62
     7
370
    15
100
AcDbLine
 10
1.2923085664
 20
370.2488315317
 30
0.0
 11
1.2923085664
 21
-107.9940974005
 31
0.0
  0
SPLINE
  5
BA
330
1F
100
AcDbEntity
  8
0
  6
Continuous
 62
     7
370
    15
100
AcDbSpline
210
0.0
220
0.0
230
1.0
 70
     8
 71
     3
 72
    12
 73
     8
 74
     0
 42
0.00000001
 43
0.00000001
 12
1.0
 22
0.0
 32
0.0
 13
1.0
 23
0.0
 33
0.0
 40
0.0
 40
0.0
 40
0.0
 40
0.0
 40
0.2039309378942017
 40
0.4425616402550611
 40
0.6812426816310142
 40
0.9199234516442947
 40
1.0
 40
1.0
 40
1.0
 40
1.0
 10
1.292308566440414
 20
370.2488315316928
 30
0.0
 10
1.315373190140523
 20
370.367666870583
 30
0.0
 10
1.365426986793594
 20
370.6255579146911
 30
0.0
 10
1.787891201857073
 20
371.0234395898032
 30
0.0
 10
2.461087124192962
 20
371.4410516016125
 30
0.0
 10
3.114065237167674
 20
371.7671518483961
 30
0.0
 10
3.496288448096907
 20
371.9523156489898
 30
0.0
 10
3.592308566440383
 20
371.9988315316927
 30
0.0
  0
LINE
  5
BB
330
1F
100
AcDbEntity
  8
0
  6
Continuous
 62
     7
370
    15
100
AcDbLine
 10
2.0993796343
 20
-108.8011684683
 30
0.0
 11
2.0993796343
 21
-108.0011684683
 31
0.0
  0
SPLINE
  5
BC
330
1F
100
AcDbEntity
  8
0
  6
Continuous
 62
     7
370
    15
100
AcDbSpline
210
0.0
220
0.0
230
1.0
 70
     8
 71
     3
 72
    11
 73
     7
 74
     0
 42
0.00000001
 43
0.00000001
 12
1.0
 22
0.0
 32
0.0
 13
1.0
 23
0.0
 33
0.0
 40
0.0
 40
0.0
 40
0.0
 40
0.0
 40
0.254321158472076
 40
0.5088664984542018
 40
0.7634130007197703
 40
1.0
 40
1.0
 40
1.0
 40
1.0
 10
2.099379634252052
 20
-108.0011684683073
 30
0.0
 10
2.225960742037458
 20
-107.9778144062882
 30
0.0
 10
2.479234537564989
 20
-107.9310856958823
 30
0.0
 10
2.859179207050588
 20
-107.5721980796872
 30
0.0
 10
3.230404338721626
 20
-107.0729751003975
 30
0.0
 10
3.474650983390726
 20
-106.6870667838023
 30
0.0
 10
3.592308566440383
 20
-106.5011684683073
 30
0.0
  0
SPLINE
  5
BD
330
1F
100
AcDbEntity
  8
0
  6
Continuous
 62
     7
370
    15
100
AcDbSpline
210
0.0
220
0.0
230
1.0
 70
     8
 71
     3
 72
    11
 73
     7
 74
     0
 42
0.00000001
 43
0.00000001
 12
1.0
 22
0.0
 32
0.0
 13
1.0
 23
0.0
 33
0.0
 40
0.0
 40
0.0
 40
0.0
 40
0.0
 40
0.2543211584722276
 40
0.5088664984543285
 40
0.7634130007197982
 40
1.0
 40
1.0
 40
1.0
 40
1.0
 10
3.592308566440383
 20
-106.5011684683073
 30
0.0
 10
3.392333376301016
 20
-106.6277495760928
 30
0.0
 10
2.992206719929724
 20
-106.8810233716205
 30
0.0
 10
2.490582965834265
 20
-107.260968041106
 30
0.0
 10
2.154517718975457
 20
-107.6321931727769
 30
0.0
 10
2.112533194864874
 20
-107.876439817446
 30
0.0
 10
2.092308566440382
 20
-107.9940974004955
 30
0.0
  0
LINE
  5
BE
330
1F
100
AcDbEntity
  8
0
  6
Continuous
 62
     7
370
    15
100
AcDbLine
 10
1.2923085664
 20
-107.9940974005
 30
0.0
 11
2.0923085664
 21
-107.9940974005
 31
0.0
  0
LINE
  5
BF
330
1F
100
AcDbEntity
  8
0
  6
Continuous
 62
     7
370
    15
100
AcDbLine
 10
4.5923085664
 20
371.1988315317
 30
0.0
 11
4.7923085664
 21
371.1988315317
 31
0.0
  0
LINE
  5
C0
330
1F
100
AcDbEntity
  8
0
  6
Continuous
 62
     7
370
    15
100
AcDbLine
 10
2.0993796343
 20
-108.0011684683
 30
0.0
 11
2.0923085664
 21
-108.0011684683
 31
0.0
  0
LINE
  5
C1
330
1F
100
AcDbEntity
  8
0
  6
Continuous
 62
     7
370
    15
100
AcDbLine
 10
2.0923085664
 20
-108.0011684683
 30
0.0
 11
2.0923085664
 21
-107.9940974005
 31
0.0
  0
LINE
  5
C2
330
1F
100
AcDbEntity
  8
0
  6
Continuous
 62
     7
370
    15
100
AcDbLine
 10
2.8923085664
 20
-107.5224445665
 30
0.0
 11
2.8923085664
 21
-106.9917843367
 31
0.0
  0
LINE
  5
C3
330
1F
100
AcDbEntity
  8
0
  6
Continuous
 62
     7
370
    15
100
AcDbLine
 10
3.1611732425
 20
-106.7802835205
 30
0.0
 11
3.2699829628
 21
-106.9639686399
 31
0.0
  0
LWPOLYLINE
  5
C4
330
1F
100
AcDbEntity
  8
0
  6
Continuous
 62
     7
370
    15
100
AcDbPolyline
 90
        3
 70
   128
 43
0.0
 10
744.0095109775
 20
-107.1110533563
 10
744.1046886747
 20
-106.9789800043
 10
744.1696756583
 20
-106.8759107311
  0
SPLINE
  5
C5
330
1F
100
AcDbEntity
  8
0
  6
Continuous
 62
     7
370
    15
100
AcDbSpline
210
0.0
220
0.0
230
1.0
 70
     8
 71
     3
 72
    13
 73
     9
 74
     0
 42
0.00000001
 43
0.00000001
 12
1.0
 22
0.0
 32
0.0
 13
1.0
 23
0.0
 33
0.0
 40
0.0
 40
0.0
 40
0.0
 40
0.0
 40
0.1695411050600281
 40
0.3386458383077879
 40
0.5184804584270597
 40
0.7277236211487987
 40
0.9924537768854206
 40
1.0
 40
1.0
 40
1.0
 40
1.0
 10
15.43590410967971
 20
-120.6511684683094
 30
0.0
 10
15.43635410091593
 20
-120.6265573210227
 30
0.0
 10
15.4372529251825
 20
-120.5773983716242
 30
0.0
 10
15.4440520673102
 20
-120.5112625782438
 30
0.0
 10
15.45423775892169
 20
-120.4555909751396
 30
0.0
 10
15.46873527369846
 20
-120.4128721958671
 30
0.0
 10
15.48035023213412
 20
-120.401286536255
 30
0.0
 10
15.48679345731802
 20
-120.4011716523519
 30
0.0
 10
15.48697203327465
 20
-120.4011684683094
 30
0.0
  0
LINE
  5
C6
330
1F
100
AcDbEntity
  8
0
  6
Continuous
 62
     7
370
    15
100
AcDbLine
 10
9.0690670993
 20
-120.4011684683
 30
0.0
 11
15.4869720333
 21
-120.4011684683
 31
0.0
  0
SPLINE
  5
C7
330
1F
100
AcDbEntity
  8
0
  6
Continuous
 62
     7
370
    15
100
AcDbSpline
210
0.0
220
0.0
230
1.0
 70
     8
 71
     3
 72
    13
 73
     9
 74
     0
 42
0.00000001
 43
0.00000001
 12
1.0
 22
0.0
 32
0.0
 13
1.0
 23
0.0
 33
0.0
 40
0.0
 40
0.0
 40
0.0
 40
0.0
 40
0.0075462231145805
 40
0.2722763788516734
 40
0.4815195415729622
 40
0.6613541616926486
 40
0.8304588949399727
 40
1.0
 40
1.0
 40
1.0
 40
1.0
 10
15.4869720332747
 20
-121.6011684683094
 30
0.0
 10
15.48679345731807
 20
-121.6011652842668
 30
0.0
 10
15.48035023213112
 20
-121.6010504003637
 30
0.0
 10
15.46873527369946
 20
-121.5894647407516
 30
0.0
 10
15.45423775892135
 20
-121.5467459614788
 30
0.0
 10
15.44405206731025
 20
-121.491074358375
 30
0.0
 10
15.43725292518228
 20
-121.4249385649944
 30
0.0
 10
15.43635410091598
 20
-121.375779615596
 30
0.0
 10
15.43590410967988
 20
-121.3511684683094
 30
0.0
  0
LINE
  5
C8
330
1F
100
AcDbEntity
  8
0
  6
Continuous
 62
     7
370
    15
100
AcDbLine
 10
15.4869720333
 20
-121.6011684683
 30
0.0
 11
8.8923085664
 21
-121.6011684683
 31
0.0
  0
LINE
  5
C9
330
1F
100
AcDbEntity
  8
0
  6
Continuous
 62
     7
370
    15
100
AcDbLine
 10
15.4359041097
 20
-120.6511684683
 30
0.0
 11
15.4359041097
 21
-121.3511684683
 31
0.0
  0
SPLINE
  5
CA
330
1F
100
AcDbEntity
  8
0
  6
Continuous
 62
     7
370
    15
100
AcDbSpline
210
0.0
220
0.0
230
1.0
 70
     8
 71
     3
 72
    12
 73
     8
 74
     0
 42
0.00000001
 43
0.00000001
 12
1.0
 22
0.0
 32
0.0
 13
1.0
 23
0.0
 33
0.0
 40
0.0
 40
0.0
 40
0.0
 40
0.0
 40
0.2289440738516124
 40
0.4594214300241601
 40
0.6825355698157347
 40
0.8947175231628339
 40
1.0
 40
1.0
 40
1.0
 40
1.0
 10
19.88723051335661
 20
-121.6011684683097
 30
0.0
 10
20.02132252997607
 20
-121.5838339837321
 30
0.0
 10
20.29040460313791
 20
-121.549048922213
 30
0.0
 10
20.64301165858018
 20
-121.2751790764005
 30
0.0
 10
20.89602122724704
 20
-120.8781425419176
 30
0.0
 10
21.00936407211318
 20
-120.4772665525649
 30
0.0
 10
21.0190037266933
 20
-120.2323811594778
 30
0.0
 10
21.02220057841453
 20
-120.1511684683095
 30
0.0
  0
LINE
  5
CB
330
1F
100
AcDbEntity
  8
0
  6
Continuous
 62
     7
370
    15
100
AcDbLine
 10
19.8872305134
 20
-121.6011684683
 30
0.0
 11
15.7171334087
 21
-121.6011684683
 31
0.0
  0
LINE
  5
CC
330
1F
100
AcDbEntity
  8
0
  6
Continuous
 62
     7
370
    15
100
AcDbLine
 10
16.6283316107
 20
-114.8011684683
 30
0.0
 11
20.7984287154
 21
-114.8011684683
 31
0.0
  0
LINE
  5
CD
330
1F
100
AcDbEntity
  8
0
  6
Continuous
 62
     7
370
    15
100
AcDbLine
 10
16.0984583161
 20
-114.8011684683
 30
0.0
 11
16.6283316107
 21
-114.8011684683
 31
0.0
  0
LINE
  5
CE
330
1F
100
AcDbEntity
  8
0
  6
Continuous
 62
     7
370
    15
100
AcDbLine
 10
15.4869720333
 20
-120.4011684683
 30
0.0
 11
15.7171334087
 21
-120.4011684683
 31
0.0
  0
LINE
  5
CF
330
1F
100
AcDbEntity
  8
0
  6
Continuous
 62
     7
370
    15
100
AcDbLine
 10
15.7171334087
 20
-121.6011684683
 30
0.0
 11
15.4869720333
 21
-121.6011684683
 31
0.0
  0
LINE
  5
D0
330
1F
100
AcDbEntity
  8
0
  6
Continuous
 62
     7
370
    15
100
AcDbLine
 10
21.0222005784
 20
-120.1511684683
 30
0.0
 11
21.0484287154
 21
-120.1511684683
 31
0.0
  0
LINE
  5
D1
330
1F
100
AcDbEntity
  8
0
  6
Continuous
 62
     7
370
    15
100
AcDbLine
 10
20.3423085664
 20
-121.6011684683
 30
0.0
 11
19.8872305134
 21
-121.6011684683
 31
0.0
  0
SPLINE
  5
D2
330
1F
100
AcDbEntity
  8
0
  6
Continuous
 62
     7
370
    15
100
AcDbSpline
210
0.0
220
0.0
230
1.0
 70
     8
 71
     3
 72
    11
 73
     7
 74
     0
 42
0.00000001
 43
0.00000001
 12
1.0
 22
0.0
 32
0.0
 13
1.0
 23
0.0
 33
0.0
 40
0.0
 40
0.0
 40
0.0
 40
0.0
 40
0.0796332959751656
 40
0.4594981978904004
 40
0.8207504115405887
 40
1.0
 40
1.0
 40
1.0
 40
1.0
 10
3.224662570575632
 20
-121.3026778383359
 30
0.0
 10
3.200599406015636
 20
-121.285715107915
 30
0.0
 10
3.061750691850496
 20
-121.1878371541735
 30
0.0
 10
2.892505396469625
 20
-120.8694960771317
 30
0.0
 10
2.774832176176856
 20
-120.4781974062218
 30
0.0
 10
2.765508587512455
 20
-120.2326129827672
 30
0.0
 10
2.762416554471014
 20
-120.1511684683095
 30
0.0
  0
ARC
  5
D3
330
1F
100
AcDbEntity
  8
0
  6
Continuous
 62
     7
370
    15
100
AcDbCircle
 10
3.5036383994
 20
-115.0399186592
 30
0.0
 40
0.2390731945685303
100
AcDbArc
 50
357.3028984186
 51
87.0213133887
  0
LINE
  5
D4
330
1F
100
AcDbEntity
  8
0
  6
Continuous
 62
     7
370
    15
100
AcDbLine
 10
2.9861884175
 20
-114.8011684683
 30
0.0
 11
3.5160617122
 21
-114.8011684683
 31
0.0
  0
LINE
  5
D5
330
1F
100
AcDbEntity
  8
0
  6
Continuous
 62
     7
370
    15
100
AcDbLine
 10
3.5160617122
 20
-114.8011684683
 30
0.0
 11
6.252123309
 21
-114.8011684683
 31
0.0
  0
SPLINE
  5
D6
330
1F
100
AcDbEntity
  8
0
  6
Continuous
 62
     7
370
    15
100
AcDbSpline
210
0.0
220
0.0
230
1.0
 70
     8
 71
     3
 72
    13
 73
     9
 74
     0
 42
0.00000001
 43
0.00000001
 12
1.0
 22
0.0
 32
0.0
 13
1.0
 23
0.0
 33
0.0
 40
0.0
 40
0.0
 40
0.0
 40
0.0
 40
0.1695411050600419
 40
0.3386458383076781
 40
0.5184804584261891
 40
0.7277236211485489
 40
0.9924537768850799
 40
1.0
 40
1.0
 40
1.0
 40
1.0
 10
9.161303311823076
 20
-119.4511684683095
 30
0.0
 10
9.16060050842782
 20
-119.4265573210229
 30
0.0
 10
9.15919671054144
 20
-119.3773983716244
 30
0.0
 10
9.148558784849437
 20
-119.3112625782441
 30
0.0
 10
9.132566120520103
 20
-119.2555909751395
 30
0.0
 10
9.10968987543942
 20
-119.2128721958676
 30
0.0
 10
9.091225276260328
 20
-119.2012865362551
 30
0.0
 10
9.080932933615337
 20
-119.2011716523521
 30
0.0
 10
9.080647678191166
 20
-119.2011684683095
 30
0.0
  0
LINE
  5
D7
330
1F
100
AcDbEntity
  8
0
  6
Continuous
 62
     7
370
    15
100
AcDbLine
 10
9.0806476782
 20
-119.2011684683
 30
0.0
 11
15.8484583161
 21
-119.2011684683
 31
0.0
  0
SPLINE
  5
D8
330
1F
100
AcDbEntity
  8
0
  6
Continuous
 62
     7
370
    15
100
AcDbSpline
210
0.0
220
0.0
230
1.0
 70
     8
 71
     3
 72
    13
 73
     9
 74
     0
 42
0.00000001
 43
0.00000001
 12
1.0
 22
0.0
 32
0.0
 13
1.0
 23
0.0
 33
0.0
 40
0.0
 40
0.0
 40
0.0
 40
0.0
 40
0.007546223114912
 40
0.272276378851407
 40
0.4815195415734695
 40
0.6613541616923793
 40
0.8304588949399215
 40
1.0
 40
1.0
 40
1.0
 40
1.0
 10
9.08064767819139
 20
-120.4011684683095
 30
0.0
 10
9.080932933615616
 20
-120.401165284267
 30
0.0
 10
9.091225276257608
 20
-120.4010504003638
 30
0.0
 10
9.10968987544064
 20
-120.3894647407516
 30
0.0
 10
9.132566120519936
 20
-120.3467459614794
 30
0.0
 10
9.148558784849826
 20
-120.2910743583751
 30
0.0
 10
9.159196710541107
 20
-120.2249385649946
 30
0.0
 10
9.16060050842782
 20
-120.1757796155962
 30
0.0
 10
9.161303311823133
 20
-120.1511684683095
 30
0.0
  0
LINE
  5
D9
330
1F
100
AcDbEntity
  8
0
  6
Continuous
 62
     7
370
    15
100
AcDbLine
 10
15.5031679662
 20
-120.4011684683
 30
0.0
 11
9.0806476782
 21
-120.4011684683
 31
0.0
  0
LINE
  5
DA
330
1F
100
AcDbEntity
  8
0
  6
Continuous
 62
     7
370
    15
100
AcDbLine
 10
9.1613033118
 20
-120.1511684683
 30
0.0
 11
9.1613033118
 21
-119.4511684683
 31
0.0
  0
SPLINE
  5
DB
330
1F
100
AcDbEntity
  8
0
  6
Continuous
 62
     7
370
    15
100
AcDbSpline
210
0.0
220
0.0
230
1.0
 70
     8
 71
     3
 72
    12
 73
     8
 74
     0
 42
0.00000001
 43
0.00000001
 12
1.0
 22
0.0
 32
0.0
 13
1.0
 23
0.0
 33
0.0
 40
0.0
 40
0.0
 40
0.0
 40
0.0
 40
0.2289440738515836
 40
0.4594214300241303
 40
0.6825355698157639
 40
0.8947175231628794
 40
1.0
 40
1.0
 40
1.0
 40
1.0
 10
4.293181197666696
 20
-119.2011684683095
 30
0.0
 10
4.1713702833025
 20
-119.2185029528871
 30
0.0
 10
3.926932663545435
 20
-119.2532880144063
 30
0.0
 10
3.606992902152217
 20
-119.5271578602185
 30
0.0
 10
3.377546411658605
 20
-119.9241943947015
 30
0.0
 10
3.274800202286487
 20
-120.3250703840542
 30
0.0
 10
3.266061869031445
 20
-120.5699557771412
 30
0.0
 10
3.263163927463675
 20
-120.6511684683095
 30
0.0
  0
LINE
  5
DC
330
1F
100
AcDbEntity
  8
0
  6
Continuous
 62
     7
370
    15
100
AcDbLine
 10
4.2931811977
 20
-119.2011684683
 30
0.0
 11
8.8738964218
 21
-119.2011684683
 31
0.0
  0
LINE
  5
DD
330
1F
100
AcDbEntity
  8
0
  6
Continuous
 62
     7
370
    15
100
AcDbLine
 10
8.0553777948
 20
-126.0011684683
 30
0.0
 11
3.4746625706
 21
-126.0011684683
 31
0.0
  0
LINE
  5
DE
330
1F
100
AcDbEntity
  8
0
  6
Continuous
 62
     7
370
    15
100
AcDbLine
 10
8.5313567428
 20
-126.0011684683
 30
0.0
 11
8.0553777948
 21
-126.0011684683
 31
0.0
  0
LINE
  5
DF
330
1F
100
AcDbEntity
  8
0
  6
Continuous
 62
     7
370
    15
100
AcDbLine
 10
8.8738964218
 20
-119.2011684683
 30
0.0
 11
9.0806476782
 21
-119.2011684683
 31
0.0
  0
LINE
  5
E0
330
1F
100
AcDbEntity
  8
0
  6
Continuous
 62
     7
370
    15
100
AcDbLine
 10
9.0806476782
 20
-120.4011684683
 30
0.0
 11
8.8738964218
 21
-120.4011684683
 31
0.0
  0
LINE
  5
E1
330
1F
100
AcDbEntity
  8
0
  6
Continuous
 62
     7
370
    15
100
AcDbLine
 10
3.2631639275
 20
-120.6511684683
 30
0.0
 11
3.2246625706
 21
-120.6511684683
 31
0.0
  0
LINE
  5
E2
330
1F
100
AcDbEntity
  8
0
  6
Continuous
 62
     7
370
    15
100
AcDbLine
 10
3.4423085664
 20
-119.2011684683
 30
0.0
 11
4.2931811977
 21
-119.2011684683
 31
0.0
  0
ARC
  5
E3
330
1F
100
AcDbEntity
  8
0
  6
Continuous
 62
     7
370
    15
100
AcDbCircle
 10
19.8531121306
 20
-125.767598289
 30
0.0
 40
0.2343528001291629
100
AcDbArc
 50
175.9798550465
 51
265.3161909111
  0
LINE
  5
E4
330
1F
100
AcDbEntity
  8
0
  6
Continuous
 62
     7
370
    15
100
AcDbLine
 10
19.8339756143
 20
-126.0011684683
 30
0.0
 11
17.6220966029
 21
-126.0011684683
 31
0.0
  0
LINE
  5
E5
330
1F
100
AcDbEntity
  8
0
  6
Continuous
 62
     7
370
    15
100
AcDbLine
 10
20.3099545623
 20
-126.0011684683
 30
0.0
 11
19.8339756143
 21
-126.0011684683
 31
0.0
  0
LINE
  5
E6
330
1F
100
AcDbEntity
  8
0
  6
Continuous
 62
     7
370
    15
100
AcDbLine
 10
10.8157891544
 20
-108.9977504557
 30
0.0
 11
12.0154396715
 21
-108.8011684683
 31
0.0
  0
LINE
  5
E7
330
1F
100
AcDbEntity
  8
0
  6
Continuous
 62
     7
370
    15
100
AcDbLine
 10
15.1458917291
 20
-108.8011684683
 30
0.0
 11
16.2663629247
 21
-108.9977504557
 31
0.0
  0
LINE
  5
E8
330
1F
100
AcDbEntity
  8
0
  6
Continuous
 62
     7
370
    15
100
AcDbLine
 10
16.2663629247
 20
-108.9977504557
 30
0.0
 11
16.2663629247
 21
-113.3045864809
 31
0.0
  0
SPLINE
  5
E9
330
1F
100
AcDbEntity
  8
0
  6
Continuous
 62
     7
370
    15
100
AcDbSpline
210
0.0
220
0.0
230
1.0
 70
     8
 71
     3
 72
     9
 73
     5
 74
     0
 42
0.00000001
 43
0.00000001
 12
1.0
 22
0.0
 32
0.0
 13
1.0
 23
0.0
 33
0.0
 40
0.0
 40
0.0
 40
0.0
 40
0.0
 40
0.0702005767034465
 40
1.0
 40
1.0
 40
1.0
 40
1.0
 10
13.5410760395589
 20
-113.7511684683096
 30
0.0
 10
13.60568146409113
 20
-113.750722352042
 30
0.0
 10
14.52597909647613
 20
-113.7443674716616
 30
0.0
 10
15.42782610049759
 20
-113.5164779897661
 30
0.0
 10
16.26636292473843
 20
-113.3045864809244
 30
0.0
  0
LINE
  5
EA
330
1F
100
AcDbEntity
  8
0
  6
Continuous
 62
     7
370
    15
100
AcDbLine
 10
10.8157891544
 20
-113.3045864809
 30
0.0
 11
13.5410760396
 21
-113.7511684683
 31
0.0
  0
LINE
  5
EB
330
1F
100
AcDbEntity
  8
0
  6
Continuous
 62
     7
370
    15
100
AcDbLine
 10
10.8157891544
 20
-108.9977504557
 30
0.0
 11
10.8157891544
 21
-113.3045864809
 31
0.0
  0
SPLINE
  5
EC
330
1F
100
AcDbEntity
  8
0
  6
Continuous
 62
     7
370
    15
100
AcDbSpline
210
0.0
220
0.0
230
1.0
 70
     8
 71
     3
 72
     9
 73
     5
 74
     0
 42
0.00000001
 43
0.00000001
 12
1.0
 22
0.0
 32
0.0
 13
1.0
 23
0.0
 33
0.0
 40
0.0
 40
0.0
 40
0.0
 40
0.0
 40
0.0702005767034363
 40
0.9999999999999999
 40
0.9999999999999999
 40
0.9999999999999999
 40
0.9999999999999999
 10
8.628761975231491
 20
-113.7511684683095
 30
0.0
 10
8.680607459881474
 20
-113.7507223520419
 30
0.0
 10
9.419141060096392
 20
-113.7443674716616
 30
0.0
 10
10.14286813630066
 20
-113.5164779897661
 30
0.0
 10
10.81578915437942
 20
-113.3045864809243
 30
0.0
  0
LINE
  5
ED
330
1F
100
AcDbEntity
  8
0
  6
Continuous
 62
     7
370
    15
100
AcDbLine
 10
13.5410760396
 20
-113.7511684683
 30
0.0
 11
8.6287619752
 21
-113.7511684683
 31
0.0
  0
LINE
  5
EE
330
1F
100
AcDbEntity
  8
0
  6
Continuous
 62
     7
370
    15
100
AcDbLine
 10
9.9166174115
 20
-108.8011684683
 30
0.0
 11
10.8157891544
 21
-108.9977504557
 31
0.0
  0
LINE
  5
EF
330
1F
100
AcDbEntity
  8
0
  6
Continuous
 62
     7
370
    15
100
AcDbLine
 10
6.4417347961
 20
-108.9977504557
 30
0.0
 11
7.4044474927
 21
-108.8011684683
 31
0.0
  0
LINE
  5
F0
330
1F
100
AcDbEntity
  8
0
  6
Continuous
 62
     7
370
    15
100
AcDbLine
 10
6.4417347961
 20
-113.3045864809
 30
0.0
 11
8.6287619752
 21
-113.7511684683
 31
0.0
  0
LINE
  5
F1
330
1F
100
AcDbEntity
  8
0
  6
Continuous
 62
     7
370
    15
100
AcDbLine
 10
6.4417347961
 20
-108.9977504557
 30
0.0
 11
6.4417347961
 21
-113.3045864809
 31
0.0
  0
SPLINE
  5
F2
330
1F
100
AcDbEntity
  8
0
  6
Continuous
 62
     7
370
    15
100
AcDbSpline
210
0.0
220
0.0
230
1.0
 70
     8
 71
     3
 72
     9
 73
     5
 74
     0
 42
0.00000001
 43
0.00000001
 12
1.0
 22
0.0
 32
0.0
 13
1.0
 23
0.0
 33
0.0
 40
0.0
 40
0.0
 40
0.0
 40
0.0
 40
0.9250528693173452
 40
1.0
 40
1.0
 40
1.0
 40
1.0
 10
16.26636292473826
 20
-108.9977504556948
 30
0.0
 10
16.3111592521249
 20
-108.9191967429302
 30
0.0
 10
16.35958494634465
 20
-108.8342786637909
 30
0.0
 10
16.40991279350562
 20
-108.8034769670948
 30
0.0
 10
16.41368472124383
 20
-108.8011684683073
 30
0.0
  0
SPLINE
  5
F3
330
1F
100
AcDbEntity
  8
0
  6
Continuous
 62
     7
370
    15
100
AcDbSpline
210
0.0
220
0.0
230
1.0
 70
     8
 71
     3
 72
     9
 73
     5
 74
     0
 42
0.00000001
 43
0.00000001
 12
1.0
 22
0.0
 32
0.0
 13
1.0
 23
0.0
 33
0.0
 40
0.0
 40
0.0
 40
0.0
 40
0.0
 40
0.2575513451038114
 40
1.0
 40
1.0
 40
1.0
 40
1.0
 10
16.26636292473843
 20
-113.3045864809244
 30
0.0
 10
16.31155076224683
 20
-113.3720017036993
 30
0.0
 10
16.4870025250411
 20
-113.6337562006432
 30
0.0
 10
16.66928629267833
 20
-113.7011396884358
 30
0.0
 10
16.80462263077015
 20
-113.7511684683096
 30
0.0
  0
LINE
  5
F4
330
1F
100
AcDbEntity
  8
0
  6
Continuous
 62
     7
370
    15
100
AcDbLine
 10
16.8046226308
 20
-113.7511684683
 30
0.0
 11
13.5410760396
 21
-113.7511684683
 31
0.0
  0
SPLINE
  5
F5
330
1F
100
AcDbEntity
  8
0
  6
Continuous
 62
     7
370
    15
100
AcDbSpline
210
0.0
220
0.0
230
1.0
 70
     8
 71
     3
 72
     9
 73
     5
 74
     0
 42
0.00000001
 43
0.00000001
 12
1.0
 22
0.0
 32
0.0
 13
1.0
 23
0.0
 33
0.0
 40
0.0
 40
0.0
 40
0.0
 40
0.0
 40
0.9250528693179191
 40
1.0
 40
1.0
 40
1.0
 40
1.0
 10
6.441734796083787
 20
-108.9977504556947
 30
0.0
 10
6.48653112347014
 20
-108.91919674293
 30
0.0
 10
6.534956817689341
 20
-108.8342786637909
 30
0.0
 10
6.585284664850644
 20
-108.8034769670948
 30
0.0
 10
6.589056592588793
 20
-108.8011684683073
 30
0.0
  0
SPLINE
  5
F6
330
1F
100
AcDbEntity
  8
0
  6
Continuous
 62
     7
370
    15
100
AcDbSpline
210
0.0
220
0.0
230
1.0
 70
     8
 71
     3
 72
     9
 73
     5
 74
     0
 42
0.00000001
 43
0.00000001
 12
1.0
 22
0.0
 32
0.0
 13
1.0
 23
0.0
 33
0.0
 40
0.0
 40
0.0
 40
0.0
 40
0.0
 40
0.257551345103811
 40
1.0
 40
1.0
 40
1.0
 40
1.0
 10
6.441734796083509
 20
-113.3045864809243
 30
0.0
 10
6.48692263359213
 20
-113.3720017036992
 30
0.0
 10
6.662374396387005
 20
-113.6337562006431
 30
0.0
 10
6.844658164023909
 20
-113.7011396884357
 30
0.0
 10
6.979994502115394
 20
-113.7511684683095
 30
0.0
  0
LINE
  5
F7
330
1F
100
AcDbEntity
  8
0
  6
Continuous
 62
     7
370
    15
100
AcDbLine
 10
8.6287619752
 20
-113.7511684683
 30
0.0
 11
6.9003313539
 21
-113.7511684683
 31
0.0
  0
LINE
  5
F8
330
1F
100
AcDbEntity
  8
0
  6
Continuous
 62
     7
370
    15
100
AcDbLine
 10
17.1555705135
 20
-108.8011684683
 30
0.0
 11
17.3428823368
 21
-108.9977504557
 31
0.0
  0
LINE
  5
F9
330
1F
100
AcDbEntity
  8
0
  6
Continuous
 62
     7
370
    15
100
AcDbLine
 10
17.3428823368
 20
-108.9977504557
 30
0.0
 11
17.3428823368
 21
-113.3045864809
 31
0.0
  0
SPLINE
  5
FA
330
1F
100
AcDbEntity
  8
0
  6
Continuous
 62
     7
370
    15
100
AcDbSpline
210
0.0
220
0.0
230
1.0
 70
     8
 71
     3
 72
     9
 73
     5
 74
     0
 42
0.00000001
 43
0.00000001
 12
1.0
 22
0.0
 32
0.0
 13
1.0
 23
0.0
 33
0.0
 40
0.0
 40
0.0
 40
0.0
 40
0.0
 40
0.2686336050555746
 40
1.0
 40
1.0
 40
1.0
 40
1.0
 10
16.80462263077015
 20
-113.7511684683096
 30
0.0
 10
16.85356549954509
 20
-113.7445395157252
 30
0.0
 10
17.03575740649138
 20
-113.7198629582888
 30
0.0
 10
17.21314616210501
 20
-113.4800081946888
 30
0.0
 10
17.34288233680181
 20
-113.3045864809244
 30
0.0
  0
LINE
  5
FB
330
1F
100
AcDbEntity
  8
0
  6
Continuous
 62
     7
370
    15
100
AcDbLine
 10
17.3428823368
 20
-113.3045864809
 30
0.0
 11
15.1558551577
 21
-113.7511684683
 31
0.0
  0
LINE
  5
FC
330
1F
100
AcDbEntity
  8
0
  6
Continuous
 62
     7
370
    15
100
AcDbLine
 10
17.3428823368
 20
-108.9977504557
 30
0.0
 11
16.3801696402
 21
-108.8011684683
 31
0.0
  0
LINE
  5
FD
330
1F
100
AcDbEntity
  8
0
  6
Continuous
 62
     7
370
    15
100
AcDbLine
 10
8.0039310055
 20
-114.4477504557
 30
0.0
 11
10.8240236342
 21
-114.0011684683
 31
0.0
  0
SPLINE
  5
FE
330
1F
100
AcDbEntity
  8
0
  6
Continuous
 62
     7
370
    15
100
AcDbSpline
210
0.0
220
0.0
230
1.0
 70
     8
 71
     3
 72
     9
 73
     5
 74
     0
 42
0.00000001
 43
0.00000001
 12
1.0
 22
0.0
 32
0.0
 13
1.0
 23
0.0
 33
0.0
 40
0.0
 40
0.0
 40
0.0
 40
0.0
 40
0.0702005767034276
 40
1.0
 40
1.0
 40
1.0
 40
1.0
 10
10.82402363422924
 20
-114.0011684683095
 30
0.0
 10
10.89087651584297
 20
-114.0016145845771
 30
0.0
 10
11.84318894336228
 20
-114.0079694649576
 30
0.0
 10
12.77640889246234
 20
-114.235858946853
 30
0.0
 10
13.64411626294448
 20
-114.4477504556948
 30
0.0
  0
LINE
  5
FF
330
1F
100
AcDbEntity
  8
0
  6
Continuous
 62
     7
370
    15
100
AcDbLine
 10
13.6441162629
 20
-114.4477504557
 30
0.0
 11
13.6441162629
 21
-118.7545864809
 31
0.0
  0
SPLINE
  5
100
330
1F
100
AcDbEntity
  8
0
  6
Continuous
 62
     7
370
    15
100
AcDbSpline
210
0.0
220
0.0
230
1.0
 70
     8
 71
     3
 72
     9
 73
     5
 74
     0
 42
0.00000001
 43
0.00000001
 12
1.0
 22
0.0
 32
0.0
 13
1.0
 23
0.0
 33
0.0
 40
0.0
 40
0.0
 40
0.0
 40
0.0
 40
0.0702005767034285
 40
1.0
 40
1.0
 40
1.0
 40
1.0
 10
10.82402363422913
 20
-119.2011684683095
 30
0.0
 10
10.89087651584281
 20
-119.200722352042
 30
0.0
 10
11.84318894336256
 20
-119.1943674716616
 30
0.0
 10
12.77640889246262
 20
-118.9664779897661
 30
0.0
 10
13.64411626294465
 20
-118.7545864809243
 30
0.0
  0
LINE
  5
101
330
1F
100
AcDbEntity
  8
0
  6
Continuous
 62
     7
370
    15
100
AcDbLine
 10
8.0039310055
 20
-118.7545864809
 30
0.0
 11
10.8240236342
 21
-119.2011684683
 31
0.0
  0
LINE
  5
102
330
1F
100
AcDbEntity
  8
0
  6
Continuous
 62
     7
370
    15
100
AcDbLine
 10
8.0039310055
 20
-114.4477504557
 30
0.0
 11
8.0039310055
 21
-118.7545864809
 31
0.0
  0
LINE
  5
103
330
1F
100
AcDbEntity
  8
0
  6
Continuous
 62
     7
370
    15
100
AcDbLine
 10
13.6441162629
 20
-118.7545864809
 30
0.0
 11
15.5883050434
 21
-119.2011684683
 31
0.0
  0
LINE
  5
104
330
1F
100
AcDbEntity
  8
0
  6
Continuous
 62
     7
370
    15
100
AcDbLine
 10
13.6441162629
 20
-114.4477504557
 30
0.0
 11
15.5883050434
 21
-114.0011684683
 31
0.0
  0
LINE
  5
105
330
1F
100
AcDbEntity
  8
0
  6
Continuous
 62
     7
370
    15
100
AcDbLine
 10
10.8240236342
 20
-114.0011684683
 30
0.0
 11
15.5883050434
 21
-114.0011684683
 31
0.0
  0
SPLINE
  5
106
330
1F
100
AcDbEntity
  8
0
  6
Continuous
 62
     7
370
    15
100
AcDbSpline
210
0.0
220
0.0
230
1.0
 70
     8
 71
     3
 72
     9
 73
     5
 74
     0
 42
0.00000001
 43
0.00000001
 12
1.0
 22
0.0
 32
0.0
 13
1.0
 23
0.0
 33
0.0
 40
0.0
 40
0.0
 40
0.0
 40
0.0
 40
0.2575513451038108
 40
0.9999999999999999
 40
0.9999999999999999
 40
0.9999999999999999
 40
0.9999999999999999
 10
8.003931005513554
 20
-118.7545864809243
 30
0.0
 10
7.930397355633668
 20
-118.8220017036992
 30
0.0
 10
7.644886713666976
 20
-119.0837562006432
 30
0.0
 10
7.348258428551135
 20
-119.1511396884357
 30
0.0
 10
7.128027157262795
 20
-119.2011684683095
 30
0.0
  0
SPLINE
  5
107
330
1F
100
AcDbEntity
  8
0
  6
Continuous
 62
     7
370
    15
100
AcDbSpline
210
0.0
220
0.0
230
1.0
 70
     8
 71
     3
 72
     9
 73
     5
 74
     0
 42
0.00000001
 43
0.00000001
 12
1.0
 22
0.0
 32
0.0
 13
1.0
 23
0.0
 33
0.0
 40
0.0
 40
0.0
 40
0.0
 40
0.0
 40
0.2575513451038171
 40
1.0
 40
1.0
 40
1.0
 40
1.0
 10
8.003931005513776
 20
-114.4477504556947
 30
0.0
 10
7.930397355633668
 20
-114.3803352329198
 30
0.0
 10
7.644886713666532
 20
-114.118580735976
 30
0.0
 10
7.34825842855108
 20
-114.0511972481834
 30
0.0
 10
7.128027157262906
 20
-114.0011684683095
 30
0.0
  0
LINE
  5
108
330
1F
100
AcDbEntity
  8
0
  6
Continuous
 62
     7
370
    15
100
AcDbLine
 10
7.1280271573
 20
-114.0011684683
 30
0.0
 11
10.8240236342
 21
-114.0011684683
 31
0.0
  0
SPLINE
  5
109
330
1F
100
AcDbEntity
  8
0
  6
Continuous
 62
     7
370
    15
100
AcDbSpline
210
0.0
220
0.0
230
1.0
 70
     8
 71
     3
 72
     9
 73
     5
 74
     0
 42
0.00000001
 43
0.00000001
 12
1.0
 22
0.0
 32
0.0
 13
1.0
 23
0.0
 33
0.0
 40
0.0
 40
0.0
 40
0.0
 40
0.0
 40
0.070200576703404
 40
1.0
 40
1.0
 40
1.0
 40
1.0
 10
15.58830504340925
 20
-114.0011684683096
 30
0.0
 10
15.63439382115067
 20
-114.0016145845772
 30
0.0
 10
16.29092372312185
 20
-114.0079694649576
 30
0.0
 10
16.93429115590445
 20
-114.2358589468531
 30
0.0
 10
17.53249382387351
 20
-114.4477504556948
 30
0.0
  0
LINE
  5
10A
330
1F
100
AcDbEntity
  8
0
  6
Continuous
 62
     7
370
    15
100
AcDbLine
 10
17.5324938239
 20
-114.4477504557
 30
0.0
 11
17.5324938239
 21
-114.8011684683
 31
0.0
  0
SPLINE
  5
10B
330
1F
100
AcDbEntity
  8
0
  6
Continuous
 62
     7
370
    15
100
AcDbSpline
210
0.0
220
0.0
230
1.0
 70
     8
 71
     3
 72
     9
 73
     5
 74
     0
 42
0.00000001
 43
0.00000001
 12
1.0
 22
0.0
 32
0.0
 13
1.0
 23
0.0
 33
0.0
 40
0.0
 40
0.0
 40
0.0
 40
0.0
 40
0.5278771639355554
 40
1.0
 40
1.0
 40
1.0
 40
1.0
 10
15.58830504340913
 20
-119.2011684683096
 30
0.0
 10
15.6345347875117
 20
-119.2030949256216
 30
0.0
 10
15.72211149524039
 20
-119.2067443680369
 30
0.0
 10
15.80793777125677
 20
-119.1809326822794
 30
0.0
 10
15.84845831609844
 20
-119.168746395996
 30
0.0
  0
LINE
  5
10C
330
1F
100
AcDbEntity
  8
0
  6
Continuous
 62
     7
370
    15
100
AcDbLine
 10
6.6560466921
 20
-119.0150896197
 30
0.0
 11
6.252123309
 21
-118.7545864809
 31
0.0
  0
LINE
  5
10D
330
1F
100
AcDbEntity
  8
0
  6
Continuous
 62
     7
370
    15
100
AcDbLine
 10
6.252123309
 20
-114.4477504557
 30
0.0
 11
6.252123309
 21
-118.7545864809
 31
0.0
  0
SPLINE
  5
10E
330
1F
100
AcDbEntity
  8
0
  6
Continuous
 62
     7
370
    15
100
AcDbSpline
210
0.0
220
0.0
230
1.0
 70
     8
 71
     3
 72
     9
 73
     5
 74
     0
 42
0.00000001
 43
0.00000001
 12
1.0
 22
0.0
 32
0.0
 13
1.0
 23
0.0
 33
0.0
 40
0.0
 40
0.0
 40
0.0
 40
0.0
 40
0.2686336050555526
 40
1.0
 40
1.0
 40
1.0
 40
1.0
 10
7.128027157262906
 20
-114.0011684683095
 30
0.0
 10
7.048382988055934
 20
-114.007797420894
 30
0.0
 10
6.751904186788726
 20
-114.0324739783303
 30
0.0
 10
6.463241498615934
 20
-114.2723287419303
 30
0.0
 10
6.252123309011981
 20
-114.4477504556948
 30
0.0
  0
SPLINE
  5
10F
330
1F
100
AcDbEntity
  8
0
  6
Continuous
 62
     7
370
    15
100
AcDbSpline
210
0.0
220
0.0
230
1.0
 70
     8
 71
     3
 72
     9
 73
     5
 74
     0
 42
0.00000001
 43
0.00000001
 12
1.0
 22
0.0
 32
0.0
 13
1.0
 23
0.0
 33
0.0
 40
0.0
 40
0.0
 40
0.0
 40
0.0
 40
0.5569342110492189
 40
1.0
 40
1.0
 40
1.0
 40
1.0
 10
17.53249382387351
 20
-114.4477504556948
 30
0.0
 10
17.45924592136183
 20
-114.3753394794505
 30
0.0
 10
17.32772607384936
 20
-114.2453223700546
 30
0.0
 10
17.19106492976963
 20
-114.2051911284379
 30
0.0
 10
17.13051505214902
 20
-114.1874103482095
 30
0.0
  0
LINE
  5
110
330
1F
100
AcDbEntity
  8
0
  6
Continuous
 62
     7
370
    15
100
AcDbLine
 10
15.5883050434
 20
-114.0011684683
 30
0.0
 11
16.8923085664
 21
-114.0011684683
 31
0.0
  0
LINE
  5
111
330
1F
100
AcDbEntity
  8
0
  6
Continuous
 62
     7
370
    15
100
AcDbLine
 10
7.1280271573
 20
-114.0011684683
 30
0.0
 11
6.8923085664
 21
-114.0011684683
 31
0.0
  0
LINE
  5
112
330
1F
100
AcDbEntity
  8
0
  6
Continuous
 62
     7
370
    15
100
AcDbLine
 10
9.6415373319
 20
-122.0477504557
 30
0.0
 11
12.5064313501
 21
-121.6011684683
 31
0.0
  0
SPLINE
  5
113
330
1F
100
AcDbEntity
  8
0
  6
Continuous
 62
     7
370
    15
100
AcDbSpline
210
0.0
220
0.0
230
1.0
 70
     8
 71
     3
 72
     9
 73
     5
 74
     0
 42
0.00000001
 43
0.00000001
 12
1.0
 22
0.0
 32
0.0
 13
1.0
 23
0.0
 33
0.0
 40
0.0
 40
0.0
 40
0.0
 40
0.0
 40
0.0702005767034264
 40
1.0
 40
1.0
 40
1.0
 40
1.0
 10
12.50643135006901
 20
-121.6011684683096
 30
0.0
 10
12.57434628970067
 20
-121.6016145845771
 30
0.0
 10
13.54178762452879
 20
-121.6079694649575
 30
0.0
 10
14.48983316835994
 20
-121.835858946853
 30
0.0
 10
15.37132536827329
 20
-122.0477504556948
 30
0.0
  0
LINE
  5
114
330
1F
100
AcDbEntity
  8
0
  6
Continuous
 62
     7
370
    15
100
AcDbLine
 10
15.3713253683
 20
-122.0477504557
 30
0.0
 11
15.3713253683
 21
-126.3545864809
 31
0.0
  0
SPLINE
  5
115
330
1F
100
AcDbEntity
  8
0
  6
Continuous
 62
     7
370
    15
100
AcDbSpline
210
0.0
220
0.0
230
1.0
 70
     8
 71
     3
 72
     9
 73
     5
 74
     0
 42
0.00000001
 43
0.00000001
 12
1.0
 22
0.0
 32
0.0
 13
1.0
 23
0.0
 33
0.0
 40
0.0
 40
0.0
 40
0.0
 40
0.0
 40
0.0702005767034351
 40
1.0
 40
1.0
 40
1.0
 40
1.0
 10
12.5064313500689
 20
-126.8011684683096
 30
0.0
 10
12.57434628970056
 20
-126.800722352042
 30
0.0
 10
13.54178762452879
 20
-126.7943674716615
 30
0.0
 10
14.48983316836
 20
-126.5664779897661
 30
0.0
 10
15.3713253682734
 20
-126.3545864809244
 30
0.0
  0
LINE
  5
116
330
1F
100
AcDbEntity
  8
0
  6
Continuous
 62
     7
370
    15
100
AcDbLine
 10
9.6415373319
 20
-126.3545864809
 30
0.0
 11
12.5064313501
 21
-126.8011684683
 31
0.0
  0
LINE
  5
117
330
1F
100
AcDbEntity
  8
0
  6
Continuous
 62
     7
370
    15
100
AcDbLine
 10
9.6415373319
 20
-122.0477504557
 30
0.0
 11
9.6415373319
 21
-126.3545864809
 31
0.0
  0
SPLINE
  5
118
330
1F
100
AcDbEntity
  8
0
  6
Continuous
 62
     7
370
    15
100
AcDbSpline
210
0.0
220
0.0
230
1.0
 70
     8
 71
     3
 72
     9
 73
     5
 74
     0
 42
0.00000001
 43
0.00000001
 12
1.0
 22
0.0
 32
0.0
 13
1.0
 23
0.0
 33
0.0
 40
0.0
 40
0.0
 40
0.0
 40
0.0
 40
0.2575513451038032
 40
0.9999999999999999
 40
0.9999999999999999
 40
0.9999999999999999
 40
0.9999999999999999
 10
9.641537331864292
 20
-126.3545864809244
 30
0.0
 10
9.4955025793379
 20
-126.4220017036992
 30
0.0
 10
8.928490388167065
 20
-126.6837562006431
 30
0.0
 10
8.339399022786687
 20
-126.7511396884357
 30
0.0
 10
7.902028930949045
 20
-126.8011684683095
 30
0.0
  0
LINE
  5
119
330
1F
100
AcDbEntity
  8
0
  6
Continuous
 62
     7
370
    15
100
AcDbLine
 10
12.5064313501
 20
-126.8011684683
 30
0.0
 11
7.9020289309
 21
-126.8011684683
 31
0.0
  0
SPLINE
  5
11A
330
1F
100
AcDbEntity
  8
0
  6
Continuous
 62
     7
370
    15
100
AcDbSpline
210
0.0
220
0.0
230
1.0
 70
     8
 71
     3
 72
     9
 73
     5
 74
     0
 42
0.00000001
 43
0.00000001
 12
1.0
 22
0.0
 32
0.0
 13
1.0
 23
0.0
 33
0.0
 40
0.0
 40
0.0
 40
0.0
 40
0.0
 40
0.5174000252724206
 40
1.0
 40
1.0
 40
1.0
 40
1.0
 10
9.641537331864514
 20
-122.0477504556948
 30
0.0
 10
9.495995124331635
 20
-121.9759991800152
 30
0.0
 10
9.214699800744686
 20
-121.8373225813009
 30
0.0
 10
8.922413907504867
 20
-121.7953999686918
 30
0.0
 10
8.78135674281405
 20
-121.7751681169061
 30
0.0
  0
LINE
  5
11B
330
1F
100
AcDbEntity
  8
0
  6
Continuous
 62
     7
370
    15
100
AcDbLine
 10
15.3713253683
 20
-126.3545864809
 30
0.0
 11
16.4967109856
 21
-126.8011684683
 31
0.0
  0
LINE
  5
11C
330
1F
100
AcDbEntity
  8
0
  6
Continuous
 62
     7
370
    15
100
AcDbLine
 10
16.4967109856
 20
-126.8011684683
 30
0.0
 11
12.5064313501
 21
-126.8011684683
 31
0.0
  0
LINE
  5
11D
330
1F
100
AcDbEntity
  8
0
  6
Continuous
 62
     7
370
    15
100
AcDbLine
 10
15.3713253683
 20
-122.0477504557
 30
0.0
 11
16.4967109856
 21
-121.6011684683
 31
0.0
  0
SPLINE
  5
11E
330
1F
100
AcDbEntity
  8
0
  6
Continuous
 62
     7
370
    15
100
AcDbSpline
210
0.0
220
0.0
230
1.0
 70
     8
 71
     3
 72
     9
 73
     5
 74
     0
 42
0.00000001
 43
0.00000001
 12
1.0
 22
0.0
 32
0.0
 13
1.0
 23
0.0
 33
0.0
 40
0.0
 40
0.0
 40
0.0
 40
0.0
 40
0.2686336050555452
 40
1.0
 40
1.0
 40
1.0
 40
1.0
 10
7.902028930949101
 20
-126.8011684683095
 30
0.0
 10
7.743858942660886
 20
-126.7945395157251
 30
0.0
 10
7.155064445950599
 20
-126.7698629582887
 30
0.0
 10
6.581792422873933
 20
-126.5300081946887
 30
0.0
 10
6.162520530033799
 20
-126.3545864809244
 30
0.0
  0
LINE
  5
11F
330
1F
100
AcDbEntity
  8
0
  6
Continuous
 62
     7
370
    15
100
AcDbLine
 10
6.16252053
 20
-126.0011684683
 30
0.0
 11
6.16252053
 21
-126.3545864809
 31
0.0
  0
LINE
  5
120
330
1F
100
AcDbEntity
  8
0
  6
Continuous
 62
     7
370
    15
100
AcDbLine
 10
17.6220966029
 20
-122.0477504557
 30
0.0
 11
17.6220966029
 21
-126.3545864809
 31
0.0
  0
SPLINE
  5
121
330
1F
100
AcDbEntity
  8
0
  6
Continuous
 62
     7
370
    15
100
AcDbSpline
210
0.0
220
0.0
230
1.0
 70
     8
 71
     3
 72
     9
 73
     5
 74
     0
 42
0.00000001
 43
0.00000001
 12
1.0
 22
0.0
 32
0.0
 13
1.0
 23
0.0
 33
0.0
 40
0.0
 40
0.0
 40
0.0
 40
0.0
 40
0.0702005767034402
 40
1.0
 40
1.0
 40
1.0
 40
1.0
 10
16.49671098556255
 20
-126.8011684683096
 30
0.0
 10
16.52338928352914
 20
-126.800722352042
 30
0.0
 10
16.9034188960972
 20
-126.7943674716616
 30
0.0
 10
17.27582946793105
 20
-126.5664779897661
 30
0.0
 10
17.62209660285163
 20
-126.3545864809244
 30
0.0
  0
LINE
  5
122
330
1F
100
AcDbEntity
  8
0
  6
Continuous
 62
     7
370
    15
100
AcDbLine
 10
6.4612713946
 20
-126.4815161248
 30
0.0
 11
6.16252053
 21
-126.3545864809
 31
0.0
  0
LINE
  5
123
330
1F
100
AcDbEntity
  8
0
  6
Continuous
 62
     7
370
    15
100
AcDbLine
 10
7.9020289309
 20
-126.8011684683
 30
0.0
 11
6.8923085664
 21
-126.8011684683
 31
0.0
  0
LINE
  5
124
330
1F
100
AcDbEntity
  8
0
  6
Continuous
 62
     7
370
    15
100
AcDbLine
 10
16.8923085664
 20
-126.8011684683
 30
0.0
 11
16.4967109856
 21
-126.8011684683
 31
0.0
  0
LINE
  5
125
330
1F
100
AcDbEntity
  8
0
  6
Continuous
 62
     7
370
    15
100
AcDbLine
 10
9.4809998458
 20
618.565698628
 30
0.0
 11
-46.1690001553
 21
618.565698628
 31
0.0
  0
LINE
  5
126
330
1F
100
AcDbEntity
  8
0
  6
Continuous
 62
     7
370
    15
100
AcDbLine
 10
-46.1690001553
 20
618.565698628
 30
0.0
 11
-46.1690001553
 21
620.5656986284
 31
0.0
  0
LINE
  5
127
330
1F
100
AcDbEntity
  8
0
  6
Continuous
 62
     7
370
    15
100
AcDbLine
 10
-46.1690001553
 20
620.5656986284
 30
0.0
 11
-57.0190001542
 21
620.5656986284
 31
0.0
  0
ARC
  5
128
330
1F
100
AcDbEntity
  8
0
  6
Continuous
 62
     7
370
    15
100
AcDbCircle
 10
-57.0190001542
 20
622.7156986284
 30
0.0
 40
2.150000000000098
100
AcDbArc
 50
180.0
 51
270.0
  0
LINE
  5
129
330
1F
100
AcDbEntity
  8
0
  6
Continuous
 62
     7
370
    15
100
AcDbLine
 10
-59.1690001542
 20
622.7156986284
 30
0.0
 11
-59.1690001542
 21
634.2156986284
 31
0.0
  0
ARC
  5
12A
330
1F
100
AcDbEntity
  8
0
  6
Continuous
 62
     7
370
    15
100
AcDbCircle
 10
-57.0190001542
 20
634.2156986284
 30
0.0
 40
2.150000000000098
100
AcDbArc
 50
90.0
 51
180.0
  0
LINE
  5
12B
330
1F
100
AcDbEntity
  8
0
  6
Continuous
 62
     7
370
    15
100
AcDbLine
 10
-57.0190001542
 20
636.3656986284
 30
0.0
 11
-57.0173930984
 21
636.3656986284
 31
0.0
  0
LINE
  5
12C
330
1F
100
AcDbEntity
  8
0
  6
Continuous
 62
     7
370
    15
100
AcDbLine
 10
-57.0173930984
 20
636.3656986284
 30
0.0
 11
-57.0173930984
 21
634.0656986284
 31
0.0
  0
LINE
  5
12D
330
1F
100
AcDbEntity
  8
0
  6
Continuous
 62
     7
370
    15
100
AcDbLine
 10
9.4809998458
 20
634.0656986284
 30
0.0
 11
9.4809998458
 21
636.3656986284
 31
0.0
  0
ARC
  5
12E
330
1F
100
AcDbEntity
  8
0
  6
Continuous
 62
     7
370
    15
100
AcDbCircle
 10
9.4809998458
 20
634.2156986284
 30
0.0
 40
2.150000000000091
100
AcDbArc
 50
359.9999999959
 51
90.0
  0
LINE
  5
12F
330
1F
100
AcDbEntity
  8
0
  6
Continuous
 62
     7
370
    15
100
AcDbLine
 10
11.6309998458
 20
634.2156986283
 30
0.0
 11
11.6309998458
 21
622.7156986283
 31
0.0
  0
ARC
  5
130
330
1F
100
AcDbEntity
  8
0
  6
Continuous
 62
     7
370
    15
100
AcDbCircle
 10
15.9809998458
 20
622.715698628
 30
0.0
 40
4.350000000000076
100
AcDbArc
 50
179.999999996
 51
252.5584061437
  0
LINE
  5
131
330
1F
100
AcDbEntity
  8
0
  6
Continuous
 62
     7
370
    15
100
AcDbLine
 10
14.6771593648
 20
618.565698628
 30
0.0
 11
9.4809998458
 21
618.565698628
 31
0.0
  0
LINE
  5
132
330
1F
100
AcDbEntity
  8
0
  6
Continuous
 62
     7
370
    15
100
AcDbLine
 10
-46.1690001553
 20
620.865698628
 30
0.0
 11
-46.1690001553
 21
620.5656986284
 31
0.0
  0
LINE
  5
133
330
1F
100
AcDbEntity
  8
0
  6
Continuous
 62
     7
370
    15
100
AcDbLine
 10
9.4809998458
 20
618.565698628
 30
0.0
 11
9.4809998458
 21
620.865698628
 31
0.0
  0
LINE
  5
134
330
1F
100
AcDbEntity
  8
0
  6
Continuous
 62
     7
370
    15
100
AcDbLine
 10
-31.267392195
 20
649.8656986284
 30
0.0
 11
-16.2673930984
 21
649.8656986284
 31
0.0
  0
LINE
  5
135
330
1F
100
AcDbEntity
  8
0
  6
Continuous
 62
     7
370
    15
100
AcDbLine
 10
803.4508679315
 20
515.4458756417
 30
0.0
 11
825.295834662
 21
468.5991933099
 31
0.0
  0
LINE
  5
136
330
1F
100
AcDbEntity
  8
0
  6
Continuous
 62
     7
370
    15
100
AcDbLine
 10
809.7180308966
 20
513.836909207
 30
0.0
 11
828.0917495673
 21
474.4343423621
 31
0.0
  0
SPLINE
  5
137
330
1F
100
AcDbEntity
  8
0
  6
Continuous
 62
     7
370
    15
100
AcDbSpline
210
0.0
220
0.0
230
1.0
 70
    24
 71
     3
 72
    11
 73
     7
 74
     0
 42
0.00000001
 43
0.00000001
 12
1.0
 22
0.0
 32
0.0
 13
1.0
 23
0.0
 33
0.0
 40
0.0
 40
0.0
 40
0.0
 40
0.0
 40
0.1499516226906952
 40
0.4331749578253119
 40
0.7165923401616733
 40
1.0
 40
1.0
 40
1.0
 40
1.0
 10
826.8630044832396
 20
465.2383867826762
 30
0.0
 10
826.7628811577448
 20
465.4531019471042
 30
0.0
 10
826.4736484270794
 20
466.0733635396539
 30
0.0
 10
826.017310321034
 20
467.0519837661597
 30
0.0
 10
825.5595438354821
 20
468.0336671624039
 30
0.0
 10
825.3837367146559
 20
468.4106867496905
 30
0.0
 10
825.2958346620136
 20
468.5991933099091
 30
0.0
  0
SPLINE
  5
138
330
1F
100
AcDbEntity
  8
0
  6
Continuous
 62
     7
370
    15
100
AcDbSpline
210
0.0
220
0.0
230
1.0
 70
    24
 71
     3
 72
    11
 73
     7
 74
     0
 42
0.00000001
 43
0.00000001
 12
1.0
 22
0.0
 32
0.0
 13
1.0
 23
0.0
 33
0.0
 40
0.0
 40
0.0
 40
0.0
 40
0.0
 40
0.1499515950756818
 40
0.4331749432232104
 40
0.7165923323727821
 40
1.0
 40
1.0
 40
1.0
 40
1.0
 10
803.4508679315222
 20
515.4458756417472
 30
0.0
 10
803.4087094161126
 20
515.5362848698013
 30
0.0
 10
803.2869233656894
 20
515.7974558977548
 30
0.0
 10
802.9569868567878
 20
516.5050070244235
 30
0.0
 10
802.4536588027272
 20
517.5843975196437
 30
0.0
 10
802.0736828354716
 20
518.3992586110505
 30
0.0
 10
801.883698110296
 20
518.8066821689804
 30
0.0
  0
SPLINE
  5
139
330
1F
100
AcDbEntity
  8
0
  6
Continuous
 62
     7
370
    15
100
AcDbSpline
210
0.0
220
0.0
230
1.0
 70
     8
 71
     3
 72
    12
 73
     8
 74
     0
 42
0.00000001
 43
0.00000001
 12
1.0
 22
0.0
 32
0.0
 13
1.0
 23
0.0
 33
0.0
 40
0.0
 40
0.0
 40
0.0
 40
0.0
 40
0.1175335017799843
 40
0.3293297023540731
 40
0.5373943320219776
 40
0.8742805681197429
 40
1.0
 40
1.0
 40
1.0
 40
1.0
 10
790.1860857122514
 20
535.6105873689986
 30
0.0
 10
790.512536495695
 20
535.6331975049131
 30
0.0
 10
791.4272538972585
 20
535.6965512654847
 30
0.0
 10
792.8880433409738
 20
535.202383936599
 30
0.0
 10
794.5780038801557
 20
533.9150068356649
 30
0.0
 10
795.5714141562321
 20
532.2966796739869
 30
0.0
 10
796.1265008410899
 20
531.1430438540858
 30
0.0
 10
796.2773532570789
 20
530.8295275054675
 30
0.0
  0
SPLINE
  5
13A
330
1F
100
AcDbEntity
  8
0
  6
Continuous
 62
     7
370
    15
100
AcDbSpline
210
0.0
220
0.0
230
1.0
 70
     8
 71
     3
 72
     9
 73
     5
 74
     0
 42
0.00000001
 43
0.00000001
 12
1.0
 22
0.0
 32
0.0
 13
1.0
 23
0.0
 33
0.0
 40
0.0
 40
0.0
 40
0.0
 40
0.0
 40
0.0000220488582184
 40
0.9999999999999999
 40
0.9999999999999999
 40
0.9999999999999999
 40
0.9999999999999999
 10
838.8086232625676
 20
439.6209246406391
 30
0.0
 10
838.8086317149288
 20
439.6209065144807
 30
0.0
 10
839.1919786001065
 20
438.7988159446663
 30
0.0
 10
839.48291666117
 20
437.9377217025545
 30
0.0
 10
839.7738483073813
 20
437.0766464465877
 30
0.0
  0
LINE
  5
13B
330
1F
100
AcDbEntity
  8
0
  6
Continuous
 62
     7
370
    15
100
AcDbLine
 10
796.2773532571
 20
530.8295275055
 30
0.0
 11
801.8836981103
 21
518.806682169
 31
0.0
  0
LINE
  5
13C
330
1F
100
AcDbEntity
  8
0
  6
Continuous
 62
     7
370
    15
100
AcDbLine
 10
826.8630044832
 20
465.2383867827
 30
0.0
 11
838.8086232626
 21
439.6209246406
 31
0.0
  0
SPLINE
  5
13D
330
1F
100
AcDbEntity
  8
0
  6
Continuous
 62
     7
370
    15
100
AcDbSpline
210
0.0
220
0.0
230
1.0
 70
     8
 71
     3
 72
    20
 73
    16
 74
     0
 42
0.00000001
 43
0.00000001
 12
1.0
 22
0.0
 32
0.0
 13
1.0
 23
0.0
 33
0.0
 40
0.0
 40
0.0
 40
0.0
 40
0.0
 40
0.2070577373168082
 40
0.4203770502760607
 40
0.7011163025568267
 40
0.8834527988430984
 40
0.9282286404934927
 40
0.9524788585968929
 40
0.9675018207221375
 40
0.9773827146382339
 40
0.9840938553685388
 40
0.9887393639099403
 40
0.9919933949590741
 40
0.9977340800222596
 40
1.0
 40
1.0
 40
1.0
 40
1.0
 10
839.7738483073813
 20
437.0766464465879
 30
0.0
 10
839.8787136409948
 20
436.5875319743276
 30
0.0
 10
840.091615511709
 20
435.5945118546235
 30
0.0
 10
839.8931842030842
 20
433.8857543677827
 30
0.0
 10
839.2590973090854
 20
432.5889405461569
 30
0.0
 10
838.5883437934791
 20
431.8212534192688
 30
0.0
 10
838.1779920429783
 20
431.4997273025605
 30
0.0
 10
838.0325090435459
 20
431.399631823388
 30
0.0
 10
837.9446129031312
 20
431.3437602404392
 30
0.0
 10
837.886938120973
 20
431.3089885072692
 30
0.0
 10
837.8476868223563
 20
431.2861727732187
 30
0.0
 10
837.8204467934241
 20
431.270738277219
 30
0.0
 10
837.7948614441561
 20
431.2565049825607
 30
0.0
 10
837.7736040421819
 20
431.2449112154181
 30
0.0
 10
837.7583858662184
 20
431.2367925606159
 30
0.0
 10
837.754079025958
 20
431.2344949298455
 30
0.0
  0
SPLINE
  5
13E
330
1F
100
AcDbEntity
  8
0
  6
Continuous
 62
     7
370
    15
100
AcDbSpline
210
0.0
220
0.0
230
1.0
 70
     8
 71
     3
 72
    10
 73
     6
 74
     0
 42
0.00000001
 43
0.00000001
 12
1.0
 22
0.0
 32
0.0
 13
1.0
 23
0.0
 33
0.0
 40
0.0
 40
0.0
 40
0.0
 40
0.0
 40
0.4527378322258205
 40
0.905595461746388
 40
0.9999999999999999
 40
0.9999999999999999
 40
0.9999999999999999
 40
0.9999999999999999
 10
839.8959300495663
 20
434.2797245467482
 30
0.0
 10
839.9035530964144
 20
434.3322239707875
 30
0.0
 10
839.918801207217
 20
434.4372367105457
 30
0.0
 10
840.0421622245549
 20
434.919905569524
 30
0.0
 10
840.0001416923466
 20
435.3963513499843
 30
0.0
 10
839.9928930112319
 20
435.478539826652
 30
0.0
  0
SPLINE
  5
13F
330
1F
100
AcDbEntity
  8
0
  6
Continuous
 62
     7
370
    15
100
AcDbSpline
210
0.0
220
0.0
230
1.0
 70
     8
 71
     3
 72
    12
 73
     8
 74
     0
 42
0.00000001
 43
0.00000001
 12
1.0
 22
0.0
 32
0.0
 13
1.0
 23
0.0
 33
0.0
 40
0.0
 40
0.0
 40
0.0
 40
0.0
 40
0.4616906276050268
 40
0.73077299571546
 40
0.9175829515524846
 40
0.9719359527204955
 40
1.0
 40
1.0
 40
1.0
 40
1.0
 10
839.7527975629893
 20
437.1520322453864
 30
0.0
 10
839.7227837700975
 20
437.2605920854076
 30
0.0
 10
839.6752773490599
 20
437.4324227329523
 30
0.0
 10
839.6036539684796
 20
437.6565217270003
 30
0.0
 10
839.5621627396204
 20
437.7808904769115
 30
0.0
 10
839.5396755197653
 20
437.8465620799134
 30
0.0
 10
839.5327313240157
 20
437.8666499842553
 30
0.0
 10
839.5303667375437
 20
437.8734901697243
 30
0.0
  0
LINE
  5
140
330
1F
100
AcDbEntity
  8
0
  6
Continuous
 62
     7
370
    15
100
AcDbLine
 10
794.9075134169
 20
533.0906718535
 30
0.0
 11
794.4619006935
 21
533.8255608713
 31
0.0
  0
LINE
  5
141
330
1F
100
AcDbEntity
  8
0
  6
Continuous
 62
     7
370
    15
100
AcDbLine
 10
838.8548050097
 20
439.52137918
 30
0.0
 11
838.8127710523
 21
439.6120256687
 31
0.0
  0
SPLINE
  5
142
330
1F
100
AcDbEntity
  8
0
  6
Continuous
 62
     7
370
    15
100
AcDbSpline
210
0.0
220
0.0
230
1.0
 70
     8
 71
     3
 72
     9
 73
     5
 74
     0
 42
0.00000001
 43
0.00000001
 12
1.0
 22
0.0
 32
0.0
 13
1.0
 23
0.0
 33
0.0
 40
0.0
 40
0.0
 40
0.0
 40
0.0
 40
0.5000138394957144
 40
1.0
 40
1.0
 40
1.0
 40
1.0
 10
839.3226118497407
 20
438.4337438989768
 30
0.0
 10
839.254642437303
 20
438.6024608942766
 30
0.0
 10
839.1187073749727
 20
438.9398855453022
 30
0.0
 10
838.9427708415099
 20
439.3275515451826
 30
0.0
 10
838.8548050096514
 20
439.521379180021
 30
0.0
  0
SPLINE
  5
143
330
1F
100
AcDbEntity
  8
0
  6
Continuous
 62
     7
370
    15
100
AcDbSpline
210
0.0
220
0.0
230
1.0
 70
     8
 71
     3
 72
    13
 73
     9
 74
     0
 42
0.00000001
 43
0.00000001
 12
1.0
 22
0.0
 32
0.0
 13
1.0
 23
0.0
 33
0.0
 40
0.0
 40
0.0
 40
0.0
 40
0.0
 40
0.1254648118065744
 40
0.2502435788816464
 40
0.3760698054095877
 40
0.5019139201694259
 40
0.7508310514861649
 40
1.0
 40
1.0
 40
1.0
 40
1.0
 10
794.4619006931129
 20
533.8255608717492
 30
0.0
 10
794.3742237208229
 20
533.9228331501142
 30
0.0
 10
794.199349196122
 20
534.1168458195918
 30
0.0
 10
793.9256671639406
 20
534.3762459568405
 30
0.0
 10
793.6586665369153
 20
534.5997181252346
 30
0.0
 10
793.3338075212057
 20
534.8381918792671
 30
0.0
 10
793.0011211814639
 20
535.0357527147014
 30
0.0
 10
792.9482064915292
 20
535.0627169149153
 30
0.0
 10
792.9217357705317
 20
535.0762058311626
 30
0.0
  0
SPLINE
  5
144
330
1F
100
AcDbEntity
  8
0
  6
Continuous
 62
     7
370
    15
100
AcDbSpline
210
0.0
220
0.0
230
1.0
 70
     8
 71
     3
 72
     9
 73
     5
 74
     0
 42
0.00000001
 43
0.00000001
 12
1.0
 22
0.0
 32
0.0
 13
1.0
 23
0.0
 33
0.0
 40
0.0
 40
0.0
 40
0.0
 40
0.0
 40
0.7838918077688158
 40
1.0
 40
1.0
 40
1.0
 40
1.0
 10
840.0120655473972
 20
435.2708609304757
 30
0.0
 10
840.0182799333677
 20
435.288438764948
 30
0.0
 10
840.0262075400974
 20
435.3108625666742
 30
0.0
 10
840.0030200251265
 20
435.6013760924835
 30
0.0
 10
839.9980090131837
 20
435.6641584453648
 30
0.0
  0
SPLINE
  5
145
330
1F
100
AcDbEntity
  8
0
  6
Continuous
 62
     7
370
    15
100
AcDbSpline
210
0.0
220
0.0
230
1.0
 70
     8
 71
     3
 72
     9
 73
     5
 74
     0
 42
0.00000001
 43
0.00000001
 12
1.0
 22
0.0
 32
0.0
 13
1.0
 23
0.0
 33
0.0
 40
0.0
 40
0.0
 40
0.0
 40
0.0
 40
0.0370163330248823
 40
1.0
 40
1.0
 40
1.0
 40
1.0
 10
839.7658049506675
 20
437.0978482763621
 30
0.0
 10
839.7632416734461
 20
437.1107236790458
 30
0.0
 10
839.6939944787105
 20
437.4585539915468
 30
0.0
 10
839.5048015499981
 20
437.9553436102462
 30
0.0
 10
839.3226118497407
 20
438.4337438989768
 30
0.0
  0
LINE
  5
146
330
1F
100
AcDbEntity
  8
0
  6
Continuous
 62
     7
370
    15
100
AcDbLine
 10
839.5303667377
 20
437.8734901691
 30
0.0
 11
839.3612625832
 21
438.3185864357
 31
0.0
  0
LINE
  5
147
330
1F
100
AcDbEntity
  8
0
  6
Continuous
 62
     7
370
    15
100
AcDbLine
 10
822.3429138133
 20
521.9291672861
 30
0.0
 11
820.3297850539
 21
526.2463358425
 31
0.0
  0
LINE
  5
148
330
1F
100
AcDbEntity
  8
0
  6
Continuous
 62
     7
370
    15
100
AcDbLine
 10
844.4190259731
 20
474.5867919814
 30
0.0
 11
842.3747778596
 21
478.9706962081
 31
0.0
  0
LINE
  5
149
330
1F
100
AcDbEntity
  8
0
  6
Continuous
 62
     7
370
    15
100
AcDbLine
 10
837.0464211497
 20
466.7353782159
 30
0.0
 11
809.5762712881
 21
525.6453047015
 31
0.0
  0
LINE
  5
14A
330
1F
100
AcDbEntity
  8
0
  6
Continuous
 62
     7
370
    15
100
AcDbLine
 10
823.1168013874
 20
520.2695600278
 30
0.0
 11
841.5981854459
 21
480.6361040137
 31
0.0
  0
SPLINE
  5
14B
330
1F
100
AcDbEntity
  8
0
  6
Continuous
 62
     7
370
    15
100
AcDbSpline
210
0.0
220
0.0
230
1.0
 70
     8
 71
     3
 72
    12
 73
     8
 74
     0
 42
0.00000001
 43
0.00000001
 12
1.0
 22
0.0
 32
0.0
 13
1.0
 23
0.0
 33
0.0
 40
0.0
 40
0.0
 40
0.0
 40
0.0
 40
0.0304717459459486
 40
0.0888135668586925
 40
0.3925556175487216
 40
0.6962774394173866
 40
1.0
 40
1.0
 40
1.0
 40
1.0
 10
842.3729893356211
 20
480.055200278363
 30
0.0
 10
842.3776883445198
 20
480.0457020761737
 30
0.0
 10
842.3913841708677
 20
480.0180184240237
 30
0.0
 10
842.4461706276674
 20
479.8913655269741
 30
0.0
 10
842.5032142936557
 20
479.6533201573712
 30
0.0
 10
842.4946526582359
 20
479.308141988647
 30
0.0
 10
842.4147851845048
 20
479.1036719520308
 30
0.0
 10
842.3748513990759
 20
479.0014368093945
 30
0.0
  0
SPLINE
  5
14C
330
1F
100
AcDbEntity
  8
0
  6
Continuous
 62
     7
370
    15
100
AcDbSpline
210
0.0
220
0.0
230
1.0
 70
     8
 71
     3
 72
    10
 73
     6
 74
     0
 42
0.00000001
 43
0.00000001
 12
1.0
 22
0.0
 32
0.0
 13
1.0
 23
0.0
 33
0.0
 40
0.0
 40
0.0
 40
0.0
 40
0.0
 40
0.2117958997079613
 40
0.4880069094694429
 40
1.0
 40
1.0
 40
1.0
 40
1.0
 10
842.3748513990759
 20
479.0014368093945
 30
0.0
 10
842.3737376219652
 20
478.9986939598489
 30
0.0
 10
842.3711713261758
 20
478.9923740569058
 30
0.0
 10
842.370777900936
 20
478.9811848653756
 30
0.0
 10
842.373202751459
 20
478.9748264431653
 30
0.0
 10
842.3747778596232
 20
478.9706962080687
 30
0.0
  0
SPLINE
  5
14D
330
1F
100
AcDbEntity
  8
0
  6
Continuous
 62
     7
370
    15
100
AcDbSpline
210
0.0
220
0.0
230
1.0
 70
     8
 71
     3
 72
    12
 73
     8
 74
     0
 42
0.00000001
 43
0.00000001
 12
1.0
 22
0.0
 32
0.0
 13
1.0
 23
0.0
 33
0.0
 40
0.0
 40
0.0
 40
0.0
 40
0.0
 40
0.0304717459515387
 40
0.088813566858409
 40
0.3925556175486969
 40
0.6962774394176302
 40
1.0
 40
1.0
 40
1.0
 40
1.0
 10
823.1725338042389
 20
521.2307100423475
 30
0.0
 10
823.1682709655402
 20
521.2404305843495
 30
0.0
 10
823.1558464096786
 20
521.2687622726087
 30
0.0
 10
823.0939553436726
 20
521.3923251307067
 30
0.0
 10
822.9481750983645
 20
521.5892370425006
 30
0.0
 10
822.6782461878162
 20
521.8045628040941
 30
0.0
 10
822.4703814493695
 20
521.8745837874658
 30
0.0
 10
822.3664489537539
 20
521.9095943217279
 30
0.0
  0
SPLINE
  5
14E
330
1F
100
AcDbEntity
  8
0
  6
Continuous
 62
     7
370
    15
100
AcDbSpline
210
0.0
220
0.0
230
1.0
 70
     8
 71
     3
 72
    11
 73
     7
 74
     0
 42
0.00000001
 43
0.00000001
 12
1.0
 22
0.0
 32
0.0
 13
1.0
 23
0.0
 33
0.0
 40
0.0
 40
0.0
 40
0.0
 40
0.0
 40
0.3704320937805012
 40
0.7442498469260034
 40
0.9442480537681496
 40
0.9999999999999999
 40
0.9999999999999999
 40
0.9999999999999999
 40
0.9999999999999999
 10
822.342913813308
 20
521.9291672860998
 30
0.0
 10
822.3443988707595
 20
521.926389891498
 30
0.0
 10
822.3473825587273
 20
521.9208097175826
 30
0.0
 10
822.3546392823105
 20
521.9141302505848
 30
0.0
 10
822.362157414305
 20
521.9107259556507
 30
0.0
 10
822.3656808636605
 20
521.9097968590264
 30
0.0
 10
822.3664489537539
 20
521.9095943217279
 30
0.0
  0
ELLIPSE
  5
14F
330
1F
100
AcDbEntity
  8
0
  6
Continuous
 62
     7
370
    15
100
AcDbEllipse
 10
821.3541082847
 20
487.3504321628
 30
0.0
 11
-0.5244000507386772
 21
38.90264224576583
 31
0.0
210
0.0
220
0.0
230
1.0
 40
0.00085236
 41
6.280840895719979
 42
6.281741450478211
  0
SPLINE
  5
150
330
1F
100
AcDbEntity
  8
0
  6
Continuous
 62
     7
370
    15
100
AcDbSpline
210
0.0
220
0.0
230
1.0
 70
     8
 71
     3
 72
    11
 73
     7
 74
     0
 42
0.00000001
 43
0.00000001
 12
1.0
 22
0.0
 32
0.0
 13
1.0
 23
0.0
 33
0.0
 40
0.0
 40
0.0
 40
0.0
 40
0.0
 40
0.2590606595368092
 40
0.5181210692029501
 40
0.7771875495237421
 40
1.0
 40
1.0
 40
1.0
 40
1.0
 10
821.0633722649123
 20
526.255580156841
 30
0.0
 10
821.0354661095031
 20
526.255234753376
 30
0.0
 10
820.9796538256008
 20
526.2545439467792
 30
0.0
 10
820.9083829433441
 20
526.2538432794444
 30
0.0
 10
820.8561660113655
 20
526.2533820079454
 30
0.0
 10
820.8427379453286
 20
526.2532261359272
 30
0.0
 10
820.8365290407518
 20
526.2531540634125
 30
0.0
  0
LINE
  5
151
330
1F
100
AcDbEntity
  8
0
  6
Continuous
 62
     7
370
    15
100
AcDbLine
 10
821.0633722649
 20
526.2555801568
 30
0.0
 11
840.156979948
 21
526.4662900933
 31
0.0
  0
LINE
  5
152
330
1F
100
AcDbEntity
  8
0
  6
Continuous
 62
     7
370
    15
100
AcDbLine
 10
840.156979948
 20
526.4662900933
 30
0.0
 11
841.6356156095
 21
526.484670398
 31
0.0
  0
LINE
  5
153
330
1F
100
AcDbEntity
  8
0
  6
Continuous
 62
     7
370
    15
100
AcDbLine
 10
843.910945945
 20
523.000404781
 30
0.0
 11
857.0692694028
 21
494.7822890634
 31
0.0
  0
LINE
  5
154
330
1F
100
AcDbEntity
  8
0
  6
Continuous
 62
     7
370
    15
100
AcDbLine
 10
857.0692694028
 20
494.7822890634
 30
0.0
 11
858.4683584716
 21
491.7819328729
 31
0.0
  0
LINE
  5
155
330
1F
100
AcDbEntity
  8
0
  6
Continuous
 62
     7
370
    15
100
AcDbLine
 10
842.5565691228
 20
525.9048752491
 30
0.0
 11
843.910945945
 21
523.000404781
 31
0.0
  0
SPLINE
  5
156
330
1F
100
AcDbEntity
  8
0
  6
Continuous
 62
     7
370
    15
100
AcDbSpline
210
0.0
220
0.0
230
1.0
 70
     8
 71
     3
 72
    11
 73
     7
 74
     0
 42
0.00000001
 43
0.00000001
 12
1.0
 22
0.0
 32
0.0
 13
1.0
 23
0.0
 33
0.0
 40
0.0
 40
0.0
 40
0.0
 40
0.0
 40
0.2933118760927871
 40
0.586599120142065
 40
0.8805021461503081
 40
1.0
 40
1.0
 40
1.0
 40
1.0
 10
841.6356156094695
 20
526.4846703979657
 30
0.0
 10
841.7483164136896
 20
526.4750001118498
 30
0.0
 10
841.9737085576269
 20
526.4556603517188
 30
0.0
 10
842.2744647167364
 20
526.2864566664188
 30
0.0
 10
842.4629124774658
 20
526.0858568302455
 30
0.0
 10
842.5355674438592
 20
525.9454587768493
 30
0.0
 10
842.556569122807
 20
525.9048752491333
 30
0.0
  0
LINE
  5
157
330
1F
100
AcDbEntity
  8
0
  6
Continuous
 62
     7
370
    15
100
AcDbLine
 10
820.9636443307
 20
496.4926012389
 30
0.0
 11
821.129672182
 21
496.1365533628
 31
0.0
  0
SPLINE
  5
158
330
1F
100
AcDbEntity
  8
0
  6
Continuous
 62
     7
370
    15
100
AcDbSpline
210
0.0
220
0.0
230
1.0
 70
     8
 71
     3
 72
    15
 73
    11
 74
     0
 42
0.00000001
 43
0.00000001
 12
1.0
 22
0.0
 32
0.0
 13
1.0
 23
0.0
 33
0.0
 40
0.0
 40
0.0
 40
0.0
 40
0.0
 40
0.0013085590450129
 40
0.0031123972377328
 40
0.0059032470886664
 40
0.0102791707597481
 40
0.0184846044874526
 40
0.0492181494333836
 40
0.1106093070874094
 40
1.0
 40
1.0
 40
1.0
 40
1.0
 10
820.9636443307271
 20
496.4926012389115
 30
0.0
 10
820.9637175079332
 20
496.4926376262517
 30
0.0
 10
820.9638915593337
 20
496.4927241732501
 30
0.0
 10
820.965633802201
 20
496.4935457940784
 30
0.0
 10
820.9694468496153
 20
496.4953350695488
 30
0.0
 10
820.9773208046862
 20
496.4990214210083
 30
0.0
 10
821.0015268445361
 20
496.5103390933126
 30
0.0
 10
821.0611390723828
 20
496.5381784128372
 30
0.0
 10
821.6513311611815
 20
496.8136569649323
 30
0.0
 10
822.2324749908818
 20
497.0846739911631
 30
0.0
 10
822.7760948686392
 20
497.3381916835831
 30
0.0
  0
LINE
  5
159
330
1F
100
AcDbEntity
  8
0
  6
Continuous
 62
     7
370
    15
100
AcDbLine
 10
821.129672182
 20
496.1365533628
 30
0.0
 11
821.8082289902
 21
494.6813835917
 31
0.0
  0
LINE
  5
15A
330
1F
100
AcDbEntity
  8
0
  6
Continuous
 62
     7
370
    15
100
AcDbLine
 10
821.8082289902
 20
494.6813835917
 30
0.0
 11
822.0200290292
 21
494.2271769422
 31
0.0
  0
LINE
  5
15B
330
1F
100
AcDbEntity
  8
0
  6
Continuous
 62
     7
370
    15
100
AcDbLine
 10
823.8473982218
 20
495.0407742288
 30
0.0
 11
822.0200290292
 21
494.2271769422
 31
0.0
  0
LINE
  5
15C
330
1F
100
AcDbEntity
  8
0
  6
Continuous
 62
     7
370
    15
100
AcDbLine
 10
823.8480549931
 20
495.0393657781
 30
0.0
 11
822.0207134881
 21
494.2257091155
 31
0.0
  0
LINE
  5
15D
330
1F
100
AcDbEntity
  8
0
  6
Continuous
 62
     7
370
    15
100
AcDbLine
 10
822.0200290292
 20
494.2271769422
 30
0.0
 11
822.0207134881
 21
494.2257091155
 31
0.0
  0
LINE
  5
15E
330
1F
100
AcDbEntity
  8
0
  6
Continuous
 62
     7
370
    15
100
AcDbLine
 10
825.1072475724
 20
492.3390185775
 30
0.0
 11
823.2931121333
 21
491.4970414152
 31
0.0
  0
LINE
  5
15F
330
1F
100
AcDbEntity
  8
0
  6
Continuous
 62
     7
370
    15
100
AcDbLine
 10
822.0207134881
 20
494.2257091155
 30
0.0
 11
823.2931121333
 21
491.4970414152
 31
0.0
  0
LINE
  5
160
330
1F
100
AcDbEntity
  8
0
  6
Continuous
 62
     7
370
    15
100
AcDbLine
 10
823.7657538669
 20
490.4834579465
 30
0.0
 11
824.0171453616
 21
489.9443471464
 31
0.0
  0
LINE
  5
161
330
1F
100
AcDbEntity
  8
0
  6
Continuous
 62
     7
370
    15
100
AcDbLine
 10
823.2931121333
 20
491.4970414152
 30
0.0
 11
823.7657538669
 21
490.4834579465
 31
0.0
  0
LINE
  5
162
330
1F
100
AcDbEntity
  8
0
  6
Continuous
 62
     7
370
    15
100
AcDbLine
 10
824.0171453616
 20
489.9443471464
 30
0.0
 11
824.4638809883
 21
488.9863195032
 31
0.0
  0
LINE
  5
163
330
1F
100
AcDbEntity
  8
0
  6
Continuous
 62
     7
370
    15
100
AcDbLine
 10
824.4638809883
 20
488.9863195032
 30
0.0
 11
824.500391038
 21
488.908023449
 31
0.0
  0
LINE
  5
164
330
1F
100
AcDbEntity
  8
0
  6
Continuous
 62
     7
370
    15
100
AcDbLine
 10
824.500391038
 20
488.908023449
 30
0.0
 11
824.5081793555
 21
488.8913213484
 31
0.0
  0
ARC
  5
165
330
1F
100
AcDbEntity
  8
0
  6
Continuous
 62
     7
370
    15
100
AcDbCircle
 10
786.359682636
 20
546.7740872257
 30
0.0
 40
1.250000000000025
100
AcDbArc
 50
115.0
 51
205.0
  0
ARC
  5
166
330
1F
100
AcDbEntity
  8
0
  6
Continuous
 62
     7
370
    15
100
AcDbCircle
 10
786.359682636
 20
546.7740872257
 30
0.0
 40
2.750000000000433
100
AcDbArc
 50
115.0
 51
205.0
  0
LINE
  5
167
330
1F
100
AcDbEntity
  8
0
  6
Continuous
 62
     7
370
    15
100
AcDbLine
 10
820.7932778144
 20
542.1424003747
 30
0.0
 11
825.0194604318
 21
533.0793225043
 31
0.0
  0
LINE
  5
168
330
1F
100
AcDbEntity
  8
0
  6
Continuous
 62
     7
370
    15
100
AcDbLine
 10
825.0194604318
 20
533.0793225043
 30
0.0
 11
823.6599987513
 21
532.4453951117
 31
0.0
  0
LINE
  5
169
330
1F
100
AcDbEntity
  8
0
  6
Continuous
 62
     7
370
    15
100
AcDbLine
 10
823.6599987513
 20
532.4453951117
 30
0.0
 11
819.4338161339
 21
541.5084729821
 31
0.0
  0
LINE
  5
16A
330
1F
100
AcDbEntity
  8
0
  6
Continuous
 62
     7
370
    15
100
AcDbLine
 10
785.1974824162
 20
549.2664336401
 30
0.0
 11
809.1693233833
 21
560.4446866631
 31
0.0
  0
LINE
  5
16B
330
1F
100
AcDbEntity
  8
0
  6
Continuous
 62
     7
370
    15
100
AcDbLine
 10
785.8314098088
 20
547.9069719595
 30
0.0
 11
809.8032507759
 21
559.0852249826
 31
0.0
  0
LINE
  5
16C
330
1F
100
AcDbEntity
  8
0
  6
Continuous
 62
     7
370
    15
100
AcDbLine
 10
820.6210773229
 20
470.3425372342
 30
0.0
 11
785.2267979022
 21
546.2458143985
 31
0.0
  0
LINE
  5
16D
330
1F
100
AcDbEntity
  8
0
  6
Continuous
 62
     7
370
    15
100
AcDbLine
 10
820.6210773229
 20
470.3425372342
 30
0.0
 11
822.7341686316
 21
465.810998299
 31
0.0
  0
LINE
  5
16E
330
1F
100
AcDbEntity
  8
0
  6
Continuous
 62
     7
370
    15
100
AcDbLine
 10
822.7341686316
 20
465.810998299
 30
0.0
 11
821.3747069511
 21
465.1770709064
 31
0.0
  0
LINE
  5
16F
330
1F
100
AcDbEntity
  8
0
  6
Continuous
 62
     7
370
    15
100
AcDbLine
 10
812.8903163199
 20
559.0903559923
 30
0.0
 11
820.7932778144
 21
542.1424003747
 31
0.0
  0
LINE
  5
170
330
1F
100
AcDbEntity
  8
0
  6
Continuous
 62
     7
370
    15
100
AcDbLine
 10
811.5308546393
 20
558.4564285997
 30
0.0
 11
819.4338161339
 21
541.5084729821
 31
0.0
  0
ARC
  5
171
330
1F
100
AcDbEntity
  8
0
  6
Continuous
 62
     7
370
    15
100
AcDbCircle
 10
810.3526545162
 20
557.9070248594
 30
0.0
 40
2.800000000000511
100
AcDbArc
 50
25.0
 51
115.0
  0
ARC
  5
172
330
1F
100
AcDbEntity
  8
0
  6
Continuous
 62
     7
370
    15
100
AcDbCircle
 10
810.3526545162
 20
557.9070248594
 30
0.0
 40
1.300000000000117
100
AcDbArc
 50
25.0
 51
115.0
  0
LINE
  5
173
330
1F
100
AcDbEntity
  8
0
  6
Continuous
 62
     7
370
    15
100
AcDbLine
 10
789.8080891343
 20
538.9491202627
 30
0.0
 11
786.6115310621
 21
545.8041611704
 31
0.0
  0
LINE
  5
174
330
1F
100
AcDbEntity
  8
0
  6
Continuous
 62
     7
370
    15
100
AcDbLine
 10
791.3757703044
 20
535.5872171444
 30
0.0
 11
789.8080891343
 21
538.9491202627
 31
0.0
  0
LINE
  5
175
330
1F
100
AcDbEntity
  8
0
  6
Continuous
 62
     7
370
    15
100
AcDbLine
 10
790.7696202035
 20
538.6183564639
 30
0.0
 11
787.980771236
 21
544.5990623749
 31
0.0
  0
LINE
  5
176
330
1F
100
AcDbEntity
  8
0
  6
Continuous
 62
     7
370
    15
100
AcDbLine
 10
792.1790748611
 20
535.5957711964
 30
0.0
 11
790.7696202035
 21
538.6183564639
 31
0.0
  0
SPLINE
  5
177
330
1F
100
AcDbEntity
  8
0
  6
Continuous
 62
     7
370
    15
100
AcDbSpline
210
0.0
220
0.0
230
1.0
 70
    24
 71
     3
 72
    15
 73
    11
 74
     0
 42
0.00000001
 43
0.00000001
 12
1.0
 22
0.0
 32
0.0
 13
1.0
 23
0.0
 33
0.0
 40
0.0
 40
0.0
 40
0.0
 40
0.0
 40
0.0296235679755377
 40
0.2170954265870845
 40
0.4045672851986313
 40
0.5054866721529508
 40
0.6085477132935411
 40
0.7116087544341367
 40
0.8125281413884466
 40
1.0
 40
1.0
 40
1.0
 40
1.0
 10
808.0144725031578
 20
535.94657431976
 30
0.0
 10
808.016842643608
 20
535.9414915371615
 30
0.0
 10
808.0342121465853
 20
535.9042425178206
 30
0.0
 10
807.8660697830387
 20
536.2648249800776
 30
0.0
 10
807.4811616414803
 20
537.0902631534101
 30
0.0
 10
807.049331034708
 20
538.0163268781206
 30
0.0
 10
806.6656303099096
 20
538.8391757378557
 30
0.0
 10
806.2523403802236
 20
539.7254788522441
 30
0.0
 10
805.7061537203876
 20
540.896779924152
 30
0.0
 10
805.3250010526583
 20
541.7141644578683
 30
0.0
 10
805.0772286249837
 20
542.2455141437281
 30
0.0
  0
ARC
  5
178
330
1F
100
AcDbEntity
  8
0
  6
Continuous
 62
     7
370
    15
100
AcDbCircle
 10
705.7713186788
 20
653.85792273
 30
0.0
 40
3.000000000000151
100
AcDbArc
 50
9.5706089318
 51
58.0353615758
  0
LINE
  5
179
330
1F
100
AcDbEntity
  8
0
  6
Continuous
 62
     7
370
    15
100
AcDbLine
 10
706.3654801456
 20
656.7984961692
 30
0.0
 11
705.4239392482
 21
656.9887404639
 31
0.0
  0
SPLINE
  5
17A
330
1F
100
AcDbEntity
  8
0
  6
Continuous
 62
     7
370
    15
100
AcDbSpline
210
0.0
220
0.0
230
1.0
 70
     8
 71
     3
 72
     9
 73
     5
 74
     0
 42
0.00000001
 43
0.00000001
 12
1.0
 22
0.0
 32
0.0
 13
1.0
 23
0.0
 33
0.0
 40
0.0
 40
0.0
 40
0.0
 40
0.0
 40
0.4924989625567769
 40
1.0
 40
1.0
 40
1.0
 40
1.0
 10
707.3595059842108
 20
656.403047694081
 30
0.0
 10
707.2049626528394
 20
656.4901365713874
 30
0.0
 10
706.8911684256005
 20
656.6669671516069
 30
0.0
 10
706.5424533886047
 20
656.7542168544707
 30
0.0
 10
706.3654801455572
 20
656.7984961691905
 30
0.0
  0
LINE
  5
17B
330
1F
100
AcDbEntity
  8
0
  6
Continuous
 62
     7
370
    15
100
AcDbLine
 10
705.4239392482
 20
656.9887404639
 30
0.0
 11
674.4124983511
 21
663.2547982838
 31
0.0
  0
SPLINE
  5
17C
330
1F
100
AcDbEntity
  8
0
  6
Continuous
 62
     7
370
    15
100
AcDbSpline
210
0.0
220
0.0
230
1.0
 70
     8
 71
     3
 72
    11
 73
     7
 74
     0
 42
0.00000001
 43
0.00000001
 12
1.0
 22
0.0
 32
0.0
 13
1.0
 23
0.0
 33
0.0
 40
0.0
 40
0.0
 40
0.0
 40
0.0
 40
0.9419996254559566
 40
0.9688842052171913
 40
0.9959246248715555
 40
1.0
 40
1.0
 40
1.0
 40
1.0
 10
673.2575525517308
 20
663.4881623890144
 30
0.0
 10
673.1099349745074
 20
663.5117196410692
 30
0.0
 10
672.9581044056628
 20
663.5359492148585
 30
0.0
 10
672.8238368536936
 20
663.5433007413924
 30
0.0
 10
672.8161303354796
 20
663.5436997642402
 30
0.0
 10
672.8138002010315
 20
663.5438159198021
 30
0.0
 10
672.8134950128774
 20
663.5438311332168
 30
0.0
  0
LINE
  5
17D
330
1F
100
AcDbEntity
  8
0
  6
Continuous
 62
     7
370
    15
100
AcDbLine
 10
673.2575526157
 20
663.4881623761
 30
0.0
 11
674.4124983511
 21
663.2547982838
 31
0.0
  0
LINE
  5
17E
330
1F
100
AcDbEntity
  8
0
  6
Continuous
 62
     7
370
    15
100
AcDbLine
 10
816.4594024546
 20
376.9726489143
 30
0.0
 11
837.070200945
 21
421.1726489143
 31
0.0
  0
LINE
  5
17F
330
1F
100
AcDbEntity
  8
0
  6
Continuous
 62
     7
370
    15
100
AcDbLine
 10
817.1844486842
 20
376.6345543049
 30
0.0
 11
837.7952471747
 21
420.8345543049
 31
0.0
  0
LINE
  5
180
330
1F
100
AcDbEntity
  8
0
  6
Continuous
 62
     7
370
    15
100
AcDbLine
 10
794.7978884749
 20
558.1375061176
 30
0.0
 11
796.610504049
 21
558.9827426411
 31
0.0
  0
LINE
  5
181
330
1F
100
AcDbEntity
  8
0
  6
Continuous
 62
     7
370
    15
100
AcDbLine
 10
796.610504049
 20
558.9827426411
 30
0.0
 11
796.9485986584
 21
558.2576964115
 31
0.0
  0
LINE
  5
182
330
1F
100
AcDbEntity
  8
0
  6
Continuous
 62
     7
370
    15
100
AcDbLine
 10
796.9485986584
 20
558.2576964115
 30
0.0
 11
795.1359830843
 21
557.412459888
 31
0.0
  0
LINE
  5
183
330
1F
100
AcDbEntity
  8
0
  6
Continuous
 62
     7
370
    15
100
AcDbLine
 10
748.7670271923
 20
371.1988315317
 30
0.0
 11
807.3963245842
 21
371.1988315317
 31
0.0
  0
LINE
  5
184
330
1F
100
AcDbEntity
  8
0
  6
Continuous
 62
     7
370
    15
100
AcDbLine
 10
748.7670271923
 20
370.3988315317
 30
0.0
 11
807.3963245842
 21
370.3988315317
 31
0.0
  0
LINE
  5
185
330
1F
100
AcDbEntity
  8
0
  6
Continuous
 62
     7
370
    15
100
AcDbLine
 10
782.1548948457
 20
552.2419813664
 30
0.0
 11
794.7978884749
 21
558.1375061176
 31
0.0
  0
LINE
  5
186
330
1F
100
AcDbEntity
  8
0
  6
Continuous
 62
     7
370
    15
100
AcDbLine
 10
782.4929894551
 20
551.5169351367
 30
0.0
 11
795.1359830843
 21
557.412459888
 31
0.0
  0
LINE
  5
187
330
1F
100
AcDbEntity
  8
0
  6
Continuous
 62
     7
370
    15
100
AcDbLine
 10
746.7670271923
 20
370.3988315317
 30
0.0
 11
746.7670271923
 21
371.1988315317
 31
0.0
  0
LINE
  5
188
330
1F
100
AcDbEntity
  8
0
  6
Continuous
 62
     7
370
    15
100
AcDbLine
 10
746.7670271923
 20
371.1988315317
 30
0.0
 11
748.7670271923
 21
371.1988315317
 31
0.0
  0
LINE
  5
189
330
1F
100
AcDbEntity
  8
0
  6
Continuous
 62
     7
370
    15
100
AcDbLine
 10
748.7670271923
 20
370.3988315317
 30
0.0
 11
746.7670271923
 21
370.3988315317
 31
0.0
  0
ARC
  5
18A
330
1F
100
AcDbEntity
  8
0
  6
Continuous
 62
     7
370
    15
100
AcDbCircle
 10
807.3963245842
 20
381.1988315317
 30
0.0
 40
10.0
100
AcDbArc
 50
270.0
 51
335.0
  0
ARC
  5
18B
330
1F
100
AcDbEntity
  8
0
  6
Continuous
 62
     7
370
    15
100
AcDbCircle
 10
807.3963245842
 20
381.1988315317
 30
0.0
 40
10.80000000000001
100
AcDbArc
 50
270.0
 51
335.0
  0
ARC
  5
18C
330
1F
100
AcDbEntity
  8
0
  6
Continuous
 62
     7
370
    15
100
AcDbCircle
 10
828.0071230747
 20
425.3988315317
 30
0.0
 40
10.80000000000014
100
AcDbArc
 50
335.0
 51
25.0
  0
ARC
  5
18D
330
1F
100
AcDbEntity
  8
0
  6
Continuous
 62
     7
370
    15
100
AcDbCircle
 10
828.0071230747
 20
425.3988315317
 30
0.0
 40
10.00000000000008
100
AcDbArc
 50
335.0
 51
25.0
  0
LINE
  5
18E
330
1F
100
AcDbEntity
  8
0
  6
Continuous
 62
     7
370
    15
100
AcDbLine
 10
837.070200945
 20
429.6250141491
 30
0.0
 11
781.1633313189
 21
549.5176829664
 31
0.0
  0
LINE
  5
18F
330
1F
100
AcDbEntity
  8
0
  6
Continuous
 62
     7
370
    15
100
AcDbLine
 10
837.7952471747
 20
429.9631087585
 30
0.0
 11
781.8883775485
 21
549.8557775758
 31
0.0
  0
ARC
  5
190
330
1F
100
AcDbEntity
  8
0
  6
Continuous
 62
     7
370
    15
100
AcDbCircle
 10
783.0212622823
 20
550.3840504029
 30
0.0
 40
1.250000000000183
100
AcDbArc
 50
115.0
 51
205.0
  0
ARC
  5
191
330
1F
100
AcDbEntity
  8
0
  6
Continuous
 62
     7
370
    15
100
AcDbCircle
 10
783.0212622823
 20
550.3840504029
 30
0.0
 40
2.05000000000016
100
AcDbArc
 50
115.0
 51
205.0
  0
ARC
  5
192
330
1F
100
AcDbEntity
  8
0
  6
Continuous
 62
     7
370
    15
100
AcDbCircle
 10
19.2326069016
 20
625.8656986285
 30
0.0
 40
3.500000000000014
100
AcDbArc
 50
214.849904579
 51
236.6604895165
  0
SPLINE
  5
193
330
1F
100
AcDbEntity
  8
0
  6
Continuous
 62
     7
370
    15
100
AcDbSpline
210
0.0
220
0.0
230
1.0
 70
     8
 71
     3
 72
    13
 73
     9
 74
     0
 42
0.00000001
 43
0.00000001
 12
1.0
 22
0.0
 32
0.0
 13
1.0
 23
0.0
 33
0.0
 40
0.0
 40
0.0
 40
0.0
 40
0.0
 40
0.1264704779943824
 40
0.2503760816984207
 40
0.3742089693253624
 40
0.5004663812862833
 40
0.703066207078424
 40
1.0
 40
1.0
 40
1.0
 40
1.0
 10
712.2326069015967
 20
622.4364093065711
 30
0.0
 10
712.2243649884867
 20
622.4497509690036
 30
0.0
 10
712.2080483117186
 20
622.4761637193636
 30
0.0
 10
712.0852895956664
 20
622.5766458226386
 30
0.0
 10
711.9109364318057
 20
622.7212159784352
 30
0.0
 10
711.6557155551207
 20
622.9517576456863
 30
0.0
 10
711.2699042636721
 20
623.3406729496387
 30
0.0
 10
710.9329186046459
 20
623.66996197443
 30
0.0
 10
710.7326069015967
 20
623.8656986284524
 30
0.0
  0
LWPOLYLINE
  5
194
330
1F
100
AcDbEntity
  8
0
  6
Continuous
 62
     7
370
    15
100
AcDbPolyline
 90
        2
 70
   128
 43
0.0
 10
710.7326069016
 20
623.8656986285
 10
710.7326069016
 20
623.8656986285
  0
SPLINE
  5
195
330
1F
100
AcDbEntity
  8
0
  6
Continuous
 62
     7
370
    15
100
AcDbSpline
210
0.0
220
0.0
230
1.0
 70
     8
 71
     3
 72
    13
 73
     9
 74
     0
 42
0.00000001
 43
0.00000001
 12
1.0
 22
0.0
 32
0.0
 13
1.0
 23
0.0
 33
0.0
 40
0.0
 40
0.0
 40
0.0
 40
0.0
 40
0.1446410886826519
 40
0.2829375222431826
 40
0.4154710129735926
 40
0.5429032421340992
 40
0.7331646040870978
 40
1.0
 40
1.0
 40
1.0
 40
1.0
 10
714.2326069015967
 20
622.4364093065711
 30
0.0
 10
714.2137664960404
 20
622.4496157534153
 30
0.0
 10
714.1769121159004
 20
622.475449348708
 30
0.0
 10
713.8960333681539
 20
622.5741814232262
 30
0.0
 10
713.4953783912671
 20
622.7163612702503
 30
0.0
 10
712.9123099439813
 20
622.9411996316406
 30
0.0
 10
712.01024918301
 20
623.3302443715598
 30
0.0
 10
711.2035352644501
 20
623.668334624263
 30
0.0
 10
710.7326069015967
 20
623.8656986284524
 30
0.0
  0
LINE
  5
196
330
1F
100
AcDbEntity
  8
0
  6
Continuous
 62
     7
370
    15
100
AcDbLine
 10
714.2326069016
 20
622.4364093066
 30
0.0
 11
712.2326069016
 21
622.4364093066
 31
0.0
  0
SPLINE
  5
197
330
1F
100
AcDbEntity
  8
0
  6
Continuous
 62
     7
370
    15
100
AcDbSpline
210
0.0
220
0.0
230
1.0
 70
     8
 71
     3
 72
    12
 73
     8
 74
     0
 42
0.00000001
 43
0.00000001
 12
1.0
 22
0.0
 32
0.0
 13
1.0
 23
0.0
 33
0.0
 40
0.0
 40
0.0
 40
0.0
 40
0.0
 40
0.3400873344679133
 40
0.5596636450889665
 40
0.7367088161246677
 40
0.9144461283928903
 40
1.0
 40
1.0
 40
1.0
 40
1.0
 10
710.7326069015967
 20
623.8656986284524
 30
0.0
 10
710.957032810315
 20
623.6367107506185
 30
0.0
 10
711.3263585963581
 20
623.2598775745454
 30
0.0
 10
711.7713583507347
 20
622.8137564628747
 30
0.0
 10
712.0172000385853
 20
622.5189395644223
 30
0.0
 10
712.1288869980864
 20
622.38151430647
 30
0.0
 10
712.1538007467424
 20
622.3695774063375
 30
0.0
 10
712.1618962234779
 20
622.3656986284524
 30
0.0
  0
LINE
  5
198
330
1F
100
AcDbEntity
  8
0
  6
Continuous
 62
     7
370
    15
100
AcDbLine
 10
712.1618962235
 20
620.3656986285
 30
0.0
 11
712.1618962235
 21
622.3656986285
 31
0.0
  0
SPLINE
  5
199
330
1F
100
AcDbEntity
  8
0
  6
Continuous
 62
     7
370
    15
100
AcDbSpline
210
0.0
220
0.0
230
1.0
 70
     8
 71
     3
 72
    12
 73
     8
 74
     0
 42
0.00000001
 43
0.00000001
 12
1.0
 22
0.0
 32
0.0
 13
1.0
 23
0.0
 33
0.0
 40
0.0
 40
0.0
 40
0.0
 40
0.0
 40
0.2416887956442343
 40
0.4825023921176712
 40
0.7084274265925103
 40
0.9128277112046121
 40
1.0
 40
1.0
 40
1.0
 40
1.0
 10
710.7326069015967
 20
623.8656986284523
 30
0.0
 10
710.9107641175112
 20
623.4407840160113
 30
0.0
 10
711.2664334095969
 20
622.592493484371
 30
0.0
 10
711.7436896703268
 20
621.4882127919786
 30
0.0
 10
712.0215459858453
 20
620.7108600080784
 30
0.0
 10
712.1315387287555
 20
620.3967637122176
 30
0.0
 10
712.154909112731
 20
620.3728485985869
 30
0.0
 10
712.1618962234779
 20
620.3656986284524
 30
0.0
  0
SPLINE
  5
19A
330
1F
100
AcDbEntity
  8
0
  6
Continuous
 62
     7
370
    15
100
AcDbSpline
210
0.0
220
0.0
230
1.0
 70
     8
 71
     3
 72
    11
 73
     7
 74
     0
 42
0.00000001
 43
0.00000001
 12
1.0
 22
0.0
 32
0.0
 13
1.0
 23
0.0
 33
0.0
 40
0.0
 40
0.0
 40
0.0
 40
0.0
 40
0.2500000000000021
 40
0.4999999999999967
 40
0.7500000000000037
 40
1.0
 40
1.0
 40
1.0
 40
1.0
 10
17.93971368278324
 20
620.3656986284525
 30
0.0
 10
17.8807881176844
 20
620.4183091332081
 30
0.0
 10
17.7629369874866
 20
620.5235301427194
 30
0.0
 10
17.5861602921899
 20
621.3329023886478
 30
0.0
 10
17.40938359689331
 20
622.4898096684869
 30
0.0
 10
17.29153246669546
 20
623.4070689751308
 30
0.0
 10
17.23260690159667
 20
623.8656986284525
 30
0.0
  0
LINE
  5
19B
330
1F
100
AcDbEntity
  8
0
  6
Continuous
 62
     7
370
    15
100
AcDbLine
 10
710.7326069016
 20
653.8656986285
 30
0.0
 11
17.2326069016
 21
823.8656986285
 31
0.0
  0
LINE
  5
19C
330
1F
100
AcDbEntity
  8
0
  6
Continuous
 62
     7
370
    15
100
AcDbLine
 10
710.7326069016
 20
653.8656986285
 30
0.0
 11
714.2326069016
 21
653.8656986285
 31
0.0
  0
LINE
  5
19D
330
1F
100
AcDbEntity
  8
0
  6
Continuous
 62
     7
370
    15
100
AcDbLine
 10
714.2326069016
 20
622.4364093066
 30
0.0
 11
714.2326069016
 21
653.8656986285
 31
0.0
  0
LINE
  5
19E
330
1F
100
AcDbEntity
  8
0
  6
Continuous
 62
     7
370
    15
100
AcDbLine
 10
13.7326069016
 20
823.8656986285
 30
0.0
 11
17.2326069016
 21
823.8656986285
 31
0.0
  0
LINE
  5
19F
330
1F
100
AcDbEntity
  8
0
  6
Continuous
 62
     7
370
    15
100
AcDbLine
 10
13.7326069016
 20
633.7419543356
 30
0.0
 11
13.7326069016
 21
823.8656986285
 31
0.0
  0
LINE
  5
1A0
330
1F
100
AcDbEntity
  8
0
  6
Continuous
 62
     7
370
    15
100
AcDbLine
 10
17.2326069016
 20
623.8656986285
 30
0.0
 11
13.7326069016
 21
623.8656986285
 31
0.0
  0
SPLINE
  5
1A1
330
1F
100
AcDbEntity
  8
0
  6
Continuous
 62
     7
370
    15
100
AcDbSpline
210
0.0
220
0.0
230
1.0
 70
     8
 71
     3
 72
    12
 73
     8
 74
     0
 42
0.00000001
 43
0.00000001
 12
1.0
 22
0.0
 32
0.0
 13
1.0
 23
0.0
 33
0.0
 40
0.0
 40
0.0
 40
0.0
 40
0.0
 40
0.2242829316483473
 40
0.4485658503776837
 40
0.6727831784753044
 40
0.89700025791833
 40
1.0
 40
1.0
 40
1.0
 40
1.0
 10
15.73260690159678
 20
623.8656986284524
 30
0.0
 10
15.75071711012133
 20
623.6895258131998
 30
0.0
 10
15.78693752612714
 20
623.3371801928424
 30
0.0
 10
16.06845602491569
 20
622.8731225894244
 30
0.0
 10
16.47943326617535
 20
622.5333211286759
 30
0.0
 10
16.89611261725826
 20
622.3821395287647
 30
0.0
 10
17.15204555777422
 20
622.3696348053343
 30
0.0
 10
17.23260690159672
 20
622.3656986284526
 30
0.0
  0
LINE
  5
1A2
330
1F
100
AcDbEntity
  8
0
  6
Continuous
 62
     7
370
    15
100
AcDbLine
 10
17.2326069016
 20
620.3656986285
 30
0.0
 11
17.2326069016
 21
622.3656986285
 31
0.0
  0
SPLINE
  5
1A3
330
1F
100
AcDbEntity
  8
0
  6
Continuous
 62
     7
370
    15
100
AcDbSpline
210
0.0
220
0.0
230
1.0
 70
     8
 71
     3
 72
    12
 73
     8
 74
     0
 42
0.00000001
 43
0.00000001
 12
1.0
 22
0.0
 32
0.0
 13
1.0
 23
0.0
 33
0.0
 40
0.0
 40
0.0
 40
0.0
 40
0.0
 40
0.1846098780640828
 40
0.4010403449957639
 40
0.6174740344697467
 40
0.833907685280588
 40
1.0
 40
1.0
 40
1.0
 40
1.0
 10
13.73260690159678
 20
623.8656986284525
 30
0.0
 10
13.76133507370603
 20
623.5278096747951
 30
0.0
 10
13.82374319712082
 20
622.7937909756544
 30
0.0
 10
14.35385179932397
 20
621.7624704632884
 30
0.0
 10
15.21441157689607
 20
620.9264567688871
 30
0.0
 10
16.22925161978178
 20
620.4427841436765
 30
0.0
 10
16.9288445093434
 20
620.3890360054883
 30
0.0
 10
17.23260690159672
 20
620.3656986284526
 30
0.0
  0
LINE
  5
1A4
330
1F
100
AcDbEntity
  8
0
  6
Continuous
 62
     7
370
    15
100
AcDbLine
 10
17.2326069016
 20
622.3656986285
 30
0.0
 11
17.4343877415
 21
622.3656986285
 31
0.0
  0
LINE
  5
1A5
330
1F
100
AcDbEntity
  8
0
  6
Continuous
 62
     7
370
    15
100
AcDbLine
 10
757.7081895534
 20
343.8988315317
 30
0.0
 11
756.5289002315
 21
343.8988315317
 31
0.0
  0
SPLINE
  5
1A6
330
1F
100
AcDbEntity
  8
0
  6
Continuous
 62
     7
370
    15
100
AcDbSpline
210
0.0
220
0.0
230
1.0
 70
     8
 71
     3
 72
     9
 73
     5
 74
     0
 42
0.00000001
 43
0.00000001
 12
1.0
 22
0.0
 32
0.0
 13
1.0
 23
0.0
 33
0.0
 40
0.0
 40
0.0
 40
0.0
 40
0.0
 40
0.7787027750796199
 40
1.0
 40
1.0
 40
1.0
 40
1.0
 10
756.5289002315403
 20
343.89883153169
 30
0.0
 10
753.7676890410617
 20
343.9364111873786
 30
0.0
 10
750.2217774572788
 20
343.9846704936137
 30
0.0
 10
746.6768018342312
 20
343.90706740608
 30
0.0
 10
745.8923085664405
 20
343.8898940581637
 30
0.0
  0
LINE
  5
1A7
330
1F
100
AcDbEntity
  8
0
  6
Continuous
 62
     7
370
    15
100
AcDbLine
 10
757.7081895534
 20
362.3988315317
 30
0.0
 11
757.7081895534
 21
343.8988315317
 31
0.0
  0
LINE
  5
1A8
330
1F
100
AcDbEntity
  8
0
  6
Continuous
 62
     7
370
    15
100
AcDbLine
 10
745.8923085664
 20
364.6988315317
 30
0.0
 11
756.5289002315
 21
364.6988315317
 31
0.0
  0
SPLINE
  5
1A9
330
1F
100
AcDbEntity
  8
0
  6
Continuous
 62
     7
370
    15
100
AcDbSpline
210
0.0
220
0.0
230
1.0
 70
     8
 71
     3
 72
    11
 73
     7
 74
     0
 42
0.00000001
 43
0.00000001
 12
1.0
 22
0.0
 32
0.0
 13
1.0
 23
0.0
 33
0.0
 40
0.0
 40
0.0
 40
0.0
 40
0.0
 40
0.250000000000004
 40
0.5000000000000034
 40
0.7499999999999961
 40
1.0
 40
1.0
 40
1.0
 40
1.0
 10
757.7081895534216
 20
362.3988315316889
 30
0.0
 10
757.6099154432648
 20
362.7002167324433
 30
0.0
 10
757.413367222951
 20
363.3029871339522
 30
0.0
 10
757.1185448924807
 20
364.0632404892751
 30
0.0
 10
756.8237225620107
 20
364.5951136794569
 30
0.0
 10
756.627174341697
 20
364.6642589142785
 30
0.0
 10
756.5289002315402
 20
364.6988315316893
 30
0.0
  0
SPLINE
  5
1AA
330
1F
100
AcDbEntity
  8
0
  6
Continuous
 62
     7
370
    15
100
AcDbSpline
210
0.0
220
0.0
230
1.0
 70
     8
 71
     3
 72
    12
 73
     8
 74
     0
 42
0.00000001
 43
0.00000001
 12
1.0
 22
0.0
 32
0.0
 13
1.0
 23
0.0
 33
0.0
 40
0.0
 40
0.0
 40
0.0
 40
0.0
 40
0.2332023354250291
 40
0.4665075036984153
 40
0.6998131969131737
 40
0.9331188357651079
 40
1.0
 40
1.0
 40
1.0
 40
1.0
 10
756.5289002315402
 20
364.6988315316892
 30
0.0
 10
756.7792275308323
 20
364.6720574670754
 30
0.0
 10
757.2799925136851
 20
364.6184975315622
 30
0.0
 10
757.9320282946651
 20
364.2033933451838
 30
0.0
 10
758.3953606220921
 20
363.6018423519467
 30
0.0
 10
758.5661737855734
 20
363.0409805975507
 30
0.0
 10
758.5765814252193
 20
362.7202825664112
 30
0.0
 10
758.5789002315402
 20
362.6488315316893
 30
0.0
  0
LINE
  5
1AB
330
1F
100
AcDbEntity
  8
0
  6
Continuous
 62
     7
370
    15
100
AcDbLine
 10
757.7789002315
 20
362.6488315317
 30
0.0
 11
758.5789002315
 21
362.6488315317
 31
0.0
  0
SPLINE
  5
1AC
330
1F
100
AcDbEntity
  8
0
  6
Continuous
 62
     7
370
    15
100
AcDbSpline
210
0.0
220
0.0
230
1.0
 70
     8
 71
     3
 72
    10
 73
     6
 74
     0
 42
0.00000001
 43
0.00000001
 12
1.0
 22
0.0
 32
0.0
 13
1.0
 23
0.0
 33
0.0
 40
0.0
 40
0.0
 40
0.0
 40
0.0
 40
0.1784539940062531
 40
0.6297202906286046
 40
1.0
 40
1.0
 40
1.0
 40
1.0
 10
757.2801334344556
 20
363.6162083762193
 30
0.0
 10
757.3371961601143
 20
363.5798436364381
 30
0.0
 10
757.5385564960706
 20
363.4515214062122
 30
0.0
 10
757.730569822537
 20
363.0957718243563
 30
0.0
 10
757.7638848064082
 20
362.7876881778763
 30
0.0
 10
757.7789002315403
 20
362.6488315316893
 30
0.0
  0
LINE
  5
1AD
330
1F
100
AcDbEntity
  8
0
  6
Continuous
 62
     7
370
    15
100
AcDbLine
 10
758.5789002315
 20
362.6488315317
 30
0.0
 11
758.5789002315
 21
362.5284715194
 31
0.0
  0
LINE
  5
1AE
330
1F
100
AcDbEntity
  8
0
  6
Continuous
 62
     7
370
    15
100
AcDbLine
 10
758.5789002315
 20
362.5284715194
 30
0.0
 11
757.7789002315
 21
362.5284715194
 31
0.0
  0
LINE
  5
1AF
330
1F
100
AcDbEntity
  8
0
  6
Continuous
 62
     7
370
    15
100
AcDbLine
 10
757.7789002315
 20
362.6488315317
 30
0.0
 11
757.7789002315
 21
362.5284715194
 31
0.0
  0
LINE
  5
1B0
330
1F
100
AcDbEntity
  8
0
  6
Continuous
 62
     7
370
    15
100
AcDbLine
 10
757.7789002315
 20
343.0609134085
 30
0.0
 11
758.5789002315
 21
343.0609134085
 31
0.0
  0
LINE
  5
1B1
330
1F
100
AcDbEntity
  8
0
  6
Continuous
 62
     7
370
    15
100
AcDbLine
 10
758.5789002315
 20
362.5284715194
 30
0.0
 11
758.5789002315
 21
343.0609134085
 31
0.0
  0
LINE
  5
1B2
330
1F
100
AcDbEntity
  8
0
  6
Continuous
 62
     7
370
    15
100
AcDbLine
 10
757.7789002315
 20
362.5284715194
 30
0.0
 11
757.7789002315
 21
343.0609134085
 31
0.0
  0
LINE
  5
1B3
330
1F
100
AcDbEntity
  8
0
  6
Continuous
 62
     7
370
    15
100
AcDbLine
 10
758.5789002315
 20
338.8988315317
 30
0.0
 11
757.7789002315
 21
338.8988315317
 31
0.0
  0
LINE
  5
1B4
330
1F
100
AcDbEntity
  8
0
  6
Continuous
 62
     7
370
    15
100
AcDbLine
 10
758.5789002315
 20
338.8988315317
 30
0.0
 11
758.5789002315
 21
343.0609134085
 31
0.0
  0
LINE
  5
1B5
330
1F
100
AcDbEntity
  8
0
  6
Continuous
 62
     7
370
    15
100
AcDbLine
 10
757.7789002315
 20
338.8988315317
 30
0.0
 11
757.7789002315
 21
343.0609134085
 31
0.0
  0
CIRCLE
  5
1B6
330
1F
100
AcDbEntity
  8
0
  6
Continuous
 62
     7
370
    15
100
AcDbCircle
 10
406.3357511304
 20
598.3656986284
 30
0.0
 40
2.525000000000072
  0
CIRCLE
  5
1B7
330
1F
100
AcDbEntity
  8
0
  6
Continuous
 62
     7
370
    15
100
AcDbCircle
 10
406.3357511304
 20
598.3656986284
 30
0.0
 40
2.100000000000068
  0
CIRCLE
  5
1B8
330
1F
100
AcDbEntity
  8
0
  6
Continuous
 62
     7
370
    15
100
AcDbCircle
 10
16.3357511304
 20
598.3656986284
 30
0.0
 40
2.525000000000045
  0
CIRCLE
  5
1B9
330
1F
100
AcDbEntity
  8
0
  6
Continuous
 62
     7
370
    15
100
AcDbCircle
 10
16.3357511304
 20
598.3656986284
 30
0.0
 40
2.099999999999993
  0
LINE
  5
1BA
330
1F
100
AcDbEntity
  8
0
  6
Continuous
 62
     7
370
    15
100
AcDbLine
 10
11.7326069016
 20
633.7419543356
 30
0.0
 11
11.7326069016
 21
622.6156986284
 31
0.0
  0
LINE
  5
1BB
330
1F
100
AcDbEntity
  8
0
  6
Continuous
 62
     7
370
    15
100
AcDbLine
 10
13.7326069016
 20
633.7419543356
 30
0.0
 11
13.7326069016
 21
622.6156986284
 31
0.0
  0
LINE
  5
1BC
330
1F
100
AcDbEntity
  8
0
  6
Continuous
 62
     7
370
    15
100
AcDbLine
 10
-46.2673930984
 20
618.3656986284
 30
0.0
 11
-46.2673930984
 21
620.3656986284
 31
0.0
  0
LINE
  5
1BD
330
1F
100
AcDbEntity
  8
0
  6
Continuous
 62
     7
370
    15
100
AcDbLine
 10
-46.2673930984
 20
620.3656986284
 30
0.0
 11
-57.0173930984
 21
620.3656986284
 31
0.0
  0
LINE
  5
1BE
330
1F
100
AcDbEntity
  8
0
  6
Continuous
 62
     7
370
    15
100
AcDbLine
 10
-46.2673930984
 20
618.3656986284
 30
0.0
 11
-57.0173930984
 21
618.3656986284
 31
0.0
  0
LINE
  5
1BF
330
1F
100
AcDbEntity
  8
0
  6
Continuous
 62
     7
370
    15
100
AcDbLine
 10
835.7988290008
 20
604.139516011
 30
0.0
 11
821.3607345758
 21
573.1769225976
 31
0.0
  0
LINE
  5
1C0
330
1F
100
AcDbEntity
  8
0
  6
Continuous
 62
     7
370
    15
100
AcDbLine
 10
837.6114445749
 20
603.2942794876
 30
0.0
 11
823.1733501499
 21
572.3316860742
 31
0.0
  0
ARC
  5
1C1
330
1F
100
AcDbEntity
  8
0
  6
Continuous
 62
     7
370
    15
100
AcDbCircle
 10
-56.7392595675
 20
634.1156986284
 30
0.0
 40
2.25
100
AcDbArc
 50
90.0
 51
106.6881298264
  0
ARC
  5
1C2
330
1F
100
AcDbEntity
  8
0
  6
Continuous
 62
     7
370
    15
100
AcDbCircle
 10
-56.7392595675
 20
634.1156986284
 30
0.0
 40
4.25
100
AcDbArc
 50
90.0
 51
106.6881298264
  0
ARC
  5
1C3
330
1F
100
AcDbEntity
  8
0
  6
Continuous
 62
     7
370
    15
100
AcDbCircle
 10
15.9826069016
 20
622.6156986284
 30
0.0
 40
2.25
100
AcDbArc
 50
180.0
 51
270.0
  0
ARC
  5
1C4
330
1F
100
AcDbEntity
  8
0
  6
Continuous
 62
     7
370
    15
100
AcDbCircle
 10
15.9826069016
 20
622.6156986284
 30
0.0
 40
4.25
100
AcDbArc
 50
180.0
 51
270.0
  0
LINE
  5
1C5
330
1F
100
AcDbEntity
  8
0
  6
Continuous
 62
     7
370
    15
100
AcDbLine
 10
15.9826069016
 20
618.3656986284
 30
0.0
 11
826.7357511304
 21
618.3656986284
 31
0.0
  0
LINE
  5
1C6
330
1F
100
AcDbEntity
  8
0
  6
Continuous
 62
     7
370
    15
100
AcDbLine
 10
15.9826069016
 20
620.3656986284
 30
0.0
 11
826.7357511304
 21
620.3656986284
 31
0.0
  0
ARC
  5
1C7
330
1F
100
AcDbEntity
  8
0
  6
Continuous
 62
     7
370
    15
100
AcDbCircle
 10
9.0924291033
 20
633.7419543356
 30
0.0
 40
2.640177798317733
100
AcDbArc
 50
0.0
 51
73.3118701736
  0
ARC
  5
1C8
330
1F
100
AcDbEntity
  8
0
  6
Continuous
 62
     7
370
    15
100
AcDbCircle
 10
9.0924291033
 20
633.7419543356
 30
0.0
 40
4.640177798317602
100
AcDbArc
 50
0.0
 51
73.3118701736
  0
ARC
  5
1C9
330
1F
100
AcDbEntity
  8
0
  6
Continuous
 62
     7
370
    15
100
AcDbCircle
 10
-56.6272153001
 20
633.7419543356
 30
0.0
 40
4.640177798317602
100
AcDbArc
 50
106.6881298264
 51
180.0
  0
ARC
  5
1CA
330
1F
100
AcDbEntity
  8
0
  6
Continuous
 62
     7
370
    15
100
AcDbCircle
 10
-56.6272153001
 20
633.7419543356
 30
0.0
 40
2.640177798317624
100
AcDbArc
 50
106.6881298264
 51
180.0
  0
ARC
  5
1CB
330
1F
100
AcDbEntity
  8
0
  6
Continuous
 62
     7
370
    15
100
AcDbCircle
 10
-57.0173930984
 20
622.6156986284
 30
0.0
 40
2.250000000000114
100
AcDbArc
 50
180.0
 51
270.0
  0
ARC
  5
1CC
330
1F
100
AcDbEntity
  8
0
  6
Continuous
 62
     7
370
    15
100
AcDbCircle
 10
-57.0173930984
 20
622.6156986284
 30
0.0
 40
4.250000000000114
100
AcDbArc
 50
180.0
 51
270.0
  0
LINE
  5
1CD
330
1F
100
AcDbEntity
  8
0
  6
Continuous
 62
     7
370
    15
100
AcDbLine
 10
-59.2673930984
 20
622.6156986284
 30
0.0
 11
-59.2673930984
 21
633.7419543356
 31
0.0
  0
LINE
  5
1CE
330
1F
100
AcDbEntity
  8
0
  6
Continuous
 62
     7
370
    15
100
AcDbLine
 10
-61.2673930984
 20
622.6156986284
 30
0.0
 11
-61.2673930984
 21
633.7419543356
 31
0.0
  0
ARC
  5
1CF
330
1F
100
AcDbEntity
  8
0
  6
Continuous
 62
     7
370
    15
100
AcDbCircle
 10
9.2044733707
 20
634.1156986284
 30
0.0
 40
4.25
100
AcDbArc
 50
73.3118701736
 51
90.0
  0
ARC
  5
1D0
330
1F
100
AcDbEntity
  8
0
  6
Continuous
 62
     7
370
    15
100
AcDbCircle
 10
9.2044733707
 20
634.1156986284
 30
0.0
 40
2.250000000000002
100
AcDbArc
 50
73.3118701736
 51
90.0
  0
LINE
  5
1D1
330
1F
100
AcDbEntity
  8
0
  6
Continuous
 62
     7
370
    15
100
AcDbLine
 10
-56.7392595675
 20
638.3656986284
 30
0.0
 11
9.2044733707
 21
638.3656986284
 31
0.0
  0
LINE
  5
1D2
330
1F
100
AcDbEntity
  8
0
  6
Continuous
 62
     7
370
    15
100
AcDbLine
 10
-56.7392595675
 20
636.3656986284
 30
0.0
 11
9.2044733707
 21
636.3656986284
 31
0.0
  0
ARC
  5
1D3
330
1F
100
AcDbEntity
  8
0
  6
Continuous
 62
     7
370
    15
100
AcDbCircle
 10
826.7357511304
 20
608.3656986284
 30
0.0
 40
10.0000000000001
100
AcDbArc
 50
335.0
 51
90.0
  0
ARC
  5
1D4
330
1F
100
AcDbEntity
  8
0
  6
Continuous
 62
     7
370
    15
100
AcDbCircle
 10
826.7357511304
 20
608.3656986284
 30
0.0
 40
12.0
100
AcDbArc
 50
335.0
 51
90.0
  0
ARC
  5
1D5
330
1F
100
AcDbEntity
  8
0
  6
Continuous
 62
     7
370
    15
100
AcDbCircle
 10
812.2976567054
 20
577.403105215
 30
0.0
 40
10.00000000000015
100
AcDbArc
 50
295.0
 51
335.0
  0
ARC
  5
1D6
330
1F
100
AcDbEntity
  8
0
  6
Continuous
 62
     7
370
    15
100
AcDbCircle
 10
812.2976567054
 20
577.403105215
 30
0.0
 40
12.00000000000009
100
AcDbArc
 50
295.0
 51
335.0
  0
LINE
  5
1D7
330
1F
100
AcDbEntity
  8
0
  6
Continuous
 62
     7
370
    15
100
AcDbLine
 10
816.5238393228
 20
568.3400273447
 30
0.0
 11
797.1648352226
 21
559.3127754785
 31
0.0
  0
LINE
  5
1D8
330
1F
100
AcDbEntity
  8
0
  6
Continuous
 62
     7
370
    15
100
AcDbLine
 10
797.1648352226
 20
559.3127754785
 30
0.0
 11
798.010071746
 21
557.5001599044
 31
0.0
  0
LINE
  5
1D9
330
1F
100
AcDbEntity
  8
0
  6
Continuous
 62
     7
370
    15
100
AcDbLine
 10
817.3690758463
 20
566.5274117706
 30
0.0
 11
798.010071746
 21
557.5001599044
 31
0.0
  0
LINE
  5
1DA
330
1F
100
AcDbEntity
  8
0
  6
Continuous
 62
     7
370
    15
100
AcDbLine
 10
797.1648352226
 20
559.3127754785
 30
0.0
 11
781.1305533512
 21
551.8358670488
 31
0.0
  0
SPLINE
  5
1DB
330
1F
100
AcDbEntity
  8
0
  6
Continuous
 62
     7
370
    15
100
AcDbSpline
210
0.0
220
0.0
230
1.0
 70
     8
 71
     3
 72
    11
 73
     7
 74
     0
 42
0.00000001
 43
0.00000001
 12
1.0
 22
0.0
 32
0.0
 13
1.0
 23
0.0
 33
0.0
 40
0.0
 40
0.0
 40
0.0
 40
0.0
 40
0.2889759275645141
 40
0.5779517763250732
 40
0.8674414070450546
 40
1.0
 40
1.0
 40
1.0
 40
1.0
 10
781.1305533512287
 20
551.8358670488433
 30
0.0
 10
780.8270254416733
 20
551.745591664528
 30
0.0
 10
780.2199697053346
 20
551.5650409205156
 30
0.0
 10
779.0714517279032
 20
551.804427285187
 30
0.0
 10
778.0368939302027
 20
552.1962075640098
 30
0.0
 10
777.4099455077106
 20
552.4630535534602
 30
0.0
 10
777.2130310413559
 20
552.54686560837
 30
0.0
  0
LINE
  5
1DC
330
1F
100
AcDbEntity
  8
0
  6
Continuous
 62
     7
370
    15
100
AcDbLine
 10
780.6692622402
 20
550.5772175247
 30
0.0
 11
781.1633313189
 21
549.5176829664
 31
0.0
  0
SPLINE
  5
1DD
330
1F
100
AcDbEntity
  8
0
  6
Continuous
 62
     7
370
    15
100
AcDbSpline
210
0.0
220
0.0
230
1.0
 70
     8
 71
     3
 72
    11
 73
     7
 74
     0
 42
0.00000001
 43
0.00000001
 12
1.0
 22
0.0
 32
0.0
 13
1.0
 23
0.0
 33
0.0
 40
0.0
 40
0.0
 40
0.0
 40
0.0
 40
0.2888077077194133
 40
0.5776153362197161
 40
0.8669345414323492
 40
1.0
 40
1.0
 40
1.0
 40
1.0
 10
777.2130310413563
 20
552.5468656083702
 30
0.0
 10
777.660729066134
 20
552.4106568535138
 30
0.0
 10
778.5561249928871
 20
552.138239381163
 30
0.0
 10
779.7032865819479
 20
551.6382300540486
 30
0.0
 10
780.3781741306793
 20
551.1019793236197
 30
0.0
 10
780.5995282151292
 20
550.7029311875676
 30
0.0
 10
780.6692622402462
 20
550.5772175247204
 30
0.0
  0
SPLINE
  5
1DE
330
1F
100
AcDbEntity
  8
0
  6
Continuous
 62
     7
370
    15
100
AcDbSpline
210
0.0
220
0.0
230
1.0
 70
     8
 71
     3
 72
    12
 73
     8
 74
     0
 42
0.00000001
 43
0.00000001
 12
1.0
 22
0.0
 32
0.0
 13
1.0
 23
0.0
 33
0.0
 40
0.0
 40
0.0
 40
0.0
 40
0.0
 40
0.2096821001528703
 40
0.4420453733185924
 40
0.6744332966681287
 40
0.9068208701180652
 40
1.0
 40
1.0
 40
1.0
 40
1.0
 10
-58.89602115303732
 20
373.4988315316932
 30
0.0
 10
-59.14835211101266
 20
373.3945463237656
 30
0.0
 10
-59.6803084984997
 20
373.1746954464788
 30
0.0
 10
-60.40168992831457
 20
372.838727316596
 30
0.0
 10
-60.9450488623009
 20
372.4918220481791
 30
0.0
 10
-61.1736707024444
 20
372.2134453859463
 30
0.0
 10
-61.19104774106865
 20
372.0520849247247
 30
0.0
 10
-61.19602115303729
 20
372.0059025995051
 30
0.0
  0
LINE
  5
1DF
330
1F
100
AcDbEntity
  8
0
  6
Continuous
 62
     7
370
    15
100
AcDbLine
 10
-61.196021153
 20
617.5917604639
 30
0.0
 11
-61.196021153
 21
372.0059025995
 31
0.0
  0
SPLINE
  5
1E0
330
1F
100
AcDbEntity
  8
0
  6
Continuous
 62
     7
370
    15
100
AcDbSpline
210
0.0
220
0.0
230
1.0
 70
     8
 71
     3
 72
    12
 73
     8
 74
     0
 42
0.00000001
 43
0.00000001
 12
1.0
 22
0.0
 32
0.0
 13
1.0
 23
0.0
 33
0.0
 40
0.0
 40
0.0
 40
0.0
 40
0.0
 40
0.2096821001528743
 40
0.4420453733186026
 40
0.67443329666813
 40
0.9068208701180432
 40
1.0
 40
1.0
 40
1.0
 40
1.0
 10
-61.19602115303735
 20
617.5917604638819
 30
0.0
 10
-61.17168118286881
 20
617.4874752559542
 30
0.0
 10
-61.120368404182
 20
617.2676243786674
 30
0.0
 10
-60.69943781725323
 20
616.9316562487845
 30
0.0
 10
-60.04764833935766
 20
616.5847509803679
 30
0.0
 10
-59.39820730025514
 20
616.3063743181352
 30
0.0
 10
-59.00776738314878
 20
616.1450138569134
 30
0.0
 10
-58.89602115303732
 20
616.0988315316937
 30
0.0
  0
CIRCLE
  5
1E1
330
1F
100
AcDbEntity
  8
0
  6
Continuous
 62
     7
370
    15
100
AcDbCircle
 10
786.351201257
 20
598.3988315317
 30
0.0
 40
6.347663105371566
  0
LINE
  5
1E2
330
1F
100
AcDbEntity
  8
0
  6
Continuous
 62
     7
370
    15
100
AcDbLine
 10
-61.196021153
 20
617.5917604639
 30
0.0
 11
-60.396021153
 21
617.5917604639
 31
0.0
  0
SPLINE
  5
1E3
330
1F
100
AcDbEntity
  8
0
  6
Continuous
 62
     7
370
    15
100
AcDbSpline
210
0.0
220
0.0
230
1.0
 70
     8
 71
     3
 72
    11
 73
     7
 74
     0
 42
0.00000001
 43
0.00000001
 12
1.0
 22
0.0
 32
0.0
 13
1.0
 23
0.0
 33
0.0
 40
0.0
 40
0.0
 40
0.0
 40
0.0
 40
0.2543211584721169
 40
0.5088664984542334
 40
0.7634130007196989
 40
1.0
 40
1.0
 40
1.0
 40
1.0
 10
-60.39602115303738
 20
617.5917604638818
 30
0.0
 10
-60.37266709101824
 20
617.4651793560962
 30
0.0
 10
-60.3259383806124
 20
617.2119055605687
 30
0.0
 10
-59.96705076441727
 20
616.8319608910833
 30
0.0
 10
-59.46782778512777
 20
616.4607357594124
 30
0.0
 10
-59.08191946853253
 20
616.2164891147431
 30
0.0
 10
-58.89602115303732
 20
616.0988315316937
 30
0.0
  0
LINE
  5
1E4
330
1F
100
AcDbEntity
  8
0
  6
Continuous
 62
     7
370
    15
100
AcDbLine
 10
746.7670271923
 20
371.1988315317
 30
0.0
 11
745.8923085664
 21
371.1988315317
 31
0.0
  0
LINE
  5
1E5
330
1F
100
AcDbEntity
  8
0
  6
Continuous
 62
     7
370
    15
100
AcDbLine
 10
744.5903399608
 20
371.1988315317
 30
0.0
 11
744.0633021254
 21
371.1988315317
 31
0.0
  0
LINE
  5
1E6
330
1F
100
AcDbEntity
  8
0
  6
Continuous
 62
     7
370
    15
100
AcDbLine
 10
2.1043185239
 20
371.1988315317
 30
0.0
 11
-60.3889500852
 21
371.1988315317
 31
0.0
  0
SPLINE
  5
1E7
330
1F
100
AcDbEntity
  8
0
  6
Continuous
 62
     7
370
    15
100
AcDbSpline
210
0.0
220
0.0
230
1.0
 70
     8
 71
     3
 72
    17
 73
    13
 74
     0
 42
0.00000001
 43
0.00000001
 12
1.0
 22
0.0
 32
0.0
 13
1.0
 23
0.0
 33
0.0
 40
0.0
 40
0.0
 40
0.0
 40
0.0
 40
0.1035984107083917
 40
0.2096300057675007
 40
0.324199513704479
 40
0.4420903889795647
 40
0.5566717778555506
 40
0.6745756090648031
 40
0.7891568249000435
 40
0.9070604758598259
 40
0.9534246172613586
 40
1.0
 40
1.0
 40
1.0
 40
1.0
 10
-60.38895008522549
 20
371.1988315316933
 30
0.0
 10
-60.33739961848039
 20
371.2047162541036
 30
0.0
 10
-60.23308793486271
 20
371.2166239116087
 30
0.0
 10
-60.07177513428363
 20
371.3156248376905
 30
0.0
 10
-59.90329473165834
 20
371.4811893420829
 30
0.0
 10
-59.73056638824775
 20
371.7191833259432
 30
0.0
 10
-59.55618552986219
 20
372.0184030474604
 30
0.0
 10
-59.38343481116271
 20
372.3640852020054
 30
0.0
 10
-59.20907238281642
 20
372.7507006229371
 30
0.0
 10
-59.07020722022732
 20
373.0786633906246
 30
0.0
 10
-58.96539544227436
 20
373.3309550072399
 30
0.0
 10
-58.91918092962134
 20
373.4427879621983
 30
0.0
 10
-58.89602115303732
 20
373.4988315316932
 30
0.0
  0
SPLINE
  5
1E8
330
1F
100
AcDbEntity
  8
0
  6
Continuous
 62
     7
370
    15
100
AcDbSpline
210
0.0
220
0.0
230
1.0
 70
     8
 71
     3
 72
    12
 73
     8
 74
     0
 42
0.00000001
 43
0.00000001
 12
1.0
 22
0.0
 32
0.0
 13
1.0
 23
0.0
 33
0.0
 40
0.0
 40
0.0
 40
0.0
 40
0.0
 40
0.2096821001528704
 40
0.4420453733185631
 40
0.6744332966681108
 40
0.9068208701180652
 40
1.0
 40
1.0
 40
1.0
 40
1.0
 10
-58.89602115303732
 20
616.0988315316937
 30
0.0
 10
-59.00030636096481
 20
616.3511624896689
 30
0.0
 10
-59.22015723825152
 20
616.883118877156
 30
0.0
 10
-59.5561253681347
 20
617.6045003069709
 30
0.0
 10
-59.90303063655117
 20
618.147859240957
 30
0.0
 10
-60.18140729878441
 20
618.376481081101
 30
0.0
 10
-60.3427677600058
 20
618.3938581197251
 30
0.0
 10
-60.38895008522543
 20
618.3988315316936
 30
0.0
  0
SPLINE
  5
1E9
330
1F
100
AcDbEntity
  8
0
  6
Continuous
 62
     7
370
    15
100
AcDbSpline
210
0.0
220
0.0
230
1.0
 70
     8
 71
     3
 72
    11
 73
     7
 74
     0
 42
0.00000001
 43
0.00000001
 12
1.0
 22
0.0
 32
0.0
 13
1.0
 23
0.0
 33
0.0
 40
0.0
 40
0.0
 40
0.0
 40
0.0
 40
0.2543211584720603
 40
0.508866498454172
 40
0.7634130007196562
 40
0.9999999999999999
 40
0.9999999999999999
 40
0.9999999999999999
 40
0.9999999999999999
 10
-58.89602115303732
 20
616.0988315316937
 30
0.0
 10
-59.02260226082273
 20
616.2988067218329
 30
0.0
 10
-59.27587605635026
 20
616.6989333782041
 30
0.0
 10
-59.65582072583575
 20
617.2005571322995
 30
0.0
 10
-60.02704585750662
 20
617.5366223791583
 30
0.0
 10
-60.27129250217589
 20
617.5786069032692
 30
0.0
 10
-60.38895008522549
 20
617.5988315316937
 30
0.0
  0
LINE
  5
1EA
330
1F
100
AcDbEntity
  8
0
  6
Continuous
 62
     7
370
    15
100
AcDbLine
 10
-60.3889500852
 20
618.3988315317
 30
0.0
 11
-60.3889500852
 21
617.5988315317
 31
0.0
  0
CIRCLE
  5
1EB
330
1F
100
AcDbEntity
  8
0
  6
Continuous
 62
     7
370
    15
100
AcDbCircle
 10
406.351201257
 20
598.3988315317
 30
0.0
 40
6.347663105371566
  0
LINE
  5
1EC
330
1F
100
AcDbEntity
  8
0
  6
Continuous
 62
     7
370
    15
100
AcDbLine
 10
-60.3889500852
 20
618.3988315317
 30
0.0
 11
-57.5470457094
 21
618.3988315317
 31
0.0
  0
LINE
  5
1ED
330
1F
100
AcDbEntity
  8
0
  6
Continuous
 62
     7
370
    15
100
AcDbLine
 10
-46.2673930984
 20
618.3988315317
 30
0.0
 11
15.4529542906
 21
618.3988315317
 31
0.0
  0
CIRCLE
  5
1EE
330
1F
100
AcDbEntity
  8
0
  6
Continuous
 62
     7
370
    15
100
AcDbCircle
 10
16.351201257
 20
598.3988315317
 30
0.0
 40
6.347663105371566
  0
SPLINE
  5
1EF
330
1F
100
AcDbEntity
  8
0
  6
Continuous
 62
     7
370
    15
100
AcDbSpline
210
0.0
220
0.0
230
1.0
 70
     8
 71
     3
 72
    11
 73
     7
 74
     0
 42
0.00000001
 43
0.00000001
 12
1.0
 22
0.0
 32
0.0
 13
1.0
 23
0.0
 33
0.0
 40
0.0
 40
0.0
 40
0.0
 40
0.0
 40
0.2543211584721202
 40
0.5088664984542434
 40
0.7634130007197257
 40
1.0
 40
1.0
 40
1.0
 40
1.0
 10
-58.89602115303732
 20
373.4988315316932
 30
0.0
 10
-59.09599634317652
 20
373.3722504239077
 30
0.0
 10
-59.49612299954777
 20
373.1189766283801
 30
0.0
 10
-59.99774675364339
 20
372.7390319588947
 30
0.0
 10
-60.33381200050214
 20
372.3678068272238
 30
0.0
 10
-60.37579652461284
 20
372.1235601825547
 30
0.0
 10
-60.39602115303727
 20
372.0059025995051
 30
0.0
  0
LINE
  5
1F0
330
1F
100
AcDbEntity
  8
0
  6
Continuous
 62
     7
370
    15
100
AcDbLine
 10
-61.196021153
 20
372.0059025995
 30
0.0
 11
-60.396021153
 21
372.0059025995
 31
0.0
  0
LINE
  5
1F1
330
1F
100
AcDbEntity
  8
0
  6
Continuous
 62
     7
370
    15
100
AcDbLine
 10
-60.3889500852
 20
371.1988315317
 30
0.0
 11
-60.3889500852
 21
371.9988315317
 31
0.0
  0
SPLINE
  5
1F2
330
1F
100
AcDbEntity
  8
0
  6
Continuous
 62
     7
370
    15
100
AcDbSpline
210
0.0
220
0.0
230
1.0
 70
     8
 71
     3
 72
    15
 73
    11
 74
     0
 42
0.00000001
 43
0.00000001
 12
1.0
 22
0.0
 32
0.0
 13
1.0
 23
0.0
 33
0.0
 40
0.0
 40
0.0
 40
0.0
 40
0.0
 40
0.1253607905739631
 40
0.2543493449800838
 40
0.3798182032806004
 40
0.5089245063805172
 40
0.6343939312768985
 40
0.7635008384375314
 40
0.8802930527505362
 40
0.9999999999999999
 40
0.9999999999999999
 40
0.9999999999999999
 40
0.9999999999999999
 10
-60.38895008522543
 20
371.9988315316932
 30
0.0
 10
-60.32656651433555
 20
372.0044559995946
 30
0.0
 10
-60.19999408031762
 20
372.0158676995371
 30
0.0
 10
-60.01095603408297
 20
372.1073824038165
 30
0.0
 10
-59.82009037986713
 20
372.2510953343935
 30
0.0
 10
-59.6309353270138
 20
372.4441976906783
 30
0.0
 10
-59.44001471370025
 20
372.680936771694
 30
0.0
 10
-59.25516734426872
 20
372.9420109510536
 30
0.0
 10
-59.07327322689987
 20
373.2190898861238
 30
0.0
 10
-58.9555886453706
 20
373.4048213011518
 30
0.0
 10
-58.89602115303732
 20
373.4988315316932
 30
0.0
  0
CIRCLE
  5
1F3
330
1F
100
AcDbEntity
  8
0
  6
Continuous
 62
     7
370
    15
100
AcDbCircle
 10
406.351201257
 20
598.3988315317
 30
0.0
 40
2.699999999999932
  0
CIRCLE
  5
1F4
330
1F
100
AcDbEntity
  8
0
  6
Continuous
 62
     7
370
    15
100
AcDbCircle
 10
16.351201257
 20
598.3988315317
 30
0.0
 40
2.699999999999932
  0
CIRCLE
  5
1F5
330
1F
100
AcDbEntity
  8
0
  6
Continuous
 62
     7
370
    15
100
AcDbCircle
 10
786.351201257
 20
598.3988315317
 30
0.0
 40
2.699999999999932
  0
LINE
  5
1F6
330
1F
100
AcDbEntity
  8
0
  6
Continuous
 62
     8
370
    15
100
AcDbLine
 10
107.2923085664
 20
-275.3011684683
 30
0.0
 11
50.2923085664
 21
-275.3011684683
 31
0.0
  0
LINE
  5
1F7
330
1F
100
AcDbEntity
  8
0
  6
Continuous
 62
     8
370
    15
100
AcDbLine
 10
686.2923085664
 20
-275.3011684683
 30
0.0
 11
629.2923085664
 21
-275.3011684683
 31
0.0
  0
LINE
  5
1F8
330
1F
100
AcDbEntity
  8
0
  6
Continuous
 62
     8
370
    15
100
AcDbLine
 10
110.6923085664
 20
-110.8011684683
 30
0.0
 11
46.8923085664
 21
-110.8011684683
 31
0.0
  0
LINE
  5
1F9
330
1F
100
AcDbEntity
  8
0
  6
Continuous
 62
     8
370
    15
100
AcDbLine
 10
110.6923085664
 20
-197.2686025226
 30
0.0
 11
46.8923085664
 21
-197.2686025226
 31
0.0
  0
LINE
  5
1FA
330
1F
100
AcDbEntity
  8
0
  6
Continuous
 62
     8
370
    15
100
AcDbLine
 10
110.6283953394
 20
-198.0410657471
 30
0.0
 11
46.9562217934
 21
-198.0410657471
 31
0.0
  0
LINE
  5
1FB
330
1F
100
AcDbEntity
  8
0
  6
Continuous
 62
     8
370
    15
100
AcDbLine
 10
689.6923085664
 20
-110.8011684683
 30
0.0
 11
625.8923085664
 21
-110.8011684683
 31
0.0
  0
LINE
  5
1FC
330
1F
100
AcDbEntity
  8
0
  6
Continuous
 62
     8
370
    15
100
AcDbLine
 10
689.6923085664
 20
-197.2686025226
 30
0.0
 11
625.8923085664
 21
-197.2686025226
 31
0.0
  0
LINE
  5
1FD
330
1F
100
AcDbEntity
  8
0
  6
Continuous
 62
     8
370
    15
100
AcDbLine
 10
689.6283953394
 20
-198.0410657471
 30
0.0
 11
625.9562217934
 21
-198.0410657471
 31
0.0
  0
LINE
  5
1FE
330
1F
100
AcDbEntity
  8
0
  6
Continuous
 62
     8
370
    15
100
AcDbLine
 10
743.5923085664
 20
370.4988315317
 30
0.0
 11
4.7923085664
 21
370.4988315317
 31
0.0
  0
LINE
  5
1FF
330
1F
100
AcDbEntity
  8
0
  6
Continuous
 62
     8
370
    15
100
AcDbLine
 10
3.5923085664
 20
-106.5011684683
 30
0.0
 11
743.5923085664
 21
-106.5011684683
 31
0.0
  0
LINE
  5
200
330
1F
100
AcDbEntity
  8
0
  6
Continuous
 62
     8
370
    15
100
AcDbLine
 10
3.5923085664
 20
371.9988315317
 30
0.0
 11
3.5923085664
 21
-106.5011684683
 31
0.0
  0
LINE
  5
201
330
1F
100
AcDbEntity
  8
0
  6
Continuous
 62
     8
370
    15
100
AcDbLine
 10
743.5923085664
 20
-106.5011684683
 30
0.0
 11
743.5923085664
 21
370.4988315317
 31
0.0
  0
LINE
  5
202
330
1F
100
AcDbEntity
  8
0
  6
Continuous
 62
     8
370
    15
100
AcDbLine
 10
15.4359041097
 20
-120.6511684683
 30
0.0
 11
8.7813567428
 21
-120.6511684683
 31
0.0
  0
LINE
  5
203
330
1F
100
AcDbEntity
  8
0
  6
Continuous
 62
     8
370
    15
100
AcDbLine
 10
3.2246625706
 20
-120.6511684683
 30
0.0
 11
3.1923085664
 21
-120.6511684683
 31
0.0
  0
LINE
  5
204
330
1F
100
AcDbEntity
  8
0
  6
Continuous
 62
     8
370
    15
100
AcDbLine
 10
3.1923085664
 20
-121.3511684683
 30
0.0
 11
3.2246625706
 21
-121.3511684683
 31
0.0
  0
LINE
  5
205
330
1F
100
AcDbEntity
  8
0
  6
Continuous
 62
     8
370
    15
100
AcDbLine
 10
8.7813567428
 20
-121.3511684683
 30
0.0
 11
15.4359041097
 21
-121.3511684683
 31
0.0
  0
SPLINE
  5
206
330
1F
100
AcDbEntity
  8
0
  6
Continuous
 62
     8
370
    15
100
AcDbSpline
210
0.0
220
0.0
230
1.0
 70
     8
 71
     3
 72
    12
 73
     8
 74
     0
 42
0.00000001
 43
0.00000001
 12
1.0
 22
0.0
 32
0.0
 13
1.0
 23
0.0
 33
0.0
 40
0.0
 40
0.0
 40
0.0
 40
0.0
 40
0.202820202046738
 40
0.4049472449426681
 40
0.6098312030740195
 40
0.8226939241827266
 40
1.0
 40
1.0
 40
1.0
 40
1.0
 10
16.74732716462568
 20
-120.1511684683093
 30
0.0
 10
16.73670021438889
 20
-120.3083093088448
 30
0.0
 10
16.7154826326239
 20
-120.6220539447373
 30
0.0
 10
16.5508993786111
 20
-121.0424501952068
 30
0.0
 10
16.30712730877326
 20
-121.3695287306463
 30
0.0
 10
16.01522407188738
 20
-121.5677379969125
 30
0.0
 10
15.81027107571864
 20
-121.5907232028345
 30
0.0
 10
15.71713340872938
 20
-121.6011684683094
 30
0.0
  0
LINE
  5
207
330
1F
100
AcDbEntity
  8
0
  6
Continuous
 62
     8
370
    15
100
AcDbLine
 10
16.7473271646
 20
-120.1511684683
 30
0.0
 11
21.0222005784
 21
-120.1511684683
 31
0.0
  0
LINE
  5
208
330
1F
100
AcDbEntity
  8
0
  6
Continuous
 62
     8
370
    15
100
AcDbLine
 10
21.0222005784
 20
-120.1511684683
 30
0.0
 11
21.0222005784
 21
-115.0511684683
 31
0.0
  0
LINE
  5
209
330
1F
100
AcDbEntity
  8
0
  6
Continuous
 62
     8
370
    15
100
AcDbLine
 10
16.7473271646
 20
-115.0511684683
 30
0.0
 11
16.7473271646
 21
-120.1511684683
 31
0.0
  0
LINE
  5
20A
330
1F
100
AcDbEntity
  8
0
  6
Continuous
 62
     8
370
    15
100
AcDbLine
 10
21.0222005784
 20
-115.0511684683
 30
0.0
 11
16.7473271646
 21
-115.0511684683
 31
0.0
  0
LWPOLYLINE
  5
20B
330
1F
100
AcDbEntity
  8
0
  6
Continuous
 62
     8
370
    15
100
AcDbPolyline
 90
        9
 70
   128
 43
0.0
 10
16.7473271646
 20
-115.0511684683
 10
16.7450406984
 20
-115.0023958878
 10
16.7382691674
 20
-114.9554976102
 10
16.7272727978
 20
-114.9122759101
 10
16.7124741738
 20
-114.874391773
 10
16.6944419983
 20
-114.8433010652
 10
16.6738692377
 20
-114.8201985852
 10
16.6515464917
 20
-114.8059721482
 10
16.6283316107
 20
-114.8011684683
  0
ARC
  5
20C
330
1F
100
AcDbEntity
  8
0
  6
Continuous
 62
     8
370
    15
100
AcDbCircle
 10
20.7845461017
 20
-115.038742315
 30
0.0
 40
0.2379791158747252
100
AcDbArc
 50
357.0069219841
 51
86.6557275501
  0
SPLINE
  5
20D
330
1F
100
AcDbEntity
  8
0
  6
Continuous
 62
     8
370
    15
100
AcDbSpline
210
0.0
220
0.0
230
1.0
 70
     8
 71
     3
 72
    12
 73
     8
 74
     0
 42
0.00000001
 43
0.00000001
 12
1.0
 22
0.0
 32
0.0
 13
1.0
 23
0.0
 33
0.0
 40
0.0
 40
0.0
 40
0.0
 40
0.0
 40
0.1789601577903623
 40
0.3929009169381188
 40
0.5976976172812901
 40
0.798783367843832
 40
1.0
 40
1.0
 40
1.0
 40
1.0
 10
15.5433793627035
 20
-121.3511684683094
 30
0.0
 10
15.62639299221535
 20
-121.3425564984555
 30
0.0
 10
15.80864658182041
 20
-121.3236492126437
 30
0.0
 10
16.06683738884362
 20
-121.1601131874916
 30
0.0
 10
16.28179676702235
 20
-120.8895408757259
 30
0.0
 10
16.42658445032552
 20
-120.5414107561662
 30
0.0
 10
16.44524450302354
 20
-120.2812774407727
 30
0.0
 10
16.45457756472285
 20
-120.1511684683093
 30
0.0
  0
LINE
  5
20E
330
1F
100
AcDbEntity
  8
0
  6
Continuous
 62
     8
370
    15
100
AcDbLine
 10
16.4545775647
 20
-120.1511684683
 30
0.0
 11
16.7473271646
 21
-120.1511684683
 31
0.0
  0
ARC
  5
20F
330
1F
100
AcDbEntity
  8
0
  6
Continuous
 62
     8
370
    15
100
AcDbCircle
 10
15.7636208607
 20
-121.3834779998
 30
0.0
 40
0.222598794410104
100
AcDbArc
 50
171.6542123667
 51
257.9456391698
  0
LINE
  5
210
330
1F
100
AcDbEntity
  8
0
  6
Continuous
 62
     8
370
    15
100
AcDbLine
 10
16.4545775647
 20
-120.1511684683
 30
0.0
 11
16.4545775647
 21
-115.0511684683
 31
0.0
  0
LINE
  5
211
330
1F
100
AcDbEntity
  8
0
  6
Continuous
 62
     8
370
    15
100
AcDbLine
 10
16.4545775647
 20
-115.0511684683
 30
0.0
 11
16.7473271646
 21
-115.0511684683
 31
0.0
  0
ARC
  5
212
330
1F
100
AcDbEntity
  8
0
  6
Continuous
 62
     8
370
    15
100
AcDbCircle
 10
16.6748190627
 20
-115.0188589368
 30
0.0
 40
0.2225987944094304
100
AcDbArc
 50
102.0543608299
 51
188.3457876334
  0
LINE
  5
213
330
1F
100
AcDbEntity
  8
0
  6
Continuous
 62
     8
370
    15
100
AcDbLine
 10
15.9247042701
 20
-115.0511684683
 30
0.0
 11
15.9247042701
 21
-120.1511684683
 31
0.0
  0
LINE
  5
214
330
1F
100
AcDbEntity
  8
0
  6
Continuous
 62
     8
370
    15
100
AcDbLine
 10
16.4545775647
 20
-115.0511684683
 30
0.0
 11
15.9247042701
 21
-115.0511684683
 31
0.0
  0
LINE
  5
215
330
1F
100
AcDbEntity
  8
0
  6
Continuous
 62
     8
370
    15
100
AcDbLine
 10
15.4359041097
 20
-121.3511684683
 30
0.0
 11
15.5433793627
 21
-121.3511684683
 31
0.0
  0
LINE
  5
216
330
1F
100
AcDbEntity
  8
0
  6
Continuous
 62
     8
370
    15
100
AcDbLine
 10
15.5433793627
 20
-120.6511684683
 30
0.0
 11
15.4359041097
 21
-120.6511684683
 31
0.0
  0
SPLINE
  5
217
330
1F
100
AcDbEntity
  8
0
  6
Continuous
 62
     8
370
    15
100
AcDbSpline
210
0.0
220
0.0
230
1.0
 70
     8
 71
     3
 72
    12
 73
     8
 74
     0
 42
0.00000001
 43
0.00000001
 12
1.0
 22
0.0
 32
0.0
 13
1.0
 23
0.0
 33
0.0
 40
0.0
 40
0.0
 40
0.0
 40
0.0
 40
0.1818603118647072
 40
0.3964966430178044
 40
0.6005836871107803
 40
0.8002123703305494
 40
1.0
 40
1.0
 40
1.0
 40
1.0
 10
15.54337936270345
 20
-120.6511684683094
 30
0.0
 10
15.57860132327465
 20
-120.6474507167155
 30
0.0
 10
15.65539316963077
 20
-120.6393451767468
 30
0.0
 10
15.76352811265974
 20
-120.57019047774
 30
0.0
 10
15.85291682505702
 20
-120.4573510707864
 30
0.0
 10
15.91305938744425
 20
-120.312929970041
 30
0.0
 10
15.92082161287861
 20
-120.2051032719835
 30
0.0
 10
15.9247042700722
 20
-120.1511684683093
 30
0.0
  0
ARC
  5
218
330
1F
100
AcDbEntity
  8
0
  6
Continuous
 62
     8
370
    15
100
AcDbCircle
 10
16.1449457681
 20
-115.0188589368
 30
0.0
 40
0.2225987944093064
100
AcDbArc
 50
102.0543608298
 51
188.3457876335
  0
ARC
  5
219
330
1F
100
AcDbEntity
  8
0
  6
Continuous
 62
     8
370
    15
100
AcDbCircle
 10
15.7636208607
 20
-120.6188589368
 30
0.0
 40
0.2225987944102063
100
AcDbArc
 50
102.0543608302
 51
188.3457876333
  0
LINE
  5
21A
330
1F
100
AcDbEntity
  8
0
  6
Continuous
 62
     8
370
    15
100
AcDbLine
 10
15.9247042701
 20
-120.1511684683
 30
0.0
 11
15.8484709387
 21
-120.1511684683
 31
0.0
  0
LINE
  5
21B
330
1F
100
AcDbEntity
  8
0
  6
Continuous
 62
     8
370
    15
100
AcDbLine
 10
15.9247042701
 20
-115.0511684683
 30
0.0
 11
15.8484583161
 21
-115.0511684683
 31
0.0
  0
LINE
  5
21C
330
1F
100
AcDbEntity
  8
0
  6
Continuous
 62
     8
370
    15
100
AcDbLine
 10
21.0222005784
 20
-115.0511684683
 30
0.0
 11
21.0484287154
 21
-115.0511684683
 31
0.0
  0
SPLINE
  5
21D
330
1F
100
AcDbEntity
  8
0
  6
Continuous
 62
     8
370
    15
100
AcDbSpline
210
0.0
220
0.0
230
1.0
 70
     8
 71
     3
 72
    11
 73
     7
 74
     0
 42
0.00000001
 43
0.00000001
 12
1.0
 22
0.0
 32
0.0
 13
1.0
 23
0.0
 33
0.0
 40
0.0
 40
0.0
 40
0.0
 40
0.0
 40
0.1689135268329221
 40
0.5098334162277897
 40
0.8698760745625568
 40
0.9999999999999999
 40
0.9999999999999999
 40
0.9999999999999999
 40
0.9999999999999999
 10
2.812434371483263
 20
-120.1511684683095
 30
0.0
 10
2.814947432960846
 20
-120.218540160099
 30
0.0
 10
2.822532631981622
 20
-120.4218888227317
 30
0.0
 10
2.916564500065499
 20
-120.7479358869404
 30
0.0
 10
3.065470246638058
 20
-121.023832136267
 30
0.0
 10
3.191267363357897
 20
-121.1121778193265
 30
0.0
 10
3.224662570575632
 20
-121.1356308401071
 30
0.0
  0
LINE
  5
21E
330
1F
100
AcDbEntity
  8
0
  6
Continuous
 62
     8
370
    15
100
AcDbLine
 10
2.8124343715
 20
-115.0511684683
 30
0.0
 11
2.8124343715
 21
-120.1511684683
 31
0.0
  0
LINE
  5
21F
330
1F
100
AcDbEntity
  8
0
  6
Continuous
 62
     8
370
    15
100
AcDbLine
 10
3.3423076661
 20
-115.0511684683
 30
0.0
 11
2.8124343715
 21
-115.0511684683
 31
0.0
  0
LINE
  5
220
330
1F
100
AcDbEntity
  8
0
  6
Continuous
 62
     8
370
    15
100
AcDbLine
 10
3.3423076661
 20
-119.2220400765
 30
0.0
 11
3.3423076661
 21
-115.0511684683
 31
0.0
  0
LINE
  5
221
330
1F
100
AcDbEntity
  8
0
  6
Continuous
 62
     8
370
    15
100
AcDbLine
 10
2.7361884175
 20
-120.1511684683
 30
0.0
 11
2.8124343715
 21
-120.1511684683
 31
0.0
  0
LINE
  5
222
330
1F
100
AcDbEntity
  8
0
  6
Continuous
 62
     8
370
    15
100
AcDbLine
 10
3.7424467623
 20
-115.0511684683
 30
0.0
 11
3.7424467623
 21
-119.2011684683
 31
0.0
  0
LINE
  5
223
330
1F
100
AcDbEntity
  8
0
  6
Continuous
 62
     8
370
    15
100
AcDbLine
 10
3.7424467623
 20
-115.0511684683
 30
0.0
 11
3.3423076661
 21
-115.0511684683
 31
0.0
  0
ARC
  5
224
330
1F
100
AcDbEntity
  8
0
  6
Continuous
 62
     8
370
    15
100
AcDbCircle
 10
3.5625491641
 20
-115.0188589368
 30
0.0
 40
0.2225987944099211
100
AcDbArc
 50
102.05436083
 51
188.3457876333
  0
ARC
  5
225
330
1F
100
AcDbEntity
  8
0
  6
Continuous
 62
     8
370
    15
100
AcDbCircle
 10
3.0326758695
 20
-115.0188589368
 30
0.0
 40
0.2225987944098364
100
AcDbArc
 50
102.05436083
 51
188.3457876334
  0
LINE
  5
226
330
1F
100
AcDbEntity
  8
0
  6
Continuous
 62
     8
370
    15
100
AcDbLine
 10
6.252123309
 20
-115.0511684683
 30
0.0
 11
3.7424467623
 21
-115.0511684683
 31
0.0
  0
LINE
  5
227
330
1F
100
AcDbEntity
  8
0
  6
Continuous
 62
     8
370
    15
100
AcDbLine
 10
2.7361884175
 20
-115.0511684683
 30
0.0
 11
2.8124343715
 21
-115.0511684683
 31
0.0
  0
LINE
  5
228
330
1F
100
AcDbEntity
  8
0
  6
Continuous
 62
     8
370
    15
100
AcDbLine
 10
15.8484583161
 20
-119.4511684683
 30
0.0
 11
9.1613033118
 21
-119.4511684683
 31
0.0
  0
LINE
  5
229
330
1F
100
AcDbEntity
  8
0
  6
Continuous
 62
     8
370
    15
100
AcDbLine
 10
9.1613033118
 20
-120.1511684683
 30
0.0
 11
15.8645495757
 21
-120.1511684683
 31
0.0
  0
SPLINE
  5
22A
330
1F
100
AcDbEntity
  8
0
  6
Continuous
 62
     8
370
    15
100
AcDbSpline
210
0.0
220
0.0
230
1.0
 70
     8
 71
     3
 72
    12
 73
     8
 74
     0
 42
0.00000001
 43
0.00000001
 12
1.0
 22
0.0
 32
0.0
 13
1.0
 23
0.0
 33
0.0
 40
0.0
 40
0.0
 40
0.0
 40
0.0
 40
0.2028202020467015
 40
0.4049472449427231
 40
0.6098312030741159
 40
0.8226939241827429
 40
1.0
 40
1.0
 40
1.0
 40
1.0
 10
7.958972498985084
 20
-120.6511684683093
 30
0.0
 10
7.968424163907861
 20
-120.4940276277738
 30
0.0
 10
7.987295191704713
 20
-120.1802829918813
 30
0.0
 10
8.133641300311133
 20
-119.7598867414121
 30
0.0
 10
8.350277934324579
 20
-119.4328082059722
 30
0.0
 10
8.609505994720157
 20
-119.2345989397063
 30
0.0
 10
8.791288307604006
 20
-119.2116137337844
 30
0.0
 10
8.873896421846828
 20
-119.2011684683096
 30
0.0
  0
LINE
  5
22B
330
1F
100
AcDbEntity
  8
0
  6
Continuous
 62
     8
370
    15
100
AcDbLine
 10
7.958972499
 20
-120.6511684683
 30
0.0
 11
3.2631639275
 21
-120.6511684683
 31
0.0
  0
ARC
  5
22C
330
1F
100
AcDbEntity
  8
0
  6
Continuous
 62
     8
370
    15
100
AcDbCircle
 10
3.4956654523
 20
-125.7689367923
 30
0.0
 40
0.2331794853689504
100
AcDbArc
 50
175.6298138039
 51
264.8322658056
  0
LINE
  5
22D
330
1F
100
AcDbEntity
  8
0
  6
Continuous
 62
     8
370
    15
100
AcDbLine
 10
3.2631639275
 20
-125.7511684683
 30
0.0
 11
7.958972499
 21
-125.7511684683
 31
0.0
  0
LWPOLYLINE
  5
22E
330
1F
100
AcDbEntity
  8
0
  6
Continuous
 62
     8
370
    15
100
AcDbPolyline
 90
        9
 70
   128
 43
0.0
 10
8.0553777948
 20
-126.0011684683
 10
8.0365700546
 20
-125.9963647884
 10
8.0184850853
 20
-125.9821383514
 10
8.0018178821
 20
-125.9590358714
 10
7.9872089564
 20
-125.9279451636
 10
7.9752197209
 20
-125.8900610266
 10
7.9663109152
 20
-125.8468393264
 10
7.9608248997
 20
-125.7999410488
 10
7.958972499
 20
-125.7511684683
  0
LINE
  5
22F
330
1F
100
AcDbEntity
  8
0
  6
Continuous
 62
     8
370
    15
100
AcDbLine
 10
7.958972499
 20
-125.7511684683
 30
0.0
 11
7.958972499
 21
-120.6511684683
 31
0.0
  0
LINE
  5
230
330
1F
100
AcDbEntity
  8
0
  6
Continuous
 62
     8
370
    15
100
AcDbLine
 10
3.2631639275
 20
-120.6511684683
 30
0.0
 11
3.2631639275
 21
-125.7511684683
 31
0.0
  0
SPLINE
  5
231
330
1F
100
AcDbEntity
  8
0
  6
Continuous
 62
     8
370
    15
100
AcDbSpline
210
0.0
220
0.0
230
1.0
 70
     8
 71
     3
 72
    12
 73
     8
 74
     0
 42
0.00000001
 43
0.00000001
 12
1.0
 22
0.0
 32
0.0
 13
1.0
 23
0.0
 33
0.0
 40
0.0
 40
0.0
 40
0.0
 40
0.0
 40
0.1789601577905281
 40
0.3929009169382167
 40
0.5976976172812967
 40
0.7987833678438335
 40
1.0
 40
1.0
 40
1.0
 40
1.0
 10
9.064759556187575
 20
-119.4511684683095
 30
0.0
 10
8.990189389227798
 20
-119.4597804381635
 30
0.0
 10
8.826473133406287
 20
-119.4786877239752
 30
0.0
 10
8.59454336837423
 20
-119.6422237491268
 30
0.0
 10
8.401447887372182
 20
-119.9127960608927
 30
0.0
 10
8.27138681449685
 20
-120.2609261804526
 30
0.0
 10
8.254624708643355
 20
-120.521059495846
 30
0.0
 10
8.246240929096981
 20
-120.6511684683093
 30
0.0
  0
LINE
  5
232
330
1F
100
AcDbEntity
  8
0
  6
Continuous
 62
     8
370
    15
100
AcDbLine
 10
8.2462409291
 20
-120.6511684683
 30
0.0
 11
7.958972499
 21
-120.6511684683
 31
0.0
  0
ARC
  5
233
330
1F
100
AcDbEntity
  8
0
  6
Continuous
 62
     8
370
    15
100
AcDbCircle
 10
8.8397472604
 20
-119.4250972044
 30
0.0
 40
0.2265176462356323
100
AcDbArc
 50
353.390840606
 51
81.329191247
  0
LINE
  5
234
330
1F
100
AcDbEntity
  8
0
  6
Continuous
 62
     8
370
    15
100
AcDbLine
 10
8.2462409291
 20
-125.7511684683
 30
0.0
 11
7.958972499
 21
-125.7511684683
 31
0.0
  0
ARC
  5
235
330
1F
100
AcDbEntity
  8
0
  6
Continuous
 62
     8
370
    15
100
AcDbCircle
 10
8.0212286333
 20
-125.7772397323
 30
0.0
 40
0.2265176462360698
100
AcDbArc
 50
278.6708087532
 51
6.609159394
  0
LINE
  5
236
330
1F
100
AcDbEntity
  8
0
  6
Continuous
 62
     8
370
    15
100
AcDbLine
 10
8.2462409291
 20
-120.6511684683
 30
0.0
 11
8.2462409291
 21
-125.7511684683
 31
0.0
  0
LINE
  5
237
330
1F
100
AcDbEntity
  8
0
  6
Continuous
 62
     8
370
    15
100
AcDbLine
 10
8.7222198772
 20
-125.7511684683
 30
0.0
 11
8.7222198772
 21
-120.6511684683
 31
0.0
  0
LINE
  5
238
330
1F
100
AcDbEntity
  8
0
  6
Continuous
 62
     8
370
    15
100
AcDbLine
 10
8.2462409291
 20
-125.7511684683
 30
0.0
 11
8.7222198772
 21
-125.7511684683
 31
0.0
  0
LINE
  5
239
330
1F
100
AcDbEntity
  8
0
  6
Continuous
 62
     8
370
    15
100
AcDbLine
 10
9.1613033118
 20
-119.4511684683
 30
0.0
 11
9.0647595562
 21
-119.4511684683
 31
0.0
  0
LINE
  5
23A
330
1F
100
AcDbEntity
  8
0
  6
Continuous
 62
     8
370
    15
100
AcDbLine
 10
9.0647595562
 20
-120.1511684683
 30
0.0
 11
9.1613033118
 21
-120.1511684683
 31
0.0
  0
SPLINE
  5
23B
330
1F
100
AcDbEntity
  8
0
  6
Continuous
 62
     8
370
    15
100
AcDbSpline
210
0.0
220
0.0
230
1.0
 70
     8
 71
     3
 72
    12
 73
     8
 74
     0
 42
0.00000001
 43
0.00000001
 12
1.0
 22
0.0
 32
0.0
 13
1.0
 23
0.0
 33
0.0
 40
0.0
 40
0.0
 40
0.0
 40
0.0
 40
0.1818603118645668
 40
0.3964966430180803
 40
0.6005836871110861
 40
0.8002123703308538
 40
0.9999999999999999
 40
0.9999999999999999
 40
0.9999999999999999
 40
0.9999999999999999
 10
9.064759556187685
 20
-120.1511684683095
 30
0.0
 10
9.033120083297652
 20
-120.1548862199034
 30
0.0
 10
8.96413887096431
 20
-120.1629917598722
 30
0.0
 10
8.867002523556156
 20
-120.2321464588788
 30
0.0
 10
8.786705694627306
 20
-120.3449858658326
 30
0.0
 10
8.732680338248866
 20
-120.4894069665779
 30
0.0
 10
8.725707622443013
 20
-120.5972336646352
 30
0.0
 10
8.722219877155046
 20
-120.6511684683093
 30
0.0
  0
ARC
  5
23C
330
1F
100
AcDbEntity
  8
0
  6
Continuous
 62
     8
370
    15
100
AcDbCircle
 10
8.4972075814
 20
-125.7772397323
 30
0.0
 40
0.2265176462362301
100
AcDbArc
 50
278.6708087531
 51
6.6091593939
  0
ARC
  5
23D
330
1F
100
AcDbEntity
  8
0
  6
Continuous
 62
     8
370
    15
100
AcDbCircle
 10
8.8397472604
 20
-120.1772397323
 30
0.0
 40
0.2265176462357884
100
AcDbArc
 50
278.670808753
 51
6.609159394
  0
LINE
  5
23E
330
1F
100
AcDbEntity
  8
0
  6
Continuous
 62
     8
370
    15
100
AcDbLine
 10
8.7222198772
 20
-120.6511684683
 30
0.0
 11
8.7813422821
 21
-120.6511684683
 31
0.0
  0
LINE
  5
23F
330
1F
100
AcDbEntity
  8
0
  6
Continuous
 62
     8
370
    15
100
AcDbLine
 10
8.7222198772
 20
-125.7511684683
 30
0.0
 11
8.7813567428
 21
-125.7511684683
 31
0.0
  0
LINE
  5
240
330
1F
100
AcDbEntity
  8
0
  6
Continuous
 62
     8
370
    15
100
AcDbLine
 10
3.2631639275
 20
-125.7511684683
 30
0.0
 11
3.2246625706
 21
-125.7511684683
 31
0.0
  0
LINE
  5
241
330
1F
100
AcDbEntity
  8
0
  6
Continuous
 62
     8
370
    15
100
AcDbLine
 10
3.5747475588
 20
-119.4511684683
 30
0.0
 11
3.1923085664
 21
-119.4511684683
 31
0.0
  0
LINE
  5
242
330
1F
100
AcDbEntity
  8
0
  6
Continuous
 62
     8
370
    15
100
AcDbLine
 10
20.5008176967
 20
-125.7511684683
 30
0.0
 11
20.5008176967
 21
-121.5444942442
 31
0.0
  0
LINE
  5
243
330
1F
100
AcDbEntity
  8
0
  6
Continuous
 62
     8
370
    15
100
AcDbLine
 10
20.0248387486
 20
-125.7511684683
 30
0.0
 11
20.5008176967
 21
-125.7511684683
 31
0.0
  0
LINE
  5
244
330
1F
100
AcDbEntity
  8
0
  6
Continuous
 62
     8
370
    15
100
AcDbLine
 10
20.0248387486
 20
-121.6011684683
 30
0.0
 11
20.0248387486
 21
-125.7511684683
 31
0.0
  0
LINE
  5
245
330
1F
100
AcDbEntity
  8
0
  6
Continuous
 62
     8
370
    15
100
AcDbLine
 10
19.6193359643
 20
-125.7511684683
 30
0.0
 11
19.6193359643
 21
-121.6011684683
 31
0.0
  0
LINE
  5
246
330
1F
100
AcDbEntity
  8
0
  6
Continuous
 62
     8
370
    15
100
AcDbLine
 10
19.6193359643
 20
-125.7511684683
 30
0.0
 11
20.0248387486
 21
-125.7511684683
 31
0.0
  0
ARC
  5
247
330
1F
100
AcDbEntity
  8
0
  6
Continuous
 62
     8
370
    15
100
AcDbCircle
 10
19.7998264528
 20
-125.7772397323
 30
0.0
 40
0.2265176462354719
100
AcDbArc
 50
278.6708087529
 51
6.6091593941
  0
LINE
  5
248
330
1F
100
AcDbEntity
  8
0
  6
Continuous
 62
     8
370
    15
100
AcDbLine
 10
17.6220966029
 20
-125.7511684683
 30
0.0
 11
19.6193359643
 21
-125.7511684683
 31
0.0
  0
ARC
  5
249
330
1F
100
AcDbEntity
  8
0
  6
Continuous
 62
     8
370
    15
100
AcDbCircle
 10
20.2758054009
 20
-125.7772397323
 30
0.0
 40
0.2265176462361188
100
AcDbArc
 50
278.670808753
 51
6.6091593939
  0
LINE
  5
24A
330
1F
100
AcDbEntity
  8
0
  6
Continuous
 62
     8
370
    15
100
AcDbLine
 10
20.5599545623
 20
-125.7511684683
 30
0.0
 11
20.5008176967
 21
-125.7511684683
 31
0.0
  0
LINE
  5
24B
330
1F
100
AcDbEntity
  8
0
  6
Continuous
 62
     8
370
    15
100
AcDbLine
 10
-46.1690001553
 20
620.865698628
 30
0.0
 11
9.4809998458
 21
620.865698628
 31
0.0
  0
LINE
  5
24C
330
1F
100
AcDbEntity
  8
0
  6
Continuous
 62
     8
370
    15
100
AcDbLine
 10
9.4809998458
 20
634.0656986284
 30
0.0
 11
-57.0173930984
 21
634.0656986284
 31
0.0
  0
LINE
  5
24D
330
1F
100
AcDbEntity
  8
0
  6
Continuous
 62
     8
370
    15
100
AcDbLine
 10
-14.2673930984
 20
647.8656986284
 30
0.0
 11
-33.2673930984
 21
647.8656986284
 31
0.0
  0
LINE
  5
24E
330
1F
100
AcDbEntity
  8
0
  6
Continuous
 62
     8
370
    15
100
AcDbLine
 10
800.9495324162
 20
516.3252786436
 30
0.0
 11
799.470637111
 21
515.6998026406
 31
0.0
  0
LINE
  5
24F
330
1F
100
AcDbEntity
  8
0
  6
Continuous
 62
     8
370
    15
100
AcDbLine
 10
824.3616689679
 20
466.1177897845
 30
0.0
 11
800.9495324162
 21
516.3252786436
 31
0.0
  0
LINE
  5
250
330
1F
100
AcDbEntity
  8
0
  6
Continuous
 62
     8
370
    15
100
AcDbLine
 10
821.5954153475
 20
464.703760223
 30
0.0
 11
824.3616689679
 21
466.1177897845
 31
0.0
  0
ARC
  5
251
330
1F
100
AcDbEntity
  8
0
  6
Continuous
 62
     8
370
    15
100
AcDbCircle
 10
823.5243963185
 20
467.8495379027
 30
0.0
 40
1.923532436518354
100
AcDbArc
 50
295.8030276957
 51
22.9376068066
  0
ARC
  5
252
330
1F
100
AcDbEntity
  8
0
  6
Continuous
 62
     8
370
    15
100
AcDbCircle
 10
801.7379399541
 20
514.5707443497
 30
0.0
 40
1.923532436518191
100
AcDbArc
 50
27.0623931934
 51
114.1969723043
  0
LINE
  5
253
330
1F
100
AcDbEntity
  8
0
  6
Continuous
 62
     8
370
    15
100
AcDbLine
 10
806.8354787881
 20
512.6722825579
 30
0.0
 11
825.3467250148
 21
472.9747869174
 31
0.0
  0
SPLINE
  5
254
330
1F
100
AcDbEntity
  8
0
  6
Continuous
 62
     8
370
    15
100
AcDbSpline
210
0.0
220
0.0
230
1.0
 70
     8
 71
     3
 72
    11
 73
     7
 74
     0
 42
0.00000001
 43
0.00000001
 12
1.0
 22
0.0
 32
0.0
 13
1.0
 23
0.0
 33
0.0
 40
0.0
 40
0.0
 40
0.0
 40
0.0
 40
0.2835227646035024
 40
0.5667788824160598
 40
0.8499302227267034
 40
1.0
 40
1.0
 40
1.0
 40
1.0
 10
824.3616689679232
 20
466.1177897845188
 30
0.0
 10
824.4116531565217
 20
466.0266687372826
 30
0.0
 10
824.511574524712
 20
465.8445123401082
 30
0.0
 10
824.7433009059437
 20
465.3547684677512
 30
0.0
 10
824.9640651953545
 20
464.8614081313234
 30
0.0
 10
825.098637437976
 20
464.5464793066736
 30
0.0
 10
825.1452538785363
 20
464.4373865209023
 30
0.0
  0
LWPOLYLINE
  5
255
330
1F
100
AcDbEntity
  8
0
  6
Continuous
 62
     8
370
    15
100
AcDbPolyline
 90
        3
 70
   128
 43
0.0
 10
825.1452538785
 20
464.4373865209
 10
824.651669084
 20
464.1855605848
 10
822.3779150196
 20
463.0256842609
  0
LWPOLYLINE
  5
256
330
1F
100
AcDbEntity
  8
0
  6
Continuous
 62
     8
370
    15
100
AcDbPolyline
 90
        3
 70
   128
 43
0.0
 10
798.6876056753
 20
517.3790189734
 10
799.6557674564
 20
517.7894446097
 10
800.1659475056
 20
518.0056819072
  0
SPLINE
  5
257
330
1F
100
AcDbEntity
  8
0
  6
Continuous
 62
     8
370
    15
100
AcDbSpline
210
0.0
220
0.0
230
1.0
 70
     8
 71
     3
 72
    11
 73
     7
 74
     0
 42
0.00000001
 43
0.00000001
 12
1.0
 22
0.0
 32
0.0
 13
1.0
 23
0.0
 33
0.0
 40
0.0
 40
0.0
 40
0.0
 40
0.0
 40
0.2835227523787747
 40
0.5667788888047524
 40
0.8499302218874354
 40
1.0
 40
1.0
 40
1.0
 40
1.0
 10
800.1659475055927
 20
518.0056819072068
 30
0.0
 10
800.2671740506046
 20
517.8046696587446
 30
0.0
 10
800.4695319503423
 20
517.4028341874682
 30
0.0
 10
800.7242131470264
 20
516.8638700032388
 30
0.0
 10
800.8814327910748
 20
516.506784566616
 30
0.0
 10
800.9320116631586
 20
516.3719767047062
 30
0.0
 10
800.9495324162214
 20
516.3252786435963
 30
0.0
  0
LINE
  5
258
330
1F
100
AcDbEntity
  8
0
  6
Continuous
 62
     8
370
    15
100
AcDbLine
 10
826.8630044832
 20
465.2383867827
 30
0.0
 11
825.1452538785
 21
464.4373865209
 31
0.0
  0
LINE
  5
259
330
1F
100
AcDbEntity
  8
0
  6
Continuous
 62
     8
370
    15
100
AcDbLine
 10
801.8836981103
 20
518.806682169
 30
0.0
 11
800.1659475056
 21
518.0056819072
 31
0.0
  0
SPLINE
  5
25A
330
1F
100
AcDbEntity
  8
0
  6
Continuous
 62
     8
370
    15
100
AcDbSpline
210
0.0
220
0.0
230
1.0
 70
     8
 71
     3
 72
    11
 73
     7
 74
     0
 42
0.00000001
 43
0.00000001
 12
1.0
 22
0.0
 32
0.0
 13
1.0
 23
0.0
 33
0.0
 40
0.0
 40
0.0
 40
0.0
 40
0.0
 40
0.3052069607319249
 40
0.6079701988248917
 40
0.8124395915625735
 40
1.0
 40
1.0
 40
1.0
 40
1.0
 10
794.5596026523756
 20
530.0285272436937
 30
0.0
 10
794.3301136546505
 20
530.5109276419772
 30
0.0
 10
793.8729731253503
 20
531.4718659683977
 30
0.0
 10
793.0558512920263
 20
532.6427019355606
 30
0.0
 10
792.0927518731582
 20
533.4388756816717
 30
0.0
 10
791.4167244330479
 20
533.5918795076219
 30
0.0
 10
791.0932898818941
 20
533.6650817488844
 30
0.0
  0
LINE
  5
25B
330
1F
100
AcDbEntity
  8
0
  6
Continuous
 62
     8
370
    15
100
AcDbLine
 10
800.1659475056
 20
518.0056819072
 30
0.0
 11
794.5596026524
 21
530.0285272437
 31
0.0
  0
LINE
  5
25C
330
1F
100
AcDbEntity
  8
0
  6
Continuous
 62
     8
370
    15
100
AcDbLine
 10
796.2773532571
 20
530.8295275055
 30
0.0
 11
794.5596026524
 21
530.0285272437
 31
0.0
  0
LINE
  5
25D
330
1F
100
AcDbEntity
  8
0
  6
Continuous
 62
     8
370
    15
100
AcDbLine
 10
837.0908726579
 20
438.8199243789
 30
0.0
 11
825.1452538785
 21
464.4373865209
 31
0.0
  0
LINE
  5
25E
330
1F
100
AcDbEntity
  8
0
  6
Continuous
 62
     8
370
    15
100
AcDbLine
 10
837.9522926184
 20
436.5424202253
 30
0.0
 11
837.0908726579
 21
438.8199243789
 31
0.0
  0
LINE
  5
25F
330
1F
100
AcDbEntity
  8
0
  6
Continuous
 62
     8
370
    15
100
AcDbLine
 10
837.9522926184
 20
436.5424202253
 30
0.0
 11
835.3032739695
 21
435.3071625427
 31
0.0
  0
SPLINE
  5
260
330
1F
100
AcDbEntity
  8
0
  6
Continuous
 62
     8
370
    15
100
AcDbSpline
210
0.0
220
0.0
230
1.0
 70
     8
 71
     3
 72
    11
 73
     7
 74
     0
 42
0.00000001
 43
0.00000001
 12
1.0
 22
0.0
 32
0.0
 13
1.0
 23
0.0
 33
0.0
 40
0.0
 40
0.0
 40
0.0
 40
0.0
 40
0.2499768814500364
 40
0.4998058427199968
 40
0.749536138984249
 40
1.0
 40
1.0
 40
1.0
 40
1.0
 10
839.7738483073813
 20
437.0766464465877
 30
0.0
 10
839.7484987384154
 20
437.0626155251744
 30
0.0
 10
839.6978146007217
 20
437.034561984941
 30
0.0
 10
839.2829932752373
 20
436.907297709144
 30
0.0
 10
838.6829620282209
 20
436.7368993197919
 30
0.0
 10
838.1960870987732
 20
436.6073099403386
 30
0.0
 10
837.9522926183971
 20
436.5424202253108
 30
0.0
  0
LINE
  5
261
330
1F
100
AcDbEntity
  8
0
  6
Continuous
 62
     8
370
    15
100
AcDbLine
 10
838.8086232626
 20
439.6209246406
 30
0.0
 11
837.0908726579
 21
438.8199243789
 31
0.0
  0
SPLINE
  5
262
330
1F
100
AcDbEntity
  8
0
  6
Continuous
 62
     8
370
    15
100
AcDbSpline
210
0.0
220
0.0
230
1.0
 70
     8
 71
     3
 72
    11
 73
     7
 74
     0
 42
0.00000001
 43
0.00000001
 12
1.0
 22
0.0
 32
0.0
 13
1.0
 23
0.0
 33
0.0
 40
0.0
 40
0.0
 40
0.0
 40
0.0
 40
0.2440033155445808
 40
0.4919416665511925
 40
0.7439093003410011
 40
0.9999999999999999
 40
0.9999999999999999
 40
0.9999999999999999
 40
0.9999999999999999
 10
838.5871517747372
 20
435.2332664202093
 30
0.0
 10
838.5502093404971
 20
435.3162851682153
 30
0.0
 10
838.4757287022898
 20
435.4836615055324
 30
0.0
 10
838.3228326650785
 20
435.8044550363148
 30
0.0
 10
838.1469876338543
 20
436.1621905555403
 30
0.0
 10
838.0175411243405
 20
436.4149931424462
 30
0.0
 10
837.952292618397
 20
436.542420225311
 30
0.0
  0
LINE
  5
263
330
1F
100
AcDbEntity
  8
0
  6
Continuous
 62
     8
370
    15
100
AcDbLine
 10
838.5871517747
 20
435.2332664202
 30
0.0
 11
835.9695122034
 21
433.8784100392
 31
0.0
  0
SPLINE
  5
264
330
1F
100
AcDbEntity
  8
0
  6
Continuous
 62
     8
370
    15
100
AcDbSpline
210
0.0
220
0.0
230
1.0
 70
     8
 71
     3
 72
    11
 73
     7
 74
     0
 42
0.00000001
 43
0.00000001
 12
1.0
 22
0.0
 32
0.0
 13
1.0
 23
0.0
 33
0.0
 40
0.0
 40
0.0
 40
0.0
 40
0.0
 40
0.2501480011265788
 40
0.5002880311525127
 40
0.7504202668475298
 40
1.0
 40
1.0
 40
1.0
 40
1.0
 10
839.7738483073813
 20
437.0766464465877
 30
0.0
 10
839.7955015504995
 20
436.902816333145
 30
0.0
 10
839.8388073467435
 20
436.5551616454497
 30
0.0
 10
839.606668634277
 20
436.0223806871163
 30
0.0
 10
839.1896885595369
 20
435.5472616282499
 30
0.0
 10
838.7878492728724
 20
435.3378543130484
 30
0.0
 10
838.5871517747373
 20
435.2332664202093
 30
0.0
  0
SPLINE
  5
265
330
1F
100
AcDbEntity
  8
0
  6
Continuous
 62
     8
370
    15
100
AcDbSpline
210
0.0
220
0.0
230
1.0
 70
     8
 71
     3
 72
    14
 73
    10
 74
     0
 42
0.00000001
 43
0.00000001
 12
1.0
 22
0.0
 32
0.0
 13
1.0
 23
0.0
 33
0.0
 40
0.0
 40
0.0
 40
0.0
 40
0.0
 40
0.0024045749465563
 40
0.0051901321609394
 40
0.0347267574258767
 40
0.2932094380103037
 40
0.5746449636639164
 40
0.7844996086191924
 40
1.0
 40
1.0
 40
1.0
 40
1.0
 10
837.754079025958
 20
431.2344949298455
 30
0.0
 10
837.7559489558195
 20
431.2354933358434
 30
0.0
 10
837.7599850883284
 20
431.2376483358723
 30
0.0
 10
837.7869484698373
 20
431.2523158200024
 30
0.0
 10
838.0109467850596
 20
431.3855271745388
 30
0.0
 10
838.4214969343996
 20
431.8297686705469
 30
0.0
 10
838.8306254926673
 20
432.819893542336
 30
0.0
 10
838.8989236423355
 20
433.9774914479946
 30
0.0
 10
838.6919912698608
 20
434.8109870943361
 30
0.0
 10
838.5871517747374
 20
435.2332664202094
 30
0.0
  0
SPLINE
  5
266
330
1F
100
AcDbEntity
  8
0
  6
Continuous
 62
     8
370
    15
100
AcDbSpline
210
0.0
220
0.0
230
1.0
 70
     8
 71
     3
 72
    10
 73
     6
 74
     0
 42
0.00000001
 43
0.00000001
 12
1.0
 22
0.0
 32
0.0
 13
1.0
 23
0.0
 33
0.0
 40
0.0
 40
0.0
 40
0.0
 40
0.0
 40
0.257541422827981
 40
0.5217873977310059
 40
1.0
 40
1.0
 40
1.0
 40
1.0
 10
822.2381535336785
 20
520.6664100539634
 30
0.0
 10
822.1942349614915
 20
520.7798719716538
 30
0.0
 10
822.1052544889833
 20
521.009749550659
 30
0.0
 10
822.0788097007076
 20
521.4464741820116
 30
0.0
 10
822.2394478536921
 20
521.7400664624784
 30
0.0
 10
822.342913813308
 20
521.9291672860998
 30
0.0
  0
LINE
  5
267
330
1F
100
AcDbEntity
  8
0
  6
Continuous
 62
     8
370
    15
100
AcDbLine
 10
841.3362775067
 20
479.710351025
 30
0.0
 11
822.2381535337
 21
520.666410054
 31
0.0
  0
SPLINE
  5
268
330
1F
100
AcDbEntity
  8
0
  6
Continuous
 62
     8
370
    15
100
AcDbSpline
210
0.0
220
0.0
230
1.0
 70
     8
 71
     3
 72
    13
 73
     9
 74
     0
 42
0.00000001
 43
0.00000001
 12
1.0
 22
0.0
 32
0.0
 13
1.0
 23
0.0
 33
0.0
 40
0.0
 40
0.0
 40
0.0
 40
0.0
 40
0.2364486237747002
 40
0.4787719605441164
 40
0.6069224382222038
 40
0.735931647157058
 40
0.8675412824516178
 40
1.0
 40
1.0
 40
1.0
 40
1.0
 10
842.3747778596238
 20
478.9706962080691
 30
0.0
 10
842.2666878613778
 20
478.9847396141883
 30
0.0
 10
842.0478223017094
 20
479.013175343579
 30
0.0
 10
841.8137381508678
 20
479.1331000039967
 30
0.0
 10
841.6445996153054
 20
479.2675208983068
 30
0.0
 10
841.5274889723983
 20
479.3935838771639
 30
0.0
 10
841.4226754025447
 20
479.5395287521098
 30
0.0
 10
841.3651384731828
 20
479.6532883403084
 30
0.0
 10
841.3362775067214
 20
479.7103510250239
 30
0.0
  0
ARC
  5
269
330
1F
100
AcDbEntity
  8
0
  6
Continuous
 62
     8
370
    15
100
AcDbCircle
 10
840.8362765879
 20
480.3517331214
 30
0.0
 40
0.8132477557932403
100
AcDbArc
 50
307.9388364013
 51
20.4673239031
  0
ARC
  5
26A
330
1F
100
AcDbEntity
  8
0
  6
Continuous
 62
     8
370
    15
100
AcDbCircle
 10
822.4067812563
 20
519.8686487092
 30
0.0
 40
0.8153885404806117
100
AcDbArc
 50
29.4511502571
 51
101.9352755186
  0
SPLINE
  5
26B
330
1F
100
AcDbEntity
  8
0
  6
Continuous
 62
     8
370
    15
100
AcDbSpline
210
0.0
220
0.0
230
1.0
 70
     8
 71
     3
 72
    11
 73
     7
 74
     0
 42
0.00000001
 43
0.00000001
 12
1.0
 22
0.0
 32
0.0
 13
1.0
 23
0.0
 33
0.0
 40
0.0
 40
0.0
 40
0.0
 40
0.0
 40
0.2616852974938521
 40
0.5316743688208426
 40
0.7625173524499075
 40
1.0
 40
1.0
 40
1.0
 40
1.0
 10
841.5981854459069
 20
480.6361040136995
 30
0.0
 10
841.6452670974859
 20
480.5483179811889
 30
0.0
 10
841.7409243912886
 20
480.3699602978443
 30
0.0
 10
841.9287081433964
 20
480.1933117039091
 30
0.0
 10
842.1396463915489
 20
480.0814450171706
 30
0.0
 10
842.2944766547482
 20
480.0640308209398
 30
0.0
 10
842.3729893356211
 20
480.055200278363
 30
0.0
  0
SPLINE
  5
26C
330
1F
100
AcDbEntity
  8
0
  6
Continuous
 62
     8
370
    15
100
AcDbSpline
210
0.0
220
0.0
230
1.0
 70
     8
 71
     3
 72
     9
 73
     5
 74
     0
 42
0.00000001
 43
0.00000001
 12
1.0
 22
0.0
 32
0.0
 13
1.0
 23
0.0
 33
0.0
 40
0.0
 40
0.0
 40
0.0
 40
0.0
 40
0.4684410573251994
 40
0.9999999999999999
 40
0.9999999999999999
 40
0.9999999999999999
 40
0.9999999999999999
 10
823.172533804239
 20
521.2307100423476
 30
0.0
 10
823.0951174933641
 20
521.0969641991078
 30
0.0
 10
822.9298537751986
 20
520.8114515585132
 30
0.0
 10
823.0519173843725
 20
520.4576345974676
 30
0.0
 10
823.1168013874039
 20
520.2695600277538
 30
0.0
  0
SPLINE
  5
26D
330
1F
100
AcDbEntity
  8
0
  6
Continuous
 62
     8
370
    15
100
AcDbSpline
210
0.0
220
0.0
230
1.0
 70
     8
 71
     3
 72
    11
 73
     7
 74
     0
 42
0.00000001
 43
0.00000001
 12
1.0
 22
0.0
 32
0.0
 13
1.0
 23
0.0
 33
0.0
 40
0.0
 40
0.0
 40
0.0
 40
0.0
 40
0.3658281109894431
 40
0.725259143083155
 40
0.9820690181777091
 40
1.0
 40
1.0
 40
1.0
 40
1.0
 10
825.6674564701857
 20
521.7743795651279
 30
0.0
 10
825.2870794669207
 20
521.7830651899355
 30
0.0
 10
824.5329769495106
 20
521.8002845577639
 30
0.0
 10
823.6758053839395
 20
521.6034817080692
 30
0.0
 10
823.2940684790187
 20
521.3656060719802
 30
0.0
 10
823.1799798094769
 20
521.238974651152
 30
0.0
 10
823.1725338042389
 20
521.2307100423475
 30
0.0
  0
LINE
  5
26E
330
1F
100
AcDbEntity
  8
0
  6
Continuous
 62
     8
370
    15
100
AcDbLine
 10
825.6674564702
 20
521.7743795651
 30
0.0
 11
844.3965883767
 21
481.6096265765
 31
0.0
  0
SPLINE
  5
26F
330
1F
100
AcDbEntity
  8
0
  6
Continuous
 62
     8
370
    15
100
AcDbSpline
210
0.0
220
0.0
230
1.0
 70
     8
 71
     3
 72
    11
 73
     7
 74
     0
 42
0.00000001
 43
0.00000001
 12
1.0
 22
0.0
 32
0.0
 13
1.0
 23
0.0
 33
0.0
 40
0.0
 40
0.0
 40
0.0
 40
0.0
 40
0.2357948537758449
 40
0.2749019968044759
 40
0.6342531696138315
 40
1.0
 40
1.0
 40
1.0
 40
1.0
 10
842.3729893356211
 20
480.0552002783631
 30
0.0
 10
842.5254673122472
 20
480.0779550958637
 30
0.0
 10
842.7032341276462
 20
480.1044838545184
 30
0.0
 10
843.1377634373239
 20
480.3158696828394
 30
0.0
 10
843.6872408360227
 20
480.724809221999
 30
0.0
 10
844.1587528874841
 20
481.3129582210032
 30
0.0
 10
844.396588376688
 20
481.6096265764979
 30
0.0
  0
LINE
  5
270
330
1F
100
AcDbEntity
  8
0
  6
Continuous
 62
     8
370
    15
100
AcDbLine
 10
856.8526004082
 20
493.8517411877
 30
0.0
 11
845.2387435614
 21
480.7333285922
 31
0.0
  0
LINE
  5
271
330
1F
100
AcDbEntity
  8
0
  6
Continuous
 62
     8
370
    15
100
AcDbLine
 10
858.3193620686
 20
490.7062606564
 30
0.0
 11
856.8526004082
 21
493.8517411877
 31
0.0
  0
SPLINE
  5
272
330
1F
100
AcDbEntity
  8
0
  6
Continuous
 62
     8
370
    15
100
AcDbSpline
210
0.0
220
0.0
230
1.0
 70
     8
 71
     3
 72
    13
 73
     9
 74
     0
 42
0.00000001
 43
0.00000001
 12
1.0
 22
0.0
 32
0.0
 13
1.0
 23
0.0
 33
0.0
 40
0.0
 40
0.0
 40
0.0
 40
0.0
 40
0.1751161001659125
 40
0.3553664634508253
 40
0.5317043534614037
 40
0.7143723407335653
 40
0.855275790445692
 40
1.0
 40
1.0
 40
1.0
 40
1.0
 10
845.2387435613962
 20
480.7333285921717
 30
0.0
 10
845.0722199534587
 20
480.5589175570934
 30
0.0
 10
844.7342903994215
 20
480.2049818957587
 30
0.0
 10
844.2028658571014
 20
479.7575710779294
 30
0.0
 10
843.6626929245035
 20
479.3873471792058
 30
0.0
 10
843.1736040953823
 20
479.1467715467321
 30
0.0
 10
842.7370696907973
 20
479.0127283353477
 30
0.0
 10
842.4966627812342
 20
479.0052340676073
 30
0.0
 10
842.3748513990759
 20
479.0014368093945
 30
0.0
  0
ARC
  5
273
330
1F
100
AcDbEntity
  8
0
  6
Continuous
 62
     8
370
    15
100
AcDbCircle
 10
841.8345906946
 20
478.3046305144
 30
0.0
 40
4.181725851118948
100
AcDbArc
 50
35.5060171785
 51
52.2175390914
  0
LINE
  5
274
330
1F
100
AcDbEntity
  8
0
  6
Continuous
 62
     8
370
    15
100
AcDbLine
 10
843.0578215114
 20
523.4347399989
 30
0.0
 11
841.6356156095
 21
526.484670398
 31
0.0
  0
LINE
  5
275
330
1F
100
AcDbEntity
  8
0
  6
Continuous
 62
     8
370
    15
100
AcDbLine
 10
825.5384280227
 20
522.9807916011
 30
0.0
 11
843.0578215114
 21
523.4347399989
 31
0.0
  0
SPLINE
  5
276
330
1F
100
AcDbEntity
  8
0
  6
Continuous
 62
     8
370
    15
100
AcDbSpline
210
0.0
220
0.0
230
1.0
 70
     8
 71
     3
 72
    10
 73
     6
 74
     0
 42
0.00000001
 43
0.00000001
 12
1.0
 22
0.0
 32
0.0
 13
1.0
 23
0.0
 33
0.0
 40
0.0
 40
0.0
 40
0.0
 40
0.0
 40
0.2857669779336118
 40
0.6445560549562727
 40
1.0
 40
1.0
 40
1.0
 40
1.0
 10
822.3664489537539
 20
521.909594321728
 30
0.0
 10
822.5462608360087
 20
522.0809571177393
 30
0.0
 10
822.9518319705691
 20
522.4674710829357
 30
0.0
 10
824.0856180594025
 20
522.8529248950607
 30
0.0
 10
825.0556724613347
 20
522.938302655514
 30
0.0
 10
825.5384280227229
 20
522.9807916010778
 30
0.0
  0
ARC
  5
277
330
1F
100
AcDbEntity
  8
0
  6
Continuous
 62
     8
370
    15
100
AcDbCircle
 10
821.4675865573
 20
521.9353001049
 30
0.0
 40
4.202951665808516
100
AcDbArc
 50
357.805751136
 51
14.4036582698
  0
SPLINE
  5
278
330
1F
100
AcDbEntity
  8
0
  6
Continuous
 62
     8
370
    15
100
AcDbSpline
210
0.0
220
0.0
230
1.0
 70
     8
 71
     3
 72
     9
 73
     5
 74
     0
 42
0.00000001
 43
0.00000001
 12
1.0
 22
0.0
 32
0.0
 13
1.0
 23
0.0
 33
0.0
 40
0.0
 40
0.0
 40
0.0
 40
0.0
 40
0.4998364864786993
 40
1.0
 40
1.0
 40
1.0
 40
1.0
 10
844.3965883766879
 20
481.6096265764982
 30
0.0
 10
846.3621918998974
 20
483.7460059980132
 30
0.0
 10
850.2946849778981
 20
488.0201626058384
 30
0.0
 10
854.1462284520765
 20
492.4026988365841
 30
0.0
 10
856.0726299686016
 20
494.5946835558882
 30
0.0
  0
ARC
  5
279
330
1F
100
AcDbEntity
  8
0
  6
Continuous
 62
     8
370
    15
100
AcDbCircle
 10
852.6014087661
 20
490.169564337
 30
0.0
 40
5.624149423486062
100
AcDbArc
 50
40.8975292532
 51
51.8880987748
  0
LINE
  5
27A
330
1F
100
AcDbEntity
  8
0
  6
Continuous
 62
     8
370
    15
100
AcDbLine
 10
843.1247005773
 20
522.3616077419
 30
0.0
 11
825.6674564702
 21
521.7743795651
 31
0.0
  0
LINE
  5
27B
330
1F
100
AcDbEntity
  8
0
  6
Continuous
 62
     8
370
    15
100
AcDbLine
 10
856.0726299686
 20
494.5946835559
 30
0.0
 11
843.1247005773
 21
522.3616077419
 31
0.0
  0
ARC
  5
27C
330
1F
100
AcDbEntity
  8
0
  6
Continuous
 62
     8
370
    15
100
AcDbCircle
 10
837.4484879968
 20
522.5465085581
 30
0.0
 40
5.679223324556077
100
AcDbArc
 50
358.134267967
 51
8.9980100128
  0
ARC
  5
27D
330
1F
100
AcDbEntity
  8
0
  6
Continuous
 62
     8
370
    15
100
AcDbCircle
 10
856.7687906072
 20
493.6374720476
 30
0.0
 40
1.183593471778533
100
AcDbArc
 50
75.2933662939
 51
126.027640165
  0
ARC
  5
27E
330
1F
100
AcDbEntity
  8
0
  6
Continuous
 62
     8
370
    15
100
AcDbCircle
 10
856.2943515717
 20
494.4722225517
 30
0.0
 40
0.834648960105834
100
AcDbArc
 50
311.9778040168
 51
21.8077435959
  0
ARC
  5
27F
330
1F
100
AcDbEntity
  8
0
  6
Continuous
 62
     8
370
    15
100
AcDbCircle
 10
842.8333844655
 20
523.5234285014
 30
0.0
 40
1.197786522758536
100
AcDbArc
 50
284.0761958337
 51
334.1091232779
  0
ARC
  5
280
330
1F
100
AcDbEntity
  8
0
  6
Continuous
 62
     8
370
    15
100
AcDbCircle
 10
843.1729434905
 20
522.6058391816
 30
0.0
 40
0.8368569979646286
100
AcDbArc
 50
28.1307403818
 51
97.9069501459
  0
LINE
  5
281
330
1F
100
AcDbEntity
  8
0
  6
Continuous
 62
     8
370
    15
100
AcDbLine
 10
822.9391262453
 20
496.988569768
 30
0.0
 11
821.129672182
 21
496.1365533628
 31
0.0
  0
LINE
  5
282
330
1F
100
AcDbEntity
  8
0
  6
Continuous
 62
     8
370
    15
100
AcDbLine
 10
823.620810249
 20
495.5266937045
 30
0.0
 11
821.8082289902
 21
494.6813835917
 31
0.0
  0
LINE
  5
283
330
1F
100
AcDbEntity
  8
0
  6
Continuous
 62
     8
370
    15
100
AcDbLine
 10
825.839906628
 20
490.7678261625
 30
0.0
 11
824.0171453616
 21
489.9443471464
 31
0.0
  0
LINE
  5
284
330
1F
100
AcDbEntity
  8
0
  6
Continuous
 62
     8
370
    15
100
AcDbLine
 10
825.5709629139
 20
491.3445778187
 30
0.0
 11
823.7657538669
 21
490.4834579465
 31
0.0
  0
LINE
  5
285
330
1F
100
AcDbEntity
  8
0
  6
Continuous
 62
     8
370
    15
100
AcDbLine
 10
826.2887010797
 20
489.805383355
 30
0.0
 11
824.4638809883
 21
488.9863195032
 31
0.0
  0
LINE
  5
286
330
1F
100
AcDbEntity
  8
0
  6
Continuous
 62
     8
370
    15
100
AcDbLine
 10
785.1974824162
 20
549.2664336401
 30
0.0
 11
785.8314098088
 21
547.9069719595
 31
0.0
  0
LINE
  5
287
330
1F
100
AcDbEntity
  8
0
  6
Continuous
 62
     8
370
    15
100
AcDbLine
 10
785.2267979022
 20
546.2458143985
 30
0.0
 11
783.8673362216
 21
545.6118870059
 31
0.0
  0
LINE
  5
288
330
1F
100
AcDbEntity
  8
0
  6
Continuous
 62
     8
370
    15
100
AcDbLine
 10
819.4338161339
 20
541.5084729821
 30
0.0
 11
820.7932778144
 21
542.1424003747
 31
0.0
  0
LINE
  5
289
330
1F
100
AcDbEntity
  8
0
  6
Continuous
 62
     8
370
    15
100
AcDbLine
 10
809.8032507759
 20
559.0852249826
 30
0.0
 11
809.1693233833
 21
560.4446866631
 31
0.0
  0
LINE
  5
28A
330
1F
100
AcDbEntity
  8
0
  6
Continuous
 62
     8
370
    15
100
AcDbLine
 10
819.2616156424
 20
469.7086098416
 30
0.0
 11
820.6210773229
 21
470.3425372342
 31
0.0
  0
LINE
  5
28B
330
1F
100
AcDbEntity
  8
0
  6
Continuous
 62
     8
370
    15
100
AcDbLine
 10
812.8903163199
 20
559.0903559923
 30
0.0
 11
811.5308546393
 21
558.4564285997
 31
0.0
  0
LINE
  5
28C
330
1F
100
AcDbEntity
  8
0
  6
Continuous
 62
     8
370
    15
100
AcDbLine
 10
804.5347716339
 20
542.2257161236
 30
0.0
 11
803.2171064743
 21
545.0514581772
 31
0.0
  0
LINE
  5
28D
330
1F
100
AcDbEntity
  8
0
  6
Continuous
 62
     8
370
    15
100
AcDbLine
 10
807.7813837011
 20
535.2633340772
 30
0.0
 11
804.5347716339
 21
542.2257161236
 31
0.0
  0
LINE
  5
28E
330
1F
100
AcDbEntity
  8
0
  6
Continuous
 62
     8
370
    15
100
AcDbLine
 10
699.6014296381
 20
656.59432175
 30
0.0
 11
707.3595059842
 21
656.4030476941
 31
0.0
  0
LINE
  5
28F
330
1F
100
AcDbEntity
  8
0
  6
Continuous
 62
     8
370
    15
100
AcDbLine
 10
674.4124983511
 20
663.2547982838
 30
0.0
 11
672.2089795454
 21
663.309125666
 31
0.0
  0
LINE
  5
290
330
1F
100
AcDbEntity
  8
0
  6
Continuous
 62
     8
370
    15
100
AcDbLine
 10
837.7952471747
 20
420.8345543049
 30
0.0
 11
837.070200945
 21
421.1726489143
 31
0.0
  0
LINE
  5
291
330
1F
100
AcDbEntity
  8
0
  6
Continuous
 62
     8
370
    15
100
AcDbLine
 10
816.4594024546
 20
376.9726489143
 30
0.0
 11
817.1844486842
 21
376.6345543049
 31
0.0
  0
LINE
  5
292
330
1F
100
AcDbEntity
  8
0
  6
Continuous
 62
     8
370
    15
100
AcDbLine
 10
795.1359830843
 20
557.412459888
 30
0.0
 11
794.7978884749
 21
558.1375061176
 31
0.0
  0
LINE
  5
293
330
1F
100
AcDbEntity
  8
0
  6
Continuous
 62
     8
370
    15
100
AcDbLine
 10
807.3963245842
 20
370.3988315317
 30
0.0
 11
807.3963245842
 21
371.1988315317
 31
0.0
  0
LINE
  5
294
330
1F
100
AcDbEntity
  8
0
  6
Continuous
 62
     8
370
    15
100
AcDbLine
 10
748.7670271923
 20
371.1988315317
 30
0.0
 11
748.7670271923
 21
370.3988315317
 31
0.0
  0
LINE
  5
295
330
1F
100
AcDbEntity
  8
0
  6
Continuous
 62
     8
370
    15
100
AcDbLine
 10
782.1548948457
 20
552.2419813664
 30
0.0
 11
782.4929894551
 21
551.5169351367
 31
0.0
  0
LINE
  5
296
330
1F
100
AcDbEntity
  8
0
  6
Continuous
 62
     8
370
    15
100
AcDbLine
 10
837.070200945
 20
429.6250141491
 30
0.0
 11
837.7952471747
 21
429.9631087585
 31
0.0
  0
LINE
  5
297
330
1F
100
AcDbEntity
  8
0
  6
Continuous
 62
     8
370
    15
100
AcDbLine
 10
781.8883775485
 20
549.8557775758
 30
0.0
 11
781.1633313189
 21
549.5176829664
 31
0.0
  0
LINE
  5
298
330
1F
100
AcDbEntity
  8
0
  6
Continuous
 62
     8
370
    15
100
AcDbLine
 10
17.2326069016
 20
623.8656986285
 30
0.0
 11
710.7326069016
 21
623.8656986285
 31
0.0
  0
LINE
  5
299
330
1F
100
AcDbEntity
  8
0
  6
Continuous
 62
     8
370
    15
100
AcDbLine
 10
710.7326069016
 20
623.8656986285
 30
0.0
 11
710.7326069016
 21
653.8656986285
 31
0.0
  0
LINE
  5
29A
330
1F
100
AcDbEntity
  8
0
  6
Continuous
 62
     8
370
    15
100
AcDbLine
 10
17.2326069016
 20
823.8656986285
 30
0.0
 11
17.2326069016
 21
623.8656986285
 31
0.0
  0
LINE
  5
29B
330
1F
100
AcDbEntity
  8
0
  6
Continuous
 62
     8
370
    15
100
AcDbLine
 10
757.7081895534
 20
362.3988315317
 30
0.0
 11
745.8923085664
 21
362.3988315317
 31
0.0
  0
LINE
  5
29C
330
1F
100
AcDbEntity
  8
0
  6
Continuous
 62
     8
370
    15
100
AcDbLine
 10
11.7326069016
 20
622.6156986284
 30
0.0
 11
13.7326069016
 21
622.6156986284
 31
0.0
  0
LINE
  5
29D
330
1F
100
AcDbEntity
  8
0
  6
Continuous
 62
     8
370
    15
100
AcDbLine
 10
13.7326069016
 20
633.7419543356
 30
0.0
 11
11.7326069016
 21
633.7419543356
 31
0.0
  0
LINE
  5
29E
330
1F
100
AcDbEntity
  8
0
  6
Continuous
 62
     8
370
    15
100
AcDbLine
 10
-57.0173930984
 20
620.3656986284
 30
0.0
 11
-57.0173930984
 21
618.3656986284
 31
0.0
  0
LINE
  5
29F
330
1F
100
AcDbEntity
  8
0
  6
Continuous
 62
     8
370
    15
100
AcDbLine
 10
821.3607345758
 20
573.1769225976
 30
0.0
 11
823.1733501499
 21
572.3316860742
 31
0.0
  0
LINE
  5
2A0
330
1F
100
AcDbEntity
  8
0
  6
Continuous
 62
     8
370
    15
100
AcDbLine
 10
837.6114445749
 20
603.2942794876
 30
0.0
 11
835.7988290008
 21
604.139516011
 31
0.0
  0
LINE
  5
2A1
330
1F
100
AcDbEntity
  8
0
  6
Continuous
 62
     8
370
    15
100
AcDbLine
 10
-57.3853742433
 20
636.270933146
 30
0.0
 11
-57.9596983996
 21
638.1866971616
 31
0.0
  0
LINE
  5
2A2
330
1F
100
AcDbEntity
  8
0
  6
Continuous
 62
     8
370
    15
100
AcDbLine
 10
-56.7392595675
 20
638.3656986284
 30
0.0
 11
-56.7392595675
 21
636.3656986284
 31
0.0
  0
LINE
  5
2A3
330
1F
100
AcDbEntity
  8
0
  6
Continuous
 62
     8
370
    15
100
AcDbLine
 10
15.9826069016
 20
620.3656986284
 30
0.0
 11
15.9826069016
 21
618.3656986284
 31
0.0
  0
LINE
  5
2A4
330
1F
100
AcDbEntity
  8
0
  6
Continuous
 62
     8
370
    15
100
AcDbLine
 10
826.7357511304
 20
618.3656986284
 30
0.0
 11
826.7357511304
 21
620.3656986284
 31
0.0
  0
LINE
  5
2A5
330
1F
100
AcDbEntity
  8
0
  6
Continuous
 62
     8
370
    15
100
AcDbLine
 10
10.4249122028
 20
638.1866971616
 30
0.0
 11
9.8505880465
 21
636.270933146
 31
0.0
  0
LINE
  5
2A6
330
1F
100
AcDbEntity
  8
0
  6
Continuous
 62
     8
370
    15
100
AcDbLine
 10
-59.2673930984
 20
633.7419543356
 30
0.0
 11
-61.2673930984
 21
633.7419543356
 31
0.0
  0
LINE
  5
2A7
330
1F
100
AcDbEntity
  8
0
  6
Continuous
 62
     8
370
    15
100
AcDbLine
 10
-61.2673930984
 20
622.6156986284
 30
0.0
 11
-59.2673930984
 21
622.6156986284
 31
0.0
  0
LINE
  5
2A8
330
1F
100
AcDbEntity
  8
0
  6
Continuous
 62
     8
370
    15
100
AcDbLine
 10
9.2044733707
 20
636.3656986284
 30
0.0
 11
9.2044733707
 21
638.3656986284
 31
0.0
  0
LINE
  5
2A9
330
1F
100
AcDbEntity
  8
0
  6
Continuous
 62
     8
370
    15
100
AcDbLine
 10
817.3690758463
 20
566.5274117706
 30
0.0
 11
816.5238393228
 21
568.3400273447
 31
0.0
  0
LINE
  5
2AA
330
1F
100
AcDbEntity
  8
0
  6
Continuous
 62
     8
370
    15
100
AcDbLine
 10
815.5518173208
 20
570.4245352549
 30
0.0
 11
816.5238393228
 21
568.3400273447
 31
0.0
  0
LINE
  5
2AB
330
1F
100
AcDbEntity
  8
0
  6
Continuous
 62
     8
370
    15
100
AcDbLine
 10
777.2130310414
 20
552.5468656084
 30
0.0
 11
815.5518173208
 21
570.4245352549
 31
0.0
  0
LINE
  5
2AC
330
1F
100
AcDbEntity
  8
0
  6
Continuous
 62
     8
370
    15
100
AcDbLine
 10
837.070200945
 20
429.6250141491
 30
0.0
 11
834.9856930348
 21
428.6529921471
 31
0.0
  0
LINE
  5
2AD
330
1F
100
AcDbEntity
  8
0
  6
Continuous
 62
     8
370
    15
100
AcDbLine
 10
834.9856930348
 20
428.6529921471
 30
0.0
 11
777.2130310414
 21
552.5468656084
 31
0.0
  0
LINE
  5
2AE
330
1F
100
AcDbEntity
  8
0
  6
Continuous
 62
     8
370
    15
100
AcDbLine
 10
834.9856930348
 20
422.1446709163
 30
0.0
 11
837.070200945
 21
421.1726489143
 31
0.0
  0
ARC
  5
2AF
330
1F
100
AcDbEntity
  8
0
  6
Continuous
 62
     8
370
    15
100
AcDbCircle
 10
828.0071230747
 20
425.3988315317
 30
0.0
 40
7.699999999999956
100
AcDbArc
 50
335.0
 51
25.0
  0
LINE
  5
2B0
330
1F
100
AcDbEntity
  8
0
  6
Continuous
 62
     8
370
    15
100
AcDbLine
 10
-58.896021153
 20
616.0988315317
 30
0.0
 11
-58.896021153
 21
373.4988315317
 31
0.0
  0
CIRCLE
  5
2B1
330
1F
100
AcDbEntity
  8
0
  6
Continuous
 62
     8
370
    15
100
AcDbCircle
 10
786.351201257
 20
598.3988315317
 30
0.0
 40
4.699999999999932
  0
ARC
  5
2B2
330
1F
100
AcDbEntity
  8
0
  6
Continuous
 62
     8
370
    15
100
AcDbCircle
 10
812.2976567054
 20
577.403105215
 30
0.0
 40
7.700000000000059
100
AcDbArc
 50
295.0
 51
335.0
  0
LINE
  5
2B3
330
1F
100
AcDbEntity
  8
0
  6
Continuous
 62
     8
370
    15
100
AcDbLine
 10
821.3607345758
 20
573.1769225976
 30
0.0
 11
819.2762266656
 21
574.1489445996
 31
0.0
  0
LINE
  5
2B4
330
1F
100
AcDbEntity
  8
0
  6
Continuous
 62
     8
370
    15
100
AcDbLine
 10
807.3963245842
 20
373.4988315317
 30
0.0
 11
807.3963245842
 21
371.1988315317
 31
0.0
  0
LINE
  5
2B5
330
1F
100
AcDbEntity
  8
0
  6
Continuous
 62
     8
370
    15
100
AcDbLine
 10
-58.896021153
 20
373.4988315317
 30
0.0
 11
807.3963245842
 21
373.4988315317
 31
0.0
  0
CIRCLE
  5
2B6
330
1F
100
AcDbEntity
  8
0
  6
Continuous
 62
     8
370
    15
100
AcDbCircle
 10
406.351201257
 20
598.3988315317
 30
0.0
 40
4.699999999999932
  0
LINE
  5
2B7
330
1F
100
AcDbEntity
  8
0
  6
Continuous
 62
     8
370
    15
100
AcDbLine
 10
826.751201257
 20
618.3656866931
 30
0.0
 11
826.751201257
 21
616.0988315317
 31
0.0
  0
LINE
  5
2B8
330
1F
100
AcDbEntity
  8
0
  6
Continuous
 62
     8
370
    15
100
AcDbLine
 10
826.751201257
 20
616.0988315317
 30
0.0
 11
-58.896021153
 21
616.0988315317
 31
0.0
  0
ARC
  5
2B9
330
1F
100
AcDbEntity
  8
0
  6
Continuous
 62
     8
370
    15
100
AcDbCircle
 10
826.751201257
 20
608.3988315317
 30
0.0
 40
7.699999999999818
100
AcDbArc
 50
335.0
 51
90.0
  0
LINE
  5
2BA
330
1F
100
AcDbEntity
  8
0
  6
Continuous
 62
     8
370
    15
100
AcDbLine
 10
819.2762266656
 20
574.1489445996
 30
0.0
 11
833.7297712171
 21
605.1446709163
 31
0.0
  0
LINE
  5
2BB
330
1F
100
AcDbEntity
  8
0
  6
Continuous
 62
     8
370
    15
100
AcDbLine
 10
814.3748945444
 20
377.9446709163
 30
0.0
 11
834.9856930348
 21
422.1446709163
 31
0.0
  0
ARC
  5
2BC
330
1F
100
AcDbEntity
  8
0
  6
Continuous
 62
     8
370
    15
100
AcDbCircle
 10
807.3963245842
 20
381.1988315317
 30
0.0
 40
7.699999999999875
100
AcDbArc
 50
270.0
 51
335.0
  0
LINE
  5
2BD
330
1F
100
AcDbEntity
  8
0
  6
Continuous
 62
     8
370
    15
100
AcDbLine
 10
833.7297712171
 20
605.1446709163
 30
0.0
 11
835.8142791273
 21
604.1726489143
 31
0.0
  0
LINE
  5
2BE
330
1F
100
AcDbEntity
  8
0
  6
Continuous
 62
     8
370
    15
100
AcDbLine
 10
816.4594024546
 20
376.9726489143
 30
0.0
 11
814.3748945444
 21
377.9446709163
 31
0.0
  0
CIRCLE
  5
2BF
330
1F
100
AcDbEntity
  8
0
  6
Continuous
 62
     8
370
    15
100
AcDbCircle
 10
16.351201257
 20
598.3988315317
 30
0.0
 40
4.699999999999932
  0
ENDSEC
  0
SECTION
  2
OBJECTS
  0
DICTIONARY
  5
C
330
0
100
AcDbDictionary
281
     1
  3
ACAD_GROUP
350
D
  3
ACAD_LAYOUT
350
1A
  3
ACAD_MLINESTYLE
350
17
  3
ACAD_PLOTSETTINGS
350
19
  3
ACAD_PLOTSTYLENAME
350
E
  0
DICTIONARY
  5
D
102
{ACAD_REACTORS
330
C
102
}
330
C
100
AcDbDictionary
281
     1
  0
DICTIONARY
  5
1A
102
{ACAD_REACTORS
330
C
102
}
330
C
100
AcDbDictionary
281
     1
  3
Layout1
350
1E
  3
Layout2
350
26
  3
Model
350
22
  0
DICTIONARY
  5
17
102
{ACAD_REACTORS
330
C
102
}
330
C
100
AcDbDictionary
281
     1
  3
Standard
350
18
  0
DICTIONARY
  5
19
102
{ACAD_REACTORS
330
C
102
}
330
C
100
AcDbDictionary
281
     1
  0
ACDBDICTIONARYWDFLT
  5
E
102
{ACAD_REACTORS
330
C
102
}
330
C
100
AcDbDictionary
281
     1
  3
Normal
350
F
100
AcDbDictionaryWithDefault
340
F
  0
LAYOUT
  5
1E
102
{ACAD_REACTORS
330
1A
102
}
330
1A
100
AcDbPlotSettings
  1

  2
none_device
  4

  6

 40
0.0
 41
0.0
 42
0.0
 43
0.0
 44
0.0
 45
0.0
 46
0.0
 47
0.0
 48
0.0
 49
0.0
140
0.0
141
0.0
142
1.0
143
1.0
 70
   688
 72
     0
 73
     0
 74
     5
  7

 75
    16
147
1.0
148
0.0
149
0.0
100
AcDbLayout
  1
Layout1
 70
     1
 71
     1
 10
0.0
 20
0.0
 11
420.0
 21
297.0
 12
0.0
 22
0.0
 32
0.0
 14
1.0000000000E+20
 24
1.0000000000E+20
 34
1.0000000000E+20
 15
-1.0000000000E+20
 25
-1.0000000000E+20
 35
-1.0000000000E+20
146
0.0
 13
0.0
 23
0.0
 33
0.0
 16
1.0
 26
0.0
 36
0.0
 17
0.0
 27
1.0
 37
0.0
 76
     0
330
1B
  0
LAYOUT
  5
26
102
{ACAD_REACTORS
330
1A
102
}
330
1A
100
AcDbPlotSettings
  1

  2
none_device
  4

  6

 40
0.0
 41
0.0
 42
0.0
 43
0.0
 44
0.0
 45
0.0
 46
0.0
 47
0.0
 48
0.0
 49
0.0
140
0.0
141
0.0
142
1.0
143
1.0
 70
   688
 72
     0
 73
     0
 74
     5
  7

 75
    16
147
1.0
148
0.0
149
0.0
100
AcDbLayout
  1
Layout2
 70
     1
 71
     2
 10
0.0
 20
0.0
 11
0.0
 21
0.0
 12
0.0
 22
0.0
 32
0.0
 14
0.0
 24
0.0
 34
0.0
 15
0.0
 25
0.0
 35
0.0
146
0.0
 13
0.0
 23
0.0
 33
0.0
 16
1.0
 26
0.0
 36
0.0
 17
0.0
 27
1.0
 37
0.0
 76
     0
330
23
  0
LAYOUT
  5
22
102
{ACAD_REACTORS
330
1A
102
}
330
1A
100
AcDbPlotSettings
  1

  2
none_device
  4

  6

 40
0.0
 41
0.0
 42
0.0
 43
0.0
 44
0.0
 45
0.0
 46
0.0
 47
0.0
 48
0.0
 49
0.0
140
0.0
141
0.0
142
1.0
143
1.0
 70
  1712
 72
     0
 73
     0
 74
     0
  7

 75
     0
147
1.0
148
0.0
149
0.0
100
AcDbLayout
  1
Model
 70
     1
 71
     0
 10
0.0
 20
0.0
 11
841.0
 21
594.0
 12
0.0
 22
0.0
 32
0.0
 14
0.0
 24
0.0
 34
0.0
 15
841.0
 25
594.0
 35
0.0
146
0.0
 13
0.0
 23
0.0
 33
0.0
 16
1.0
 26
0.0
 36
0.0
 17
0.0
 27
1.0
 37
0.0
 76
     0
330
1F
331
29
  0
MLINESTYLE
  5
18
102
{ACAD_REACTORS
330
17
102
}
330
17
100
AcDbMlineStyle
  2
Standard
 70
     0
  3

 62
   256
 51
90.0
 52
90.0
 71
     2
 49
0.5
 62
   256
  6
BYLAYER
 49
-0.5
 62
   256
  6
BYLAYER
  0
ACDBPLACEHOLDER
  5
F
102
{ACAD_REACTORS
330
E
102
}
330
E
  0
ENDSEC
  0
EOF
