  0
SECTION
  2
HEADER
  9
$ACADVER
  1
AC1015
  9
$ACADMAINTVER
 70
     6
  9
$DWGCODEPAGE
  3
ANSI_1252
  9
$INSBASE
 10
0.0
 20
0.0
 30
0.0
  9
$EXTMIN
 10
0.0
 20
0.0
 30
0.0
  9
$EXTMAX
 10
420.0
 20
297.0
 30
0.0
  9
$LIMMIN
 10
0.0
 20
0.0
  9
$LIMMAX
 10
420.0
 20
297.0
  9
$ORTHOMODE
 70
     0
  9
$REGENMODE
 70
     1
  9
$FILLMODE
 70
     1
  9
$QTEXTMODE
 70
     0
  9
$MIRRTEXT
 70
     1
  9
$LTSCALE
 40
1.0
  9
$ATTMODE
 70
     1
  9
$TEXTSIZE
 40
3.5
  9
$TRACEWID
 40
1.0
  9
$TEXTSTYLE
  7
Standard
  9
$CLAYER
  8
0
  9
$CELTYPE
  6
ByLayer
  9
$CECOLOR
 62
   256
  9
$CELTSCALE
 40
1.0
  9
$DISPSILH
 70
     0
  9
$DIMSCALE
 40
1.0
  9
$DIMASZ
 40
3.302
  9
$DIMEXO
 40
1.0
  9
$DIMDLI
 40
3.75
  9
$DIMRND
 40
0.0
  9
$DIMDLE
 40
0.0
  9
$DIMEXE
 40
1.0
  9
$DIMTP
 40
0.0
  9
$DIMTM
 40
0.0
  9
$DIMTXT
 40
3.5
  9
$DIMCEN
 40
2.5
  9
$DIMTSZ
 40
0.0
  9
$DIMTOL
 70
     0
  9
$DIMLIM
 70
     0
  9
$DIMTIH
 70
     1
  9
$DIMTOH
 70
     1
  9
$DIMSE1
 70
     0
  9
$DIMSE2
 70
     0
  9
$DIMTAD
 70
     1
  9
$DIMZIN
 70
     0
  9
$DIMBLK
  1

  9
$DIMASO
 70
     1
  9
$DIMSHO
 70
     1
  9
$DIMPOST
  1

  9
$DIMAPOST
  1

  9
$DIMALT
 70
     0
  9
$DIMALTD
 70
     3
  9
$DIMALTF
 40
0.0393700787
  9
$DIMLFAC
 40
10.0
  9
$DIMTOFL
 70
     1
  9
$DIMTVP
 40
0.0
  9
$DIMTIX
 70
     0
  9
$DIMSOXD
 70
     0
  9
$DIMSAH
 70
     0
  9
$DIMBLK1
  1

  9
$DIMBLK2
  1

  9
$DIMSTYLE
  2
ISO-25
  9
$DIMCLRD
 70
     0
  9
$DIMCLRE
 70
     0
  9
$DIMCLRT
 70
     0
  9
$DIMTFAC
 40
1.0
  9
$DIMGAP
 40
1.524
  9
$DIMJUST
 70
     0
  9
$DIMSD1
 70
     0
  9
$DIMSD2
 70
     0
  9
$DIMTOLJ
 70
     0
  9
$DIMTZIN
 70
     0
  9
$DIMALTZ
 70
     0
  9
$DIMALTTZ
 70
     0
  9
$DIMUPT
 70
     0
  9
$DIMDEC
 70
     3
  9
$DIMTDEC
 70
     3
  9
$DIMALTU
 70
     2
  9
$DIMALTTD
 70
     3
  9
$DIMTXSTY
  7
Standard
  9
$DIMAUNIT
 70
     0
  9
$DIMADEC
 70
     2
  9
$DIMALTRND
 40
0.0
  9
$DIMAZIN
 70
     0
  9
$DIMDSEP
 70
    44
  9
$DIMATFIT
 70
     3
  9
$DIMFRAC
 70
     0
  9
$DIMLDRBLK
  1

  9
$DIMLUNIT
 70
     2
  9
$DIMLWD
 70
    -2
  9
$DIMLWE
 70
    -2
  9
$DIMTMOVE
 70
     0
  9
$LUNITS
 70
     2
  9
$LUPREC
 70
     8
  9
$SKETCHINC
 40
1.0
  9
$FILLETRAD
 40
10.0
  9
$AUNITS
 70
     0
  9
$AUPREC
 70
     8
  9
$MENU
  1
.
  9
$ELEVATION
 40
0.0
  9
$PELEVATION
 40
0.0
  9
$THICKNESS
 40
0.0
  9
$LIMCHECK
 70
     0
  9
$CHAMFERA
 40
10.0
  9
$CHAMFERB
 40
10.0
  9
$CHAMFERC
 40
20.0
  9
$CHAMFERD
 40
0.0
  9
$SKPOLY
 70
     0
  9
$TDCREATE
 40
2455379.502954086
  9
$TDUCREATE
 40
2455379.461287419
  9
$TDUPDATE
 40
2455379.502954097
  9
$TDUUPDATE
 40
2455379.46128743
  9
$TDINDWG
 40
0.0000000116
  9
$TDUSRTIMER
 40
0.0000000116
  9
$USRTIMER
 70
     1
  9
$ANGBASE
 50
0.0
  9
$ANGDIR
 70
     0
  9
$PDMODE
 70
     0
  9
$PDSIZE
 40
-1.0
  9
$PLINEWID
 40
0.0
  9
$SPLFRAME
 70
     0
  9
$SPLINETYPE
 70
     6
  9
$SPLINESEGS
 70
     8
  9
$HANDSEED
  5
388
  9
$SURFTAB1
 70
     6
  9
$SURFTAB2
 70
     6
  9
$SURFTYPE
 70
     6
  9
$SURFU
 70
     6
  9
$SURFV
 70
     6
  9
$UCSBASE
  2

  9
$UCSNAME
  2

  9
$UCSORG
 10
0.0
 20
0.0
 30
0.0
  9
$UCSXDIR
 10
1.0
 20
0.0
 30
0.0
  9
$UCSYDIR
 10
0.0
 20
1.0
 30
0.0
  9
$UCSORTHOREF
  2

  9
$UCSORTHOVIEW
 70
     0
  9
$UCSORGTOP
 10
0.0
 20
0.0
 30
0.0
  9
$UCSORGBOTTOM
 10
0.0
 20
0.0
 30
0.0
  9
$UCSORGLEFT
 10
0.0
 20
0.0
 30
0.0
  9
$UCSORGRIGHT
 10
0.0
 20
0.0
 30
0.0
  9
$UCSORGFRONT
 10
0.0
 20
0.0
 30
0.0
  9
$UCSORGBACK
 10
0.0
 20
0.0
 30
0.0
  9
$PUCSBASE
  2

  9
$PUCSNAME
  2

  9
$PUCSORG
 10
0.0
 20
0.0
 30
0.0
  9
$PUCSXDIR
 10
1.0
 20
0.0
 30
0.0
  9
$PUCSYDIR
 10
0.0
 20
1.0
 30
0.0
  9
$PUCSORTHOREF
  2

  9
$PUCSORTHOVIEW
 70
     0
  9
$PUCSORGTOP
 10
0.0
 20
0.0
 30
0.0
  9
$PUCSORGBOTTOM
 10
0.0
 20
0.0
 30
0.0
  9
$PUCSORGLEFT
 10
0.0
 20
0.0
 30
0.0
  9
$PUCSORGRIGHT
 10
0.0
 20
0.0
 30
0.0
  9
$PUCSORGFRONT
 10
0.0
 20
0.0
 30
0.0
  9
$PUCSORGBACK
 10
0.0
 20
0.0
 30
0.0
  9
$USERI1
 70
     0
  9
$USERI2
 70
     0
  9
$USERI3
 70
     0
  9
$USERI4
 70
     0
  9
$USERI5
 70
     0
  9
$USERR1
 40
0.0
  9
$USERR2
 40
0.0
  9
$USERR3
 40
0.0
  9
$USERR4
 40
0.0
  9
$USERR5
 40
0.0
  9
$WORLDVIEW
 70
     1
  9
$SHADEDGE
 70
     3
  9
$SHADEDIF
 70
    70
  9
$TILEMODE
 70
     1
  9
$MAXACTVP
 70
    64
  9
$PINSBASE
 10
0.0
 20
0.0
 30
0.0
  9
$PLIMCHECK
 70
     0
  9
$PEXTMIN
 10
1.0000000000E+20
 20
1.0000000000E+20
 30
1.0000000000E+20
  9
$PEXTMAX
 10
-1.0000000000E+20
 20
-1.0000000000E+20
 30
-1.0000000000E+20
  9
$PLIMMIN
 10
0.0
 20
0.0
  9
$PLIMMAX
 10
420.0
 20
297.0
  9
$UNITMODE
 70
     0
  9
$VISRETAIN
 70
     1
  9
$PLINEGEN
 70
     0
  9
$PSLTSCALE
 70
     1
  9
$TREEDEPTH
 70
  3020
  9
$CMLSTYLE
  2
Standard
  9
$CMLJUST
 70
     0
  9
$CMLSCALE
 40
20.0
  9
$PROXYGRAPHICS
 70
     1
  9
$MEASUREMENT
 70
     1
  9
$CELWEIGHT
370
    -1
  9
$ENDCAPS
280
     0
  9
$JOINSTYLE
280
     0
  9
$LWDISPLAY
290
     1
  9
$INSUNITS
 70
     4
  9
$HYPERLINKBASE
  1

  9
$STYLESHEET
  1

  9
$XEDIT
290
     1
  9
$CEPSNTYPE
380
     0
  9
$PSTYLEMODE
290
     1
  9
$FINGERPRINTGUID
  2
{1FCC85EB-C87F-461F-9D60-35DB201C41B0}
  9
$VERSIONGUID
  2
{FAEB1C32-E019-11D5-929B-00C0DF256EC4}
  9
$EXTNAMES
290
     1
  9
$PSVPSCALE
 40
0.0
  9
$OLESTARTUP
290
     0
  0
ENDSEC
  0
SECTION
  2
CLASSES
  0
CLASS
  1
ACDBDICTIONARYWDFLT
  2
AcDbDictionaryWithDefault
  3
ObjectDBX Classes
 90
        0
280
     0
281
     0
  0
CLASS
  1
VISUALSTYLE
  2
AcDbVisualStyle
  3
ObjectDBX Classes
 90
     4095
280
     0
281
     0
  0
CLASS
  1
MATERIAL
  2
AcDbMaterial
  3
ObjectDBX Classes
 90
     1153
280
     0
281
     0
  0
CLASS
  1
DICTIONARYVAR
  2
AcDbDictionaryVar
  3
ObjectDBX Classes
 90
        0
280
     0
281
     0
  0
CLASS
  1
ACDBPLACEHOLDER
  2
AcDbPlaceHolder
  3
ObjectDBX Classes
 90
        0
280
     0
281
     0
  0
CLASS
  1
LAYOUT
  2
AcDbLayout
  3
ObjectDBX Classes
 90
        0
280
     0
281
     0
  0
ENDSEC
  0
SECTION
  2
TABLES
  0
TABLE
  2
VPORT
  5
8
330
0
100
AcDbSymbolTable
 70
     1
  0
VPORT
  5
29
330
8
100
AcDbSymbolTableRecord
100
AcDbViewportTableRecord
  2
*Active
 70
     0
 10
0.0
 20
0.0
 11
1.0
 21
1.0
 12
210.0
 22
148.5
 13
0.0
 23
0.0
 14
10.0
 24
10.0
 15
10.0
 25
10.0
 16
0.0
 26
0.0
 36
1.0
 17
0.0
 27
0.0
 37
0.0
 40
297.0
 41
1.4141414141
 42
50.0
 43
0.0
 44
0.0
 50
0.0
 51
0.0
 71
     0
 72
  2000
 73
     1
 74
     3
 75
     0
 76
     0
 77
     0
 78
     0
281
     0
 65
     1
110
0.0
120
0.0
130
0.0
111
1.0
121
0.0
131
0.0
112
0.0
122
1.0
132
0.0
 79
     0
146
0.0
  0
ENDTAB
  0
TABLE
  2
LTYPE
  5
5
330
0
100
AcDbSymbolTable
 70
     6
  0
LTYPE
  5
14
330
5
100
AcDbSymbolTableRecord
100
AcDbLinetypeTableRecord
  2
ByBlock
 70
     0
  3

 72
    65
 73
     0
 40
0.0
  0
LTYPE
  5
15
330
5
100
AcDbSymbolTableRecord
100
AcDbLinetypeTableRecord
  2
ByLayer
 70
     0
  3

 72
    65
 73
     0
 40
0.0
  0
LTYPE
  5
16
330
5
100
AcDbSymbolTableRecord
100
AcDbLinetypeTableRecord
  2
Continuous
 70
     0
  3
Solid line
 72
    65
 73
     0
 40
0.0
  0
LTYPE
  5
3F
330
5
100
AcDbSymbolTableRecord
100
AcDbLinetypeTableRecord
  2
HIDDEN
 70
     0
  3
Hidden __ __ __ __ __ __ __ __ __ __ __ __ __ __
 72
    65
 73
     2
 40
1.905
 49
1.27
 74
     0
 49
-0.635
 74
     0
  0
LTYPE
  5
40
330
5
100
AcDbSymbolTableRecord
100
AcDbLinetypeTableRecord
  2
PHANTOM
 70
     0
  3
Phantom ______  __  __  ______  __  __  ______
 72
    65
 73
     6
 40
12.7
 49
6.35
 74
     0
 49
-1.27
 74
     0
 49
1.27
 74
     0
 49
-1.27
 74
     0
 49
1.27
 74
     0
 49
-1.27
 74
     0
  0
LTYPE
  5
41
330
5
100
AcDbSymbolTableRecord
100
AcDbLinetypeTableRecord
  2
CENTER
 70
     0
  3
Center ____ _ ____ _ ____ _ ____ _ ____ _ ____
 72
    65
 73
     4
 40
10.16
 49
6.35
 74
     0
 49
-1.27
 74
     0
 49
1.27
 74
     0
 49
-1.27
 74
     0
  0
LTYPE
  5
42
330
5
100
AcDbSymbolTableRecord
100
AcDbLinetypeTableRecord
  2
CENTERX2
 70
     0
  3
Center (2x) ________  __  ________  __  _____
 72
    65
 73
     4
 40
20.32
 49
12.7
 74
     0
 49
-2.54
 74
     0
 49
2.54
 74
     0
 49
-2.54
 74
     0
  0
LTYPE
  5
43
330
5
100
AcDbSymbolTableRecord
100
AcDbLinetypeTableRecord
  2
DOT2
 70
     0
  3
Dot (.5x) ........................................
 72
    65
 73
     2
 40
0.635
 49
0.0
 74
     0
 49
-0.635
 74
     0
  0
ENDTAB
  0
TABLE
  2
LAYER
  5
2
330
0
100
AcDbSymbolTable
 70
     4
  0
LAYER
  5
10
330
2
100
AcDbSymbolTableRecord
100
AcDbLayerTableRecord
  2
0
 70
     0
 62
     7
  6
Continuous
370
    -3
390
F
  0
LAYER
  5
44
330
2
100
AcDbSymbolTableRecord
100
AcDbLayerTableRecord
  2
FORMAT
 70
     0
 62
     7
  6
Continuous
370
    -3
390
F
  0
LAYER
  5
45
330
2
100
AcDbSymbolTableRecord
100
AcDbLayerTableRecord
  2
SLD-0
 70
     0
 62
     1
  6
Continuous
370
    -3
390
F
  0
LAYER
  5
46
330
2
100
AcDbSymbolTableRecord
100
AcDbLayerTableRecord
  2
WATERMARK
 70
     0
 62
    20
  6
Continuous
370
    -3
390
F
  0
ENDTAB
  0
TABLE
  2
STYLE
  5
3
330
0
100
AcDbSymbolTable
 70
     1
  0
STYLE
  5
11
330
3
100
AcDbSymbolTableRecord
100
AcDbTextStyleTableRecord
  2
Standard
 70
     0
 40
0.0
 41
1.0
 50
0.0
 71
     0
 42
2.5
  3
txt
  4

  0
ENDTAB
  0
TABLE
  2
VIEW
  5
6
330
0
100
AcDbSymbolTable
 70
     0
  0
ENDTAB
  0
TABLE
  2
UCS
  5
7
330
0
100
AcDbSymbolTable
 70
     0
  0
ENDTAB
  0
TABLE
  2
APPID
  5
9
330
0
100
AcDbSymbolTable
 70
     1
  0
APPID
  5
12
330
9
100
AcDbSymbolTableRecord
100
AcDbRegAppTableRecord
  2
ACAD
 70
     0
  0
ENDTAB
  0
TABLE
  2
DIMSTYLE
  5
A
330
0
100
AcDbSymbolTable
 70
     1
100
AcDbDimStyleTable
  0
DIMSTYLE
105
27
330
A
100
AcDbSymbolTableRecord
100
AcDbDimStyleTableRecord
  2
ISO-25
 70
     0
 41
2.5
 42
0.625
 43
3.75
 44
1.25
 73
     0
 74
     0
 77
     1
 78
     8
140
2.5
141
2.5
143
0.0393700787
147
0.625
171
     3
172
     1
271
     2
272
     2
274
     3
278
    44
283
     0
284
     8
340
11
  0
ENDTAB
  0
TABLE
  2
BLOCK_RECORD
  5
1
330
0
100
AcDbSymbolTable
 70
     1
  0
BLOCK_RECORD
  5
1F
330
1
100
AcDbSymbolTableRecord
100
AcDbBlockTableRecord
  2
*Model_Space
340
22
  0
BLOCK_RECORD
  5
1B
330
1
100
AcDbSymbolTableRecord
100
AcDbBlockTableRecord
  2
*Paper_Space
340
1E
  0
BLOCK_RECORD
  5
23
330
1
100
AcDbSymbolTableRecord
100
AcDbBlockTableRecord
  2
*Paper_Space0
340
26
  0
ENDTAB
  0
ENDSEC
  0
SECTION
  2
BLOCKS
  0
BLOCK
  5
20
330
1F
100
AcDbEntity
  8
0
100
AcDbBlockBegin
  2
*Model_Space
 70
     0
 10
0.0
 20
0.0
 30
0.0
  3
*Model_Space
  1

  0
ENDBLK
  5
21
330
1F
100
AcDbEntity
  8
0
100
AcDbBlockEnd
  0
BLOCK
  5
1C
330
1B
100
AcDbEntity
 67
     1
  8
0
100
AcDbBlockBegin
  2
*Paper_Space
 70
     0
 10
0.0
 20
0.0
 30
0.0
  3
*Paper_Space
  1

  0
ENDBLK
  5
1D
330
1B
100
AcDbEntity
 67
     1
  8
0
100
AcDbBlockEnd
  0
BLOCK
  5
24
330
23
100
AcDbEntity
  8
0
100
AcDbBlockBegin
  2
*Paper_Space0
 70
     0
 10
0.0
 20
0.0
 30
0.0
  3
*Paper_Space0
  1

  0
ENDBLK
  5
25
330
23
100
AcDbEntity
  8
0
100
AcDbBlockEnd
  0
ENDSEC
  0
SECTION
  2
ENTITIES
  0
LINE
  5
47
330
1F
100
AcDbEntity
  8
0
  6
Continuous
 62
     7
370
    15
100
AcDbLine
 10
266.8881187656
 20
153.9974437424
 30
0.0
 11
266.940409819
 21
153.9974437424
 31
0.0
  0
LINE
  5
48
330
1F
100
AcDbEntity
  8
0
  6
Continuous
 62
     7
370
    15
100
AcDbLine
 10
266.940409819
 20
154.9974437424
 30
0.0
 11
266.8881187656
 21
154.9974437424
 31
0.0
  0
LINE
  5
49
330
1F
100
AcDbEntity
  8
0
  6
Continuous
 62
     7
370
    15
100
AcDbLine
 10
97.8381256978
 20
153.9974437424
 30
0.0
 11
98.1337861037
 21
153.9974437424
 31
0.0
  0
LINE
  5
4A
330
1F
100
AcDbEntity
  8
0
  6
Continuous
 62
     7
370
    15
100
AcDbLine
 10
98.1344470662
 20
154.9974437424
 30
0.0
 11
97.8381256978
 21
154.9974437424
 31
0.0
  0
LINE
  5
4B
330
1F
100
AcDbEntity
  8
0
  6
Continuous
 62
     7
370
    15
100
AcDbLine
 10
266.6341080095
 20
153.9974437424
 30
0.0
 11
266.8881187656
 21
153.9974437424
 31
0.0
  0
LINE
  5
4C
330
1F
100
AcDbEntity
  8
0
  6
Continuous
 62
     7
370
    15
100
AcDbLine
 10
266.8881187656
 20
154.9974437424
 30
0.0
 11
266.6349407846
 21
154.9974437424
 31
0.0
  0
LINE
  5
4D
330
1F
100
AcDbEntity
  8
0
  6
Continuous
 62
     7
370
    15
100
AcDbLine
 10
284.5945107366
 20
169.2679960615
 30
0.0
 11
80.1945107366
 21
169.2679960615
 31
0.0
  0
LINE
  5
4E
330
1F
100
AcDbEntity
  8
0
  6
Continuous
 62
     7
370
    15
100
AcDbLine
 10
80.1945107366
 20
165.7303965499
 30
0.0
 11
95.9445107366
 21
165.7303965499
 31
0.0
  0
LINE
  5
4F
330
1F
100
AcDbEntity
  8
0
  6
Continuous
 62
     7
370
    15
100
AcDbLine
 10
99.5445107366
 20
165.7303965499
 30
0.0
 11
182.2445107366
 21
165.7303965499
 31
0.0
  0
LINE
  5
50
330
1F
100
AcDbEntity
  8
0
  6
Continuous
 62
     7
370
    15
100
AcDbLine
 10
185.8445107366
 20
165.7303965499
 30
0.0
 11
268.5445107366
 21
165.7303965499
 31
0.0
  0
LINE
  5
51
330
1F
100
AcDbEntity
  8
0
  6
Continuous
 62
     7
370
    15
100
AcDbLine
 10
272.1445107366
 20
165.7303965499
 30
0.0
 11
284.5945107366
 21
165.7303965499
 31
0.0
  0
LINE
  5
52
330
1F
100
AcDbEntity
  8
0
  6
Continuous
 62
     7
370
    15
100
AcDbLine
 10
80.1945107366
 20
160.9463378564
 30
0.0
 11
95.9445107366
 21
160.9463378564
 31
0.0
  0
LINE
  5
53
330
1F
100
AcDbEntity
  8
0
  6
Continuous
 62
     7
370
    15
100
AcDbLine
 10
99.5445107366
 20
160.9463378564
 30
0.0
 11
182.2445107366
 21
160.9463378564
 31
0.0
  0
LINE
  5
54
330
1F
100
AcDbEntity
  8
0
  6
Continuous
 62
     7
370
    15
100
AcDbLine
 10
185.8445107366
 20
160.9463378564
 30
0.0
 11
268.5445107366
 21
160.9463378564
 31
0.0
  0
LINE
  5
55
330
1F
100
AcDbEntity
  8
0
  6
Continuous
 62
     7
370
    15
100
AcDbLine
 10
272.1445107366
 20
160.9463378564
 30
0.0
 11
284.5945107366
 21
160.9463378564
 31
0.0
  0
LINE
  5
56
330
1F
100
AcDbEntity
  8
0
  6
Continuous
 62
     7
370
    15
100
AcDbLine
 10
80.1945107366
 20
163.3182566776
 30
0.0
 11
95.9445107366
 21
163.3182566776
 31
0.0
  0
LINE
  5
57
330
1F
100
AcDbEntity
  8
0
  6
Continuous
 62
     7
370
    15
100
AcDbLine
 10
99.5445107366
 20
163.3182566776
 30
0.0
 11
182.2445107366
 21
163.3182566776
 31
0.0
  0
LINE
  5
58
330
1F
100
AcDbEntity
  8
0
  6
Continuous
 62
     7
370
    15
100
AcDbLine
 10
185.8445107366
 20
163.3182566776
 30
0.0
 11
268.5445107366
 21
163.3182566776
 31
0.0
  0
LINE
  5
59
330
1F
100
AcDbEntity
  8
0
  6
Continuous
 62
     7
370
    15
100
AcDbLine
 10
272.1445107366
 20
163.3182566776
 30
0.0
 11
284.5945107366
 21
163.3182566776
 31
0.0
  0
LINE
  5
5A
330
1F
100
AcDbEntity
  8
0
  6
Continuous
 62
     7
370
    15
100
AcDbLine
 10
97.838023439
 20
154.8474437424
 30
0.0
 11
97.7881256999
 21
154.8474437424
 31
0.0
  0
LINE
  5
5B
330
1F
100
AcDbEntity
  8
0
  6
Continuous
 62
     7
370
    15
100
AcDbLine
 10
97.7881256999
 20
154.1474437424
 30
0.0
 11
97.838023439
 21
154.1474437424
 31
0.0
  0
LINE
  5
5C
330
1F
100
AcDbEntity
  8
0
  6
Continuous
 62
     7
370
    15
100
AcDbLine
 10
266.8880633079
 20
154.1474437424
 30
0.0
 11
266.9871164247
 21
154.1474437424
 31
0.0
  0
LINE
  5
5D
330
1F
100
AcDbEntity
  8
0
  6
Continuous
 62
     7
370
    15
100
AcDbLine
 10
266.9871164247
 20
154.8474437424
 30
0.0
 11
266.8880633079
 21
154.8474437424
 31
0.0
  0
ARC
  5
5E
330
1F
100
AcDbEntity
  8
0
  6
Continuous
 62
     7
370
    15
100
AcDbCircle
 10
181.8045142756
 20
156.4024437424
 30
0.0
 40
0.0500000000000213
100
AcDbArc
 50
224.427004001
 51
244.1580672372
  0
ARC
  5
5F
330
1F
100
AcDbEntity
  8
0
  6
Continuous
 62
     7
370
    15
100
AcDbCircle
 10
182.9845142756
 20
156.4024437424
 30
0.0
 40
0.0500000000000213
100
AcDbArc
 50
295.8419327628
 51
315.572995999
  0
ARC
  5
60
330
1F
100
AcDbEntity
  8
0
  6
Continuous
 62
     7
370
    15
100
AcDbCircle
 10
182.9873780949
 20
156.4024437424
 30
0.0
 40
0.0500000000000097
100
AcDbArc
 50
295.8419327627
 51
315.5729959989
  0
SPLINE
  5
61
330
1F
100
AcDbEntity
  8
0
  6
Continuous
 62
     7
370
    15
100
AcDbSpline
210
0.0
220
0.0
230
1.0
 70
     8
 71
     3
 72
    11
 73
     7
 74
     0
 42
0.00000001
 43
0.00000001
 40
0.0
 40
0.0
 40
0.0
 40
0.0
 40
0.3249450939531182
 40
0.6398787302294422
 40
0.8939244191178387
 40
1.0
 40
1.0
 40
1.0
 40
1.0
 10
267.2387995759842
 20
156.5609766784299
 30
0.0
 10
267.2310017872836
 20
156.5537061889598
 30
0.0
 10
267.2156464573362
 20
156.5393892115478
 30
0.0
 10
267.2009541309559
 20
156.5143123188844
 30
0.0
 10
267.1928215315656
 20
156.4934807435652
 30
0.0
 10
267.1907056847584
 20
156.4840143157634
 30
0.0
 10
267.1900824511482
 20
156.4812259305381
 30
0.0
  0
SPLINE
  5
62
330
1F
100
AcDbEntity
  8
0
  6
Continuous
 62
     7
370
    15
100
AcDbSpline
210
0.0
220
0.0
230
1.0
 70
     8
 71
     3
 72
    11
 73
     7
 74
     0
 42
0.00000001
 43
0.00000001
 40
0.0
 40
0.0
 40
0.0
 40
0.0
 40
0.3249450939531182
 40
0.6398787302294422
 40
0.8939244191178387
 40
1.0
 40
1.0
 40
1.0
 40
1.0
 10
94.63880665384563
 20
156.5609766784298
 30
0.0
 10
94.63100886514493
 20
156.5537061889597
 30
0.0
 10
94.61565353519765
 20
156.5393892115477
 30
0.0
 10
94.60096120881737
 20
156.5143123188843
 30
0.0
 10
94.592828609427
 20
156.4934807435651
 30
0.0
 10
94.59071276261992
 20
156.4840143157633
 30
0.0
 10
94.59008952900957
 20
156.481225930538
 30
0.0
  0
LINE
  5
63
330
1F
100
AcDbEntity
  8
0
  6
Continuous
 62
     7
370
    15
100
AcDbLine
 10
284.7145107366
 20
169.2679960615
 30
0.0
 11
284.5945107366
 21
169.2679960615
 31
0.0
  0
LINE
  5
64
330
1F
100
AcDbEntity
  8
0
  6
Continuous
 62
     7
370
    15
100
AcDbLine
 10
284.5945107366
 20
165.7303965499
 30
0.0
 11
284.7145107366
 21
165.7303965499
 31
0.0
  0
LINE
  5
65
330
1F
100
AcDbEntity
  8
0
  6
Continuous
 62
     7
370
    15
100
AcDbLine
 10
284.5945107366
 20
163.3182566776
 30
0.0
 11
284.7145107366
 21
163.3182566776
 31
0.0
  0
LINE
  5
66
330
1F
100
AcDbEntity
  8
0
  6
Continuous
 62
     7
370
    15
100
AcDbLine
 10
80.0745107366
 20
163.3182566776
 30
0.0
 11
80.1945107366
 21
163.3182566776
 31
0.0
  0
LINE
  5
67
330
1F
100
AcDbEntity
  8
0
  6
Continuous
 62
     7
370
    15
100
AcDbLine
 10
80.0745107366
 20
160.9463378564
 30
0.0
 11
80.1945107366
 21
160.9463378564
 31
0.0
  0
LINE
  5
68
330
1F
100
AcDbEntity
  8
0
  6
Continuous
 62
     7
370
    15
100
AcDbLine
 10
80.1945107366
 20
169.2679960615
 30
0.0
 11
80.0745107366
 21
169.2679960615
 31
0.0
  0
LINE
  5
69
330
1F
100
AcDbEntity
  8
0
  6
Continuous
 62
     7
370
    15
100
AcDbLine
 10
80.0745107366
 20
165.7303965499
 30
0.0
 11
80.1945107366
 21
165.7303965499
 31
0.0
  0
LINE
  5
6A
330
1F
100
AcDbEntity
  8
0
  6
Continuous
 62
     7
370
    15
100
AcDbLine
 10
284.5945107366
 20
160.9463378564
 30
0.0
 11
284.7145107366
 21
160.9463378564
 31
0.0
  0
LINE
  5
6B
330
1F
100
AcDbEntity
  8
0
  6
Continuous
 62
     7
370
    15
100
AcDbLine
 10
268.8445107366
 20
163.8606712235
 30
0.0
 11
268.5445107366
 21
163.8606712235
 31
0.0
  0
LINE
  5
6C
330
1F
100
AcDbEntity
  8
0
  6
Continuous
 62
     7
370
    15
100
AcDbLine
 10
268.8445107366
 20
168.51485711
 30
0.0
 11
268.5445107366
 21
168.51485711
 31
0.0
  0
LINE
  5
6D
330
1F
100
AcDbEntity
  8
0
  6
Continuous
 62
     7
370
    15
100
AcDbLine
 10
182.5445107366
 20
163.8606712236
 30
0.0
 11
182.2445107366
 21
163.8606712236
 31
0.0
  0
LINE
  5
6E
330
1F
100
AcDbEntity
  8
0
  6
Continuous
 62
     7
370
    15
100
AcDbLine
 10
182.5445107366
 20
168.51485711
 30
0.0
 11
182.2445107366
 21
168.51485711
 31
0.0
  0
LINE
  5
6F
330
1F
100
AcDbEntity
  8
0
  6
Continuous
 62
     7
370
    15
100
AcDbLine
 10
96.2445107366
 20
163.8606712236
 30
0.0
 11
95.9445107366
 21
163.8606712236
 31
0.0
  0
LINE
  5
70
330
1F
100
AcDbEntity
  8
0
  6
Continuous
 62
     7
370
    15
100
AcDbLine
 10
96.2445107366
 20
168.51485711
 30
0.0
 11
95.9445107366
 21
168.51485711
 31
0.0
  0
LINE
  5
71
330
1F
100
AcDbEntity
  8
0
  6
Continuous
 62
     7
370
    15
100
AcDbLine
 10
96.2445107366
 20
163.8606712236
 30
0.0
 11
95.9445107366
 21
163.8606712236
 31
0.0
  0
LINE
  5
72
330
1F
100
AcDbEntity
  8
0
  6
Continuous
 62
     7
370
    15
100
AcDbLine
 10
96.2445107366
 20
168.51485711
 30
0.0
 11
95.9445107366
 21
168.51485711
 31
0.0
  0
LINE
  5
73
330
1F
100
AcDbEntity
  8
0
  6
Continuous
 62
     7
370
    15
100
AcDbLine
 10
182.5445107366
 20
163.8606712236
 30
0.0
 11
182.2445107366
 21
163.8606712236
 31
0.0
  0
LINE
  5
74
330
1F
100
AcDbEntity
  8
0
  6
Continuous
 62
     7
370
    15
100
AcDbLine
 10
182.5445107366
 20
168.51485711
 30
0.0
 11
182.2445107366
 21
168.51485711
 31
0.0
  0
LINE
  5
75
330
1F
100
AcDbEntity
  8
0
  6
Continuous
 62
     7
370
    15
100
AcDbLine
 10
268.8445107366
 20
163.8606712235
 30
0.0
 11
268.5445107366
 21
163.8606712235
 31
0.0
  0
LINE
  5
76
330
1F
100
AcDbEntity
  8
0
  6
Continuous
 62
     7
370
    15
100
AcDbLine
 10
268.8445107366
 20
168.51485711
 30
0.0
 11
268.5445107366
 21
168.51485711
 31
0.0
  0
ARC
  5
77
330
1F
100
AcDbEntity
  8
0
  6
Continuous
 62
     7
370
    15
100
AcDbCircle
 10
354.1949692644
 20
154.8640296189
 30
0.0
 40
87.2546632805463
100
AcDbArc
 50
179.9124226752
 51
180.0108911168
  0
LWPOLYLINE
  5
78
330
1F
100
AcDbEntity
  8
0
  6
Continuous
 62
     7
370
    15
100
AcDbPolyline
 90
        8
 70
   128
 43
0.0
 10
266.9403075602
 20
154.1474437424
 10
266.9403209398
 20
154.1054213385
 10
266.9403545252
 20
154.0362265943
 10
266.9403922116
 20
154.0012382161
 10
266.9404312038
 20
154.0030511318
 10
266.94046861
 20
154.0415308857
 10
266.940501656
 20
154.1138236105
 10
266.9405120778
 20
154.1474437424
  0
ARC
  5
79
330
1F
100
AcDbEntity
  8
0
  6
Continuous
 62
     7
370
    15
100
AcDbCircle
 10
193.636693032
 20
154.8715018416
 30
0.0
 40
73.30382299370676
100
AcDbArc
 50
359.9811956933
 51
0.0984041956
  0
LWPOLYLINE
  5
7A
330
1F
100
AcDbEntity
  8
0
  6
Continuous
 62
     7
370
    15
100
AcDbPolyline
 90
        3
 70
   128
 43
0.0
 10
266.9404082939
 20
154.8974082886
 10
266.9403745996
 20
154.878069244
 10
266.9403543614
 20
154.8474437424
  0
LWPOLYLINE
  5
7B
330
1F
100
AcDbEntity
  8
0
  6
Continuous
 62
     7
370
    15
100
AcDbPolyline
 90
        6
 70
   128
 43
0.0
 10
266.9403543614
 20
154.1474437424
 10
266.940361495
 20
154.1347774558
 10
266.9403942554
 20
154.1011527334
 10
266.9404283988
 20
154.1027402062
 10
266.9404608913
 20
154.1393988203
 10
266.9404652766
 20
154.1474437424
  0
LWPOLYLINE
  5
7C
330
1F
100
AcDbEntity
  8
0
  6
Continuous
 62
     7
370
    15
100
AcDbPolyline
 90
        3
 70
   128
 43
0.0
 10
266.9404652766
 20
154.8474437424
 10
266.9404421237
 20
154.8812087281
 10
266.9404082939
 20
154.8974082886
  0
LWPOLYLINE
  5
7D
330
1F
100
AcDbEntity
  8
0
  6
Continuous
 62
     7
370
    15
100
AcDbPolyline
 90
       13
 70
   128
 43
0.0
 10
97.8381256978
 20
154.9974437424
 10
97.8380870654
 20
154.9789023861
 10
97.8380512981
 20
154.9246534447
 10
97.8380210487
 20
154.838720314
 10
97.8379985607
 20
154.7274762613
 10
97.8379855018
 20
154.599171749
 10
97.8379828407
 20
154.4633225358
 10
97.8379907746
 20
154.3300039363
 10
97.8380087151
 20
154.2091035814
 10
97.8380353318
 20
154.1095880971
 10
97.8380686504
 20
154.0388380917
 10
97.8381062
 20
154.0021007694
 10
97.8381256978
 20
153.9974437424
  0
LWPOLYLINE
  5
7E
330
1F
100
AcDbEntity
  8
0
  6
Continuous
 62
     7
370
    15
100
AcDbPolyline
 90
       16
 70
   128
 43
0.0
 10
266.8881187656
 20
154.9974437424
 10
266.8880801331
 20
154.9789023861
 10
266.8880443658
 20
154.9246534447
 10
266.8880141165
 20
154.838720314
 10
266.8879916284
 20
154.7274762613
 10
266.8879785696
 20
154.599171749
 10
266.8879759084
 20
154.4633225358
 10
266.8879838423
 20
154.3300039363
 10
266.8880017829
 20
154.2091035814
 10
266.8880283995
 20
154.1095880971
 10
266.8880617181
 20
154.0388380917
 10
266.8880992677
 20
154.0021007694
 10
266.8881382634
 20
154.0021007694
 10
266.888175813
 20
154.0388380917
 10
266.8882091317
 20
154.1095880971
 10
266.8882210244
 20
154.1474437424
  0
ARC
  5
7F
330
1F
100
AcDbEntity
  8
0
  6
Continuous
 62
     7
370
    15
100
AcDbCircle
 10
186.7368788095
 20
154.8678025736
 30
0.0
 40
80.15134480046177
100
AcDbArc
 50
359.9854465934
 51
0.0926733679
  0
LWPOLYLINE
  5
80
330
1F
100
AcDbEntity
  8
0
  6
Continuous
 62
     7
370
    15
100
AcDbPolyline
 90
       14
 70
   128
 43
0.0
 10
266.8881187656
 20
154.8974437424
 10
266.8880850005
 20
154.8796728647
 10
266.8880542357
 20
154.8279392522
 10
266.8880292046
 20
154.7468396632
 10
266.8880121314
 20
154.6435801522
 10
266.8880045331
 20
154.5273357799
 10
266.8880070849
 20
154.4084353689
 10
266.8880195599
 20
154.2974437424
 10
266.8880408499
 20
154.2042229937
 10
266.888069063
 20
154.1370561953
 10
266.8881016924
 20
154.1019114119
 10
266.8881358388
 20
154.1019114119
 10
266.8881684681
 20
154.1370561953
 10
266.8881742232
 20
154.1474437424
  0
LWPOLYLINE
  5
81
330
1F
100
AcDbEntity
  8
0
  6
Continuous
 62
     7
370
    15
100
AcDbPolyline
 90
        3
 70
   128
 43
0.0
 10
266.8881742232
 20
154.8474437424
 10
266.8881525306
 20
154.8796728647
 10
266.8881187656
 20
154.8974437424
  0
LINE
  5
82
330
1F
100
AcDbEntity
  8
0
  6
Continuous
 62
     7
370
    15
100
AcDbLine
 10
266.6366925938
 20
155.9974437424
 30
0.0
 11
266.6361198299
 21
155.9974437424
 31
0.0
  0
LINE
  5
83
330
1F
100
AcDbEntity
  8
0
  6
Continuous
 62
     7
370
    15
100
AcDbLine
 10
266.6366925938
 20
155.4974437424
 30
0.0
 11
266.6366925938
 21
155.9974437424
 31
0.0
  0
LWPOLYLINE
  5
84
330
1F
100
AcDbEntity
  8
0
  6
Continuous
 62
     7
370
    15
100
AcDbPolyline
 90
       33
 70
   128
 43
0.0
 10
266.6312309119
 20
140.3974437424
 10
266.6312412965
 20
140.6737330476
 10
266.6312779311
 20
141.4579354489
 10
266.6313248985
 20
142.2353932016
 10
266.6313820986
 20
143.0044471717
 10
266.6314494092
 20
143.7634561592
 10
266.6315266868
 20
144.5108004009
 10
266.6316137663
 20
145.2448850262
 10
266.631710462
 20
145.9641434618
 10
266.6318165675
 20
146.6670407738
 10
266.6319318564
 20
147.3520769439
 10
266.6320560826
 20
148.0177900705
 10
266.6321889811
 20
148.6627594882
 10
266.6323302682
 20
149.2856087996
 10
266.6324796424
 20
149.8850088132
 10
266.632636785
 20
150.4596803788
 10
266.6328013605
 20
151.0083971186
 10
266.6329730179
 20
151.5299880433
 10
266.6331513907
 20
152.0233400517
 10
266.6333360982
 20
152.4874003055
 10
266.6335267465
 20
152.921178477
 10
266.6337229285
 20
153.3237488616
 10
266.6339242255
 20
153.6942523537
 10
266.6341302082
 20
154.0318982804
 10
266.6343404368
 20
154.3359660882
 10
266.6345544626
 20
154.605806881
 10
266.6347718291
 20
154.840844805
 10
266.6349920723
 20
155.0405782774
 10
266.6352147221
 20
155.204581057
 10
266.6354393035
 20
155.3325031535
 10
266.6356653372
 20
155.4240715747
 10
266.6358923408
 20
155.479090909
 10
266.6361198299
 20
155.4974437424
  0
LWPOLYLINE
  5
85
330
1F
100
AcDbEntity
  8
0
  6
Continuous
 62
     7
370
    15
100
AcDbPolyline
 90
       34
 70
   128
 43
0.0
 10
266.6361198299
 20
155.9974437424
 10
266.6358924118
 20
155.9796210202
 10
266.6356654518
 20
155.9261887462
 10
266.6354394068
 20
155.8372545257
 10
266.6352147321
 20
155.7129974606
 10
266.6349918801
 20
155.5536677881
 10
266.6347712997
 20
155.3595863768
 10
266.634553435
 20
155.1311440809
 10
266.6343387248
 20
154.8688009528
 10
266.6341276016
 20
154.5730853166
 10
266.6339204904
 20
154.2445927043
 10
266.6337178084
 20
153.8839846563
 10
266.6335199638
 20
153.4919873892
 10
266.6333273549
 20
153.0693903333
 10
266.6331403698
 20
152.6170445429
 10
266.6329593848
 20
152.1358609821
 10
266.6327847646
 20
151.6268086907
 10
266.6326168607
 20
151.0909128322
 10
266.6324560114
 20
150.5292526295
 10
266.6323025405
 20
149.9429591916
 10
266.6321567571
 20
149.3332132353
 10
266.6320189548
 20
148.701242708
 10
266.6318894112
 20
148.0483203141
 10
266.631768387
 20
147.3757609525
 10
266.6316561261
 20
146.6849190682
 10
266.6315528544
 20
145.9771859248
 10
266.6314587801
 20
145.2539868027
 10
266.6313740925
 20
144.5167781287
 10
266.6312989621
 20
143.7670445429
 10
266.6312335404
 20
143.006295909
 10
266.631177959
 20
142.2360642735
 10
266.6311323298
 20
141.4579007804
 10
266.6310967449
 20
140.6733725474
 10
266.6310866724
 20
140.3974437424
  0
LINE
  5
86
330
1F
100
AcDbEntity
  8
0
  6
Continuous
 62
     7
370
    15
100
AcDbLine
 10
266.6361198299
 20
155.9974437424
 30
0.0
 11
98.1361267396
 21
155.9974437424
 31
0.0
  0
LINE
  5
87
330
1F
100
AcDbEntity
  8
0
  6
Continuous
 62
     7
370
    15
100
AcDbLine
 10
264.1823404012
 20
138.2974437424
 30
0.0
 11
100.5797109713
 21
138.2974437424
 31
0.0
  0
LWPOLYLINE
  5
88
330
1F
100
AcDbEntity
  8
0
  6
Continuous
 62
     7
370
    15
100
AcDbPolyline
 90
       34
 70
   128
 43
0.0
 10
98.1361267396
 20
155.9974437424
 10
98.1358993216
 20
155.9796210202
 10
98.1356723615
 20
155.9261887462
 10
98.1354463165
 20
155.8372545257
 10
98.1352216418
 20
155.7129974606
 10
98.1349987898
 20
155.5536677881
 10
98.1347782094
 20
155.3595863768
 10
98.1345603447
 20
155.1311440809
 10
98.1343456346
 20
154.8688009528
 10
98.1341345113
 20
154.5730853166
 10
98.1339274002
 20
154.2445927043
 10
98.1337247182
 20
153.8839846563
 10
98.1335268735
 20
153.4919873892
 10
98.1333342647
 20
153.0693903333
 10
98.1331472795
 20
152.6170445429
 10
98.1329662945
 20
152.1358609821
 10
98.1327916743
 20
151.6268086907
 10
98.1326237705
 20
151.0909128322
 10
98.1324629211
 20
150.5292526295
 10
98.1323094502
 20
149.9429591916
 10
98.1321636668
 20
149.3332132353
 10
98.1320258646
 20
148.701242708
 10
98.1318963209
 20
148.0483203141
 10
98.1317752967
 20
147.3757609525
 10
98.1316630358
 20
146.6849190682
 10
98.1315597642
 20
145.9771859248
 10
98.1314656898
 20
145.2539868027
 10
98.1313810022
 20
144.5167781287
 10
98.1313058719
 20
143.7670445429
 10
98.1312404501
 20
143.006295909
 10
98.1311848687
 20
142.2360642735
 10
98.1311392396
 20
141.4579007804
 10
98.1311036546
 20
140.6733725474
 10
98.1310935821
 20
140.3974437424
  0
SPLINE
  5
89
330
1F
100
AcDbEntity
  8
0
  6
Continuous
 62
     7
370
    15
100
AcDbSpline
210
0.0
220
0.0
230
1.0
 70
     8
 71
     3
 72
    11
 73
     7
 74
     0
 42
0.00000001
 43
0.00000001
 40
0.0
 40
0.0
 40
0.0
 40
0.0
 40
0.2500000000000053
 40
0.5000000000000131
 40
0.7500000000000068
 40
1.0
 40
1.0
 40
1.0
 40
1.0
 10
271.0906841177849
 20
138.070372674623
 30
0.0
 10
271.0866154611052
 20
138.058461930274
 30
0.0
 10
271.0784781477458
 20
138.034640441576
 30
0.0
 10
271.0160153039961
 20
137.9989082085289
 30
0.0
 10
270.9267502937283
 20
137.9631759754819
 30
0.0
 10
270.8559879683983
 20
137.9393544867839
 30
0.0
 10
270.8206068057333
 20
137.9274437424349
 30
0.0
  0
LINE
  5
8A
330
1F
100
AcDbEntity
  8
0
  6
Continuous
 62
     7
370
    15
100
AcDbLine
 10
271.0906841178
 20
138.0703726746
 30
0.0
 11
271.0906841178
 21
116.0845148102
 31
0.0
  0
SPLINE
  5
8B
330
1F
100
AcDbEntity
  8
0
  6
Continuous
 62
     7
370
    15
100
AcDbSpline
210
0.0
220
0.0
230
1.0
 70
     8
 71
     3
 72
    11
 73
     7
 74
     0
 42
0.00000001
 43
0.00000001
 40
0.0
 40
0.0
 40
0.0
 40
0.0
 40
0.2499999999999819
 40
0.5000000000000121
 40
0.7500000000000125
 40
1.0
 40
1.0
 40
1.0
 40
1.0
 10
270.8206068057333
 20
116.2274437424348
 30
0.0
 10
270.8559879683983
 20
116.2155329980858
 30
0.0
 10
270.9267502937284
 20
116.1917115093878
 30
0.0
 10
271.0160153039961
 20
116.1559792763408
 30
0.0
 10
271.0784781477459
 20
116.1202470432937
 30
0.0
 10
271.0866154611052
 20
116.0964255545957
 30
0.0
 10
271.0906841177849
 20
116.0845148102467
 30
0.0
  0
LINE
  5
8C
330
1F
100
AcDbEntity
  8
0
  6
Continuous
 62
     7
370
    15
100
AcDbLine
 10
270.8206411716
 20
137.9274437424
 30
0.0
 11
270.8206068057
 21
137.9274437424
 31
0.0
  0
SPLINE
  5
8D
330
1F
100
AcDbEntity
  8
0
  6
Continuous
 62
     7
370
    15
100
AcDbSpline
210
0.0
220
0.0
230
1.0
 70
     8
 71
     3
 72
    11
 73
     7
 74
     0
 42
0.00000001
 43
0.00000001
 40
0.0
 40
0.0
 40
0.0
 40
0.0
 40
0.2499999999999743
 40
0.5000000000000253
 40
0.7499999999999988
 40
1.0
 40
1.0
 40
1.0
 40
1.0
 10
270.9706841227057
 20
138.070372674623
 30
0.0
 10
270.9684237578837
 20
138.058461930274
 30
0.0
 10
270.9639030282397
 20
138.034640441576
 30
0.0
 10
270.9292014483786
 20
137.9989082085289
 30
0.0
 10
270.8796097760077
 20
137.9631759754819
 30
0.0
 10
270.8402973730466
 20
137.9393544867839
 30
0.0
 10
270.820641171566
 20
137.9274437424349
 30
0.0
  0
LINE
  5
8E
330
1F
100
AcDbEntity
  8
0
  6
Continuous
 62
     7
370
    15
100
AcDbLine
 10
271.0906841178
 20
138.0703726746
 30
0.0
 11
270.9706841227
 21
138.0703726746
 31
0.0
  0
LINE
  5
8F
330
1F
100
AcDbEntity
  8
0
  6
Continuous
 62
     7
370
    15
100
AcDbLine
 10
270.9706841227
 20
116.0845148102
 30
0.0
 11
271.0906841178
 21
116.0845148102
 31
0.0
  0
SPLINE
  5
90
330
1F
100
AcDbEntity
  8
0
  6
Continuous
 62
     7
370
    15
100
AcDbSpline
210
0.0
220
0.0
230
1.0
 70
     8
 71
     3
 72
    11
 73
     7
 74
     0
 42
0.00000001
 43
0.00000001
 40
0.0
 40
0.0
 40
0.0
 40
0.0
 40
0.2499999999999841
 40
0.5000000000000127
 40
0.7499999999999803
 40
1.0
 40
1.0
 40
1.0
 40
1.0
 10
270.820641171566
 20
116.2274437424348
 30
0.0
 10
270.8402973730466
 20
116.2155329980858
 30
0.0
 10
270.8796097760077
 20
116.1917115093878
 30
0.0
 10
270.9292014483787
 20
116.1559792763408
 30
0.0
 10
270.9639030282396
 20
116.1202470432937
 30
0.0
 10
270.9684237578837
 20
116.0964255545957
 30
0.0
 10
270.9706841227057
 20
116.0845148102467
 30
0.0
  0
SPLINE
  5
91
330
1F
100
AcDbEntity
  8
0
  6
Continuous
 62
     7
370
    15
100
AcDbSpline
210
0.0
220
0.0
230
1.0
 70
     8
 71
     3
 72
    12
 73
     8
 74
     0
 42
0.00000001
 43
0.00000001
 40
0.0
 40
0.0
 40
0.0
 40
0.0
 40
0.2265888793741407
 40
0.4532315344275312
 40
0.6798744256784621
 40
0.9065171071225625
 40
1.0
 40
1.0
 40
1.0
 40
1.0
 10
270.8206068057334
 20
137.9274437424349
 30
0.0
 10
270.831406763468
 20
137.9594804330738
 30
0.0
 10
270.8530092420596
 20
138.0235614175261
 30
0.0
 10
270.8854315665521
 20
138.1077224485333
 30
0.0
 10
270.9178419621973
 20
138.1688847104
 30
0.0
 10
270.9439734469444
 20
138.1948479339633
 30
0.0
 10
270.9591741533267
 20
138.1968570434078
 30
0.0
 10
270.9636130551838
 20
138.1974437424349
 30
0.0
  0
LINE
  5
92
330
1F
100
AcDbEntity
  8
0
  6
Continuous
 62
     7
370
    15
100
AcDbLine
 10
270.9636130552
 20
138.1974437424
 30
0.0
 11
270.9636130552
 21
138.0774437424
 31
0.0
  0
SPLINE
  5
93
330
1F
100
AcDbEntity
  8
0
  6
Continuous
 62
     7
370
    15
100
AcDbSpline
210
0.0
220
0.0
230
1.0
 70
     8
 71
     3
 72
    11
 73
     7
 74
     0
 42
0.00000001
 43
0.00000001
 40
0.0
 40
0.0
 40
0.0
 40
0.0
 40
0.2231189866218996
 40
0.4745564360176752
 40
0.7260599854236162
 40
1.0
 40
1.0
 40
1.0
 40
1.0
 10
270.820641171566
 20
137.9274437424349
 30
0.0
 10
270.8312578114375
 20
137.9449653150322
 30
0.0
 10
270.8538385646766
 20
137.9822323140047
 30
0.0
 10
270.8884539188065
 20
138.0315374405067
 30
0.0
 10
270.9254662474641
 20
138.0695429070312
 30
0.0
 10
270.9505405611483
 20
138.0747362125034
 30
0.0
 10
270.9636130551838
 20
138.0774437424349
 30
0.0
  0
SPLINE
  5
94
330
1F
100
AcDbEntity
  8
0
  6
Continuous
 62
     7
370
    15
100
AcDbSpline
210
0.0
220
0.0
230
1.0
 70
     8
 71
     3
 72
    11
 73
     7
 74
     0
 42
0.00000001
 43
0.00000001
 40
0.0
 40
0.0
 40
0.0
 40
0.0
 40
0.2499999999999995
 40
0.4999999999999954
 40
0.7499999999999953
 40
1.0
 40
1.0
 40
1.0
 40
1.0
 10
93.71776245918318
 20
138.1974437424348
 30
0.0
 10
93.72966307085025
 20
138.1933852177823
 30
0.0
 10
93.75346429418438
 20
138.1852681684771
 30
0.0
 10
93.78917096699914
 20
138.1228308809341
 30
0.0
 10
93.82488531766931
 20
138.0335837479179
 30
0.0
 10
93.8487044808142
 20
137.9628237442625
 30
0.0
 10
93.86061406238662
 20
137.9274437424349
 30
0.0
  0
LINE
  5
95
330
1F
100
AcDbEntity
  8
0
  6
Continuous
 62
     7
370
    15
100
AcDbLine
 10
270.9636130552
 20
138.1974437424
 30
0.0
 11
93.7177624592
 21
138.1974437424
 31
0.0
  0
SPLINE
  5
96
330
1F
100
AcDbEntity
  8
0
  6
Continuous
 62
     7
370
    15
100
AcDbSpline
210
0.0
220
0.0
230
1.0
 70
     8
 71
     3
 72
    12
 73
     8
 74
     0
 42
0.00000001
 43
0.00000001
 40
0.0
 40
0.0
 40
0.0
 40
0.0
 40
0.2265882697708547
 40
0.4532309227181431
 40
0.6798738123181736
 40
0.9065164921049678
 40
1.0
 40
1.0
 40
1.0
 40
1.0
 10
270.9636130551838
 20
115.9574437424348
 30
0.0
 10
270.9528049050832
 20
115.9607714915477
 30
0.0
 10
270.9311860108308
 20
115.9674277884625
 30
0.0
 10
270.8987544201366
 20
116.019132220834
 30
0.0
 10
270.8663480884645
 20
116.0944851832561
 30
0.0
 10
270.8402305428962
 20
116.1692238542791
 30
0.0
 10
270.8250421364512
 20
116.2142849615062
 30
0.0
 10
270.8206068057333
 20
116.2274437424348
 30
0.0
  0
LINE
  5
97
330
1F
100
AcDbEntity
  8
0
  6
Continuous
 62
     7
370
    15
100
AcDbLine
 10
93.7177624592
 20
115.9574437424
 30
0.0
 11
270.9636130552
 21
115.9574437424
 31
0.0
  0
SPLINE
  5
98
330
1F
100
AcDbEntity
  8
0
  6
Continuous
 62
     7
370
    15
100
AcDbSpline
210
0.0
220
0.0
230
1.0
 70
     8
 71
     3
 72
    11
 73
     7
 74
     0
 42
0.00000001
 43
0.00000001
 40
0.0
 40
0.0
 40
0.0
 40
0.0
 40
0.2500000000000035
 40
0.4999999999999984
 40
0.7499999999999958
 40
1.0
 40
1.0
 40
1.0
 40
1.0
 10
93.86061406238663
 20
116.2274437424348
 30
0.0
 10
93.84870448081422
 20
116.1920637406071
 30
0.0
 10
93.82488531766938
 20
116.1213037369518
 30
0.0
 10
93.78917096699915
 20
116.0320566039356
 30
0.0
 10
93.75346429418447
 20
115.9696193163926
 30
0.0
 10
93.72966307085032
 20
115.9615022670874
 30
0.0
 10
93.71776245918328
 20
115.9574437424348
 30
0.0
  0
SPLINE
  5
99
330
1F
100
AcDbEntity
  8
0
  6
Continuous
 62
     7
370
    15
100
AcDbSpline
210
0.0
220
0.0
230
1.0
 70
     8
 71
     3
 72
    11
 73
     7
 74
     0
 42
0.00000001
 43
0.00000001
 40
0.0
 40
0.0
 40
0.0
 40
0.0
 40
0.2253998818852042
 40
0.4768391327568919
 40
0.7283395091447749
 40
0.9999999999999999
 40
0.9999999999999999
 40
0.9999999999999999
 40
0.9999999999999999
 10
270.9636130551838
 20
116.0774437424348
 30
0.0
 10
270.9528821543697
 20
116.0792793059337
 30
0.0
 10
270.9301806631572
 20
116.0831624867926
 30
0.0
 10
270.8954524022678
 20
116.1149325934167
 30
0.0
 10
270.8585503815777
 20
116.1648995550941
 30
0.0
 10
270.8335980888592
 20
116.2060668827669
 30
0.0
 10
270.820641171566
 20
116.2274437424348
 30
0.0
  0
LINE
  5
9A
330
1F
100
AcDbEntity
  8
0
  6
Continuous
 62
     7
370
    15
100
AcDbLine
 10
270.9636130552
 20
115.9574437424
 30
0.0
 11
270.9636130552
 21
116.0774437424
 31
0.0
  0
SPLINE
  5
9B
330
1F
100
AcDbEntity
  8
0
  6
Continuous
 62
     7
370
    15
100
AcDbSpline
210
0.0
220
0.0
230
1.0
 70
     8
 71
     3
 72
    12
 73
     8
 74
     0
 42
0.00000001
 43
0.00000001
 40
0.0
 40
0.0
 40
0.0
 40
0.0
 40
0.2265882697708787
 40
0.4532309227181132
 40
0.679873812318161
 40
0.906516492104953
 40
1.0
 40
1.0
 40
1.0
 40
1.0
 10
93.59069139658212
 20
116.0845148102467
 30
0.0
 10
93.59400997085388
 20
116.0953137860855
 30
0.0
 10
93.60064791588435
 20
116.1169143296122
 30
0.0
 10
93.6523282439438
 20
116.1493218194437
 30
0.0
 10
93.72766368748812
 20
116.1817106366563
 30
0.0
 10
93.80239492001785
 20
116.2078207478668
 30
0.0
 10
93.84745545001977
 20
116.2230085795572
 30
0.0
 10
93.86061406238663
 20
116.2274437424348
 30
0.0
  0
LINE
  5
9C
330
1F
100
AcDbEntity
  8
0
  6
Continuous
 62
     7
370
    15
100
AcDbLine
 10
93.5906913966
 20
116.0845148102
 30
0.0
 11
93.5906913966
 21
138.0703726746
 31
0.0
  0
SPLINE
  5
9D
330
1F
100
AcDbEntity
  8
0
  6
Continuous
 62
     7
370
    15
100
AcDbSpline
210
0.0
220
0.0
230
1.0
 70
     8
 71
     3
 72
    12
 73
     8
 74
     0
 42
0.00000001
 43
0.00000001
 40
0.0
 40
0.0
 40
0.0
 40
0.0
 40
0.2265888793742916
 40
0.4532315344277489
 40
0.6798744256786496
 40
0.9065171071227079
 40
1.0
 40
1.0
 40
1.0
 40
1.0
 10
93.86061406238663
 20
137.9274437424349
 30
0.0
 10
93.82857832607375
 20
137.9382427475999
 30
0.0
 10
93.76449925050002
 20
137.9598433208266
 30
0.0
 10
93.6803530301969
 20
137.9922508393952
 30
0.0
 10
93.61921235058261
 20
138.0246396566243
 30
0.0
 10
93.59327053187266
 20
138.0507497386535
 30
0.0
 10
93.59127432717278
 20
138.0659375409963
 30
0.0
 10
93.59069139658213
 20
138.070372674623
 30
0.0
  0
LINE
  5
9E
330
1F
100
AcDbEntity
  8
0
  6
Continuous
 62
     7
370
    15
100
AcDbLine
 10
93.8606484282
 20
137.9274437424
 30
0.0
 11
93.8606140624
 21
137.9274437424
 31
0.0
  0
LINE
  5
9F
330
1F
100
AcDbEntity
  8
0
  6
Continuous
 62
     7
370
    15
100
AcDbLine
 10
93.5906913966
 20
138.0703726746
 30
0.0
 11
93.7106913917
 21
138.0703726746
 31
0.0
  0
SPLINE
  5
A0
330
1F
100
AcDbEntity
  8
0
  6
Continuous
 62
     7
370
    15
100
AcDbSpline
210
0.0
220
0.0
230
1.0
 70
     8
 71
     3
 72
    11
 73
     7
 74
     0
 42
0.00000001
 43
0.00000001
 40
0.0
 40
0.0
 40
0.0
 40
0.0
 40
0.2231189866219081
 40
0.4745564360178846
 40
0.7260599854237315
 40
0.9999999999999999
 40
0.9999999999999999
 40
0.9999999999999999
 40
0.9999999999999999
 10
93.86064842821929
 20
137.9274437424349
 30
0.0
 10
93.84312737151
 20
137.9380598675722
 30
0.0
 10
93.8058614697903
 20
137.9606395260126
 30
0.0
 10
93.7565653619183
 20
137.9952458649535
 30
0.0
 10
93.71857421080395
 20
138.0322438812766
 30
0.0
 10
93.71339274761696
 20
138.0573063539163
 30
0.0
 10
93.71069139166124
 20
138.070372674623
 30
0.0
  0
LINE
  5
A1
330
1F
100
AcDbEntity
  8
0
  6
Continuous
 62
     7
370
    15
100
AcDbLine
 10
93.8606484282
 20
116.2274437424
 30
0.0
 11
93.8606140624
 21
116.2274437424
 31
0.0
  0
SPLINE
  5
A2
330
1F
100
AcDbEntity
  8
0
  6
Continuous
 62
     7
370
    15
100
AcDbSpline
210
0.0
220
0.0
230
1.0
 70
     8
 71
     3
 72
    11
 73
     7
 74
     0
 42
0.00000001
 43
0.00000001
 40
0.0
 40
0.0
 40
0.0
 40
0.0
 40
0.2253998818851881
 40
0.4768391327567845
 40
0.7283395091447655
 40
1.0
 40
1.0
 40
1.0
 40
1.0
 10
93.71069139166124
 20
116.0845148102467
 30
0.0
 10
93.71252188541692
 20
116.0952406418327
 30
0.0
 10
93.71639434110622
 20
116.1179314089653
 30
0.0
 10
93.74815031324633
 20
116.1526455380971
 30
0.0
 10
93.79810647443357
 20
116.1895367618589
 30
0.0
 10
93.83927233195394
 20
116.2144875871363
 30
0.0
 10
93.8606484282193
 20
116.2274437424348
 30
0.0
  0
LINE
  5
A3
330
1F
100
AcDbEntity
  8
0
  6
Continuous
 62
     7
370
    15
100
AcDbLine
 10
93.7106913917
 20
116.0845148102
 30
0.0
 11
93.5906913966
 21
116.0845148102
 31
0.0
  0
SPLINE
  5
A4
330
1F
100
AcDbEntity
  8
0
  6
Continuous
 62
     7
370
    15
100
AcDbSpline
210
0.0
220
0.0
230
1.0
 70
     8
 71
     3
 72
    11
 73
     7
 74
     0
 42
0.00000001
 43
0.00000001
 40
0.0
 40
0.0
 40
0.0
 40
0.0
 40
0.2500000000000171
 40
0.4999999999999887
 40
0.7500000000000054
 40
1.0
 40
1.0
 40
1.0
 40
1.0
 10
93.71776245918318
 20
138.0774437424349
 30
0.0
 10
93.72966757404735
 20
138.0751890065168
 30
0.0
 10
93.75347780377571
 20
138.0706795346806
 30
0.0
 10
93.78919583604247
 20
138.0359921527122
 30
0.0
 10
93.82491813378446
 20
137.9864104121476
 30
0.0
 10
93.84873833007438
 20
137.9470992990058
 30
0.0
 10
93.86064842821929
 20
137.9274437424349
 30
0.0
  0
LINE
  5
A5
330
1F
100
AcDbEntity
  8
0
  6
Continuous
 62
     7
370
    15
100
AcDbLine
 10
93.7177624592
 20
138.0774437424
 30
0.0
 11
93.7177624592
 21
138.1974437424
 31
0.0
  0
LINE
  5
A6
330
1F
100
AcDbEntity
  8
0
  6
Continuous
 62
     7
370
    15
100
AcDbLine
 10
93.7177624592
 20
116.0774437424
 30
0.0
 11
93.7177624592
 21
115.9574437424
 31
0.0
  0
SPLINE
  5
A7
330
1F
100
AcDbEntity
  8
0
  6
Continuous
 62
     7
370
    15
100
AcDbSpline
210
0.0
220
0.0
230
1.0
 70
     8
 71
     3
 72
    11
 73
     7
 74
     0
 42
0.00000001
 43
0.00000001
 40
0.0
 40
0.0
 40
0.0
 40
0.0
 40
0.2499999999999959
 40
0.5000000000000138
 40
0.7499999999999818
 40
1.0
 40
1.0
 40
1.0
 40
1.0
 10
93.8606484282193
 20
116.2274437424348
 30
0.0
 10
93.84873833007437
 20
116.2077881858639
 30
0.0
 10
93.8249181337845
 20
116.168477072722
 30
0.0
 10
93.78919583604252
 20
116.1188953321575
 30
0.0
 10
93.75347780377578
 20
116.0842079501891
 30
0.0
 10
93.72966757404747
 20
116.0796984783529
 30
0.0
 10
93.71776245918328
 20
116.0774437424348
 30
0.0
  0
LINE
  5
A8
330
1F
100
AcDbEntity
  8
0
  6
Continuous
 62
     7
370
    15
100
AcDbLine
 10
271.0920100662
 20
138.0703726746
 30
0.0
 11
271.0920100662
 21
135.5574437424
 31
0.0
  0
LINE
  5
A9
330
1F
100
AcDbEntity
  8
0
  6
Continuous
 62
     7
370
    15
100
AcDbLine
 10
271.0919671089
 20
135.5574437424
 30
0.0
 11
271.0920100662
 21
135.5574437424
 31
0.0
  0
LINE
  5
AA
330
1F
100
AcDbEntity
  8
0
  6
Continuous
 62
     7
370
    15
100
AcDbLine
 10
271.0919671089
 20
118.3748303515
 30
0.0
 11
271.0919671089
 21
135.5574437424
 31
0.0
  0
LINE
  5
AB
330
1F
100
AcDbEntity
  8
0
  6
Continuous
 62
     7
370
    15
100
AcDbLine
 10
271.0920100662
 20
118.3748303515
 30
0.0
 11
271.0919671089
 21
118.3748303515
 31
0.0
  0
LINE
  5
AC
330
1F
100
AcDbEntity
  8
0
  6
Continuous
 62
     7
370
    15
100
AcDbLine
 10
271.0920100662
 20
118.3748303515
 30
0.0
 11
271.0920100662
 21
116.0845148102
 31
0.0
  0
LINE
  5
AD
330
1F
100
AcDbEntity
  8
0
  6
Continuous
 62
     7
370
    15
100
AcDbLine
 10
270.9636130552
 20
138.1974437424
 30
0.0
 11
270.9648960463
 21
138.1974437424
 31
0.0
  0
LINE
  5
AE
330
1F
100
AcDbEntity
  8
0
  6
Continuous
 62
     7
370
    15
100
AcDbLine
 10
270.9648960463
 20
138.1974437424
 30
0.0
 11
270.9648960463
 21
138.0774437424
 31
0.0
  0
LINE
  5
AF
330
1F
100
AcDbEntity
  8
0
  6
Continuous
 62
     7
370
    15
100
AcDbLine
 10
270.9648960463
 20
115.9574437424
 30
0.0
 11
270.9648960463
 21
116.0774437424
 31
0.0
  0
LINE
  5
B0
330
1F
100
AcDbEntity
  8
0
  6
Continuous
 62
     7
370
    15
100
AcDbLine
 10
270.9636130552
 20
115.9574437424
 30
0.0
 11
270.9648960463
 21
115.9574437424
 31
0.0
  0
LWPOLYLINE
  5
B1
330
1F
100
AcDbEntity
  8
0
  6
Continuous
 62
     7
370
    15
100
AcDbPolyline
 90
        3
 70
   128
 43
0.0
 10
270.9620367877
 20
138.0445362996
 10
270.962031406
 20
138.0774477054
 10
270.9620309228
 20
138.0799428433
  0
ARC
  5
B2
330
1F
100
AcDbEntity
  8
0
  6
Continuous
 62
     7
370
    15
100
AcDbCircle
 10
253.136675682
 20
138.0465783087
 30
0.0
 40
17.82531815479693
100
AcDbArc
 50
359.9951372638
 51
0.0992105697
  0
ARC
  5
B3
330
1F
100
AcDbEntity
  8
0
  6
Continuous
 62
     7
370
    15
100
AcDbCircle
 10
73.5113317613
 20
138.0432344033
 30
0.0
 40
20.21067157301579
100
AcDbArc
 50
359.9891346609
 51
0.0969810272
  0
LWPOLYLINE
  5
B4
330
1F
100
AcDbEntity
  8
0
  6
Continuous
 62
     7
370
    15
100
AcDbPolyline
 90
        3
 70
   128
 43
0.0
 10
270.9620309363
 20
116.0750136345
 10
270.962031406
 20
116.0774397795
 10
270.9620367061
 20
116.1097611159
  0
ARC
  5
B5
330
1F
100
AcDbEntity
  8
0
  6
Continuous
 62
     7
370
    15
100
AcDbCircle
 10
253.2773277018
 20
116.1081123424
 30
0.0
 40
17.68466600506408
100
AcDbArc
 50
359.9006380884
 51
0.0044723313
  0
ARC
  5
B6
330
1F
100
AcDbEntity
  8
0
  6
Continuous
 62
     7
370
    15
100
AcDbCircle
 10
72.1017110184
 20
116.1136339188
 30
0.0
 40
21.62029365331273
100
AcDbArc
 50
359.9040926379
 51
0.0139516548
  0
LINE
  5
B7
330
1F
100
AcDbEntity
  8
0
  6
Continuous
 62
     7
370
    15
100
AcDbLine
 10
284.5945107366
 20
166.4553316106
 30
0.0
 11
284.5945107366
 21
166.336131628
 31
0.0
  0
LINE
  5
B8
330
1F
100
AcDbEntity
  8
0
  6
Continuous
 62
     7
370
    15
100
AcDbLine
 10
80.1945107366
 20
166.4553316106
 30
0.0
 11
80.1945107366
 21
166.336131628
 31
0.0
  0
LINE
  5
B9
330
1F
100
AcDbEntity
  8
0
  6
Continuous
 62
     7
370
    15
100
AcDbLine
 10
284.5945107366
 20
169.1895455464
 30
0.0
 11
284.5945107366
 21
166.4553316106
 31
0.0
  0
LINE
  5
BA
330
1F
100
AcDbEntity
  8
0
  6
Continuous
 62
     7
370
    15
100
AcDbLine
 10
80.1945107366
 20
169.1895455464
 30
0.0
 11
80.1945107366
 21
166.4553316106
 31
0.0
  0
LINE
  5
BB
330
1F
100
AcDbEntity
  8
0
  6
Continuous
 62
     7
370
    15
100
AcDbLine
 10
284.5945107366
 20
166.336131628
 30
0.0
 11
284.5945107366
 21
165.7327460522
 31
0.0
  0
LINE
  5
BC
330
1F
100
AcDbEntity
  8
0
  6
Continuous
 62
     7
370
    15
100
AcDbLine
 10
80.1945107366
 20
166.336131628
 30
0.0
 11
80.1945107366
 21
165.7327460522
 31
0.0
  0
LINE
  5
BD
330
1F
100
AcDbEntity
  8
0
  6
Continuous
 62
     7
370
    15
100
AcDbLine
 10
284.5945107366
 20
169.2679960615
 30
0.0
 11
284.5945107366
 21
169.1895455464
 31
0.0
  0
LINE
  5
BE
330
1F
100
AcDbEntity
  8
0
  6
Continuous
 62
     7
370
    15
100
AcDbLine
 10
80.1945107366
 20
169.2679960615
 30
0.0
 11
80.1945107366
 21
169.1895455464
 31
0.0
  0
LINE
  5
BF
330
1F
100
AcDbEntity
  8
0
  6
Continuous
 62
     7
370
    15
100
AcDbLine
 10
284.5945107366
 20
165.7327460522
 30
0.0
 11
284.5945107366
 21
165.7303965499
 31
0.0
  0
LINE
  5
C0
330
1F
100
AcDbEntity
  8
0
  6
Continuous
 62
     7
370
    15
100
AcDbLine
 10
80.1945107366
 20
165.7327460522
 30
0.0
 11
80.1945107366
 21
165.7303965499
 31
0.0
  0
LINE
  5
C1
330
1F
100
AcDbEntity
  8
0
  6
Continuous
 62
     7
370
    15
100
AcDbLine
 10
284.5945107366
 20
161.6709255981
 30
0.0
 11
284.5945107366
 21
161.5517349498
 31
0.0
  0
LINE
  5
C2
330
1F
100
AcDbEntity
  8
0
  6
Continuous
 62
     7
370
    15
100
AcDbLine
 10
80.1945107366
 20
161.6709255981
 30
0.0
 11
80.1945107366
 21
161.5517349498
 31
0.0
  0
LINE
  5
C3
330
1F
100
AcDbEntity
  8
0
  6
Continuous
 62
     7
370
    15
100
AcDbLine
 10
284.5945107366
 20
163.3182566776
 30
0.0
 11
284.5945107366
 21
161.6709255981
 31
0.0
  0
LINE
  5
C4
330
1F
100
AcDbEntity
  8
0
  6
Continuous
 62
     7
370
    15
100
AcDbLine
 10
80.1945107366
 20
163.3182566776
 30
0.0
 11
80.1945107366
 21
161.6709255981
 31
0.0
  0
LINE
  5
C5
330
1F
100
AcDbEntity
  8
0
  6
Continuous
 62
     7
370
    15
100
AcDbLine
 10
284.5945107366
 20
161.5517349498
 30
0.0
 11
284.5945107366
 21
160.9486847165
 31
0.0
  0
LINE
  5
C6
330
1F
100
AcDbEntity
  8
0
  6
Continuous
 62
     7
370
    15
100
AcDbLine
 10
80.1945107366
 20
161.5517349498
 30
0.0
 11
80.1945107366
 21
160.9486847165
 31
0.0
  0
LINE
  5
C7
330
1F
100
AcDbEntity
  8
0
  6
Continuous
 62
     7
370
    15
100
AcDbLine
 10
284.5945107366
 20
160.9486847165
 30
0.0
 11
284.5945107366
 21
160.9463378564
 31
0.0
  0
LINE
  5
C8
330
1F
100
AcDbEntity
  8
0
  6
Continuous
 62
     7
370
    15
100
AcDbLine
 10
80.1945107366
 20
160.9486847165
 30
0.0
 11
80.1945107366
 21
160.9463378564
 31
0.0
  0
LINE
  5
C9
330
1F
100
AcDbEntity
  8
0
  6
Continuous
 62
     7
370
    15
100
AcDbLine
 10
284.5945107366
 20
164.0431917383
 30
0.0
 11
284.5945107366
 21
163.9239917557
 31
0.0
  0
LINE
  5
CA
330
1F
100
AcDbEntity
  8
0
  6
Continuous
 62
     7
370
    15
100
AcDbLine
 10
80.1945107366
 20
164.0431917383
 30
0.0
 11
80.1945107366
 21
163.9239917557
 31
0.0
  0
LINE
  5
CB
330
1F
100
AcDbEntity
  8
0
  6
Continuous
 62
     7
370
    15
100
AcDbLine
 10
284.5945107366
 20
165.7303965499
 30
0.0
 11
284.5945107366
 21
164.0431917383
 31
0.0
  0
LINE
  5
CC
330
1F
100
AcDbEntity
  8
0
  6
Continuous
 62
     7
370
    15
100
AcDbLine
 10
80.1945107366
 20
165.7303965499
 30
0.0
 11
80.1945107366
 21
164.0431917383
 31
0.0
  0
LINE
  5
CD
330
1F
100
AcDbEntity
  8
0
  6
Continuous
 62
     7
370
    15
100
AcDbLine
 10
284.5945107366
 20
163.9239917557
 30
0.0
 11
284.5945107366
 21
163.3206061799
 31
0.0
  0
LINE
  5
CE
330
1F
100
AcDbEntity
  8
0
  6
Continuous
 62
     7
370
    15
100
AcDbLine
 10
80.1945107366
 20
163.9239917557
 30
0.0
 11
80.1945107366
 21
163.3206061799
 31
0.0
  0
LINE
  5
CF
330
1F
100
AcDbEntity
  8
0
  6
Continuous
 62
     7
370
    15
100
AcDbLine
 10
284.5945107366
 20
163.3206061799
 30
0.0
 11
284.5945107366
 21
163.3182566776
 31
0.0
  0
LINE
  5
D0
330
1F
100
AcDbEntity
  8
0
  6
Continuous
 62
     7
370
    15
100
AcDbLine
 10
80.1945107366
 20
163.3206061799
 30
0.0
 11
80.1945107366
 21
163.3182566776
 31
0.0
  0
LINE
  5
D1
330
1F
100
AcDbEntity
  8
0
  6
Continuous
 62
     7
370
    15
100
AcDbLine
 10
284.4595107489
 20
89.6024437425
 30
0.0
 11
284.9096396024
 21
89.6024437425
 31
0.0
  0
LINE
  5
D2
330
1F
100
AcDbEntity
  8
0
  6
Continuous
 62
     7
370
    15
100
AcDbLine
 10
284.9096396024
 20
158.7024437425
 30
0.0
 11
284.4595107489
 21
158.7024437425
 31
0.0
  0
SPLINE
  5
D3
330
1F
100
AcDbEntity
  8
0
  6
Continuous
 62
     7
370
    15
100
AcDbSpline
210
0.0
220
0.0
230
1.0
 70
     8
 71
     3
 72
    12
 73
     8
 74
     0
 42
0.00000001
 43
0.00000001
 40
0.0
 40
0.0
 40
0.0
 40
0.0
 40
0.2006459275990298
 40
0.433079269432288
 40
0.6655464412074725
 40
0.8980132386677222
 40
1.0
 40
1.0
 40
1.0
 40
1.0
 10
80.06671907022789
 20
159.1524437424558
 30
0.0
 10
80.08627919803882
 20
159.1480777212916
 30
0.0
 10
80.12849827501547
 20
159.1386539902509
 30
0.0
 10
80.19352297271729
 20
159.0594337422983
 30
0.0
 10
80.26158627073048
 20
158.9333443127605
 30
0.0
 10
80.31706881023351
 20
158.8048713023099
 30
0.0
 10
80.34959939007997
 20
158.7263788708547
 30
0.0
 10
80.3595191185313
 20
158.7024437424557
 30
0.0
  0
LINE
  5
D4
330
1F
100
AcDbEntity
  8
0
  6
Continuous
 62
     7
370
    15
100
AcDbLine
 10
80.0667190702
 20
159.1524437425
 30
0.0
 11
284.752568541
 21
159.1524437425
 31
0.0
  0
SPLINE
  5
D5
330
1F
100
AcDbEntity
  8
0
  6
Continuous
 62
     7
370
    15
100
AcDbSpline
210
0.0
220
0.0
230
1.0
 70
     8
 71
     3
 72
    12
 73
     8
 74
     0
 42
0.00000001
 43
0.00000001
 40
0.0
 40
0.0
 40
0.0
 40
0.0
 40
0.2027004038605122
 40
0.4351396546219294
 40
0.6676107404084044
 40
0.9000814540560543
 40
0.9999999999999999
 40
0.9999999999999999
 40
0.9999999999999999
 40
0.9999999999999999
 10
284.4595107489397
 20
158.7024437424558
 30
0.0
 10
284.4792875435426
 20
158.7501575244168
 30
0.0
 10
284.5217426517177
 20
158.8525853351554
 30
0.0
 10
284.5870294138955
 20
158.9931816592998
 30
0.0
 10
284.6551600616901
 20
159.1008880582161
 30
0.0
 10
284.7104917824752
 20
159.1476185145508
 30
0.0
 10
284.7428434134868
 20
159.1513284959811
 30
0.0
 10
284.7525685409881
 20
159.1524437424558
 30
0.0
  0
LINE
  5
D6
330
1F
100
AcDbEntity
  8
0
  6
Continuous
 62
     7
370
    15
100
AcDbLine
 10
284.752568541
 20
159.0024437425
 30
0.0
 11
284.752568541
 21
159.1524437425
 31
0.0
  0
SPLINE
  5
D7
330
1F
100
AcDbEntity
  8
0
  6
Continuous
 62
     7
370
    15
100
AcDbSpline
210
0.0
220
0.0
230
1.0
 70
     8
 71
     3
 72
    11
 73
     7
 74
     0
 42
0.00000001
 43
0.00000001
 40
0.0
 40
0.0
 40
0.0
 40
0.0
 40
0.2529447163102974
 40
0.5061166943623447
 40
0.7592896545943414
 40
0.9999999999999999
 40
0.9999999999999999
 40
0.9999999999999999
 40
0.9999999999999999
 10
284.4595537062306
 20
158.7024437424558
 30
0.0
 10
284.4842560308146
 20
158.7422210275109
 30
0.0
 10
284.5336828741339
 20
158.821811336083
 30
0.0
 10
284.6078479775409
 20
158.9217870654591
 30
0.0
 10
284.6808411136382
 20
158.9896721945695
 30
0.0
 10
284.7290650247408
 20
158.9982587842837
 30
0.0
 10
284.7525685409881
 20
159.0024437424558
 30
0.0
  0
SPLINE
  5
D8
330
1F
100
AcDbEntity
  8
0
  6
Continuous
 62
     7
370
    15
100
AcDbSpline
210
0.0
220
0.0
230
1.0
 70
     8
 71
     3
 72
    11
 73
     7
 74
     0
 42
0.00000001
 43
0.00000001
 40
0.0
 40
0.0
 40
0.0
 40
0.0
 40
0.2499999999999898
 40
0.4999999999999976
 40
0.7500000000000012
 40
0.9999999999999999
 40
0.9999999999999999
 40
0.9999999999999999
 40
0.9999999999999999
 10
284.7525685409882
 20
89.15244374245576
 30
0.0
 10
284.728140910651
 20
89.15920795021007
 30
0.0
 10
284.6792856499766
 20
89.17273636571868
 30
0.0
 10
284.6060108219876
 20
89.2767985116238
 30
0.0
 10
284.5327487904245
 20
89.42554373331734
 30
0.0
 10
284.4839234294346
 20
89.54347707274299
 30
0.0
 10
284.4595107489397
 20
89.60244374245576
 30
0.0
  0
LINE
  5
D9
330
1F
100
AcDbEntity
  8
0
  6
Continuous
 62
     7
370
    15
100
AcDbLine
 10
284.752568541
 20
89.1524437425
 30
0.0
 11
80.0667190702
 21
89.1524437425
 31
0.0
  0
SPLINE
  5
DA
330
1F
100
AcDbEntity
  8
0
  6
Continuous
 62
     7
370
    15
100
AcDbSpline
210
0.0
220
0.0
230
1.0
 70
     8
 71
     3
 72
    11
 73
     7
 74
     0
 42
0.00000001
 43
0.00000001
 40
0.0
 40
0.0
 40
0.0
 40
0.0
 40
0.2500000000000007
 40
0.50000000000001
 40
0.7500000000000104
 40
1.0
 40
1.0
 40
1.0
 40
1.0
 10
80.3595191185313
 20
89.60244374245568
 30
0.0
 10
80.33511031233023
 20
89.54347707274287
 30
0.0
 10
80.28629269992811
 20
89.42554373331727
 30
0.0
 10
80.21309027140319
 20
89.27679851162371
 30
0.0
 10
80.13990063930424
 20
89.17273636571865
 30
0.0
 10
80.0911129265867
 20
89.15920795021007
 30
0.0
 10
80.06671907022792
 20
89.15244374245576
 30
0.0
  0
SPLINE
  5
DB
330
1F
100
AcDbEntity
  8
0
  6
Continuous
 62
     7
370
    15
100
AcDbSpline
210
0.0
220
0.0
230
1.0
 70
     8
 71
     3
 72
    11
 73
     7
 74
     0
 42
0.00000001
 43
0.00000001
 40
0.0
 40
0.0
 40
0.0
 40
0.0
 40
0.2499999999999909
 40
0.4999999999999906
 40
0.7500000000000125
 40
1.0
 40
1.0
 40
1.0
 40
1.0
 10
284.7525685409882
 20
89.30244374245578
 30
0.0
 10
284.7281465396474
 20
89.30695321429197
 30
0.0
 10
284.6793025369658
 20
89.31597215796438
 30
0.0
 10
284.6060419082918
 20
89.38534692190109
 30
0.0
 10
284.5327898105684
 20
89.48451040303019
 30
0.0
 10
284.4839657410098
 20
89.56313262931391
 30
0.0
 10
284.4595537062306
 20
89.60244374245576
 30
0.0
  0
LINE
  5
DC
330
1F
100
AcDbEntity
  8
0
  6
Continuous
 62
     7
370
    15
100
AcDbLine
 10
284.752568541
 20
89.3024437425
 30
0.0
 11
284.752568541
 21
89.1524437425
 31
0.0
  0
LINE
  5
DD
330
1F
100
AcDbEntity
  8
0
  6
Continuous
 62
     7
370
    15
100
AcDbLine
 10
257.3595118602
 20
98.1524437425
 30
0.0
 11
251.0595121186
 21
98.1524437425
 31
0.0
  0
ARC
  5
DE
330
1F
100
AcDbEntity
  8
0
  6
Continuous
 62
     7
370
    15
100
AcDbCircle
 10
251.0595121384
 20
97.5524437425
 30
0.0
 40
0.5999999999985167
100
AcDbArc
 50
90.0000018909
 51
269.9999981091
  0
LINE
  5
DF
330
1F
100
AcDbEntity
  8
0
  6
Continuous
 62
     7
370
    15
100
AcDbLine
 10
257.3595118602
 20
96.9524437425
 30
0.0
 11
251.0595121186
 21
96.9524437425
 31
0.0
  0
ARC
  5
E0
330
1F
100
AcDbEntity
  8
0
  6
Continuous
 62
     7
370
    15
100
AcDbCircle
 10
257.3595118404
 20
97.5524437425
 30
0.0
 40
0.5999999999999946
100
AcDbArc
 50
270.0000018908
 51
89.9999981092
  0
LINE
  5
E1
330
1F
100
AcDbEntity
  8
0
  6
Continuous
 62
     7
370
    15
100
AcDbLine
 10
185.5595148046
 20
98.1524437425
 30
0.0
 11
179.2595150629
 21
98.1524437425
 31
0.0
  0
ARC
  5
E2
330
1F
100
AcDbEntity
  8
0
  6
Continuous
 62
     7
370
    15
100
AcDbCircle
 10
179.2595150827
 20
97.5524437425
 30
0.0
 40
0.5999999999985451
100
AcDbArc
 50
90.0000018909
 51
269.9999981091
  0
LINE
  5
E3
330
1F
100
AcDbEntity
  8
0
  6
Continuous
 62
     7
370
    15
100
AcDbLine
 10
185.5595148046
 20
96.9524437425
 30
0.0
 11
179.2595150629
 21
96.9524437425
 31
0.0
  0
ARC
  5
E4
330
1F
100
AcDbEntity
  8
0
  6
Continuous
 62
     7
370
    15
100
AcDbCircle
 10
185.5595147848
 20
97.5524437425
 30
0.0
 40
0.6000000000000089
100
AcDbArc
 50
270.0000018908
 51
89.9999981092
  0
LINE
  5
E5
330
1F
100
AcDbEntity
  8
0
  6
Continuous
 62
     7
370
    15
100
AcDbLine
 10
113.7595177489
 20
98.1524437425
 30
0.0
 11
107.4595180072
 21
98.1524437425
 31
0.0
  0
ARC
  5
E6
330
1F
100
AcDbEntity
  8
0
  6
Continuous
 62
     7
370
    15
100
AcDbCircle
 10
107.459518027
 20
97.5524437425
 30
0.0
 40
0.599999999998602
100
AcDbArc
 50
90.0000018909
 51
269.9999981091
  0
LINE
  5
E7
330
1F
100
AcDbEntity
  8
0
  6
Continuous
 62
     7
370
    15
100
AcDbLine
 10
113.7595177489
 20
96.9524437425
 30
0.0
 11
107.4595180072
 21
96.9524437425
 31
0.0
  0
ARC
  5
E8
330
1F
100
AcDbEntity
  8
0
  6
Continuous
 62
     7
370
    15
100
AcDbCircle
 10
113.7595177291
 20
97.5524437425
 30
0.0
 40
0.6000000000000089
100
AcDbArc
 50
270.0000018908
 51
89.9999981092
  0
CIRCLE
  5
E9
330
1F
100
AcDbEntity
  8
0
  6
Continuous
 62
     7
370
    15
100
AcDbCircle
 10
236.2595127292
 20
109.2324437283
 30
0.0
 40
0.5249999858920233
  0
CIRCLE
  5
EA
330
1F
100
AcDbEntity
  8
0
  6
Continuous
 62
     7
370
    15
100
AcDbCircle
 10
128.5595171383
 20
109.2324437566
 30
0.0
 40
0.5249999858919807
  0
LINE
  5
EB
330
1F
100
AcDbEntity
  8
0
  6
Continuous
 62
     7
370
    15
100
AcDbLine
 10
124.2095173204
 20
98.5024437425
 30
0.0
 11
125.2095172794
 21
98.5024437425
 31
0.0
  0
ARC
  5
EC
330
1F
100
AcDbEntity
  8
0
  6
Continuous
 62
     7
370
    15
100
AcDbCircle
 10
125.209517263
 20
99.3024437261
 30
0.0
 40
0.7999999835971041
100
AcDbArc
 50
270.0000011748
 51
0.0000011748
  0
LINE
  5
ED
330
1F
100
AcDbEntity
  8
0
  6
Continuous
 62
     7
370
    15
100
AcDbLine
 10
126.0095172465
 20
99.3024437425
 30
0.0
 11
126.0095172465
 21
100.3024437425
 31
0.0
  0
LINE
  5
EE
330
1F
100
AcDbEntity
  8
0
  6
Continuous
 62
     7
370
    15
100
AcDbLine
 10
126.0095172465
 20
100.3024437425
 30
0.0
 11
126.2095172383
 21
100.3024437425
 31
0.0
  0
LINE
  5
EF
330
1F
100
AcDbEntity
  8
0
  6
Continuous
 62
     7
370
    15
100
AcDbLine
 10
95.0095185178
 20
100.3024437425
 30
0.0
 11
95.2095185096
 21
100.3024437425
 31
0.0
  0
LINE
  5
F0
330
1F
100
AcDbEntity
  8
0
  6
Continuous
 62
     7
370
    15
100
AcDbLine
 10
95.2095185096
 20
100.3024437425
 30
0.0
 11
95.2095185096
 21
99.3024437425
 31
0.0
  0
ARC
  5
F1
330
1F
100
AcDbEntity
  8
0
  6
Continuous
 62
     7
370
    15
100
AcDbCircle
 10
96.0095184932
 20
99.3024437261
 30
0.0
 40
0.7999999835971041
100
AcDbArc
 50
179.9999988252
 51
269.9999988252
  0
LINE
  5
F2
330
1F
100
AcDbEntity
  8
0
  6
Continuous
 62
     7
370
    15
100
AcDbLine
 10
96.0095184768
 20
98.5024437425
 30
0.0
 11
97.0095184358
 21
98.5024437425
 31
0.0
  0
LINE
  5
F3
330
1F
100
AcDbEntity
  8
0
  6
Continuous
 62
     7
370
    15
100
AcDbLine
 10
97.0095184358
 20
98.5024437425
 30
0.0
 11
97.0095184358
 21
98.3024437425
 31
0.0
  0
LINE
  5
F4
330
1F
100
AcDbEntity
  8
0
  6
Continuous
 62
     7
370
    15
100
AcDbLine
 10
124.2095173204
 20
98.3024437425
 30
0.0
 11
124.2095173204
 21
98.5024437425
 31
0.0
  0
LINE
  5
F5
330
1F
100
AcDbEntity
  8
0
  6
Continuous
 62
     7
370
    15
100
AcDbLine
 10
160.1095158482
 20
98.6574437425
 30
0.0
 11
161.1095158072
 21
98.6574437425
 31
0.0
  0
ARC
  5
F6
330
1F
100
AcDbEntity
  8
0
  6
Continuous
 62
     7
370
    15
100
AcDbCircle
 10
161.1095157908
 20
99.4574437261
 30
0.0
 40
0.7999999835971041
100
AcDbArc
 50
270.0000011748
 51
0.0000011748
  0
LINE
  5
F7
330
1F
100
AcDbEntity
  8
0
  6
Continuous
 62
     7
370
    15
100
AcDbLine
 10
161.9095157744
 20
99.4574437425
 30
0.0
 11
161.9095157744
 21
100.4574437425
 31
0.0
  0
LINE
  5
F8
330
1F
100
AcDbEntity
  8
0
  6
Continuous
 62
     7
370
    15
100
AcDbLine
 10
161.9095157744
 20
100.4574437425
 30
0.0
 11
162.1095157662
 21
100.4574437425
 31
0.0
  0
LINE
  5
F9
330
1F
100
AcDbEntity
  8
0
  6
Continuous
 62
     7
370
    15
100
AcDbLine
 10
130.9095170456
 20
100.4574437425
 30
0.0
 11
131.1095170374
 21
100.4574437425
 31
0.0
  0
LINE
  5
FA
330
1F
100
AcDbEntity
  8
0
  6
Continuous
 62
     7
370
    15
100
AcDbLine
 10
131.1095170374
 20
100.4574437425
 30
0.0
 11
131.1095170374
 21
99.4574437425
 31
0.0
  0
ARC
  5
FB
330
1F
100
AcDbEntity
  8
0
  6
Continuous
 62
     7
370
    15
100
AcDbCircle
 10
131.909517021
 20
99.4574437261
 30
0.0
 40
0.7999999835971182
100
AcDbArc
 50
179.9999988252
 51
269.9999988252
  0
LINE
  5
FC
330
1F
100
AcDbEntity
  8
0
  6
Continuous
 62
     7
370
    15
100
AcDbLine
 10
131.9095170046
 20
98.6574437425
 30
0.0
 11
132.9095169636
 21
98.6574437425
 31
0.0
  0
LINE
  5
FD
330
1F
100
AcDbEntity
  8
0
  6
Continuous
 62
     7
370
    15
100
AcDbLine
 10
132.9095169636
 20
98.6574437425
 30
0.0
 11
132.9095169636
 21
98.4574437425
 31
0.0
  0
LINE
  5
FE
330
1F
100
AcDbEntity
  8
0
  6
Continuous
 62
     7
370
    15
100
AcDbLine
 10
160.1095158482
 20
98.4574437425
 30
0.0
 11
160.1095158482
 21
98.6574437425
 31
0.0
  0
LINE
  5
FF
330
1F
100
AcDbEntity
  8
0
  6
Continuous
 62
     7
370
    15
100
AcDbLine
 10
196.009514376
 20
98.6574437425
 30
0.0
 11
197.009514335
 21
98.6574437425
 31
0.0
  0
ARC
  5
100
330
1F
100
AcDbEntity
  8
0
  6
Continuous
 62
     7
370
    15
100
AcDbCircle
 10
197.0095143186
 20
99.4574437261
 30
0.0
 40
0.7999999835971182
100
AcDbArc
 50
270.0000011748
 51
0.0000011748
  0
LINE
  5
101
330
1F
100
AcDbEntity
  8
0
  6
Continuous
 62
     7
370
    15
100
AcDbLine
 10
197.8095143022
 20
99.4574437425
 30
0.0
 11
197.8095143022
 21
100.4574437425
 31
0.0
  0
LINE
  5
102
330
1F
100
AcDbEntity
  8
0
  6
Continuous
 62
     7
370
    15
100
AcDbLine
 10
197.8095143022
 20
100.4574437425
 30
0.0
 11
198.009514294
 21
100.4574437425
 31
0.0
  0
LINE
  5
103
330
1F
100
AcDbEntity
  8
0
  6
Continuous
 62
     7
370
    15
100
AcDbLine
 10
166.8095155734
 20
100.4574437425
 30
0.0
 11
167.0095155652
 21
100.4574437425
 31
0.0
  0
LINE
  5
104
330
1F
100
AcDbEntity
  8
0
  6
Continuous
 62
     7
370
    15
100
AcDbLine
 10
167.0095155652
 20
100.4574437425
 30
0.0
 11
167.0095155652
 21
99.4574437425
 31
0.0
  0
ARC
  5
105
330
1F
100
AcDbEntity
  8
0
  6
Continuous
 62
     7
370
    15
100
AcDbCircle
 10
167.8095155488
 20
99.4574437261
 30
0.0
 40
0.7999999835970898
100
AcDbArc
 50
179.9999988252
 51
269.9999988252
  0
LINE
  5
106
330
1F
100
AcDbEntity
  8
0
  6
Continuous
 62
     7
370
    15
100
AcDbLine
 10
167.8095155324
 20
98.6574437425
 30
0.0
 11
168.8095154914
 21
98.6574437425
 31
0.0
  0
LINE
  5
107
330
1F
100
AcDbEntity
  8
0
  6
Continuous
 62
     7
370
    15
100
AcDbLine
 10
168.8095154914
 20
98.6574437425
 30
0.0
 11
168.8095154914
 21
98.4574437425
 31
0.0
  0
LINE
  5
108
330
1F
100
AcDbEntity
  8
0
  6
Continuous
 62
     7
370
    15
100
AcDbLine
 10
196.009514376
 20
98.4574437425
 30
0.0
 11
196.009514376
 21
98.6574437425
 31
0.0
  0
LINE
  5
109
330
1F
100
AcDbEntity
  8
0
  6
Continuous
 62
     7
370
    15
100
AcDbLine
 10
202.7095141013
 20
100.4574437425
 30
0.0
 11
202.9095140931
 21
100.4574437425
 31
0.0
  0
LINE
  5
10A
330
1F
100
AcDbEntity
  8
0
  6
Continuous
 62
     7
370
    15
100
AcDbLine
 10
202.9095140931
 20
100.4574437425
 30
0.0
 11
202.9095140931
 21
99.4574437425
 31
0.0
  0
ARC
  5
10B
330
1F
100
AcDbEntity
  8
0
  6
Continuous
 62
     7
370
    15
100
AcDbCircle
 10
203.7095140767
 20
99.4574437261
 30
0.0
 40
0.7999999835970898
100
AcDbArc
 50
179.9999988252
 51
269.9999988252
  0
LINE
  5
10C
330
1F
100
AcDbEntity
  8
0
  6
Continuous
 62
     7
370
    15
100
AcDbLine
 10
203.7095140603
 20
98.6574437425
 30
0.0
 11
204.7095140193
 21
98.6574437425
 31
0.0
  0
LINE
  5
10D
330
1F
100
AcDbEntity
  8
0
  6
Continuous
 62
     7
370
    15
100
AcDbLine
 10
204.7095140193
 20
98.6574437425
 30
0.0
 11
204.7095140193
 21
98.4574437425
 31
0.0
  0
LINE
  5
10E
330
1F
100
AcDbEntity
  8
0
  6
Continuous
 62
     7
370
    15
100
AcDbLine
 10
231.9095129039
 20
98.4574437425
 30
0.0
 11
231.9095129039
 21
98.6574437425
 31
0.0
  0
LINE
  5
10F
330
1F
100
AcDbEntity
  8
0
  6
Continuous
 62
     7
370
    15
100
AcDbLine
 10
231.9095129039
 20
98.6574437425
 30
0.0
 11
232.9095128629
 21
98.6574437425
 31
0.0
  0
ARC
  5
110
330
1F
100
AcDbEntity
  8
0
  6
Continuous
 62
     7
370
    15
100
AcDbCircle
 10
232.9095128465
 20
99.4574437261
 30
0.0
 40
0.7999999835971041
100
AcDbArc
 50
270.0000011748
 51
0.0000011748
  0
LINE
  5
111
330
1F
100
AcDbEntity
  8
0
  6
Continuous
 62
     7
370
    15
100
AcDbLine
 10
233.7095128301
 20
99.4574437425
 30
0.0
 11
233.7095128301
 21
100.4574437425
 31
0.0
  0
LINE
  5
112
330
1F
100
AcDbEntity
  8
0
  6
Continuous
 62
     7
370
    15
100
AcDbLine
 10
233.7095128301
 20
100.4574437425
 30
0.0
 11
233.9095128219
 21
100.4574437425
 31
0.0
  0
LINE
  5
113
330
1F
100
AcDbEntity
  8
0
  6
Continuous
 62
     7
370
    15
100
AcDbLine
 10
238.6095126291
 20
100.3024437425
 30
0.0
 11
238.8095126209
 21
100.3024437425
 31
0.0
  0
LINE
  5
114
330
1F
100
AcDbEntity
  8
0
  6
Continuous
 62
     7
370
    15
100
AcDbLine
 10
238.8095126209
 20
100.3024437425
 30
0.0
 11
238.8095126209
 21
99.3024437425
 31
0.0
  0
ARC
  5
115
330
1F
100
AcDbEntity
  8
0
  6
Continuous
 62
     7
370
    15
100
AcDbCircle
 10
239.6095126045
 20
99.3024437261
 30
0.0
 40
0.7999999835970045
100
AcDbArc
 50
179.9999988252
 51
269.9999988252
  0
LINE
  5
116
330
1F
100
AcDbEntity
  8
0
  6
Continuous
 62
     7
370
    15
100
AcDbLine
 10
239.6095125881
 20
98.5024437425
 30
0.0
 11
240.6095125471
 21
98.5024437425
 31
0.0
  0
LINE
  5
117
330
1F
100
AcDbEntity
  8
0
  6
Continuous
 62
     7
370
    15
100
AcDbLine
 10
240.6095125471
 20
98.5024437425
 30
0.0
 11
240.6095125471
 21
98.3024437425
 31
0.0
  0
LINE
  5
118
330
1F
100
AcDbEntity
  8
0
  6
Continuous
 62
     7
370
    15
100
AcDbLine
 10
267.8095114317
 20
98.3024437425
 30
0.0
 11
267.8095114317
 21
98.5024437425
 31
0.0
  0
LINE
  5
119
330
1F
100
AcDbEntity
  8
0
  6
Continuous
 62
     7
370
    15
100
AcDbLine
 10
267.8095114317
 20
98.5024437425
 30
0.0
 11
268.8095113907
 21
98.5024437425
 31
0.0
  0
ARC
  5
11A
330
1F
100
AcDbEntity
  8
0
  6
Continuous
 62
     7
370
    15
100
AcDbCircle
 10
268.8095113743
 20
99.3024437261
 30
0.0
 40
0.7999999835969761
100
AcDbArc
 50
270.0000011748
 51
0.0000011748
  0
LINE
  5
11B
330
1F
100
AcDbEntity
  8
0
  6
Continuous
 62
     7
370
    15
100
AcDbLine
 10
269.6095113579
 20
99.3024437425
 30
0.0
 11
269.6095113579
 21
100.3024437425
 31
0.0
  0
LINE
  5
11C
330
1F
100
AcDbEntity
  8
0
  6
Continuous
 62
     7
370
    15
100
AcDbLine
 10
269.6095113579
 20
100.3024437425
 30
0.0
 11
269.8095113497
 21
100.3024437425
 31
0.0
  0
LINE
  5
11D
330
1F
100
AcDbEntity
  8
0
  6
Continuous
 62
     7
370
    15
100
AcDbLine
 10
149.6595162767
 20
98.1524437425
 30
0.0
 11
143.3595165351
 21
98.1524437425
 31
0.0
  0
ARC
  5
11E
330
1F
100
AcDbEntity
  8
0
  6
Continuous
 62
     7
370
    15
100
AcDbCircle
 10
143.3595165549
 20
97.5524437425
 30
0.0
 40
0.5999999999985594
100
AcDbArc
 50
90.0000018909
 51
269.9999981091
  0
LINE
  5
11F
330
1F
100
AcDbEntity
  8
0
  6
Continuous
 62
     7
370
    15
100
AcDbLine
 10
149.6595162767
 20
96.9524437425
 30
0.0
 11
143.3595165351
 21
96.9524437425
 31
0.0
  0
ARC
  5
120
330
1F
100
AcDbEntity
  8
0
  6
Continuous
 62
     7
370
    15
100
AcDbCircle
 10
149.6595162569
 20
97.5524437425
 30
0.0
 40
0.6000000000000089
100
AcDbArc
 50
270.0000018908
 51
89.9999981092
  0
LINE
  5
121
330
1F
100
AcDbEntity
  8
0
  6
Continuous
 62
     7
370
    15
100
AcDbLine
 10
221.4595133324
 20
98.1524437425
 30
0.0
 11
215.1595135907
 21
98.1524437425
 31
0.0
  0
ARC
  5
122
330
1F
100
AcDbEntity
  8
0
  6
Continuous
 62
     7
370
    15
100
AcDbCircle
 10
215.1595136105
 20
97.5524437425
 30
0.0
 40
0.5999999999985309
100
AcDbArc
 50
90.000001891
 51
269.999998109
  0
LINE
  5
123
330
1F
100
AcDbEntity
  8
0
  6
Continuous
 62
     7
370
    15
100
AcDbLine
 10
221.4595133324
 20
96.9524437425
 30
0.0
 11
215.1595135907
 21
96.9524437425
 31
0.0
  0
ARC
  5
124
330
1F
100
AcDbEntity
  8
0
  6
Continuous
 62
     7
370
    15
100
AcDbCircle
 10
221.4595133126
 20
97.5524437425
 30
0.0
 40
0.5999999999999946
100
AcDbArc
 50
270.0000018908
 51
89.9999981092
  0
LINE
  5
125
330
1F
100
AcDbEntity
  8
0
  6
Continuous
 62
     7
370
    15
100
AcDbLine
 10
269.6095247855
 20
100.3024437425
 30
0.0
 11
269.35964024
 21
100.3024437425
 31
0.0
  0
LINE
  5
126
330
1F
100
AcDbEntity
  8
0
  6
Continuous
 62
     7
370
    15
100
AcDbLine
 10
269.35964024
 20
115.9574437424
 30
0.0
 11
269.35964024
 21
100.3024437425
 31
0.0
  0
LINE
  5
127
330
1F
100
AcDbEntity
  8
0
  6
Continuous
 62
     7
370
    15
100
AcDbLine
 10
266.632395048
 20
149.5524437425
 30
0.0
 11
267.1820265724
 21
149.5524437425
 31
0.0
  0
LWPOLYLINE
  5
128
330
1F
100
AcDbEntity
  8
0
  6
Continuous
 62
     7
370
    15
100
AcDbPolyline
 90
        9
 70
   128
 43
0.0
 10
240.6095125471
 20
98.3024437425
 10
240.6095127606
 20
98.3283355971
 10
240.6095134004
 20
98.3541416641
 10
240.6095144643
 20
98.3797764403
 10
240.6095159489
 20
98.4051549898
 10
240.6095178492
 20
98.4301932258
 10
240.6095201589
 20
98.454808189
 10
240.6095228704
 20
98.4789183226
 10
240.6095259747
 20
98.5024437425
  0
ARC
  5
129
330
1F
100
AcDbEntity
  8
0
  6
Continuous
 62
     7
370
    15
100
AcDbCircle
 10
413.1707187544
 20
98.5477589789
 30
0.0
 40
172.5611987296273
100
AcDbArc
 50
179.9320381643
 51
180.0150460929
  0
LINE
  5
12A
330
1F
100
AcDbEntity
  8
0
  6
Continuous
 62
     7
370
    15
100
AcDbLine
 10
267.8096403036
 20
98.7524437425
 30
0.0
 11
240.609641419
 21
98.7524437425
 31
0.0
  0
ARC
  5
12B
330
1F
100
AcDbEntity
  8
0
  6
Continuous
 62
     7
370
    15
100
AcDbCircle
 10
440.3707177324
 20
98.5477589789
 30
0.0
 40
172.5611988230642
100
AcDbArc
 50
179.9320381644
 51
180.0150460929
  0
LINE
  5
12C
330
1F
100
AcDbEntity
  8
0
  6
Continuous
 62
     7
370
    15
100
AcDbLine
 10
240.6095125471
 20
98.5024437425
 30
0.0
 11
240.6095259747
 21
98.5024437425
 31
0.0
  0
ARC
  5
12D
330
1F
100
AcDbEntity
  8
0
  6
Continuous
 62
     7
370
    15
100
AcDbCircle
 10
239.6095555618
 20
99.3024437261
 30
0.0
 40
0.7999999835971041
100
AcDbArc
 50
179.9999988252
 51
269.9999988252
  0
LINE
  5
12E
330
1F
100
AcDbEntity
  8
0
  6
Continuous
 62
     7
370
    15
100
AcDbLine
 10
239.0596414825
 20
100.3024437425
 30
0.0
 11
238.8095260485
 21
100.3024437425
 31
0.0
  0
LINE
  5
12F
330
1F
100
AcDbEntity
  8
0
  6
Continuous
 62
     7
370
    15
100
AcDbLine
 10
238.8095555782
 20
100.3024437425
 30
0.0
 11
238.8095555782
 21
99.3024437425
 31
0.0
  0
LINE
  5
130
330
1F
100
AcDbEntity
  8
0
  6
Continuous
 62
     7
370
    15
100
AcDbLine
 10
238.8095126209
 20
100.3024437425
 30
0.0
 11
238.8095260485
 21
100.3024437425
 31
0.0
  0
ARC
  5
131
330
1F
100
AcDbEntity
  8
0
  6
Continuous
 62
     7
370
    15
100
AcDbCircle
 10
236.2595557001
 20
109.2324437425
 30
0.0
 40
0.5250000000000201
100
AcDbArc
 50
90.0000018917
 51
269.9999981092
  0
LINE
  5
132
330
1F
100
AcDbEntity
  8
0
  6
Continuous
 62
     7
370
    15
100
AcDbLine
 10
233.7095262577
 20
100.4574437425
 30
0.0
 11
233.4596417122
 21
100.4574437425
 31
0.0
  0
LINE
  5
133
330
1F
100
AcDbEntity
  8
0
  6
Continuous
 62
     7
370
    15
100
AcDbLine
 10
233.4596417122
 20
138.2974437424
 30
0.0
 11
233.4596417122
 21
138.1974437424
 31
0.0
  0
LINE
  5
134
330
1F
100
AcDbEntity
  8
0
  6
Continuous
 62
     7
370
    15
100
AcDbLine
 10
233.4596417122
 20
115.9574437424
 30
0.0
 11
233.4596417122
 21
100.4574437425
 31
0.0
  0
LWPOLYLINE
  5
135
330
1F
100
AcDbEntity
  8
0
  6
Continuous
 62
     7
370
    15
100
AcDbPolyline
 90
        9
 70
   128
 43
0.0
 10
204.7095140193
 20
98.4574437425
 10
204.7095142328
 20
98.4833355971
 10
204.7095148725
 20
98.5091416641
 10
204.7095159365
 20
98.5347764403
 10
204.7095174211
 20
98.5601549898
 10
204.7095193214
 20
98.5851932258
 10
204.7095216311
 20
98.609808189
 10
204.7095243426
 20
98.6339183226
 10
204.7095274469
 20
98.6574437425
  0
ARC
  5
136
330
1F
100
AcDbEntity
  8
0
  6
Continuous
 62
     7
370
    15
100
AcDbCircle
 10
377.2707203212
 20
98.7027589789
 30
0.0
 40
172.5611988242736
100
AcDbArc
 50
179.9320381644
 51
180.0150460929
  0
LINE
  5
137
330
1F
100
AcDbEntity
  8
0
  6
Continuous
 62
     7
370
    15
100
AcDbLine
 10
231.9096417757
 20
98.9074437425
 30
0.0
 11
204.7096428911
 21
98.9074437425
 31
0.0
  0
ARC
  5
138
330
1F
100
AcDbEntity
  8
0
  6
Continuous
 62
     7
370
    15
100
AcDbCircle
 10
404.4707190667
 20
98.702758979
 30
0.0
 40
172.5611986851971
100
AcDbArc
 50
179.9320381643
 51
180.0150460929
  0
LINE
  5
139
330
1F
100
AcDbEntity
  8
0
  6
Continuous
 62
     7
370
    15
100
AcDbLine
 10
204.7095140193
 20
98.6574437425
 30
0.0
 11
204.7095274469
 21
98.6574437425
 31
0.0
  0
ARC
  5
13A
330
1F
100
AcDbEntity
  8
0
  6
Continuous
 62
     7
370
    15
100
AcDbCircle
 10
203.709557034
 20
99.4574437261
 30
0.0
 40
0.7999999835971324
100
AcDbArc
 50
179.9999988252
 51
269.9999988252
  0
LINE
  5
13B
330
1F
100
AcDbEntity
  8
0
  6
Continuous
 62
     7
370
    15
100
AcDbLine
 10
203.1596429547
 20
100.4574437425
 30
0.0
 11
202.9095275207
 21
100.4574437425
 31
0.0
  0
LINE
  5
13C
330
1F
100
AcDbEntity
  8
0
  6
Continuous
 62
     7
370
    15
100
AcDbLine
 10
202.9095140931
 20
100.4574437425
 30
0.0
 11
202.9095275207
 21
100.4574437425
 31
0.0
  0
LINE
  5
13D
330
1F
100
AcDbEntity
  8
0
  6
Continuous
 62
     7
370
    15
100
AcDbLine
 10
202.9095570504
 20
100.4574437425
 30
0.0
 11
202.9095570504
 21
99.4574437425
 31
0.0
  0
LINE
  5
13E
330
1F
100
AcDbEntity
  8
0
  6
Continuous
 62
     7
370
    15
100
AcDbLine
 10
197.8095277298
 20
100.4574437425
 30
0.0
 11
197.5596431843
 21
100.4574437425
 31
0.0
  0
LINE
  5
13F
330
1F
100
AcDbEntity
  8
0
  6
Continuous
 62
     7
370
    15
100
AcDbLine
 10
197.5596431843
 20
138.2974437424
 30
0.0
 11
197.5596431843
 21
138.1974437424
 31
0.0
  0
LINE
  5
140
330
1F
100
AcDbEntity
  8
0
  6
Continuous
 62
     7
370
    15
100
AcDbLine
 10
197.5596431843
 20
115.9574437424
 30
0.0
 11
197.5596431843
 21
100.4574437425
 31
0.0
  0
LWPOLYLINE
  5
141
330
1F
100
AcDbEntity
  8
0
  6
Continuous
 62
     7
370
    15
100
AcDbPolyline
 90
        9
 70
   128
 43
0.0
 10
168.8095154914
 20
98.4574437425
 10
168.8095157049
 20
98.4833355971
 10
168.8095163447
 20
98.5091416641
 10
168.8095174087
 20
98.5347764403
 10
168.8095188932
 20
98.5601549898
 10
168.8095207935
 20
98.5851932258
 10
168.8095231033
 20
98.609808189
 10
168.8095258148
 20
98.6339183226
 10
168.8095289191
 20
98.6574437425
  0
ARC
  5
142
330
1F
100
AcDbEntity
  8
0
  6
Continuous
 62
     7
370
    15
100
AcDbCircle
 10
341.3707217933
 20
98.7027589789
 30
0.0
 40
172.5611988242705
100
AcDbArc
 50
179.9320381644
 51
180.0150460929
  0
LINE
  5
143
330
1F
100
AcDbEntity
  8
0
  6
Continuous
 62
     7
370
    15
100
AcDbLine
 10
196.0096432479
 20
98.9074437425
 30
0.0
 11
168.8096443633
 21
98.9074437425
 31
0.0
  0
ARC
  5
144
330
1F
100
AcDbEntity
  8
0
  6
Continuous
 62
     7
370
    15
100
AcDbCircle
 10
368.5707205389
 20
98.702758979
 30
0.0
 40
172.5611986851971
100
AcDbArc
 50
179.9320381643
 51
180.0150460929
  0
LINE
  5
145
330
1F
100
AcDbEntity
  8
0
  6
Continuous
 62
     7
370
    15
100
AcDbLine
 10
168.8095154914
 20
98.6574437425
 30
0.0
 11
168.8095289191
 21
98.6574437425
 31
0.0
  0
ARC
  5
146
330
1F
100
AcDbEntity
  8
0
  6
Continuous
 62
     7
370
    15
100
AcDbCircle
 10
167.8095585061
 20
99.4574437261
 30
0.0
 40
0.7999999835971466
100
AcDbArc
 50
179.9999988252
 51
269.9999988252
  0
LINE
  5
147
330
1F
100
AcDbEntity
  8
0
  6
Continuous
 62
     7
370
    15
100
AcDbLine
 10
167.2596444269
 20
100.4574437425
 30
0.0
 11
167.0095289929
 21
100.4574437425
 31
0.0
  0
LINE
  5
148
330
1F
100
AcDbEntity
  8
0
  6
Continuous
 62
     7
370
    15
100
AcDbLine
 10
167.0095585225
 20
100.4574437425
 30
0.0
 11
167.0095585225
 21
99.4574437425
 31
0.0
  0
LINE
  5
149
330
1F
100
AcDbEntity
  8
0
  6
Continuous
 62
     7
370
    15
100
AcDbLine
 10
167.0095155652
 20
100.4574437425
 30
0.0
 11
167.0095289929
 21
100.4574437425
 31
0.0
  0
LINE
  5
14A
330
1F
100
AcDbEntity
  8
0
  6
Continuous
 62
     7
370
    15
100
AcDbLine
 10
161.909529202
 20
100.4574437425
 30
0.0
 11
161.6596446565
 21
100.4574437425
 31
0.0
  0
LINE
  5
14B
330
1F
100
AcDbEntity
  8
0
  6
Continuous
 62
     7
370
    15
100
AcDbLine
 10
161.6596446565
 20
138.2974437424
 30
0.0
 11
161.6596446565
 21
138.1974437424
 31
0.0
  0
LINE
  5
14C
330
1F
100
AcDbEntity
  8
0
  6
Continuous
 62
     7
370
    15
100
AcDbLine
 10
161.6596446565
 20
115.9574437424
 30
0.0
 11
161.6596446565
 21
100.4574437425
 31
0.0
  0
LWPOLYLINE
  5
14D
330
1F
100
AcDbEntity
  8
0
  6
Continuous
 62
     7
370
    15
100
AcDbPolyline
 90
        9
 70
   128
 43
0.0
 10
132.9095169636
 20
98.4574437425
 10
132.9095171771
 20
98.4833355971
 10
132.9095178169
 20
98.5091416641
 10
132.9095188808
 20
98.5347764403
 10
132.9095203654
 20
98.5601549898
 10
132.9095222657
 20
98.5851932258
 10
132.9095245754
 20
98.609808189
 10
132.9095272869
 20
98.6339183226
 10
132.9095303912
 20
98.6574437425
  0
ARC
  5
14E
330
1F
100
AcDbEntity
  8
0
  6
Continuous
 62
     7
370
    15
100
AcDbCircle
 10
305.4707232222
 20
98.7027589789
 30
0.0
 40
172.5611987809607
100
AcDbArc
 50
179.9320381644
 51
180.0150460929
  0
LINE
  5
14F
330
1F
100
AcDbEntity
  8
0
  6
Continuous
 62
     7
370
    15
100
AcDbLine
 10
160.1096447201
 20
98.9074437425
 30
0.0
 11
132.9096458355
 21
98.9074437425
 31
0.0
  0
ARC
  5
150
330
1F
100
AcDbEntity
  8
0
  6
Continuous
 62
     7
370
    15
100
AcDbCircle
 10
332.6707220555
 20
98.7027589789
 30
0.0
 40
172.5611987296655
100
AcDbArc
 50
179.9320381643
 51
180.0150460929
  0
LINE
  5
151
330
1F
100
AcDbEntity
  8
0
  6
Continuous
 62
     7
370
    15
100
AcDbLine
 10
132.9095169636
 20
98.6574437425
 30
0.0
 11
132.9095303912
 21
98.6574437425
 31
0.0
  0
ARC
  5
152
330
1F
100
AcDbEntity
  8
0
  6
Continuous
 62
     7
370
    15
100
AcDbCircle
 10
131.9095599783
 20
99.4574437261
 30
0.0
 40
0.7999999835971466
100
AcDbArc
 50
179.9999988252
 51
269.9999988252
  0
LINE
  5
153
330
1F
100
AcDbEntity
  8
0
  6
Continuous
 62
     7
370
    15
100
AcDbLine
 10
131.359645899
 20
100.4574437425
 30
0.0
 11
131.109530465
 21
100.4574437425
 31
0.0
  0
LINE
  5
154
330
1F
100
AcDbEntity
  8
0
  6
Continuous
 62
     7
370
    15
100
AcDbLine
 10
131.1095599947
 20
100.4574437425
 30
0.0
 11
131.1095599947
 21
99.4574437425
 31
0.0
  0
LINE
  5
155
330
1F
100
AcDbEntity
  8
0
  6
Continuous
 62
     7
370
    15
100
AcDbLine
 10
131.1095170374
 20
100.4574437425
 30
0.0
 11
131.109530465
 21
100.4574437425
 31
0.0
  0
ARC
  5
156
330
1F
100
AcDbEntity
  8
0
  6
Continuous
 62
     7
370
    15
100
AcDbCircle
 10
128.5595601149
 20
109.2324437425
 30
0.0
 40
0.5250000000000201
100
AcDbArc
 50
90.0000017019
 51
269.999998299
  0
LINE
  5
157
330
1F
100
AcDbEntity
  8
0
  6
Continuous
 62
     7
370
    15
100
AcDbLine
 10
126.0095306742
 20
100.3024437425
 30
0.0
 11
125.7596461287
 21
100.3024437425
 31
0.0
  0
LINE
  5
158
330
1F
100
AcDbEntity
  8
0
  6
Continuous
 62
     7
370
    15
100
AcDbLine
 10
125.7596461287
 20
138.2974437424
 30
0.0
 11
125.7596461287
 21
138.1974437424
 31
0.0
  0
LINE
  5
159
330
1F
100
AcDbEntity
  8
0
  6
Continuous
 62
     7
370
    15
100
AcDbLine
 10
125.7596461287
 20
115.9574437424
 30
0.0
 11
125.7596461287
 21
100.3024437425
 31
0.0
  0
LINE
  5
15A
330
1F
100
AcDbEntity
  8
0
  6
Continuous
 62
     7
370
    15
100
AcDbLine
 10
97.5830725775
 20
149.5524437425
 30
0.0
 11
98.1322145592
 21
149.5524437425
 31
0.0
  0
LWPOLYLINE
  5
15B
330
1F
100
AcDbEntity
  8
0
  6
Continuous
 62
     7
370
    15
100
AcDbPolyline
 90
        9
 70
   128
 43
0.0
 10
97.0095184358
 20
98.3024437425
 10
97.0095186493
 20
98.3283355971
 10
97.009519289
 20
98.3541416641
 10
97.009520353
 20
98.3797764403
 10
97.0095218376
 20
98.4051549898
 10
97.0095237379
 20
98.4301932258
 10
97.0095260476
 20
98.454808189
 10
97.0095287591
 20
98.4789183226
 10
97.0095318634
 20
98.5024437425
  0
ARC
  5
15C
330
1F
100
AcDbEntity
  8
0
  6
Continuous
 62
     7
370
    15
100
AcDbCircle
 10
269.570724703
 20
98.5477589789
 30
0.0
 40
172.5611987896378
100
AcDbArc
 50
179.9320381644
 51
180.0150460929
  0
LINE
  5
15D
330
1F
100
AcDbEntity
  8
0
  6
Continuous
 62
     7
370
    15
100
AcDbLine
 10
124.2096461922
 20
98.7524437425
 30
0.0
 11
97.0096473076
 21
98.7524437425
 31
0.0
  0
ARC
  5
15E
330
1F
100
AcDbEntity
  8
0
  6
Continuous
 62
     7
370
    15
100
AcDbCircle
 10
296.7707237264
 20
98.5477589789
 30
0.0
 40
172.561198928362
100
AcDbArc
 50
179.9320381644
 51
180.0150460929
  0
LINE
  5
15F
330
1F
100
AcDbEntity
  8
0
  6
Continuous
 62
     7
370
    15
100
AcDbLine
 10
97.0095184358
 20
98.5024437425
 30
0.0
 11
97.0095318634
 21
98.5024437425
 31
0.0
  0
ARC
  5
160
330
1F
100
AcDbEntity
  8
0
  6
Continuous
 62
     7
370
    15
100
AcDbCircle
 10
96.0095614505
 20
99.3024437261
 30
0.0
 40
0.7999999835971041
100
AcDbArc
 50
179.9999988252
 51
269.9999988252
  0
LINE
  5
161
330
1F
100
AcDbEntity
  8
0
  6
Continuous
 62
     7
370
    15
100
AcDbLine
 10
95.4596473712
 20
100.3024437425
 30
0.0
 11
95.2095319372
 21
100.3024437425
 31
0.0
  0
LINE
  5
162
330
1F
100
AcDbEntity
  8
0
  6
Continuous
 62
     7
370
    15
100
AcDbLine
 10
95.2095614669
 20
100.3024437425
 30
0.0
 11
95.2095614669
 21
99.3024437425
 31
0.0
  0
LINE
  5
163
330
1F
100
AcDbEntity
  8
0
  6
Continuous
 62
     7
370
    15
100
AcDbLine
 10
95.2095185096
 20
100.3024437425
 30
0.0
 11
95.2095319372
 21
100.3024437425
 31
0.0
  0
LINE
  5
164
330
1F
100
AcDbEntity
  8
0
  6
Continuous
 62
     7
370
    15
100
AcDbLine
 10
80.3595620758
 20
158.7024437425
 30
0.0
 11
80.3595191185
 21
158.7024437425
 31
0.0
  0
SPLINE
  5
165
330
1F
100
AcDbEntity
  8
0
  6
Continuous
 62
     7
370
    15
100
AcDbSpline
210
0.0
220
0.0
230
1.0
 70
     8
 71
     3
 72
    11
 73
     7
 74
     0
 42
0.00000001
 43
0.00000001
 40
0.0
 40
0.0
 40
0.0
 40
0.0
 40
0.2529465945604367
 40
0.5061185781772761
 40
0.7592915392995979
 40
1.0
 40
1.0
 40
1.0
 40
1.0
 10
80.06671907022792
 20
159.0024437424558
 30
0.0
 10
80.09140886598409
 20
158.9978244655072
 30
0.0
 10
80.14081045743593
 20
158.9885817955851
 30
0.0
 10
80.21492676954338
 20
158.9175514803414
 30
0.0
 10
80.28787174641997
 20
158.817905289583
 30
0.0
 10
80.33607077918433
 20
158.7402778754057
 30
0.0
 10
80.35956207582214
 20
158.7024437424557
 30
0.0
  0
LINE
  5
166
330
1F
100
AcDbEntity
  8
0
  6
Continuous
 62
     7
370
    15
100
AcDbLine
 10
80.0667190702
 20
159.0024437425
 30
0.0
 11
80.0667190702
 21
159.1524437425
 31
0.0
  0
LINE
  5
167
330
1F
100
AcDbEntity
  8
0
  6
Continuous
 62
     7
370
    15
100
AcDbLine
 10
80.0667190702
 20
89.3024437425
 30
0.0
 11
80.0667190702
 21
89.1524437425
 31
0.0
  0
SPLINE
  5
168
330
1F
100
AcDbEntity
  8
0
  6
Continuous
 62
     7
370
    15
100
AcDbSpline
210
0.0
220
0.0
230
1.0
 70
     8
 71
     3
 72
    11
 73
     7
 74
     0
 42
0.00000001
 43
0.00000001
 40
0.0
 40
0.0
 40
0.0
 40
0.0
 40
0.2500000000000069
 40
0.500000000000009
 40
0.750000000000008
 40
1.0
 40
1.0
 40
1.0
 40
1.0
 10
80.35956207582214
 20
89.6024437424557
 30
0.0
 10
80.33515262390542
 20
89.56313262931384
 30
0.0
 10
80.28633372007204
 20
89.48451040303011
 30
0.0
 10
80.2131213577074
 20
89.38534692190106
 30
0.0
 10
80.13991752629349
 20
89.31597215796435
 30
0.0
 10
80.09111855558307
 20
89.30695321429197
 30
0.0
 10
80.06671907022792
 20
89.30244374245578
 30
0.0
  0
LINE
  5
169
330
1F
100
AcDbEntity
  8
0
  6
Continuous
 62
     7
370
    15
100
AcDbLine
 10
80.3595620758
 20
89.6024437425
 30
0.0
 11
80.3595191185
 21
89.6024437425
 31
0.0
  0
LINE
  5
16A
330
1F
100
AcDbEntity
  8
0
  6
Continuous
 62
     7
370
    15
100
AcDbLine
 10
79.9096480089
 20
158.7024437425
 30
0.0
 11
79.9096480089
 21
89.6024437425
 31
0.0
  0
LINE
  5
16B
330
1F
100
AcDbEntity
  8
0
  6
Continuous
 62
     7
370
    15
100
AcDbLine
 10
80.3595191185
 20
158.7024437425
 30
0.0
 11
79.9096480089
 21
158.7024437425
 31
0.0
  0
LINE
  5
16C
330
1F
100
AcDbEntity
  8
0
  6
Continuous
 62
     7
370
    15
100
AcDbLine
 10
79.9096480089
 20
89.6024437425
 30
0.0
 11
80.3595191185
 21
89.6024437425
 31
0.0
  0
ARC
  5
16D
330
1F
100
AcDbEntity
  8
0
  6
Continuous
 62
     7
370
    15
100
AcDbCircle
 10
305.6022285409
 20
98.6602532382
 30
0.0
 40
73.69265085569964
100
AcDbArc
 50
179.9244346994
 51
180.0021843732
  0
ARC
  5
16E
330
1F
100
AcDbEntity
  8
0
  6
Continuous
 62
     7
370
    15
100
AcDbCircle
 10
269.7022300131
 20
98.6602532382
 30
0.0
 40
73.69265085569958
100
AcDbArc
 50
179.9244346994
 51
180.0021843732
  0
ARC
  5
16F
330
1F
100
AcDbEntity
  8
0
  6
Continuous
 62
     7
370
    15
100
AcDbCircle
 10
233.802231234
 20
98.6602532384
 30
0.0
 40
73.69265060443398
100
AcDbArc
 50
179.9244346993
 51
180.0021843733
  0
LINE
  5
170
330
1F
100
AcDbEntity
  8
0
  6
Continuous
 62
     7
370
    15
100
AcDbLine
 10
284.7538715788
 20
159.0024437425
 30
0.0
 11
284.7538715788
 21
159.1524437425
 31
0.0
  0
LINE
  5
171
330
1F
100
AcDbEntity
  8
0
  6
Continuous
 62
     7
370
    15
100
AcDbLine
 10
284.7538715788
 20
159.0024437425
 30
0.0
 11
284.752568541
 21
159.0024437425
 31
0.0
  0
LINE
  5
172
330
1F
100
AcDbEntity
  8
0
  6
Continuous
 62
     7
370
    15
100
AcDbLine
 10
284.752568541
 20
159.1524437425
 30
0.0
 11
284.7538715788
 21
159.1524437425
 31
0.0
  0
LINE
  5
173
330
1F
100
AcDbEntity
  8
0
  6
Continuous
 62
     7
370
    15
100
AcDbLine
 10
284.7538715788
 20
89.3024437425
 30
0.0
 11
284.7538715788
 21
89.1524437425
 31
0.0
  0
LINE
  5
174
330
1F
100
AcDbEntity
  8
0
  6
Continuous
 62
     7
370
    15
100
AcDbLine
 10
284.752568541
 20
89.1524437425
 30
0.0
 11
284.7538715788
 21
89.1524437425
 31
0.0
  0
LINE
  5
175
330
1F
100
AcDbEntity
  8
0
  6
Continuous
 62
     7
370
    15
100
AcDbLine
 10
284.7538715788
 20
89.3024437425
 30
0.0
 11
284.752568541
 21
89.3024437425
 31
0.0
  0
LINE
  5
176
330
1F
100
AcDbEntity
  8
0
  6
Continuous
 62
     7
370
    15
100
AcDbLine
 10
284.9096396024
 20
158.7024437425
 30
0.0
 11
284.9096396024
 21
158.9953726746
 31
0.0
  0
LINE
  5
177
330
1F
100
AcDbEntity
  8
0
  6
Continuous
 62
     7
370
    15
100
AcDbLine
 10
284.9096396024
 20
158.9953726746
 30
0.0
 11
284.9109426402
 21
158.9953726746
 31
0.0
  0
LINE
  5
178
330
1F
100
AcDbEntity
  8
0
  6
Continuous
 62
     7
370
    15
100
AcDbLine
 10
284.9109426402
 20
89.3095148103
 30
0.0
 11
284.9109426402
 21
158.9953726746
 31
0.0
  0
LINE
  5
179
330
1F
100
AcDbEntity
  8
0
  6
Continuous
 62
     7
370
    15
100
AcDbLine
 10
284.9096396024
 20
89.3095148103
 30
0.0
 11
284.9109426402
 21
89.3095148103
 31
0.0
  0
LINE
  5
17A
330
1F
100
AcDbEntity
  8
0
  6
Continuous
 62
     7
370
    15
100
AcDbLine
 10
284.9096396024
 20
89.6024437425
 30
0.0
 11
284.9096396024
 21
89.3095148103
 31
0.0
  0
LINE
  5
17B
330
1F
100
AcDbEntity
  8
0
  6
Continuous
 62
     7
370
    15
100
AcDbLine
 10
284.7596396085
 20
158.7024437425
 30
0.0
 11
284.7596396085
 21
158.9953726746
 31
0.0
  0
LINE
  5
17C
330
1F
100
AcDbEntity
  8
0
  6
Continuous
 62
     7
370
    15
100
AcDbLine
 10
284.9096396024
 20
158.9953726746
 30
0.0
 11
284.7596396085
 21
158.9953726746
 31
0.0
  0
LINE
  5
17D
330
1F
100
AcDbEntity
  8
0
  6
Continuous
 62
     7
370
    15
100
AcDbLine
 10
284.9096396024
 20
89.3095148103
 30
0.0
 11
284.7596396085
 21
89.3095148103
 31
0.0
  0
LINE
  5
17E
330
1F
100
AcDbEntity
  8
0
  6
Continuous
 62
     7
370
    15
100
AcDbLine
 10
284.7596396085
 20
89.6024437425
 30
0.0
 11
284.7596396085
 21
89.3095148103
 31
0.0
  0
LINE
  5
17F
330
1F
100
AcDbEntity
  8
0
  6
Continuous
 62
     7
370
    15
100
AcDbLine
 10
267.8099266855
 20
98.7524437425
 30
0.0
 11
267.8099266855
 21
98.7074437425
 31
0.0
  0
LINE
  5
180
330
1F
100
AcDbEntity
  8
0
  6
Continuous
 62
     7
370
    15
100
AcDbLine
 10
267.8096403036
 20
98.7524437425
 30
0.0
 11
267.8099266855
 21
98.7524437425
 31
0.0
  0
LINE
  5
181
330
1F
100
AcDbEntity
  8
0
  6
Continuous
 62
     7
370
    15
100
AcDbLine
 10
239.0599278645
 20
100.3024437425
 30
0.0
 11
239.0599278645
 21
115.9574437424
 31
0.0
  0
LINE
  5
182
330
1F
100
AcDbEntity
  8
0
  6
Continuous
 62
     7
370
    15
100
AcDbLine
 10
239.0599278645
 20
138.1974437424
 30
0.0
 11
239.0599278645
 21
138.2974437424
 31
0.0
  0
LINE
  5
183
330
1F
100
AcDbEntity
  8
0
  6
Continuous
 62
     7
370
    15
100
AcDbLine
 10
239.0596414825
 20
100.3024437425
 30
0.0
 11
239.0599278645
 21
100.3024437425
 31
0.0
  0
LINE
  5
184
330
1F
100
AcDbEntity
  8
0
  6
Continuous
 62
     7
370
    15
100
AcDbLine
 10
231.9099281577
 20
98.9074437425
 30
0.0
 11
231.9099281577
 21
98.7574437425
 31
0.0
  0
LINE
  5
185
330
1F
100
AcDbEntity
  8
0
  6
Continuous
 62
     7
370
    15
100
AcDbLine
 10
231.9096417757
 20
98.7574437425
 30
0.0
 11
231.9099281577
 21
98.7574437425
 31
0.0
  0
LINE
  5
186
330
1F
100
AcDbEntity
  8
0
  6
Continuous
 62
     7
370
    15
100
AcDbLine
 10
231.9096417757
 20
98.9074437425
 30
0.0
 11
231.9099281577
 21
98.9074437425
 31
0.0
  0
LINE
  5
187
330
1F
100
AcDbEntity
  8
0
  6
Continuous
 62
     7
370
    15
100
AcDbLine
 10
203.1599293366
 20
100.4574437425
 30
0.0
 11
203.1599293366
 21
115.9574437424
 31
0.0
  0
LINE
  5
188
330
1F
100
AcDbEntity
  8
0
  6
Continuous
 62
     7
370
    15
100
AcDbLine
 10
203.1599293366
 20
138.1974437424
 30
0.0
 11
203.1599293366
 21
138.2974437424
 31
0.0
  0
LINE
  5
189
330
1F
100
AcDbEntity
  8
0
  6
Continuous
 62
     7
370
    15
100
AcDbLine
 10
203.1596429547
 20
100.4574437425
 30
0.0
 11
203.1599293366
 21
100.4574437425
 31
0.0
  0
LINE
  5
18A
330
1F
100
AcDbEntity
  8
0
  6
Continuous
 62
     7
370
    15
100
AcDbLine
 10
196.0096432479
 20
98.9074437425
 30
0.0
 11
196.0099296298
 21
98.9074437425
 31
0.0
  0
LINE
  5
18B
330
1F
100
AcDbEntity
  8
0
  6
Continuous
 62
     7
370
    15
100
AcDbLine
 10
196.0099296298
 20
98.9074437425
 30
0.0
 11
196.0099296298
 21
98.7574437425
 31
0.0
  0
LINE
  5
18C
330
1F
100
AcDbEntity
  8
0
  6
Continuous
 62
     7
370
    15
100
AcDbLine
 10
196.0096432479
 20
98.7574437425
 30
0.0
 11
196.0099296298
 21
98.7574437425
 31
0.0
  0
LINE
  5
18D
330
1F
100
AcDbEntity
  8
0
  6
Continuous
 62
     7
370
    15
100
AcDbLine
 10
167.2599308088
 20
100.4574437425
 30
0.0
 11
167.2599308088
 21
115.9574437424
 31
0.0
  0
LINE
  5
18E
330
1F
100
AcDbEntity
  8
0
  6
Continuous
 62
     7
370
    15
100
AcDbLine
 10
167.2599308088
 20
138.1974437424
 30
0.0
 11
167.2599308088
 21
138.2974437424
 31
0.0
  0
LINE
  5
18F
330
1F
100
AcDbEntity
  8
0
  6
Continuous
 62
     7
370
    15
100
AcDbLine
 10
167.2596444269
 20
100.4574437425
 30
0.0
 11
167.2599308088
 21
100.4574437425
 31
0.0
  0
LINE
  5
190
330
1F
100
AcDbEntity
  8
0
  6
Continuous
 62
     7
370
    15
100
AcDbLine
 10
160.109931102
 20
98.9074437425
 30
0.0
 11
160.109931102
 21
98.7574437425
 31
0.0
  0
LINE
  5
191
330
1F
100
AcDbEntity
  8
0
  6
Continuous
 62
     7
370
    15
100
AcDbLine
 10
160.1096447201
 20
98.9074437425
 30
0.0
 11
160.109931102
 21
98.9074437425
 31
0.0
  0
LINE
  5
192
330
1F
100
AcDbEntity
  8
0
  6
Continuous
 62
     7
370
    15
100
AcDbLine
 10
160.1096447201
 20
98.7574437425
 30
0.0
 11
160.109931102
 21
98.7574437425
 31
0.0
  0
LINE
  5
193
330
1F
100
AcDbEntity
  8
0
  6
Continuous
 62
     7
370
    15
100
AcDbLine
 10
131.359932281
 20
100.4574437425
 30
0.0
 11
131.359932281
 21
115.9574437424
 31
0.0
  0
LINE
  5
194
330
1F
100
AcDbEntity
  8
0
  6
Continuous
 62
     7
370
    15
100
AcDbLine
 10
131.359932281
 20
138.1974437424
 30
0.0
 11
131.359932281
 21
138.2974437424
 31
0.0
  0
LINE
  5
195
330
1F
100
AcDbEntity
  8
0
  6
Continuous
 62
     7
370
    15
100
AcDbLine
 10
131.359645899
 20
100.4574437425
 30
0.0
 11
131.359932281
 21
100.4574437425
 31
0.0
  0
LINE
  5
196
330
1F
100
AcDbEntity
  8
0
  6
Continuous
 62
     7
370
    15
100
AcDbLine
 10
124.2096461922
 20
98.7524437425
 30
0.0
 11
124.2099325742
 21
98.7524437425
 31
0.0
  0
LINE
  5
197
330
1F
100
AcDbEntity
  8
0
  6
Continuous
 62
     7
370
    15
100
AcDbLine
 10
124.2099325742
 20
98.7524437425
 30
0.0
 11
124.2099325742
 21
98.7074437425
 31
0.0
  0
LINE
  5
198
330
1F
100
AcDbEntity
  8
0
  6
Continuous
 62
     7
370
    15
100
AcDbLine
 10
95.4599337531
 20
100.3024437425
 30
0.0
 11
95.4599337531
 21
115.9574437424
 31
0.0
  0
LINE
  5
199
330
1F
100
AcDbEntity
  8
0
  6
Continuous
 62
     7
370
    15
100
AcDbLine
 10
95.4596473712
 20
100.3024437425
 30
0.0
 11
95.4599337531
 21
100.3024437425
 31
0.0
  0
LINE
  5
19A
330
1F
100
AcDbEntity
  8
0
  6
Continuous
 62
     7
370
    15
100
AcDbLine
 10
79.9096480089
 20
158.7024437425
 30
0.0
 11
79.9096480089
 21
158.9953726746
 31
0.0
  0
LINE
  5
19B
330
1F
100
AcDbEntity
  8
0
  6
Continuous
 62
     7
370
    15
100
AcDbLine
 10
79.9096480089
 20
158.9953726746
 30
0.0
 11
80.0596480027
 21
158.9953726746
 31
0.0
  0
LINE
  5
19C
330
1F
100
AcDbEntity
  8
0
  6
Continuous
 62
     7
370
    15
100
AcDbLine
 10
80.0596480027
 20
158.7024437425
 30
0.0
 11
80.0596480027
 21
158.9953726746
 31
0.0
  0
LINE
  5
19D
330
1F
100
AcDbEntity
  8
0
  6
Continuous
 62
     7
370
    15
100
AcDbLine
 10
80.0596480027
 20
89.3095148103
 30
0.0
 11
80.0609510405
 21
89.3095148103
 31
0.0
  0
LINE
  5
19E
330
1F
100
AcDbEntity
  8
0
  6
Continuous
 62
     7
370
    15
100
AcDbLine
 10
80.0596480027
 20
89.6024437425
 30
0.0
 11
80.0596480027
 21
89.3095148103
 31
0.0
  0
LINE
  5
19F
330
1F
100
AcDbEntity
  8
0
  6
Continuous
 62
     7
370
    15
100
AcDbLine
 10
80.0609510405
 20
158.9953726746
 30
0.0
 11
80.0609510405
 21
158.7024437425
 31
0.0
  0
LINE
  5
1A0
330
1F
100
AcDbEntity
  8
0
  6
Continuous
 62
     7
370
    15
100
AcDbLine
 10
80.0609510405
 20
89.6024437425
 30
0.0
 11
80.0609510405
 21
89.3095148103
 31
0.0
  0
LINE
  5
1A1
330
1F
100
AcDbEntity
  8
0
  6
Continuous
 62
     7
370
    15
100
AcDbLine
 10
80.0596480027
 20
158.9953726746
 30
0.0
 11
80.0609510405
 21
158.9953726746
 31
0.0
  0
LINE
  5
1A2
330
1F
100
AcDbEntity
  8
0
  6
Continuous
 62
     7
370
    15
100
AcDbLine
 10
79.9096480089
 20
89.6024437425
 30
0.0
 11
79.9096480089
 21
89.3095148103
 31
0.0
  0
LINE
  5
1A3
330
1F
100
AcDbEntity
  8
0
  6
Continuous
 62
     7
370
    15
100
AcDbLine
 10
79.9096480089
 20
89.3095148103
 30
0.0
 11
80.0596480027
 21
89.3095148103
 31
0.0
  0
LINE
  5
1A4
330
1F
100
AcDbEntity
  8
0
  6
Continuous
 62
     7
370
    15
100
AcDbLine
 10
269.5596316404
 20
99.0243797842
 30
0.0
 11
269.5596316404
 21
100.3024437425
 31
0.0
  0
LINE
  5
1A5
330
1F
100
AcDbEntity
  8
0
  6
Continuous
 62
     7
370
    15
100
AcDbLine
 10
267.8096317121
 20
98.7074437425
 30
0.0
 11
269.3442776729
 21
98.7074437425
 31
0.0
  0
LINE
  5
1A6
330
1F
100
AcDbEntity
  8
0
  6
Continuous
 62
     7
370
    15
100
AcDbLine
 10
231.9095942847
 20
98.7074437425
 30
0.0
 11
233.1879010696
 21
98.7074437425
 31
0.0
  0
LINE
  5
1A7
330
1F
100
AcDbEntity
  8
0
  6
Continuous
 62
     7
370
    15
100
AcDbLine
 10
239.0747892632
 20
98.7074437425
 30
0.0
 11
240.609585245
 21
98.7074437425
 31
0.0
  0
LINE
  5
1A8
330
1F
100
AcDbEntity
  8
0
  6
Continuous
 62
     7
370
    15
100
AcDbLine
 10
196.0095957568
 20
98.7074437425
 30
0.0
 11
197.2879025418
 21
98.7074437425
 31
0.0
  0
LINE
  5
1A9
330
1F
100
AcDbEntity
  8
0
  6
Continuous
 62
     7
370
    15
100
AcDbLine
 10
203.4311688108
 20
98.7074437425
 30
0.0
 11
204.7095357368
 21
98.7074437425
 31
0.0
  0
LINE
  5
1AA
330
1F
100
AcDbEntity
  8
0
  6
Continuous
 62
     7
370
    15
100
AcDbLine
 10
160.109597229
 20
98.7074437425
 30
0.0
 11
161.3879040139
 21
98.7074437425
 31
0.0
  0
LINE
  5
1AB
330
1F
100
AcDbEntity
  8
0
  6
Continuous
 62
     7
370
    15
100
AcDbLine
 10
167.531170283
 20
98.7074437425
 30
0.0
 11
168.809537209
 21
98.7074437425
 31
0.0
  0
LINE
  5
1AC
330
1F
100
AcDbEntity
  8
0
  6
Continuous
 62
     7
370
    15
100
AcDbLine
 10
124.2096376008
 20
98.7074437425
 30
0.0
 11
125.7442835615
 21
98.7074437425
 31
0.0
  0
LINE
  5
1AD
330
1F
100
AcDbEntity
  8
0
  6
Continuous
 62
     7
370
    15
100
AcDbLine
 10
131.6311717552
 20
98.7074437425
 30
0.0
 11
132.9095386812
 21
98.7074437425
 31
0.0
  0
LINE
  5
1AE
330
1F
100
AcDbEntity
  8
0
  6
Continuous
 62
     7
370
    15
100
AcDbLine
 10
95.4747951519
 20
98.7074437425
 30
0.0
 11
97.0095911337
 21
98.7074437425
 31
0.0
  0
LINE
  5
1AF
330
1F
100
AcDbEntity
  8
0
  6
Continuous
 62
     7
370
    15
100
AcDbLine
 10
95.2639917934
 20
100.3024437425
 30
0.0
 11
95.2639917934
 21
99.0123991504
 31
0.0
  0
SPLINE
  5
1B0
330
1F
100
AcDbEntity
  8
0
  6
Continuous
 62
     7
370
    15
100
AcDbSpline
210
0.0
220
0.0
230
1.0
 70
     8
 71
     3
 72
     9
 73
     5
 74
     0
 42
0.00000001
 43
0.00000001
 40
0.0
 40
0.0
 40
0.0
 40
0.0
 40
0.6140427176483555
 40
1.0
 40
1.0
 40
1.0
 40
1.0
 10
269.4286150803237
 20
98.81536558244186
 30
0.0
 10
269.4256208935525
 20
98.8237300525344
 30
0.0
 10
269.4207447071161
 20
98.8373520202773
 30
0.0
 10
269.4158981668051
 20
98.85184865912349
 30
0.0
 10
269.4140276092778
 20
98.85744374245581
 30
0.0
  0
LINE
  5
1B1
330
1F
100
AcDbEntity
  8
0
  6
Continuous
 62
     7
370
    15
100
AcDbLine
 10
95.4140347445
 20
98.8574437425
 30
0.0
 11
95.3972990564
 21
98.8090047611
 31
0.0
  0
LINE
  5
1B2
330
1F
100
AcDbEntity
  8
0
  6
Continuous
 62
     7
370
    15
100
AcDbLine
 10
269.4140276093
 20
98.8574437425
 30
0.0
 11
269.4480232647
 21
98.8457036378
 31
0.0
  0
LINE
  5
1B3
330
1F
100
AcDbEntity
  8
0
  6
Continuous
 62
     7
370
    15
100
AcDbLine
 10
95.3736496004
 20
98.8434986721
 30
0.0
 11
95.4140347445
 21
98.8574437425
 31
0.0
  0
LINE
  5
1B4
330
1F
100
AcDbEntity
  8
0
  6
Continuous
 62
     7
370
    15
100
AcDbLine
 10
180.8954179445
 20
156.4974437424
 30
0.0
 11
180.8815601603
 21
156.4974437424
 31
0.0
  0
LINE
  5
1B5
330
1F
100
AcDbEntity
  8
0
  6
Continuous
 62
     7
370
    15
100
AcDbLine
 10
97.6015278591
 20
156.4974437424
 30
0.0
 11
97.5946737587
 21
156.4974437424
 31
0.0
  0
LINE
  5
1B6
330
1F
100
AcDbEntity
  8
0
  6
Continuous
 62
     7
370
    15
100
AcDbLine
 10
94.5951054148
 20
156.4974437424
 30
0.0
 11
94.5815636992
 21
156.4974437424
 31
0.0
  0
LWPOLYLINE
  5
1B7
330
1F
100
AcDbEntity
  8
0
  6
Continuous
 62
     7
370
    15
100
AcDbPolyline
 90
        3
 70
   128
 43
0.0
 10
97.6015278591
 20
156.4974437424
 10
97.6015113
 20
156.1501745002
 10
97.6015059709
 20
156.0099675091
  0
LWPOLYLINE
  5
1B8
330
1F
100
AcDbEntity
  8
0
  6
Continuous
 62
     7
370
    15
100
AcDbPolyline
 90
        5
 70
   128
 43
0.0
 10
97.4915278636
 20
156.6074437424
 10
97.5052774733
 20
156.5936940805
 10
97.5190273875
 20
156.5799441288
 10
97.5327775097
 20
156.5661939839
 10
97.5415277444
 20
156.5574437424
  0
LINE
  5
1B9
330
1F
100
AcDbEntity
  8
0
  6
Continuous
 62
     7
370
    15
100
AcDbLine
 10
97.5615277514
 20
156.5374437424
 30
0.0
 11
97.6015278591
 21
156.4974437424
 31
0.0
  0
LINE
  5
1BA
330
1F
100
AcDbEntity
  8
0
  6
Continuous
 62
     7
370
    15
100
AcDbLine
 10
94.6915279784
 20
156.6074437424
 30
0.0
 11
97.4915278636
 21
156.6074437424
 31
0.0
  0
LINE
  5
1BB
330
1F
100
AcDbEntity
  8
0
  6
Continuous
 62
     7
370
    15
100
AcDbLine
 10
94.5815279829
 20
156.4974437424
 30
0.0
 11
94.6078118343
 21
156.5237276808
 31
0.0
  0
LINE
  5
1BC
330
1F
100
AcDbEntity
  8
0
  6
Continuous
 62
     7
370
    15
100
AcDbLine
 10
94.661917624
 20
156.5778334797
 30
0.0
 11
94.6915279784
 21
156.6074437424
 31
0.0
  0
LWPOLYLINE
  5
1BD
330
1F
100
AcDbEntity
  8
0
  6
Continuous
 62
     7
370
    15
100
AcDbPolyline
 90
        9
 70
   128
 43
0.0
 10
94.5815279829
 20
153.6974437424
 10
94.5815114239
 20
154.0447129847
 10
94.5814995697
 20
154.3943211405
 10
94.5814924466
 20
154.745491465
 10
94.5814900705
 20
155.0974437424
 10
94.5814924466
 20
155.4493960199
 10
94.5814995697
 20
155.8005663444
 10
94.5815114239
 20
156.1501745002
 10
94.5815279829
 20
156.4974437424
  0
ARC
  5
1BE
330
1F
100
AcDbEntity
  8
0
  6
Continuous
 62
     7
370
    15
100
AcDbCircle
 10
96.0916285502
 20
155.0974438628
 30
0.0
 40
3.045352896898834
100
AcDbArc
 50
23.2062994899
 51
89.9999993341
  0
ARC
  5
1BF
330
1F
100
AcDbEntity
  8
0
  6
Continuous
 62
     7
370
    15
100
AcDbCircle
 10
96.0916285382
 20
155.0974436068
 30
0.0
 40
3.045352892331341
100
AcDbArc
 50
299.3504403304
 51
312.0980250442
  0
ARC
  5
1C0
330
1F
100
AcDbEntity
  8
0
  6
Continuous
 62
     7
370
    15
100
AcDbCircle
 10
96.0916287057
 20
155.097443727
 30
0.0
 40
3.045353032761343
100
AcDbArc
 50
90.000002261
 51
240.3013924973
  0
LINE
  5
1C1
330
1F
100
AcDbEntity
  8
0
  6
Continuous
 62
     7
370
    15
100
AcDbLine
 10
94.5815279829
 20
156.4974437424
 30
0.0
 11
94.5815636992
 21
156.4974437424
 31
0.0
  0
LWPOLYLINE
  5
1C2
330
1F
100
AcDbEntity
  8
0
  6
Continuous
 62
     7
370
    15
100
AcDbPolyline
 90
        9
 70
   128
 43
0.0
 10
94.5815636992
 20
156.4974437424
 10
94.58154686
 20
156.1502677502
 10
94.5815348043
 20
155.8006730362
 10
94.5815275598
 20
155.4494627475
 10
94.5815251431
 20
155.0974437424
 10
94.5815275598
 20
154.7454247374
 10
94.5815348043
 20
154.3942144486
 10
94.58154686
 20
154.0446197347
 10
94.5815636992
 20
153.6974437424
  0
LINE
  5
1C3
330
1F
100
AcDbEntity
  8
0
  6
Continuous
 62
     7
370
    15
100
AcDbLine
 10
94.5815279829
 20
153.6974437424
 30
0.0
 11
94.5815636992
 21
153.6974437424
 31
0.0
  0
LINE
  5
1C4
330
1F
100
AcDbEntity
  8
0
  6
Continuous
 62
     7
370
    15
100
AcDbLine
 10
94.6915636947
 20
156.6074437424
 30
0.0
 11
94.6687297863
 21
156.5846099121
 31
0.0
  0
LINE
  5
1C5
330
1F
100
AcDbEntity
  8
0
  6
Continuous
 62
     7
370
    15
100
AcDbLine
 10
94.6047539886
 20
156.5206341127
 30
0.0
 11
94.5815636992
 21
156.4974437424
 31
0.0
  0
LWPOLYLINE
  5
1C6
330
1F
100
AcDbEntity
  8
0
  6
Continuous
 62
     7
370
    15
100
AcDbPolyline
 90
        3
 70
   128
 43
0.0
 10
183.9015243201
 20
156.4974437424
 10
183.9015077611
 20
156.1501745002
 10
183.9015019935
 20
155.9974437424
  0
LWPOLYLINE
  5
1C7
330
1F
100
AcDbEntity
  8
0
  6
Continuous
 62
     7
370
    15
100
AcDbPolyline
 90
        5
 70
   128
 43
0.0
 10
183.7915243246
 20
156.6074437424
 10
183.8052739344
 20
156.5936940805
 10
183.8190238486
 20
156.5799441288
 10
183.8327739708
 20
156.5661939839
 10
183.8415242055
 20
156.5574437424
  0
LINE
  5
1C8
330
1F
100
AcDbEntity
  8
0
  6
Continuous
 62
     7
370
    15
100
AcDbLine
 10
183.8615242125
 20
156.5374437424
 30
0.0
 11
183.9015243201
 21
156.4974437424
 31
0.0
  0
LINE
  5
1C9
330
1F
100
AcDbEntity
  8
0
  6
Continuous
 62
     7
370
    15
100
AcDbLine
 10
180.9915244395
 20
156.6074437424
 30
0.0
 11
183.7915243246
 21
156.6074437424
 31
0.0
  0
LINE
  5
1CA
330
1F
100
AcDbEntity
  8
0
  6
Continuous
 62
     7
370
    15
100
AcDbLine
 10
180.881524444
 20
156.4974437424
 30
0.0
 11
180.9075089291
 21
156.5234283138
 31
0.0
  0
LINE
  5
1CB
330
1F
100
AcDbEntity
  8
0
  6
Continuous
 62
     7
370
    15
100
AcDbLine
 10
180.960854703
 20
156.5767740997
 30
0.0
 11
180.9915244395
 21
156.6074437424
 31
0.0
  0
LWPOLYLINE
  5
1CC
330
1F
100
AcDbEntity
  8
0
  6
Continuous
 62
     7
370
    15
100
AcDbPolyline
 90
        3
 70
   128
 43
0.0
 10
180.8815021174
 20
155.9974437424
 10
180.881507885
 20
156.1501745002
 10
180.881524444
 20
156.4974437424
  0
ARC
  5
1CD
330
1F
100
AcDbEntity
  8
0
  6
Continuous
 62
     7
370
    15
100
AcDbCircle
 10
182.3916250071
 20
155.0974438506
 30
0.0
 40
3.045352909097521
100
AcDbArc
 50
17.1894540707
 51
89.9999992566
  0
ARC
  5
1CE
330
1F
100
AcDbEntity
  8
0
  6
Continuous
 62
     7
370
    15
100
AcDbCircle
 10
182.3916250861
 20
155.0974438506
 30
0.0
 40
3.045352909097403
100
AcDbArc
 50
90.0000007434
 51
162.8105459293
  0
LINE
  5
1CF
330
1F
100
AcDbEntity
  8
0
  6
Continuous
 62
     7
370
    15
100
AcDbLine
 10
180.881524444
 20
156.4974437424
 30
0.0
 11
180.8815601603
 21
156.4974437424
 31
0.0
  0
LWPOLYLINE
  5
1D0
330
1F
100
AcDbEntity
  8
0
  6
Continuous
 62
     7
370
    15
100
AcDbPolyline
 90
        3
 70
   128
 43
0.0
 10
180.8815601603
 20
156.4974437424
 10
180.8815433211
 20
156.1502677502
 10
180.8815374517
 20
155.9974437424
  0
LINE
  5
1D1
330
1F
100
AcDbEntity
  8
0
  6
Continuous
 62
     7
370
    15
100
AcDbLine
 10
180.9915601558
 20
156.6074437424
 30
0.0
 11
180.9687238318
 21
156.5846074966
 31
0.0
  0
LINE
  5
1D2
330
1F
100
AcDbEntity
  8
0
  6
Continuous
 62
     7
370
    15
100
AcDbLine
 10
180.9047571249
 20
156.5206407879
 30
0.0
 11
180.8815601603
 21
156.4974437424
 31
0.0
  0
LWPOLYLINE
  5
1D3
330
1F
100
AcDbEntity
  8
0
  6
Continuous
 62
     7
370
    15
100
AcDbPolyline
 90
        9
 70
   128
 43
0.0
 10
270.2015207812
 20
156.4974437424
 10
270.2015042222
 20
156.1501745002
 10
270.201492368
 20
155.8005663444
 10
270.2014852449
 20
155.4493960199
 10
270.2014828688
 20
155.0974437424
 10
270.2014852449
 20
154.745491465
 10
270.201492368
 20
154.3943211405
 10
270.2015042222
 20
154.0447129847
 10
270.2015207812
 20
153.6974437424
  0
LINE
  5
1D4
330
1F
100
AcDbEntity
  8
0
  6
Continuous
 62
     7
370
    15
100
AcDbLine
 10
270.0915207857
 20
156.6074437424
 30
0.0
 11
270.1315206748
 21
156.5674437424
 31
0.0
  0
LINE
  5
1D5
330
1F
100
AcDbEntity
  8
0
  6
Continuous
 62
     7
370
    15
100
AcDbLine
 10
270.1615206735
 20
156.5374437424
 30
0.0
 11
270.2015207812
 21
156.4974437424
 31
0.0
  0
LINE
  5
1D6
330
1F
100
AcDbEntity
  8
0
  6
Continuous
 62
     7
370
    15
100
AcDbLine
 10
267.2915209005
 20
156.6074437424
 30
0.0
 11
270.0915207857
 21
156.6074437424
 31
0.0
  0
LINE
  5
1D7
330
1F
100
AcDbEntity
  8
0
  6
Continuous
 62
     7
370
    15
100
AcDbLine
 10
267.181520905
 20
156.4974437424
 30
0.0
 11
267.2078047565
 21
156.5237276808
 31
0.0
  0
LINE
  5
1D8
330
1F
100
AcDbEntity
  8
0
  6
Continuous
 62
     7
370
    15
100
AcDbLine
 10
267.2619105463
 20
156.5778334799
 30
0.0
 11
267.2915209005
 21
156.6074437424
 31
0.0
  0
LWPOLYLINE
  5
1D9
330
1F
100
AcDbEntity
  8
0
  6
Continuous
 62
     7
370
    15
100
AcDbPolyline
 90
        3
 70
   128
 43
0.0
 10
267.1814976325
 20
155.9698011371
 10
267.181504346
 20
156.1501745002
 10
267.181520905
 20
156.4974437424
  0
ARC
  5
1DA
330
1F
100
AcDbEntity
  8
0
  6
Continuous
 62
     7
370
    15
100
AcDbCircle
 10
268.6916213856
 20
155.0974437265
 30
0.0
 40
3.045353033235509
100
AcDbArc
 50
299.35044044
 51
89.9999977038
  0
ARC
  5
1DB
330
1F
100
AcDbEntity
  8
0
  6
Continuous
 62
     7
370
    15
100
AcDbCircle
 10
268.691621556
 20
155.0974436081
 30
0.0
 40
3.045352893915911
100
AcDbArc
 50
227.4817372171
 51
240.3013925382
  0
ARC
  5
1DC
330
1F
100
AcDbEntity
  8
0
  6
Continuous
 62
     7
370
    15
100
AcDbCircle
 10
268.6916215364
 20
155.0974438729
 30
0.0
 40
3.045352886830398
100
AcDbArc
 50
90.000000541
 51
156.793700635
  0
LINE
  5
1DD
330
1F
100
AcDbEntity
  8
0
  6
Continuous
 62
     7
370
    15
100
AcDbLine
 10
267.181520905
 20
156.4974437424
 30
0.0
 11
267.1815566214
 21
156.4974437424
 31
0.0
  0
LWPOLYLINE
  5
1DE
330
1F
100
AcDbEntity
  8
0
  6
Continuous
 62
     7
370
    15
100
AcDbPolyline
 90
        3
 70
   128
 43
0.0
 10
267.1815566214
 20
156.4974437424
 10
267.1815397821
 20
156.1502677502
 10
267.1815329443
 20
155.9696088853
  0
LINE
  5
1DF
330
1F
100
AcDbEntity
  8
0
  6
Continuous
 62
     7
370
    15
100
AcDbLine
 10
267.2915566168
 20
156.6074437424
 30
0.0
 11
267.2687178769
 21
156.5846050806
 31
0.0
  0
LINE
  5
1E0
330
1F
100
AcDbEntity
  8
0
  6
Continuous
 62
     7
370
    15
100
AcDbLine
 10
267.2047602612
 20
156.5206474632
 30
0.0
 11
267.1815566214
 21
156.4974437424
 31
0.0
  0
LINE
  5
1E1
330
1F
100
AcDbEntity
  8
0
  6
Continuous
 62
     7
370
    15
100
AcDbLine
 10
97.7871233631
 20
153.8224437424
 30
0.0
 11
97.7871233631
 21
154.8974437424
 31
0.0
  0
LWPOLYLINE
  5
1E2
330
1F
100
AcDbEntity
  8
0
  6
Continuous
 62
     7
370
    15
100
AcDbPolyline
 90
        6
 70
   128
 43
0.0
 10
97.7871233631
 20
154.8974437424
 10
97.7871261145
 20
154.9949889034
 10
97.7871342629
 20
155.0887854586
 10
97.7871474951
 20
155.1752288589
 10
97.7871653028
 20
155.250997133
 10
97.7871806395
 20
155.2974437424
  0
LWPOLYLINE
  5
1E3
330
1F
100
AcDbEntity
  8
0
  6
Continuous
 62
     7
370
    15
100
AcDbPolyline
 90
        6
 70
   128
 43
0.0
 10
97.7913618158
 20
155.2974437424
 10
97.7913771525
 20
155.250997133
 10
97.7913949602
 20
155.1752288589
 10
97.7914081924
 20
155.0887854586
 10
97.7914163408
 20
154.9949889034
 10
97.7914190922
 20
154.8974437424
  0
LINE
  5
1E4
330
1F
100
AcDbEntity
  8
0
  6
Continuous
 62
     7
370
    15
100
AcDbLine
 10
97.7914190922
 20
154.8974437424
 30
0.0
 11
97.7914190922
 21
154.8474437424
 31
0.0
  0
LINE
  5
1E5
330
1F
100
AcDbEntity
  8
0
  6
Continuous
 62
     7
370
    15
100
AcDbLine
 10
97.7914190922
 20
154.1474437424
 30
0.0
 11
97.7914190922
 21
153.8224437424
 31
0.0
  0
ARC
  5
1E6
330
1F
100
AcDbEntity
  8
0
  6
Continuous
 62
     7
370
    15
100
AcDbCircle
 10
522.8385275548
 20
154.4974437424
 30
0.0
 40
425.0505459554419
100
AcDbArc
 50
179.9528208462
 51
180.0471791538
  0
ARC
  5
1E7
330
1F
100
AcDbEntity
  8
0
  6
Continuous
 62
     7
370
    15
100
AcDbCircle
 10
97.3664190899
 20
153.8224437386
 30
0.0
 40
0.4250000022510392
100
AcDbArc
 50
300.9866812505
 51
0.0000005128
  0
ARC
  5
1E8
330
1F
100
AcDbEntity
  8
0
  6
Continuous
 62
     7
370
    15
100
AcDbCircle
 10
97.3621233607
 20
153.8224437387
 30
0.0
 40
0.4250000024369314
100
AcDbArc
 50
301.6652353948
 51
0.000000505
  0
ARC
  5
1E9
330
1F
100
AcDbEntity
  8
0
  6
Continuous
 62
     7
370
    15
100
AcDbCircle
 10
267.4121164274
 20
153.8224437388
 30
0.0
 40
0.4250000026895577
100
AcDbArc
 50
179.9999995056
 51
237.4151171093
  0
LINE
  5
1EA
330
1F
100
AcDbEntity
  8
0
  6
Continuous
 62
     7
370
    15
100
AcDbLine
 10
266.9871164247
 20
154.8974437424
 30
0.0
 11
266.9871164247
 21
153.8224437424
 31
0.0
  0
LWPOLYLINE
  5
1EB
330
1F
100
AcDbEntity
  8
0
  6
Continuous
 62
     7
370
    15
100
AcDbPolyline
 90
        6
 70
   128
 43
0.0
 10
266.9871737011
 20
155.2974437424
 10
266.9871583643
 20
155.250997133
 10
266.9871405567
 20
155.1752288589
 10
266.9871273244
 20
155.0887854586
 10
266.987119176
 20
154.9949889034
 10
266.9871164247
 20
154.8974437424
  0
LINE
  5
1EC
330
1F
100
AcDbEntity
  8
0
  6
Continuous
 62
     7
370
    15
100
AcDbLine
 10
183.6863752475
 20
156.3574437424
 30
0.0
 11
183.8864325157
 21
156.3574437424
 31
0.0
  0
LINE
  5
1ED
330
1F
100
AcDbEntity
  8
0
  6
Continuous
 62
     7
370
    15
100
AcDbLine
 10
183.6863752475
 20
156.2374437424
 30
0.0
 11
183.8864325157
 21
156.2374437424
 31
0.0
  0
LINE
  5
1EE
330
1F
100
AcDbEntity
  8
0
  6
Continuous
 62
     7
370
    15
100
AcDbLine
 10
181.0863753542
 20
156.2374437424
 30
0.0
 11
183.6863752475
 21
156.2374437424
 31
0.0
  0
LINE
  5
1EF
330
1F
100
AcDbEntity
  8
0
  6
Continuous
 62
     7
370
    15
100
AcDbLine
 10
181.0863753542
 20
156.3574437424
 30
0.0
 11
183.6863752475
 21
156.3574437424
 31
0.0
  0
LINE
  5
1F0
330
1F
100
AcDbEntity
  8
0
  6
Continuous
 62
     7
370
    15
100
AcDbLine
 10
180.8864326388
 20
156.3574437424
 30
0.0
 11
180.8864326388
 21
156.2374437424
 31
0.0
  0
LINE
  5
1F1
330
1F
100
AcDbEntity
  8
0
  6
Continuous
 62
     7
370
    15
100
AcDbLine
 10
180.8864326388
 20
156.2374437424
 30
0.0
 11
181.0863753542
 21
156.2374437424
 31
0.0
  0
LINE
  5
1F2
330
1F
100
AcDbEntity
  8
0
  6
Continuous
 62
     7
370
    15
100
AcDbLine
 10
180.8864326388
 20
156.3574437424
 30
0.0
 11
181.0863753542
 21
156.3574437424
 31
0.0
  0
LINE
  5
1F3
330
1F
100
AcDbEntity
  8
0
  6
Continuous
 62
     7
370
    15
100
AcDbLine
 10
183.8868048122
 20
156.3574437424
 30
0.0
 11
183.8868048122
 21
156.2374437424
 31
0.0
  0
LINE
  5
1F4
330
1F
100
AcDbEntity
  8
0
  6
Continuous
 62
     7
370
    15
100
AcDbLine
 10
183.8864325157
 20
156.2374437424
 30
0.0
 11
183.8868048122
 21
156.2374437424
 31
0.0
  0
LINE
  5
1F5
330
1F
100
AcDbEntity
  8
0
  6
Continuous
 62
     7
370
    15
100
AcDbLine
 10
183.8864325157
 20
156.3574437424
 30
0.0
 11
183.8868048122
 21
156.3574437424
 31
0.0
  0
LINE
  5
1F6
330
1F
100
AcDbEntity
  8
0
  6
Continuous
 62
     7
370
    15
100
AcDbLine
 10
183.8868048122
 20
155.9974437424
 30
0.0
 11
183.8868048122
 21
156.3974437424
 31
0.0
  0
LINE
  5
1F7
330
1F
100
AcDbEntity
  8
0
  6
Continuous
 62
     7
370
    15
100
AcDbLine
 10
183.8868391781
 20
155.9974437424
 30
0.0
 11
183.8868391781
 21
156.3974437424
 31
0.0
  0
ARC
  5
1F8
330
1F
100
AcDbEntity
  8
0
  6
Continuous
 62
     7
370
    15
100
AcDbCircle
 10
183.6868048164
 20
156.3974437465
 30
0.0
 40
0.1999999958993044
100
AcDbArc
 50
359.9999988252
 51
89.9999988252
  0
LINE
  5
1F9
330
1F
100
AcDbEntity
  8
0
  6
Continuous
 62
     7
370
    15
100
AcDbLine
 10
183.6868048205
 20
156.5974437424
 30
0.0
 11
183.6868391863
 21
156.5974437424
 31
0.0
  0
ARC
  5
1FA
330
1F
100
AcDbEntity
  8
0
  6
Continuous
 62
     7
370
    15
100
AcDbCircle
 10
183.6868391822
 20
156.3974437465
 30
0.0
 40
0.1999999958993613
100
AcDbArc
 50
359.9999988252
 51
89.9999988252
  0
LINE
  5
1FB
330
1F
100
AcDbEntity
  8
0
  6
Continuous
 62
     7
370
    15
100
AcDbLine
 10
183.6868048205
 20
156.5974437424
 30
0.0
 11
181.0868049271
 21
156.5974437424
 31
0.0
  0
LINE
  5
1FC
330
1F
100
AcDbEntity
  8
0
  6
Continuous
 62
     7
370
    15
100
AcDbLine
 10
180.8868049353
 20
156.3974437424
 30
0.0
 11
180.8868049353
 21
156.3574437424
 31
0.0
  0
LINE
  5
1FD
330
1F
100
AcDbEntity
  8
0
  6
Continuous
 62
     7
370
    15
100
AcDbLine
 10
180.8868049353
 20
156.2374437424
 30
0.0
 11
180.8868049353
 21
155.9974437424
 31
0.0
  0
ARC
  5
1FE
330
1F
100
AcDbEntity
  8
0
  6
Continuous
 62
     7
370
    15
100
AcDbCircle
 10
181.0868049312
 20
156.3974437465
 30
0.0
 40
0.1999999958992476
100
AcDbArc
 50
90.0000011748
 51
180.0000011748
  0
LINE
  5
1FF
330
1F
100
AcDbEntity
  8
0
  6
Continuous
 62
     7
370
    15
100
AcDbLine
 10
182.8868048533
 20
156.3674437424
 30
0.0
 11
182.8868048533
 21
156.3574437424
 31
0.0
  0
LINE
  5
200
330
1F
100
AcDbEntity
  8
0
  6
Continuous
 62
     7
370
    15
100
AcDbLine
 10
182.8868048533
 20
156.2374437424
 30
0.0
 11
182.8868048533
 21
156.2274437424
 31
0.0
  0
LINE
  5
201
330
1F
100
AcDbEntity
  8
0
  6
Continuous
 62
     7
370
    15
100
AcDbLine
 10
182.8868048533
 20
156.2274437424
 30
0.0
 11
183.5868048246
 21
156.2274437424
 31
0.0
  0
LINE
  5
202
330
1F
100
AcDbEntity
  8
0
  6
Continuous
 62
     7
370
    15
100
AcDbLine
 10
183.5868048246
 20
156.2274437424
 30
0.0
 11
183.5868048246
 21
156.2374437424
 31
0.0
  0
LINE
  5
203
330
1F
100
AcDbEntity
  8
0
  6
Continuous
 62
     7
370
    15
100
AcDbLine
 10
183.5868048246
 20
156.3574437424
 30
0.0
 11
183.5868048246
 21
156.3674437424
 31
0.0
  0
LINE
  5
204
330
1F
100
AcDbEntity
  8
0
  6
Continuous
 62
     7
370
    15
100
AcDbLine
 10
183.5868048246
 20
156.3674437424
 30
0.0
 11
182.8868048533
 21
156.3674437424
 31
0.0
  0
LINE
  5
205
330
1F
100
AcDbEntity
  8
0
  6
Continuous
 62
     7
370
    15
100
AcDbLine
 10
181.186804923
 20
156.2274437424
 30
0.0
 11
181.8868048943
 21
156.2274437424
 31
0.0
  0
LINE
  5
206
330
1F
100
AcDbEntity
  8
0
  6
Continuous
 62
     7
370
    15
100
AcDbLine
 10
181.8868048943
 20
156.2274437424
 30
0.0
 11
181.8868048943
 21
156.2374437424
 31
0.0
  0
LINE
  5
207
330
1F
100
AcDbEntity
  8
0
  6
Continuous
 62
     7
370
    15
100
AcDbLine
 10
181.8868048943
 20
156.3574437424
 30
0.0
 11
181.8868048943
 21
156.3674437424
 31
0.0
  0
LINE
  5
208
330
1F
100
AcDbEntity
  8
0
  6
Continuous
 62
     7
370
    15
100
AcDbLine
 10
181.8868048943
 20
156.3674437424
 30
0.0
 11
181.186804923
 21
156.3674437424
 31
0.0
  0
LINE
  5
209
330
1F
100
AcDbEntity
  8
0
  6
Continuous
 62
     7
370
    15
100
AcDbLine
 10
181.186804923
 20
156.3674437424
 30
0.0
 11
181.186804923
 21
156.3574437424
 31
0.0
  0
LINE
  5
20A
330
1F
100
AcDbEntity
  8
0
  6
Continuous
 62
     7
370
    15
100
AcDbLine
 10
181.186804923
 20
156.2374437424
 30
0.0
 11
181.186804923
 21
156.2274437424
 31
0.0
  0
LINE
  5
20B
330
1F
100
AcDbEntity
  8
0
  6
Continuous
 62
     7
370
    15
100
AcDbLine
 10
182.8868392191
 20
156.3674437424
 30
0.0
 11
182.8868392191
 21
156.3574437424
 31
0.0
  0
LINE
  5
20C
330
1F
100
AcDbEntity
  8
0
  6
Continuous
 62
     7
370
    15
100
AcDbLine
 10
182.8868392191
 20
156.2374437424
 30
0.0
 11
182.8868392191
 21
156.2274437424
 31
0.0
  0
LINE
  5
20D
330
1F
100
AcDbEntity
  8
0
  6
Continuous
 62
     7
370
    15
100
AcDbLine
 10
181.1868392888
 20
156.3674437424
 30
0.0
 11
181.1868392888
 21
156.3574437424
 31
0.0
  0
LINE
  5
20E
330
1F
100
AcDbEntity
  8
0
  6
Continuous
 62
     7
370
    15
100
AcDbLine
 10
181.1868392888
 20
156.2374437424
 30
0.0
 11
181.1868392888
 21
156.2274437424
 31
0.0
  0
LINE
  5
20F
330
1F
100
AcDbEntity
  8
0
  6
Continuous
 62
     7
370
    15
100
AcDbLine
 10
183.8868391781
 20
155.9974437424
 30
0.0
 11
183.8868391781
 21
156.4474437424
 31
0.0
  0
ARC
  5
210
330
1F
100
AcDbEntity
  8
0
  6
Continuous
 62
     7
370
    15
100
AcDbCircle
 10
183.7368391812
 20
156.4474437455
 30
0.0
 40
0.1499999969245494
100
AcDbArc
 50
359.9999988253
 51
89.9999988252
  0
LINE
  5
211
330
1F
100
AcDbEntity
  8
0
  6
Continuous
 62
     7
370
    15
100
AcDbLine
 10
183.7368391842
 20
156.5974437424
 30
0.0
 11
183.7417570335
 21
156.5974437424
 31
0.0
  0
ARC
  5
212
330
1F
100
AcDbEntity
  8
0
  6
Continuous
 62
     7
370
    15
100
AcDbCircle
 10
183.7532488586
 20
156.4474437427
 30
0.0
 40
0.1500000045766366
100
AcDbArc
 50
8.7002611245
 51
24.17638789
  0
ARC
  5
213
330
1F
100
AcDbEntity
  8
0
  6
Continuous
 62
     7
370
    15
100
AcDbCircle
 10
183.7532488692
 20
156.4474437536
 30
0.0
 40
0.1499999888817742
100
AcDbArc
 50
65.8236365215
 51
89.9999999473
  0
LINE
  5
214
330
1F
100
AcDbEntity
  8
0
  6
Continuous
 62
     7
370
    15
100
AcDbLine
 10
180.8868393011
 20
156.4474437424
 30
0.0
 11
180.8868393011
 21
156.401151188
 31
0.0
  0
ARC
  5
215
330
1F
100
AcDbEntity
  8
0
  6
Continuous
 62
     7
370
    15
100
AcDbCircle
 10
181.036839298
 20
156.4474437455
 30
0.0
 40
0.1499999969244357
100
AcDbArc
 50
90.0000011748
 51
180.0000011748
  0
ARC
  5
216
330
1F
100
AcDbEntity
  8
0
  6
Continuous
 62
     7
370
    15
100
AcDbCircle
 10
267.4124665258
 20
153.8224437388
 30
0.0
 40
0.4250000027027496
100
AcDbArc
 50
179.9999995061
 51
237.3590998499
  0
ARC
  5
217
330
1F
100
AcDbEntity
  8
0
  6
Continuous
 62
     7
370
    15
100
AcDbCircle
 10
266.7624665243
 20
155.8724437528
 30
0.0
 40
0.4249999896296664
100
AcDbArc
 50
6.3868759675
 51
89.9999989153
  0
LINE
  5
218
330
1F
100
AcDbEntity
  8
0
  6
Continuous
 62
     7
370
    15
100
AcDbLine
 10
266.7630392962
 20
156.2974437424
 30
0.0
 11
266.7624665323
 21
156.2974437424
 31
0.0
  0
ARC
  5
219
330
1F
100
AcDbEntity
  8
0
  6
Continuous
 62
     7
370
    15
100
AcDbCircle
 10
266.7630392882
 20
155.872443753
 30
0.0
 40
0.4249999894568158
100
AcDbArc
 50
7.0409335182
 51
89.9999989248
  0
ARC
  5
21A
330
1F
100
AcDbEntity
  8
0
  6
Continuous
 62
     7
370
    15
100
AcDbCircle
 10
266.7624665277
 20
155.872443747
 30
0.0
 40
0.2249999953866678
100
AcDbArc
 50
359.9999988252
 51
89.9999988252
  0
LINE
  5
21B
330
1F
100
AcDbEntity
  8
0
  6
Continuous
 62
     7
370
    15
100
AcDbLine
 10
266.9874665231
 20
153.8224437424
 30
0.0
 11
266.9874665231
 21
155.8724437424
 31
0.0
  0
LINE
  5
21C
330
1F
100
AcDbEntity
  8
0
  6
Continuous
 62
     7
370
    15
100
AcDbLine
 10
264.6874666174
 20
156.0974437424
 30
0.0
 11
266.7624665323
 21
156.0974437424
 31
0.0
  0
LINE
  5
21D
330
1F
100
AcDbEntity
  8
0
  6
Continuous
 62
     7
370
    15
100
AcDbLine
 10
264.6874666174
 20
156.2974437424
 30
0.0
 11
266.7624665323
 21
156.2974437424
 31
0.0
  0
LINE
  5
21E
330
1F
100
AcDbEntity
  8
0
  6
Continuous
 62
     7
370
    15
100
AcDbLine
 10
264.1876098289
 20
156.2974437424
 30
0.0
 11
264.1876098289
 21
156.0974437424
 31
0.0
  0
LINE
  5
21F
330
1F
100
AcDbEntity
  8
0
  6
Continuous
 62
     7
370
    15
100
AcDbLine
 10
264.1876098289
 20
156.0974437424
 30
0.0
 11
264.6874666174
 21
156.0974437424
 31
0.0
  0
LINE
  5
220
330
1F
100
AcDbEntity
  8
0
  6
Continuous
 62
     7
370
    15
100
AcDbLine
 10
264.1876098289
 20
156.2974437424
 30
0.0
 11
264.6874666174
 21
156.2974437424
 31
0.0
  0
LINE
  5
221
330
1F
100
AcDbEntity
  8
0
  6
Continuous
 62
     7
370
    15
100
AcDbLine
 10
100.5796536949
 20
138.3974437424
 30
0.0
 11
100.5797109713
 21
138.3974437424
 31
0.0
  0
LINE
  5
222
330
1F
100
AcDbEntity
  8
0
  6
Continuous
 62
     7
370
    15
100
AcDbLine
 10
100.5796536949
 20
138.3974437424
 30
0.0
 11
100.5796536949
 21
139.8974437424
 31
0.0
  0
LINE
  5
223
330
1F
100
AcDbEntity
  8
0
  6
Continuous
 62
     7
370
    15
100
AcDbLine
 10
100.5797109713
 20
138.3974437424
 30
0.0
 11
100.5797109713
 21
139.8974437424
 31
0.0
  0
LINE
  5
224
330
1F
100
AcDbEntity
  8
0
  6
Continuous
 62
     7
370
    15
100
AcDbLine
 10
100.0796537154
 20
140.3974437424
 30
0.0
 11
98.0046538005
 21
140.3974437424
 31
0.0
  0
ARC
  5
225
330
1F
100
AcDbEntity
  8
0
  6
Continuous
 62
     7
370
    15
100
AcDbCircle
 10
100.0796537051
 20
139.8974437527
 30
0.0
 40
0.4999999897481758
100
AcDbArc
 50
359.9999988252
 51
89.9999988252
  0
LINE
  5
226
330
1F
100
AcDbEntity
  8
0
  6
Continuous
 62
     7
370
    15
100
AcDbLine
 10
98.0046538005
 20
138.3974437424
 30
0.0
 11
100.5796536949
 21
138.3974437424
 31
0.0
  0
LINE
  5
227
330
1F
100
AcDbEntity
  8
0
  6
Continuous
 62
     7
370
    15
100
AcDbLine
 10
100.0796537154
 20
140.3974437424
 30
0.0
 11
100.0797109918
 21
140.3974437424
 31
0.0
  0
ARC
  5
228
330
1F
100
AcDbEntity
  8
0
  6
Continuous
 62
     7
370
    15
100
AcDbCircle
 10
100.0797109815
 20
139.8974437527
 30
0.0
 40
0.4999999897482327
100
AcDbArc
 50
359.9999988252
 51
89.9999988252
  0
LINE
  5
229
330
1F
100
AcDbEntity
  8
0
  6
Continuous
 62
     7
370
    15
100
AcDbLine
 10
97.5817615313
 20
140.3974437424
 30
0.0
 11
98.0046538005
 21
140.3974437424
 31
0.0
  0
LINE
  5
22A
330
1F
100
AcDbEntity
  8
0
  6
Continuous
 62
     7
370
    15
100
AcDbLine
 10
100.5796536949
 20
138.1974437424
 30
0.0
 11
100.5796536949
 21
138.3974437424
 31
0.0
  0
LINE
  5
22B
330
1F
100
AcDbEntity
  8
0
  6
Continuous
 62
     7
370
    15
100
AcDbLine
 10
100.5796536949
 20
138.3974437424
 30
0.0
 11
97.9796538015
 21
138.3974437424
 31
0.0
  0
LINE
  5
22C
330
1F
100
AcDbEntity
  8
0
  6
Continuous
 62
     7
370
    15
100
AcDbLine
 10
100.5799400768
 20
138.1974437424
 30
0.0
 11
100.5799400768
 21
138.2974437424
 31
0.0
  0
LINE
  5
22D
330
1F
100
AcDbEntity
  8
0
  6
Continuous
 62
     7
370
    15
100
AcDbLine
 10
100.5797110522
 20
138.3974437424
 30
0.0
 11
100.5796536949
 21
138.3974437424
 31
0.0
  0
LINE
  5
22E
330
1F
100
AcDbEntity
  8
0
  6
Continuous
 62
     7
370
    15
100
AcDbLine
 10
97.9796538015
 20
138.3974437424
 30
0.0
 11
97.5817307994
 21
138.3974437424
 31
0.0
  0
LINE
  5
22F
330
1F
100
AcDbEntity
  8
0
  6
Continuous
 62
     7
370
    15
100
AcDbLine
 10
266.7823402946
 20
138.3974437424
 30
0.0
 11
267.1809506133
 21
138.3974437424
 31
0.0
  0
LINE
  5
230
330
1F
100
AcDbEntity
  8
0
  6
Continuous
 62
     7
370
    15
100
AcDbLine
 10
264.1823404012
 20
138.3974437424
 30
0.0
 11
264.1823404012
 21
138.1974437424
 31
0.0
  0
LINE
  5
231
330
1F
100
AcDbEntity
  8
0
  6
Continuous
 62
     7
370
    15
100
AcDbLine
 10
264.1823404012
 20
138.3974437424
 30
0.0
 11
266.7823402946
 21
138.3974437424
 31
0.0
  0
ARC
  5
232
330
1F
100
AcDbEntity
  8
0
  6
Continuous
 62
     7
370
    15
100
AcDbCircle
 10
97.9853528098
 20
155.8974437518
 30
0.0
 40
0.3999999906563119
100
AcDbArc
 50
90.0000011088
 51
175.2970961408
  0
LINE
  5
233
330
1F
100
AcDbEntity
  8
0
  6
Continuous
 62
     7
370
    15
100
AcDbLine
 10
100.5853526955
 20
155.9974437424
 30
0.0
 11
100.5853526955
 21
156.2974437424
 31
0.0
  0
LINE
  5
234
330
1F
100
AcDbEntity
  8
0
  6
Continuous
 62
     7
370
    15
100
AcDbLine
 10
98.0097800372
 20
156.2974437424
 30
0.0
 11
97.9853528021
 21
156.2974437424
 31
0.0
  0
LINE
  5
235
330
1F
100
AcDbEntity
  8
0
  6
Continuous
 62
     7
370
    15
100
AcDbLine
 10
100.5854099719
 20
155.9974437424
 30
0.0
 11
100.5854099719
 21
156.2974437424
 31
0.0
  0
LINE
  5
236
330
1F
100
AcDbEntity
  8
0
  6
Continuous
 62
     7
370
    15
100
AcDbLine
 10
100.5853526955
 20
156.2974437424
 30
0.0
 11
100.5854099719
 21
156.2974437424
 31
0.0
  0
LINE
  5
237
330
1F
100
AcDbEntity
  8
0
  6
Continuous
 62
     7
370
    15
100
AcDbLine
 10
266.7630392962
 20
156.2974437424
 30
0.0
 11
266.7880392952
 21
156.2974437424
 31
0.0
  0
ARC
  5
238
330
1F
100
AcDbEntity
  8
0
  6
Continuous
 62
     7
370
    15
100
AcDbCircle
 10
266.7880392877
 20
155.8974437524
 30
0.0
 40
0.3999999900304539
100
AcDbArc
 50
7.2270211069
 51
89.9999989275
  0
LINE
  5
239
330
1F
100
AcDbEntity
  8
0
  6
Continuous
 62
     7
370
    15
100
AcDbLine
 10
264.1880394018
 20
155.9974437424
 30
0.0
 11
264.1880394018
 21
156.0974437424
 31
0.0
  0
LINE
  5
23A
330
1F
100
AcDbEntity
  8
0
  6
Continuous
 62
     7
370
    15
100
AcDbLine
 10
266.7880965715
 20
156.2974437424
 30
0.0
 11
266.7880392952
 21
156.2974437424
 31
0.0
  0
ARC
  5
23B
330
1F
100
AcDbEntity
  8
0
  6
Continuous
 62
     7
370
    15
100
AcDbCircle
 10
266.7880965641
 20
155.8974437524
 30
0.0
 40
0.399999990014436
100
AcDbArc
 50
7.2913511347
 51
89.9999989284
  0
LINE
  5
23C
330
1F
100
AcDbEntity
  8
0
  6
Continuous
 62
     7
370
    15
100
AcDbLine
 10
266.9874665231
 20
155.2974437424
 30
0.0
 11
266.9874665231
 21
155.4974437424
 31
0.0
  0
LINE
  5
23D
330
1F
100
AcDbEntity
  8
0
  6
Continuous
 62
     7
370
    15
100
AcDbLine
 10
266.9874665231
 20
155.4974437424
 30
0.0
 11
266.6361198299
 21
155.4974437424
 31
0.0
  0
LINE
  5
23E
330
1F
100
AcDbEntity
  8
0
  6
Continuous
 62
     7
370
    15
100
AcDbLine
 10
266.9874665231
 20
155.2974437424
 30
0.0
 11
266.6353708439
 21
155.2974437424
 31
0.0
  0
LINE
  5
23F
330
1F
100
AcDbEntity
  8
0
  6
Continuous
 62
     7
370
    15
100
AcDbLine
 10
97.7847800464
 20
155.4974437424
 30
0.0
 11
97.7847800464
 21
155.2974437424
 31
0.0
  0
LINE
  5
240
330
1F
100
AcDbEntity
  8
0
  6
Continuous
 62
     7
370
    15
100
AcDbLine
 10
97.7847800464
 20
155.2974437424
 30
0.0
 11
98.1347153095
 21
155.2974437424
 31
0.0
  0
LINE
  5
241
330
1F
100
AcDbEntity
  8
0
  6
Continuous
 62
     7
370
    15
100
AcDbLine
 10
97.7847800464
 20
155.4974437424
 30
0.0
 11
98.1349304307
 21
155.4974437424
 31
0.0
  0
LINE
  5
242
330
1F
100
AcDbEntity
  8
0
  6
Continuous
 62
     7
370
    15
100
AcDbLine
 10
266.7573402956
 20
140.3974437424
 30
0.0
 11
267.1809766707
 21
140.3974437424
 31
0.0
  0
LINE
  5
243
330
1F
100
AcDbEntity
  8
0
  6
Continuous
 62
     7
370
    15
100
AcDbLine
 10
264.1823404012
 20
138.3974437424
 30
0.0
 11
266.7573402956
 21
138.3974437424
 31
0.0
  0
LINE
  5
244
330
1F
100
AcDbEntity
  8
0
  6
Continuous
 62
     7
370
    15
100
AcDbLine
 10
264.1823404012
 20
139.8974437424
 30
0.0
 11
264.1823404012
 21
138.3974437424
 31
0.0
  0
ARC
  5
245
330
1F
100
AcDbEntity
  8
0
  6
Continuous
 62
     7
370
    15
100
AcDbCircle
 10
264.6823403909
 20
139.8974437527
 30
0.0
 40
0.4999999897483464
100
AcDbArc
 50
90.0000011748
 51
180.0000011748
  0
LINE
  5
246
330
1F
100
AcDbEntity
  8
0
  6
Continuous
 62
     7
370
    15
100
AcDbLine
 10
266.7573402956
 20
140.3974437424
 30
0.0
 11
264.6823403807
 21
140.3974437424
 31
0.0
  0
LINE
  5
247
330
1F
100
AcDbEntity
  8
0
  6
Continuous
 62
     7
370
    15
100
AcDbLine
 10
100.0847799521
 20
156.2974437424
 30
0.0
 11
100.5849231226
 21
156.2974437424
 31
0.0
  0
LINE
  5
248
330
1F
100
AcDbEntity
  8
0
  6
Continuous
 62
     7
370
    15
100
AcDbLine
 10
100.0847799521
 20
156.0974437424
 30
0.0
 11
100.5849231226
 21
156.0974437424
 31
0.0
  0
LINE
  5
249
330
1F
100
AcDbEntity
  8
0
  6
Continuous
 62
     7
370
    15
100
AcDbLine
 10
98.0097800372
 20
156.2974437424
 30
0.0
 11
100.0847799521
 21
156.2974437424
 31
0.0
  0
LINE
  5
24A
330
1F
100
AcDbEntity
  8
0
  6
Continuous
 62
     7
370
    15
100
AcDbLine
 10
98.0097800372
 20
156.0974437424
 30
0.0
 11
100.0847799521
 21
156.0974437424
 31
0.0
  0
ARC
  5
24B
330
1F
100
AcDbEntity
  8
0
  6
Continuous
 62
     7
370
    15
100
AcDbCircle
 10
98.0097800418
 20
155.872443747
 30
0.0
 40
0.2249999953867246
100
AcDbArc
 50
90.0000011748
 51
180.0000011748
  0
ARC
  5
24C
330
1F
100
AcDbEntity
  8
0
  6
Continuous
 62
     7
370
    15
100
AcDbCircle
 10
98.0103528057
 20
155.872443747
 30
0.0
 40
0.2249999953867246
100
AcDbArc
 50
90.0000011748
 51
180.0000011748
  0
ARC
  5
24D
330
1F
100
AcDbEntity
  8
0
  6
Continuous
 62
     7
370
    15
100
AcDbCircle
 10
98.0097800454
 20
155.8724437523
 30
0.0
 40
0.4249999901090576
100
AcDbArc
 50
90.0000011108
 51
175.4375885153
  0
LINE
  5
24E
330
1F
100
AcDbEntity
  8
0
  6
Continuous
 62
     7
370
    15
100
AcDbLine
 10
97.7847800464
 20
153.8224437424
 30
0.0
 11
97.7847800464
 21
155.8724437424
 31
0.0
  0
LINE
  5
24F
330
1F
100
AcDbEntity
  8
0
  6
Continuous
 62
     7
370
    15
100
AcDbLine
 10
97.7853528103
 20
155.8724437424
 30
0.0
 11
97.7853528103
 21
155.4974437424
 31
0.0
  0
LINE
  5
250
330
1F
100
AcDbEntity
  8
0
  6
Continuous
 62
     7
370
    15
100
AcDbLine
 10
97.7853528103
 20
155.2974437424
 30
0.0
 11
97.7853528103
 21
153.8224437424
 31
0.0
  0
LINE
  5
251
330
1F
100
AcDbEntity
  8
0
  6
Continuous
 62
     7
370
    15
100
AcDbLine
 10
97.7849189416
 20
155.5124437424
 30
0.0
 11
97.785213915
 21
155.5124437424
 31
0.0
  0
LINE
  5
252
330
1F
100
AcDbEntity
  8
0
  6
Continuous
 62
     7
370
    15
100
AcDbLine
 10
97.7849189416
 20
155.2824437424
 30
0.0
 11
97.7849189416
 21
155.2974437424
 31
0.0
  0
LINE
  5
253
330
1F
100
AcDbEntity
  8
0
  6
Continuous
 62
     7
370
    15
100
AcDbLine
 10
97.7849189416
 20
155.4974437424
 30
0.0
 11
97.7849189416
 21
155.5124437424
 31
0.0
  0
LINE
  5
254
330
1F
100
AcDbEntity
  8
0
  6
Continuous
 62
     7
370
    15
100
AcDbLine
 10
97.785213915
 20
155.2824437424
 30
0.0
 11
97.7849189416
 21
155.2824437424
 31
0.0
  0
LINE
  5
255
330
1F
100
AcDbEntity
  8
0
  6
Continuous
 62
     7
370
    15
100
AcDbLine
 10
97.785213915
 20
155.5124437424
 30
0.0
 11
97.785213915
 21
155.4974437424
 31
0.0
  0
LINE
  5
256
330
1F
100
AcDbEntity
  8
0
  6
Continuous
 62
     7
370
    15
100
AcDbLine
 10
97.785213915
 20
155.2974437424
 30
0.0
 11
97.785213915
 21
155.2824437424
 31
0.0
  0
ARC
  5
257
330
1F
100
AcDbEntity
  8
0
  6
Continuous
 62
     7
370
    15
100
AcDbCircle
 10
97.3603528078
 20
153.8224437387
 30
0.0
 40
0.4250000025141664
100
AcDbArc
 50
301.9463591286
 51
0.0000005018
  0
ARC
  5
258
330
1F
100
AcDbEntity
  8
0
  6
Continuous
 62
     7
370
    15
100
AcDbCircle
 10
97.3597800439
 20
153.8224437387
 30
0.0
 40
0.4250000025386811
100
AcDbArc
 50
302.0374854756
 51
0.0000005008
  0
LINE
  5
259
330
1F
100
AcDbEntity
  8
0
  6
Continuous
 62
     7
370
    15
100
AcDbLine
 10
100.5853526955
 20
156.2974437424
 30
0.0
 11
100.5853526955
 21
156.0974437424
 31
0.0
  0
LINE
  5
25A
330
1F
100
AcDbEntity
  8
0
  6
Continuous
 62
     7
370
    15
100
AcDbLine
 10
100.5849231226
 20
156.2974437424
 30
0.0
 11
100.5853526955
 21
156.2974437424
 31
0.0
  0
LINE
  5
25B
330
1F
100
AcDbEntity
  8
0
  6
Continuous
 62
     7
370
    15
100
AcDbLine
 10
100.5849231226
 20
156.0974437424
 30
0.0
 11
100.5853526955
 21
156.0974437424
 31
0.0
  0
LWPOLYLINE
  5
25C
330
1F
100
AcDbEntity
  8
0
  6
Continuous
 62
     7
370
    15
100
AcDbPolyline
 90
       36
 70
   128
 43
0.0
 10
270.1860557548
 20
156.4474286246
 10
270.1858330626
 20
156.4294699802
 10
270.1856041792
 20
156.3755848902
 10
270.1853762185
 20
156.28589699
 10
270.1851496398
 20
156.1605868989
 10
270.1849248992
 20
155.9999069749
 10
270.1847024495
 20
155.8041808059
 10
270.1844827385
 20
155.5738025583
 10
270.1842662088
 20
155.3092361834
 10
270.1840532963
 20
155.0110144825
 10
270.18384443
 20
154.6797380345
 10
270.1836400304
 20
154.3160739861
 10
270.1834405091
 20
153.9207547082
 10
270.1832462679
 20
153.4945763214
 10
270.1830576981
 20
153.038397092
 10
270.1828751794
 20
152.5531357045
 10
270.1826990794
 20
152.0397694106
 10
270.1825297526
 20
151.4993320618
 10
270.1823675401
 20
150.9329120269
 10
270.1822127686
 20
150.3416500005
 10
270.1820657498
 20
149.7267367056
 10
270.1819267797
 20
149.0894104959
 10
270.1817961382
 20
148.4309548614
 10
270.1816740884
 20
147.7526958441
 10
270.1815608761
 20
147.0559993676
 10
270.1814567293
 20
146.3422684857
 10
270.1813618577
 20
145.6129405575
 10
270.1812764524
 20
144.8694843523
 10
270.1812006854
 20
144.113397092
 10
270.1811347092
 20
143.3462014358
 10
270.1810786568
 20
142.5694424136
 10
270.1810326409
 20
141.7846843146
 10
270.1809967544
 20
140.9935075373
 10
270.1809710694
 20
140.1975054064
 10
270.1809556377
 20
139.3982809642
 10
270.1809504903
 20
138.5974437424
  0
LINE
  5
25D
330
1F
100
AcDbEntity
  8
0
  6
Continuous
 62
     7
370
    15
100
AcDbLine
 10
270.0360624141
 20
156.5974437424
 30
0.0
 11
267.3360625248
 21
156.5974437424
 31
0.0
  0
LWPOLYLINE
  5
25E
330
1F
100
AcDbEntity
  8
0
  6
Continuous
 62
     7
370
    15
100
AcDbPolyline
 90
       36
 70
   128
 43
0.0
 10
267.1860563682
 20
156.4474307709
 10
267.1858331856
 20
156.4294699802
 10
267.1856043022
 20
156.3755848902
 10
267.1853763415
 20
156.28589699
 10
267.1851497628
 20
156.1605868989
 10
267.1849250223
 20
155.9999069749
 10
267.1847025725
 20
155.8041808059
 10
267.1844828615
 20
155.5738025583
 10
267.1842663318
 20
155.3092361834
 10
267.1840534194
 20
155.0110144825
 10
267.183844553
 20
154.6797380345
 10
267.1836401534
 20
154.3160739861
 10
267.1834406321
 20
153.9207547082
 10
267.183246391
 20
153.4945763214
 10
267.1830578212
 20
153.038397092
 10
267.1828753024
 20
152.5531357045
 10
267.1826992024
 20
152.0397694106
 10
267.1825298756
 20
151.4993320618
 10
267.1823676631
 20
150.9329120269
 10
267.1822128916
 20
150.3416500005
 10
267.1820658728
 20
149.7267367056
 10
267.1819269027
 20
149.0894104959
 10
267.1817962612
 20
148.4309548614
 10
267.1816742114
 20
147.7526958441
 10
267.1815609991
 20
147.0559993676
 10
267.1814568523
 20
146.3422684857
 10
267.1813619807
 20
145.6129405575
 10
267.1812765754
 20
144.8694843523
 10
267.1812008084
 20
144.113397092
 10
267.1811348322
 20
143.3462014358
 10
267.1810787798
 20
142.5694424136
 10
267.1810327639
 20
141.7846843146
 10
267.1809968774
 20
140.9935075373
 10
267.1809711924
 20
140.1975054064
 10
267.1809557607
 20
139.3982809642
 10
267.1809506133
 20
138.5974437424
  0
ARC
  5
25F
330
1F
100
AcDbEntity
  8
0
  6
Continuous
 62
     7
370
    15
100
AcDbCircle
 10
267.3360625252
 20
156.447443752
 30
0.0
 40
0.149999990410301
100
AcDbArc
 50
90.0000001741
 51
130.5948379703
  0
LINE
  5
260
330
1F
100
AcDbEntity
  8
0
  6
Continuous
 62
     7
370
    15
100
AcDbLine
 10
267.1809506133
 20
138.5974437424
 30
0.0
 11
267.1809506133
 21
138.1974437424
 31
0.0
  0
LWPOLYLINE
  5
261
330
1F
100
AcDbEntity
  8
0
  6
Continuous
 62
     7
370
    15
100
AcDbPolyline
 90
       33
 70
   128
 43
0.0
 10
270.1860568321
 20
153.7474312315
 10
270.1858495187
 20
153.7291949039
 10
270.1856371423
 20
153.6744923515
 10
270.1854257904
 20
153.5834678684
 10
270.1852159722
 20
153.4563407405
 10
270.1850081931
 20
153.2934172283
 10
270.1848029537
 20
153.0950898288
 10
270.1846007485
 20
152.86183633
 10
270.1844020645
 20
152.59421866
 10
270.1842073805
 20
152.2928815333
 10
270.1840171653
 20
151.9585508973
 10
270.1838318773
 20
151.5920321839
 10
270.1836519629
 20
151.1942083688
 10
270.1834778555
 20
150.7660378444
 10
270.1833099744
 20
150.3085521109
 10
270.1831487242
 20
149.8228532916
 10
270.1829944934
 20
149.3101114774
 10
270.1828476534
 20
148.7715619084
 10
270.182708558
 20
148.2085019975
 10
270.1825775423
 20
147.6222882055
 10
270.182454922
 20
147.0143327727
 10
270.1823409925
 20
146.386100317
 10
270.1822360281
 20
145.7391043053
 10
270.1821402819
 20
145.0749034079
 10
270.1820539844
 20
144.3950977428
 10
270.1819773435
 20
143.7013250213
 10
270.1819105439
 20
142.9952566028
 10
270.1818537465
 20
142.278593468
 10
270.1818070882
 20
141.553062121
 10
270.1817706813
 20
140.8204104304
 10
270.1817446135
 20
140.0824034184
 10
270.1817289477
 20
139.3408190085
 10
270.1817237215
 20
138.5974437424
  0
LINE
  5
262
330
1F
100
AcDbEntity
  8
0
  6
Continuous
 62
     7
370
    15
100
AcDbLine
 10
270.1817237215
 20
138.5974437424
 30
0.0
 11
270.1817237215
 21
138.1974437424
 31
0.0
  0
LINE
  5
263
330
1F
100
AcDbEntity
  8
0
  6
Continuous
 62
     7
370
    15
100
AcDbLine
 10
270.0360624141
 20
156.5974437424
 30
0.0
 11
270.0417605724
 21
156.5974437424
 31
0.0
  0
ARC
  5
264
330
1F
100
AcDbEntity
  8
0
  6
Continuous
 62
     7
370
    15
100
AcDbCircle
 10
270.0532453193
 20
156.4474437426
 30
0.0
 40
0.1500000050030643
100
AcDbArc
 50
359.9999999494
 51
23.5781775897
  0
ARC
  5
265
330
1F
100
AcDbEntity
  8
0
  6
Continuous
 62
     7
370
    15
100
AcDbCircle
 10
270.0532453303
 20
156.4474437536
 30
0.0
 40
0.1499999888827404
100
AcDbArc
 50
65.8236350999
 51
89.9999999473
  0
ARC
  5
266
330
1F
100
AcDbEntity
  8
0
  6
Continuous
 62
     7
370
    15
100
AcDbCircle
 10
270.0532453196
 20
153.7474437422
 30
0.0
 40
0.1500000045827558
100
AcDbArc
 50
335.8236124493
 51
351.2997395313
  0
LWPOLYLINE
  5
267
330
1F
100
AcDbEntity
  8
0
  6
Continuous
 62
     7
370
    15
100
AcDbPolyline
 90
       36
 70
   128
 43
0.0
 10
97.5860628327
 20
156.4474286246
 10
97.5858401405
 20
156.4294699802
 10
97.585611257
 20
156.3755848902
 10
97.5853832964
 20
156.28589699
 10
97.5851567176
 20
156.1605868989
 10
97.5849319771
 20
155.9999069749
 10
97.5847095273
 20
155.8041808059
 10
97.5844898164
 20
155.5738025583
 10
97.5842732866
 20
155.3092361834
 10
97.5840603742
 20
155.0110144825
 10
97.5838515079
 20
154.6797380345
 10
97.5836471082
 20
154.3160739861
 10
97.5834475869
 20
153.9207547082
 10
97.5832533458
 20
153.4945763214
 10
97.583064776
 20
153.038397092
 10
97.5828822573
 20
152.5531357045
 10
97.5827061572
 20
152.0397694106
 10
97.5825368305
 20
151.4993320618
 10
97.582374618
 20
150.9329120269
 10
97.5822198465
 20
150.3416500005
 10
97.5820728277
 20
149.7267367056
 10
97.5819338576
 20
149.0894104959
 10
97.5818032161
 20
148.4309548614
 10
97.5816811663
 20
147.7526958441
 10
97.581567954
 20
147.0559993676
 10
97.5814638072
 20
146.3422684857
 10
97.5813689356
 20
145.6129405575
 10
97.5812835303
 20
144.8694843523
 10
97.5812077632
 20
144.113397092
 10
97.5811417871
 20
143.3462014358
 10
97.5810857346
 20
142.5694424136
 10
97.5810397188
 20
141.7846843146
 10
97.5810038322
 20
140.9935075373
 10
97.5809781472
 20
140.1975054064
 10
97.5809627155
 20
139.3982809642
 10
97.5809575682
 20
138.5974437424
  0
LINE
  5
268
330
1F
100
AcDbEntity
  8
0
  6
Continuous
 62
     7
370
    15
100
AcDbLine
 10
97.4360694919
 20
156.5974437424
 30
0.0
 11
94.7360696026
 21
156.5974437424
 31
0.0
  0
LWPOLYLINE
  5
269
330
1F
100
AcDbEntity
  8
0
  6
Continuous
 62
     7
370
    15
100
AcDbPolyline
 90
       36
 70
   128
 43
0.0
 10
94.586063446
 20
156.4474307709
 10
94.5858402635
 20
156.4294699802
 10
94.58561138
 20
156.3755848902
 10
94.5853834194
 20
156.28589699
 10
94.5851568407
 20
156.1605868989
 10
94.5849321001
 20
155.9999069749
 10
94.5847096504
 20
155.8041808059
 10
94.5844899394
 20
155.5738025583
 10
94.5842734096
 20
155.3092361834
 10
94.5840604972
 20
155.0110144825
 10
94.5838516309
 20
154.6797380345
 10
94.5836472312
 20
154.3160739861
 10
94.58344771
 20
153.9207547082
 10
94.5832534688
 20
153.4945763214
 10
94.583064899
 20
153.038397092
 10
94.5828823803
 20
152.5531357045
 10
94.5827062802
 20
152.0397694106
 10
94.5825369535
 20
151.4993320618
 10
94.582374741
 20
150.9329120269
 10
94.5822199695
 20
150.3416500005
 10
94.5820729507
 20
149.7267367056
 10
94.5819339806
 20
149.0894104959
 10
94.5818033391
 20
148.4309548614
 10
94.5816812893
 20
147.7526958441
 10
94.581568077
 20
147.0559993676
 10
94.5814639302
 20
146.3422684857
 10
94.5813690586
 20
145.6129405575
 10
94.5812836533
 20
144.8694843523
 10
94.5812078862
 20
144.113397092
 10
94.5811419101
 20
143.3462014358
 10
94.5810858576
 20
142.5694424136
 10
94.5810398418
 20
141.7846843146
 10
94.5810039553
 20
140.9935075373
 10
94.5809782703
 20
140.1975054064
 10
94.5809628385
 20
139.3982809642
 10
94.5809576912
 20
138.5974437424
  0
ARC
  5
26A
330
1F
100
AcDbEntity
  8
0
  6
Continuous
 62
     7
370
    15
100
AcDbCircle
 10
94.7360696031
 20
156.447443752
 30
0.0
 40
0.1499999904101799
100
AcDbArc
 50
90.0000001741
 51
130.5948379703
  0
LINE
  5
26B
330
1F
100
AcDbEntity
  8
0
  6
Continuous
 62
     7
370
    15
100
AcDbLine
 10
94.5809576912
 20
138.5974437424
 30
0.0
 11
94.5809576912
 21
138.1974437424
 31
0.0
  0
LWPOLYLINE
  5
26C
330
1F
100
AcDbEntity
  8
0
  6
Continuous
 62
     7
370
    15
100
AcDbPolyline
 90
       31
 70
   128
 43
0.0
 10
97.5860639099
 20
153.7474312315
 10
97.5858565965
 20
153.7291949039
 10
97.5856442201
 20
153.6744923515
 10
97.5854328683
 20
153.5834678684
 10
97.5852230501
 20
153.4563407405
 10
97.585015271
 20
153.2934172283
 10
97.5848100316
 20
153.0950898288
 10
97.5846078264
 20
152.86183633
 10
97.5844091424
 20
152.59421866
 10
97.5842144583
 20
152.2928815333
 10
97.5840242432
 20
151.9585508973
 10
97.5838389552
 20
151.5920321839
 10
97.5836590408
 20
151.1942083688
 10
97.5834849333
 20
150.7660378444
 10
97.5833170523
 20
150.3085521109
 10
97.5831558021
 20
149.8228532916
 10
97.5830015712
 20
149.3101114774
 10
97.5828547312
 20
148.7715619084
 10
97.5827156359
 20
148.2085019975
 10
97.5825846202
 20
147.6222882055
 10
97.5824619999
 20
147.0143327727
 10
97.5823480703
 20
146.386100317
 10
97.582243106
 20
145.7391043053
 10
97.5821473597
 20
145.0749034079
 10
97.5820610622
 20
144.3950977428
 10
97.5819844214
 20
143.7013250213
 10
97.5819176218
 20
142.9952566028
 10
97.5818608244
 20
142.278593468
 10
97.581814166
 20
141.553062121
 10
97.5817777591
 20
140.8204104304
 10
97.5817615313
 20
140.3974437424
  0
LINE
  5
26D
330
1F
100
AcDbEntity
  8
0
  6
Continuous
 62
     7
370
    15
100
AcDbLine
 10
97.4360694919
 20
156.5974437424
 30
0.0
 11
97.4417534945
 21
156.5974437424
 31
0.0
  0
ARC
  5
26E
330
1F
100
AcDbEntity
  8
0
  6
Continuous
 62
     7
370
    15
100
AcDbCircle
 10
97.4532523972
 20
156.4474437426
 30
0.0
 40
0.1500000049671212
100
AcDbArc
 50
359.9999999473
 51
24.1763875494
  0
ARC
  5
26F
330
1F
100
AcDbEntity
  8
0
  6
Continuous
 62
     7
370
    15
100
AcDbCircle
 10
97.4532524081
 20
156.4474437536
 30
0.0
 40
0.1499999888810351
100
AcDbArc
 50
65.8236368539
 51
89.9999999473
  0
LINE
  5
270
330
1F
100
AcDbEntity
  8
0
  6
Continuous
 62
     7
370
    15
100
AcDbLine
 10
284.7145107366
 20
166.336131628
 30
0.0
 11
284.7145107366
 21
166.4553316106
 31
0.0
  0
LINE
  5
271
330
1F
100
AcDbEntity
  8
0
  6
Continuous
 62
     7
370
    15
100
AcDbLine
 10
284.7145107366
 20
166.4553316106
 30
0.0
 11
284.7145107366
 21
169.1895455464
 31
0.0
  0
LINE
  5
272
330
1F
100
AcDbEntity
  8
0
  6
Continuous
 62
     7
370
    15
100
AcDbLine
 10
284.7145107366
 20
165.7327460522
 30
0.0
 11
284.7145107366
 21
166.336131628
 31
0.0
  0
LINE
  5
273
330
1F
100
AcDbEntity
  8
0
  6
Continuous
 62
     7
370
    15
100
AcDbLine
 10
284.7145107366
 20
169.1895455464
 30
0.0
 11
284.7145107366
 21
169.2679960615
 31
0.0
  0
LINE
  5
274
330
1F
100
AcDbEntity
  8
0
  6
Continuous
 62
     7
370
    15
100
AcDbLine
 10
284.7145107366
 20
165.7303965499
 30
0.0
 11
284.7145107366
 21
165.7327460522
 31
0.0
  0
LINE
  5
275
330
1F
100
AcDbEntity
  8
0
  6
Continuous
 62
     7
370
    15
100
AcDbLine
 10
284.7145107366
 20
163.9239917557
 30
0.0
 11
284.7145107366
 21
164.0431917383
 31
0.0
  0
LINE
  5
276
330
1F
100
AcDbEntity
  8
0
  6
Continuous
 62
     7
370
    15
100
AcDbLine
 10
284.7145107366
 20
164.0431917383
 30
0.0
 11
284.7145107366
 21
165.7303965499
 31
0.0
  0
LINE
  5
277
330
1F
100
AcDbEntity
  8
0
  6
Continuous
 62
     7
370
    15
100
AcDbLine
 10
284.7145107366
 20
163.3206061799
 30
0.0
 11
284.7145107366
 21
163.9239917557
 31
0.0
  0
LINE
  5
278
330
1F
100
AcDbEntity
  8
0
  6
Continuous
 62
     7
370
    15
100
AcDbLine
 10
284.7145107366
 20
163.3182566776
 30
0.0
 11
284.7145107366
 21
163.3206061799
 31
0.0
  0
LINE
  5
279
330
1F
100
AcDbEntity
  8
0
  6
Continuous
 62
     7
370
    15
100
AcDbLine
 10
80.0745107366
 20
164.0431917383
 30
0.0
 11
80.0745107366
 21
163.9239917557
 31
0.0
  0
LINE
  5
27A
330
1F
100
AcDbEntity
  8
0
  6
Continuous
 62
     7
370
    15
100
AcDbLine
 10
80.0745107366
 20
165.7303965499
 30
0.0
 11
80.0745107366
 21
164.0431917383
 31
0.0
  0
LINE
  5
27B
330
1F
100
AcDbEntity
  8
0
  6
Continuous
 62
     7
370
    15
100
AcDbLine
 10
80.0745107366
 20
163.9239917557
 30
0.0
 11
80.0745107366
 21
163.3206061799
 31
0.0
  0
LINE
  5
27C
330
1F
100
AcDbEntity
  8
0
  6
Continuous
 62
     7
370
    15
100
AcDbLine
 10
80.0745107366
 20
163.3206061799
 30
0.0
 11
80.0745107366
 21
163.3182566776
 31
0.0
  0
LINE
  5
27D
330
1F
100
AcDbEntity
  8
0
  6
Continuous
 62
     7
370
    15
100
AcDbLine
 10
80.0745107366
 20
161.6709255981
 30
0.0
 11
80.0745107366
 21
161.5517349498
 31
0.0
  0
LINE
  5
27E
330
1F
100
AcDbEntity
  8
0
  6
Continuous
 62
     7
370
    15
100
AcDbLine
 10
80.0745107366
 20
163.3182566776
 30
0.0
 11
80.0745107366
 21
161.6709255981
 31
0.0
  0
LINE
  5
27F
330
1F
100
AcDbEntity
  8
0
  6
Continuous
 62
     7
370
    15
100
AcDbLine
 10
80.0745107366
 20
161.5517349498
 30
0.0
 11
80.0745107366
 21
160.9486847165
 31
0.0
  0
LINE
  5
280
330
1F
100
AcDbEntity
  8
0
  6
Continuous
 62
     7
370
    15
100
AcDbLine
 10
80.0745107366
 20
160.9486847165
 30
0.0
 11
80.0745107366
 21
160.9463378564
 31
0.0
  0
LINE
  5
281
330
1F
100
AcDbEntity
  8
0
  6
Continuous
 62
     7
370
    15
100
AcDbLine
 10
80.0745107366
 20
166.4553316106
 30
0.0
 11
80.0745107366
 21
166.336131628
 31
0.0
  0
LINE
  5
282
330
1F
100
AcDbEntity
  8
0
  6
Continuous
 62
     7
370
    15
100
AcDbLine
 10
80.0745107366
 20
169.1895455464
 30
0.0
 11
80.0745107366
 21
166.4553316106
 31
0.0
  0
LINE
  5
283
330
1F
100
AcDbEntity
  8
0
  6
Continuous
 62
     7
370
    15
100
AcDbLine
 10
80.0745107366
 20
166.336131628
 30
0.0
 11
80.0745107366
 21
165.7327460522
 31
0.0
  0
LINE
  5
284
330
1F
100
AcDbEntity
  8
0
  6
Continuous
 62
     7
370
    15
100
AcDbLine
 10
80.0745107366
 20
169.2679960615
 30
0.0
 11
80.0745107366
 21
169.1895455464
 31
0.0
  0
LINE
  5
285
330
1F
100
AcDbEntity
  8
0
  6
Continuous
 62
     7
370
    15
100
AcDbLine
 10
80.0745107366
 20
165.7327460522
 30
0.0
 11
80.0745107366
 21
165.7303965499
 31
0.0
  0
LINE
  5
286
330
1F
100
AcDbEntity
  8
0
  6
Continuous
 62
     7
370
    15
100
AcDbLine
 10
284.7145107366
 20
161.5517349498
 30
0.0
 11
284.7145107366
 21
161.6709255981
 31
0.0
  0
LINE
  5
287
330
1F
100
AcDbEntity
  8
0
  6
Continuous
 62
     7
370
    15
100
AcDbLine
 10
284.7145107366
 20
161.6709255981
 30
0.0
 11
284.7145107366
 21
163.3182566776
 31
0.0
  0
LINE
  5
288
330
1F
100
AcDbEntity
  8
0
  6
Continuous
 62
     7
370
    15
100
AcDbLine
 10
284.7145107366
 20
160.9486847165
 30
0.0
 11
284.7145107366
 21
161.5517349498
 31
0.0
  0
LINE
  5
289
330
1F
100
AcDbEntity
  8
0
  6
Continuous
 62
     7
370
    15
100
AcDbLine
 10
284.7145107366
 20
160.9463378564
 30
0.0
 11
284.7145107366
 21
160.9486847165
 31
0.0
  0
LINE
  5
28A
330
1F
100
AcDbEntity
  8
0
  6
Continuous
 62
     7
370
    15
100
AcDbLine
 10
268.8445107366
 20
163.4777719903
 30
0.0
 11
268.8445107366
 21
159.1524437425
 31
0.0
  0
LINE
  5
28B
330
1F
100
AcDbEntity
  8
0
  6
Continuous
 62
     7
370
    15
100
AcDbLine
 10
268.5445107366
 20
163.4777719903
 30
0.0
 11
268.5445107366
 21
159.1524437425
 31
0.0
  0
LINE
  5
28C
330
1F
100
AcDbEntity
  8
0
  6
Continuous
 62
     7
370
    15
100
AcDbLine
 10
268.8445107366
 20
163.8606712235
 30
0.0
 11
268.8445107366
 21
163.4777719903
 31
0.0
  0
LINE
  5
28D
330
1F
100
AcDbEntity
  8
0
  6
Continuous
 62
     7
370
    15
100
AcDbLine
 10
268.5445107366
 20
163.8606712235
 30
0.0
 11
268.5445107366
 21
163.4777719903
 31
0.0
  0
LINE
  5
28E
330
1F
100
AcDbEntity
  8
0
  6
Continuous
 62
     7
370
    15
100
AcDbLine
 10
268.8445107366
 20
168.1319578767
 30
0.0
 11
268.8445107366
 21
163.8606712235
 31
0.0
  0
LINE
  5
28F
330
1F
100
AcDbEntity
  8
0
  6
Continuous
 62
     7
370
    15
100
AcDbLine
 10
268.5445107366
 20
168.1319578767
 30
0.0
 11
268.5445107366
 21
163.8606712235
 31
0.0
  0
LINE
  5
290
330
1F
100
AcDbEntity
  8
0
  6
Continuous
 62
     7
370
    15
100
AcDbLine
 10
268.8445107366
 20
168.51485711
 30
0.0
 11
268.8445107366
 21
168.1319578767
 31
0.0
  0
LINE
  5
291
330
1F
100
AcDbEntity
  8
0
  6
Continuous
 62
     7
370
    15
100
AcDbLine
 10
268.5445107366
 20
168.51485711
 30
0.0
 11
268.5445107366
 21
168.1319578767
 31
0.0
  0
LINE
  5
292
330
1F
100
AcDbEntity
  8
0
  6
Continuous
 62
     7
370
    15
100
AcDbLine
 10
182.5445107366
 20
163.4777719903
 30
0.0
 11
182.5445107366
 21
159.1524437425
 31
0.0
  0
LINE
  5
293
330
1F
100
AcDbEntity
  8
0
  6
Continuous
 62
     7
370
    15
100
AcDbLine
 10
182.2445107366
 20
163.4777719903
 30
0.0
 11
182.2445107366
 21
159.1524437425
 31
0.0
  0
LINE
  5
294
330
1F
100
AcDbEntity
  8
0
  6
Continuous
 62
     7
370
    15
100
AcDbLine
 10
182.5445107366
 20
163.8606712236
 30
0.0
 11
182.5445107366
 21
163.4777719903
 31
0.0
  0
LINE
  5
295
330
1F
100
AcDbEntity
  8
0
  6
Continuous
 62
     7
370
    15
100
AcDbLine
 10
182.2445107366
 20
163.8606712236
 30
0.0
 11
182.2445107366
 21
163.4777719903
 31
0.0
  0
LINE
  5
296
330
1F
100
AcDbEntity
  8
0
  6
Continuous
 62
     7
370
    15
100
AcDbLine
 10
182.5445107366
 20
168.1319578767
 30
0.0
 11
182.5445107366
 21
163.8606712236
 31
0.0
  0
LINE
  5
297
330
1F
100
AcDbEntity
  8
0
  6
Continuous
 62
     7
370
    15
100
AcDbLine
 10
182.2445107366
 20
168.1319578767
 30
0.0
 11
182.2445107366
 21
163.8606712236
 31
0.0
  0
LINE
  5
298
330
1F
100
AcDbEntity
  8
0
  6
Continuous
 62
     7
370
    15
100
AcDbLine
 10
182.5445107366
 20
168.51485711
 30
0.0
 11
182.5445107366
 21
168.1319578767
 31
0.0
  0
LINE
  5
299
330
1F
100
AcDbEntity
  8
0
  6
Continuous
 62
     7
370
    15
100
AcDbLine
 10
182.2445107366
 20
168.51485711
 30
0.0
 11
182.2445107366
 21
168.1319578767
 31
0.0
  0
LINE
  5
29A
330
1F
100
AcDbEntity
  8
0
  6
Continuous
 62
     7
370
    15
100
AcDbLine
 10
96.2445107366
 20
163.4777719903
 30
0.0
 11
96.2445107366
 21
159.1524437425
 31
0.0
  0
LINE
  5
29B
330
1F
100
AcDbEntity
  8
0
  6
Continuous
 62
     7
370
    15
100
AcDbLine
 10
95.9445107366
 20
163.4777719903
 30
0.0
 11
95.9445107366
 21
159.1524437425
 31
0.0
  0
LINE
  5
29C
330
1F
100
AcDbEntity
  8
0
  6
Continuous
 62
     7
370
    15
100
AcDbLine
 10
96.2445107366
 20
163.8606712236
 30
0.0
 11
96.2445107366
 21
163.4777719903
 31
0.0
  0
LINE
  5
29D
330
1F
100
AcDbEntity
  8
0
  6
Continuous
 62
     7
370
    15
100
AcDbLine
 10
95.9445107366
 20
163.8606712236
 30
0.0
 11
95.9445107366
 21
163.4777719903
 31
0.0
  0
LINE
  5
29E
330
1F
100
AcDbEntity
  8
0
  6
Continuous
 62
     7
370
    15
100
AcDbLine
 10
96.2445107366
 20
168.1319578767
 30
0.0
 11
96.2445107366
 21
163.8606712236
 31
0.0
  0
LINE
  5
29F
330
1F
100
AcDbEntity
  8
0
  6
Continuous
 62
     7
370
    15
100
AcDbLine
 10
95.9445107366
 20
168.1319578767
 30
0.0
 11
95.9445107366
 21
163.8606712236
 31
0.0
  0
LINE
  5
2A0
330
1F
100
AcDbEntity
  8
0
  6
Continuous
 62
     7
370
    15
100
AcDbLine
 10
96.2445107366
 20
168.51485711
 30
0.0
 11
96.2445107366
 21
168.1319578767
 31
0.0
  0
LINE
  5
2A1
330
1F
100
AcDbEntity
  8
0
  6
Continuous
 62
     7
370
    15
100
AcDbLine
 10
95.9445107366
 20
168.51485711
 30
0.0
 11
95.9445107366
 21
168.1319578767
 31
0.0
  0
ARC
  5
2A2
330
1F
100
AcDbEntity
  8
0
  6
Continuous
 62
     7
370
    15
100
AcDbCircle
 10
96.4443459163
 20
165.761254253
 30
0.0
 40
0.5102289471107003
100
AcDbArc
 50
89.9814916251
 51
113.0576959534
  0
ARC
  5
2A3
330
1F
100
AcDbEntity
  8
0
  6
Continuous
 62
     7
370
    15
100
AcDbCircle
 10
96.4421888351
 20
165.7808529178
 30
0.0
 40
0.1976923984593916
100
AcDbArc
 50
89.3270443605
 51
179.3108520603
  0
ARC
  5
2A4
330
1F
100
AcDbEntity
  8
0
  6
Continuous
 62
     7
370
    15
100
AcDbCircle
 10
96.4421888351
 20
165.306764251
 30
0.0
 40
0.1976923984594089
100
AcDbArc
 50
89.3270443605
 51
179.3108520603
  0
LINE
  5
2A5
330
1F
100
AcDbEntity
  8
0
  6
Continuous
 62
     7
370
    15
100
AcDbLine
 10
96.4445107366
 20
166.2714831735
 30
0.0
 11
99.3445107366
 21
166.2714831735
 31
0.0
  0
LINE
  5
2A6
330
1F
100
AcDbEntity
  8
0
  6
Continuous
 62
     7
370
    15
100
AcDbLine
 10
96.4445107366
 20
165.9785316804
 30
0.0
 11
99.3445107366
 21
165.9785316804
 31
0.0
  0
ARC
  5
2A7
330
1F
100
AcDbEntity
  8
0
  6
Continuous
 62
     7
370
    15
100
AcDbCircle
 10
99.3921888351
 20
166.0071348382
 30
0.0
 40
0.2686135577970558
100
AcDbArc
 50
55.4540446259
 51
100.224000484
  0
LINE
  5
2A8
330
1F
100
AcDbEntity
  8
0
  6
Continuous
 62
     7
370
    15
100
AcDbLine
 10
99.5445107366
 20
166.2283842038
 30
0.0
 11
99.5445107366
 21
165.9354327107
 31
0.0
  0
ARC
  5
2A9
330
1F
100
AcDbEntity
  8
0
  6
Continuous
 62
     7
370
    15
100
AcDbCircle
 10
99.3921888351
 20
165.7141833451
 30
0.0
 40
0.2686135577970278
100
AcDbArc
 50
55.4540446259
 51
100.224000484
  0
LINE
  5
2AA
330
1F
100
AcDbEntity
  8
0
  6
Continuous
 62
     7
370
    15
100
AcDbLine
 10
99.5445107366
 20
165.9354327107
 30
0.0
 11
99.5445107366
 21
165.5475419833
 31
0.0
  0
ARC
  5
2AB
330
1F
100
AcDbEntity
  8
0
  6
Continuous
 62
     7
370
    15
100
AcDbCircle
 10
99.3921888351
 20
165.7687913489
 30
0.0
 40
0.2686135577963767
100
AcDbArc
 50
259.775999516
 51
304.5459553742
  0
LINE
  5
2AC
330
1F
100
AcDbEntity
  8
0
  6
Continuous
 62
     7
370
    15
100
AcDbLine
 10
99.3445107366
 20
165.5044430136
 30
0.0
 11
96.4445107366
 21
165.5044430136
 31
0.0
  0
LWPOLYLINE
  5
2AD
330
1F
100
AcDbEntity
  8
0
  6
Continuous
 62
     7
370
    15
100
AcDbPolyline
 90
       17
 70
   128
 43
0.0
 10
98.0445107366
 20
165.816910544
 10
97.9488398785
 20
165.8210114361
 10
97.8677340413
 20
165.8326897889
 10
97.8135408535
 20
165.850167679
 10
97.7945107366
 20
165.8707842561
 10
97.8135408535
 20
165.8914008332
 10
97.8677340413
 20
165.9088787233
 10
97.9488398785
 20
165.9205570761
 10
98.0445107366
 20
165.9246579682
 10
98.1401815947
 20
165.9205570761
 10
98.2212874319
 20
165.9088787233
 10
98.2754806198
 20
165.8914008332
 10
98.2945107366
 20
165.8707842561
 10
98.2754806198
 20
165.850167679
 10
98.2212874319
 20
165.8326897889
 10
98.1401815947
 20
165.8210114361
 10
98.0445107366
 20
165.816910544
  0
LWPOLYLINE
  5
2AE
330
1F
100
AcDbEntity
  8
0
  6
Continuous
 62
     7
370
    15
100
AcDbPolyline
 90
       17
 70
   128
 43
0.0
 10
98.0445107366
 20
165.66606415
 10
98.1401815947
 20
165.6619632579
 10
98.2212874319
 20
165.6502849051
 10
98.2754806198
 20
165.632807015
 10
98.2945107366
 20
165.6121904379
 10
98.2754806198
 20
165.5915738608
 10
98.2212874319
 20
165.5740959707
 10
98.1401815947
 20
165.5624176179
 10
98.0445107366
 20
165.5583167258
 10
97.9488398785
 20
165.5624176179
 10
97.8677340413
 20
165.5740959707
 10
97.8135408535
 20
165.5915738608
 10
97.7945107366
 20
165.6121904379
 10
97.8135408535
 20
165.632807015
 10
97.8677340413
 20
165.6502849051
 10
97.9488398785
 20
165.6619632579
 10
98.0445107366
 20
165.66606415
  0
LWPOLYLINE
  5
2AF
330
1F
100
AcDbEntity
  8
0
  6
Continuous
 62
     7
370
    15
100
AcDbPolyline
 90
       17
 70
   128
 43
0.0
 10
99.0445107366
 20
165.9246579682
 10
99.1401815947
 20
165.9205570761
 10
99.2212874319
 20
165.9088787233
 10
99.2754806198
 20
165.8914008332
 10
99.2945107366
 20
165.8707842561
 10
99.2754806198
 20
165.850167679
 10
99.2212874319
 20
165.8326897889
 10
99.1401815947
 20
165.8210114361
 10
99.0445107366
 20
165.816910544
 10
98.9488398785
 20
165.8210114361
 10
98.8677340413
 20
165.8326897889
 10
98.8135408535
 20
165.850167679
 10
98.7945107366
 20
165.8707842561
 10
98.8135408535
 20
165.8914008332
 10
98.8677340413
 20
165.9088787233
 10
98.9488398785
 20
165.9205570761
 10
99.0445107366
 20
165.9246579682
  0
LWPOLYLINE
  5
2B0
330
1F
100
AcDbEntity
  8
0
  6
Continuous
 62
     7
370
    15
100
AcDbPolyline
 90
       17
 70
   128
 43
0.0
 10
99.0445107366
 20
165.5583167258
 10
98.9488398785
 20
165.5624176179
 10
98.8677340413
 20
165.5740959707
 10
98.8135408535
 20
165.5915738608
 10
98.7945107366
 20
165.6121904379
 10
98.8135408535
 20
165.632807015
 10
98.8677340413
 20
165.6502849051
 10
98.9488398785
 20
165.6619632579
 10
99.0445107366
 20
165.66606415
 10
99.1401815947
 20
165.6619632579
 10
99.2212874319
 20
165.6502849051
 10
99.2754806198
 20
165.632807015
 10
99.2945107366
 20
165.6121904379
 10
99.2754806198
 20
165.5915738608
 10
99.2212874319
 20
165.5740959707
 10
99.1401815947
 20
165.5624176179
 10
99.0445107366
 20
165.5583167258
  0
ARC
  5
2B1
330
1F
100
AcDbEntity
  8
0
  6
Continuous
 62
     7
370
    15
100
AcDbCircle
 10
96.4443459163
 20
163.3491143807
 30
0.0
 40
0.5102289471109193
100
AcDbArc
 50
89.9814916251
 51
113.0576959534
  0
ARC
  5
2B2
330
1F
100
AcDbEntity
  8
0
  6
Continuous
 62
     7
370
    15
100
AcDbCircle
 10
96.4421888351
 20
163.3687130455
 30
0.0
 40
0.1976923984593527
100
AcDbArc
 50
89.3270443605
 51
179.3108520603
  0
ARC
  5
2B3
330
1F
100
AcDbEntity
  8
0
  6
Continuous
 62
     7
370
    15
100
AcDbCircle
 10
96.4421888351
 20
162.8946243787
 30
0.0
 40
0.1976923984594488
100
AcDbArc
 50
89.3270443606
 51
179.3108520603
  0
LINE
  5
2B4
330
1F
100
AcDbEntity
  8
0
  6
Continuous
 62
     7
370
    15
100
AcDbLine
 10
96.4445107366
 20
163.8593433012
 30
0.0
 11
99.3445107366
 21
163.8593433012
 31
0.0
  0
LINE
  5
2B5
330
1F
100
AcDbEntity
  8
0
  6
Continuous
 62
     7
370
    15
100
AcDbLine
 10
96.4445107366
 20
163.5663918081
 30
0.0
 11
99.3445107366
 21
163.5663918081
 31
0.0
  0
ARC
  5
2B6
330
1F
100
AcDbEntity
  8
0
  6
Continuous
 62
     7
370
    15
100
AcDbCircle
 10
99.3921888351
 20
163.5949949659
 30
0.0
 40
0.2686135577970556
100
AcDbArc
 50
55.4540446259
 51
100.224000484
  0
LINE
  5
2B7
330
1F
100
AcDbEntity
  8
0
  6
Continuous
 62
     7
370
    15
100
AcDbLine
 10
99.5445107366
 20
163.8162443315
 30
0.0
 11
99.5445107366
 21
163.5232928384
 31
0.0
  0
ARC
  5
2B8
330
1F
100
AcDbEntity
  8
0
  6
Continuous
 62
     7
370
    15
100
AcDbCircle
 10
99.3921888351
 20
163.3020434728
 30
0.0
 40
0.2686135577965725
100
AcDbArc
 50
55.4540446259
 51
100.224000484
  0
LINE
  5
2B9
330
1F
100
AcDbEntity
  8
0
  6
Continuous
 62
     7
370
    15
100
AcDbLine
 10
99.5445107366
 20
163.5232928384
 30
0.0
 11
99.5445107366
 21
163.135402111
 31
0.0
  0
ARC
  5
2BA
330
1F
100
AcDbEntity
  8
0
  6
Continuous
 62
     7
370
    15
100
AcDbCircle
 10
99.3921888351
 20
163.3566514766
 30
0.0
 40
0.2686135577963276
100
AcDbArc
 50
259.775999516
 51
304.5459553742
  0
LINE
  5
2BB
330
1F
100
AcDbEntity
  8
0
  6
Continuous
 62
     7
370
    15
100
AcDbLine
 10
99.3445107366
 20
163.0923031413
 30
0.0
 11
96.4445107366
 21
163.0923031413
 31
0.0
  0
LWPOLYLINE
  5
2BC
330
1F
100
AcDbEntity
  8
0
  6
Continuous
 62
     7
370
    15
100
AcDbPolyline
 90
       17
 70
   128
 43
0.0
 10
99.0445107366
 20
163.1461768535
 10
98.9488398785
 20
163.1502777456
 10
98.8677340413
 20
163.1619560984
 10
98.8135408535
 20
163.1794339885
 10
98.7945107366
 20
163.2000505656
 10
98.8135408535
 20
163.2206671427
 10
98.8677340413
 20
163.2381450328
 10
98.9488398785
 20
163.2498233856
 10
99.0445107366
 20
163.2539242777
 10
99.1401815947
 20
163.2498233856
 10
99.2212874319
 20
163.2381450328
 10
99.2754806198
 20
163.2206671427
 10
99.2945107366
 20
163.2000505656
 10
99.2754806198
 20
163.1794339885
 10
99.2212874319
 20
163.1619560984
 10
99.1401815947
 20
163.1502777456
 10
99.0445107366
 20
163.1461768535
  0
LWPOLYLINE
  5
2BD
330
1F
100
AcDbEntity
  8
0
  6
Continuous
 62
     7
370
    15
100
AcDbPolyline
 90
       17
 70
   128
 43
0.0
 10
99.0445107366
 20
163.5125180959
 10
99.1401815947
 20
163.5084172038
 10
99.2212874319
 20
163.496738851
 10
99.2754806198
 20
163.4792609609
 10
99.2945107366
 20
163.4586443838
 10
99.2754806198
 20
163.4380278067
 10
99.2212874319
 20
163.4205499166
 10
99.1401815947
 20
163.4088715638
 10
99.0445107366
 20
163.4047706717
 10
98.9488398785
 20
163.4088715638
 10
98.8677340413
 20
163.4205499166
 10
98.8135408535
 20
163.4380278067
 10
98.7945107366
 20
163.4586443838
 10
98.8135408535
 20
163.4792609609
 10
98.8677340413
 20
163.496738851
 10
98.9488398785
 20
163.5084172038
 10
99.0445107366
 20
163.5125180959
  0
LWPOLYLINE
  5
2BE
330
1F
100
AcDbEntity
  8
0
  6
Continuous
 62
     7
370
    15
100
AcDbPolyline
 90
       17
 70
   128
 43
0.0
 10
98.0445107366
 20
163.2539242777
 10
98.1401815947
 20
163.2498233856
 10
98.2212874319
 20
163.2381450328
 10
98.2754806198
 20
163.2206671427
 10
98.2945107366
 20
163.2000505656
 10
98.2754806198
 20
163.1794339885
 10
98.2212874319
 20
163.1619560984
 10
98.1401815947
 20
163.1502777456
 10
98.0445107366
 20
163.1461768535
 10
97.9488398785
 20
163.1502777456
 10
97.8677340413
 20
163.1619560984
 10
97.8135408535
 20
163.1794339885
 10
97.7945107366
 20
163.2000505656
 10
97.8135408535
 20
163.2206671427
 10
97.8677340413
 20
163.2381450328
 10
97.9488398785
 20
163.2498233856
 10
98.0445107366
 20
163.2539242777
  0
LWPOLYLINE
  5
2BF
330
1F
100
AcDbEntity
  8
0
  6
Continuous
 62
     7
370
    15
100
AcDbPolyline
 90
       17
 70
   128
 43
0.0
 10
98.0445107366
 20
163.4047706717
 10
97.9488398785
 20
163.4088715638
 10
97.8677340413
 20
163.4205499166
 10
97.8135408535
 20
163.4380278067
 10
97.7945107366
 20
163.4586443838
 10
97.8135408535
 20
163.4792609609
 10
97.8677340413
 20
163.496738851
 10
97.9488398785
 20
163.5084172038
 10
98.0445107366
 20
163.5125180959
 10
98.1401815947
 20
163.5084172038
 10
98.2212874319
 20
163.496738851
 10
98.2754806198
 20
163.4792609609
 10
98.2945107366
 20
163.4586443838
 10
98.2754806198
 20
163.4380278067
 10
98.2212874319
 20
163.4205499166
 10
98.1401815947
 20
163.4088715638
 10
98.0445107366
 20
163.4047706717
  0
ARC
  5
2C0
330
1F
100
AcDbEntity
  8
0
  6
Continuous
 62
     7
370
    15
100
AcDbCircle
 10
96.4421914153
 20
160.9964816682
 30
0.0
 40
0.1976949458991231
100
AcDbArc
 50
89.3278008638
 51
179.3116453941
  0
ARC
  5
2C1
330
1F
100
AcDbEntity
  8
0
  6
Continuous
 62
     7
370
    15
100
AcDbCircle
 10
96.4443552589
 20
160.9768603714
 30
0.0
 40
0.5102620807151876
100
AcDbArc
 50
89.9825418804
 51
113.0572524221
  0
ARC
  5
2C2
330
1F
100
AcDbEntity
  8
0
  6
Continuous
 62
     7
370
    15
100
AcDbCircle
 10
96.4421914153
 20
160.5226564812
 30
0.0
 40
0.1976949458990908
100
AcDbArc
 50
89.3278008638
 51
179.3116453942
  0
LINE
  5
2C3
330
1F
100
AcDbEntity
  8
0
  6
Continuous
 62
     7
370
    15
100
AcDbLine
 10
99.3445107366
 20
161.1941630087
 30
0.0
 11
96.4445107366
 21
161.1941630087
 31
0.0
  0
LINE
  5
2C4
330
1F
100
AcDbEntity
  8
0
  6
Continuous
 62
     7
370
    15
100
AcDbLine
 10
99.3445107366
 20
161.4871224284
 30
0.0
 11
96.4445107366
 21
161.4871224284
 31
0.0
  0
ARC
  5
2C5
330
1F
100
AcDbEntity
  8
0
  6
Continuous
 62
     7
370
    15
100
AcDbCircle
 10
99.3921914153
 20
161.2226630346
 30
0.0
 40
0.2687233113794996
100
AcDbArc
 50
55.4708216032
 51
100.2203388693
  0
LINE
  5
2C6
330
1F
100
AcDbEntity
  8
0
  6
Continuous
 62
     7
370
    15
100
AcDbLine
 10
99.5445107366
 20
161.4440474117
 30
0.0
 11
99.5445107366
 21
161.151087992
 31
0.0
  0
ARC
  5
2C7
330
1F
100
AcDbEntity
  8
0
  6
Continuous
 62
     7
370
    15
100
AcDbCircle
 10
99.3921914153
 20
160.9297036149
 30
0.0
 40
0.2687233113792137
100
AcDbArc
 50
55.4708216032
 51
100.2203388693
  0
LINE
  5
2C8
330
1F
100
AcDbEntity
  8
0
  6
Continuous
 62
     7
370
    15
100
AcDbLine
 10
99.5445107366
 20
160.7634128384
 30
0.0
 11
99.5445107366
 21
161.151087992
 31
0.0
  0
ARC
  5
2C9
330
1F
100
AcDbEntity
  8
0
  6
Continuous
 62
     7
370
    15
100
AcDbCircle
 10
99.3921914153
 20
160.9847972155
 30
0.0
 40
0.2687233113793088
100
AcDbArc
 50
259.7796611307
 51
304.5291783968
  0
LINE
  5
2CA
330
1F
100
AcDbEntity
  8
0
  6
Continuous
 62
     7
370
    15
100
AcDbLine
 10
96.4445107366
 20
160.7203378217
 30
0.0
 11
99.3445107366
 21
160.7203378217
 31
0.0
  0
LWPOLYLINE
  5
2CB
330
1F
100
AcDbEntity
  8
0
  6
Continuous
 62
     7
370
    15
100
AcDbPolyline
 90
       17
 70
   128
 43
0.0
 10
99.0445107366
 20
160.8818691342
 10
98.9488398785
 20
160.8777705212
 10
98.8677340413
 20
160.8660986589
 10
98.8135408535
 20
160.8486304824
 10
98.7945107366
 20
160.8280253634
 10
98.8135408535
 20
160.8074202444
 10
98.8677340413
 20
160.7899520679
 10
98.9488398785
 20
160.7782802056
 10
99.0445107366
 20
160.7741815926
 10
99.1401815947
 20
160.7782802056
 10
99.2212874319
 20
160.7899520679
 10
99.2754806198
 20
160.8074202444
 10
99.2945107366
 20
160.8280253634
 10
99.2754806198
 20
160.8486304824
 10
99.2212874319
 20
160.8660986589
 10
99.1401815947
 20
160.8777705212
 10
99.0445107366
 20
160.8818691342
  0
LWPOLYLINE
  5
2CC
330
1F
100
AcDbEntity
  8
0
  6
Continuous
 62
     7
370
    15
100
AcDbPolyline
 90
       17
 70
   128
 43
0.0
 10
98.0445107366
 20
161.1403192378
 10
97.9488398785
 20
161.1362206248
 10
97.8677340413
 20
161.1245487625
 10
97.8135408535
 20
161.107080586
 10
97.7945107366
 20
161.086475467
 10
97.8135408535
 20
161.065870348
 10
97.8677340413
 20
161.0484021715
 10
97.9488398785
 20
161.0367303092
 10
98.0445107366
 20
161.0326316962
 10
98.1401815947
 20
161.0367303092
 10
98.2212874319
 20
161.0484021715
 10
98.2754806198
 20
161.065870348
 10
98.2945107366
 20
161.086475467
 10
98.2754806198
 20
161.107080586
 10
98.2212874319
 20
161.1245487625
 10
98.1401815947
 20
161.1362206248
 10
98.0445107366
 20
161.1403192378
  0
LWPOLYLINE
  5
2CD
330
1F
100
AcDbEntity
  8
0
  6
Continuous
 62
     7
370
    15
100
AcDbPolyline
 90
       17
 70
   128
 43
0.0
 10
98.0445107366
 20
160.7741815926
 10
98.1401815947
 20
160.7782802056
 10
98.2212874319
 20
160.7899520679
 10
98.2754806198
 20
160.8074202444
 10
98.2945107366
 20
160.8280253634
 10
98.2754806198
 20
160.8486304824
 10
98.2212874319
 20
160.8660986589
 10
98.1401815947
 20
160.8777705212
 10
98.0445107366
 20
160.8818691342
 10
97.9488398785
 20
160.8777705212
 10
97.8677340413
 20
160.8660986589
 10
97.8135408535
 20
160.8486304824
 10
97.7945107366
 20
160.8280253634
 10
97.8135408535
 20
160.8074202444
 10
97.8677340413
 20
160.7899520679
 10
97.9488398785
 20
160.7782802056
 10
98.0445107366
 20
160.7741815926
  0
LWPOLYLINE
  5
2CE
330
1F
100
AcDbEntity
  8
0
  6
Continuous
 62
     7
370
    15
100
AcDbPolyline
 90
       17
 70
   128
 43
0.0
 10
99.0445107366
 20
161.0326316962
 10
99.1401815947
 20
161.0367303092
 10
99.2212874319
 20
161.0484021715
 10
99.2754806198
 20
161.065870348
 10
99.2945107366
 20
161.086475467
 10
99.2754806198
 20
161.107080586
 10
99.2212874319
 20
161.1245487625
 10
99.1401815947
 20
161.1362206248
 10
99.0445107366
 20
161.1403192378
 10
98.9488398785
 20
161.1362206248
 10
98.8677340413
 20
161.1245487625
 10
98.8135408535
 20
161.107080586
 10
98.7945107366
 20
161.086475467
 10
98.8135408535
 20
161.065870348
 10
98.8677340413
 20
161.0484021715
 10
98.9488398785
 20
161.0367303092
 10
99.0445107366
 20
161.0326316962
  0
ARC
  5
2CF
330
1F
100
AcDbEntity
  8
0
  6
Continuous
 62
     7
370
    15
100
AcDbCircle
 10
182.7443459163
 20
165.761254253
 30
0.0
 40
0.5102289471110064
100
AcDbArc
 50
89.9814916251
 51
113.0576959534
  0
ARC
  5
2D0
330
1F
100
AcDbEntity
  8
0
  6
Continuous
 62
     7
370
    15
100
AcDbCircle
 10
182.7421888351
 20
165.7808529178
 30
0.0
 40
0.1976923984593919
100
AcDbArc
 50
89.3270443606
 51
179.3108520603
  0
ARC
  5
2D1
330
1F
100
AcDbEntity
  8
0
  6
Continuous
 62
     7
370
    15
100
AcDbCircle
 10
182.7421888351
 20
165.306764251
 30
0.0
 40
0.1976923984594088
100
AcDbArc
 50
89.3270443606
 51
179.3108520603
  0
LINE
  5
2D2
330
1F
100
AcDbEntity
  8
0
  6
Continuous
 62
     7
370
    15
100
AcDbLine
 10
182.7445107366
 20
166.2714831735
 30
0.0
 11
185.6445107366
 21
166.2714831735
 31
0.0
  0
LINE
  5
2D3
330
1F
100
AcDbEntity
  8
0
  6
Continuous
 62
     7
370
    15
100
AcDbLine
 10
182.7445107366
 20
165.9785316804
 30
0.0
 11
185.6445107366
 21
165.9785316804
 31
0.0
  0
ARC
  5
2D4
330
1F
100
AcDbEntity
  8
0
  6
Continuous
 62
     7
370
    15
100
AcDbCircle
 10
185.6921888351
 20
166.0071348382
 30
0.0
 40
0.2686135577969109
100
AcDbArc
 50
55.4540446259
 51
100.224000484
  0
LINE
  5
2D5
330
1F
100
AcDbEntity
  8
0
  6
Continuous
 62
     7
370
    15
100
AcDbLine
 10
185.8445107366
 20
166.2283842038
 30
0.0
 11
185.8445107366
 21
165.9354327107
 31
0.0
  0
ARC
  5
2D6
330
1F
100
AcDbEntity
  8
0
  6
Continuous
 62
     7
370
    15
100
AcDbCircle
 10
185.6921888351
 20
165.7141833451
 30
0.0
 40
0.2686135577969159
100
AcDbArc
 50
55.4540446259
 51
100.224000484
  0
LINE
  5
2D7
330
1F
100
AcDbEntity
  8
0
  6
Continuous
 62
     7
370
    15
100
AcDbLine
 10
185.8445107366
 20
165.9354327107
 30
0.0
 11
185.8445107366
 21
165.5475419833
 31
0.0
  0
ARC
  5
2D8
330
1F
100
AcDbEntity
  8
0
  6
Continuous
 62
     7
370
    15
100
AcDbCircle
 10
185.6921888351
 20
165.7687913489
 30
0.0
 40
0.2686135577963487
100
AcDbArc
 50
259.775999516
 51
304.5459553742
  0
LINE
  5
2D9
330
1F
100
AcDbEntity
  8
0
  6
Continuous
 62
     7
370
    15
100
AcDbLine
 10
185.6445107366
 20
165.5044430136
 30
0.0
 11
182.7445107366
 21
165.5044430136
 31
0.0
  0
LWPOLYLINE
  5
2DA
330
1F
100
AcDbEntity
  8
0
  6
Continuous
 62
     7
370
    15
100
AcDbPolyline
 90
       17
 70
   128
 43
0.0
 10
184.3445107366
 20
165.816910544
 10
184.2488398785
 20
165.8210114361
 10
184.1677340413
 20
165.8326897889
 10
184.1135408535
 20
165.850167679
 10
184.0945107366
 20
165.8707842561
 10
184.1135408535
 20
165.8914008332
 10
184.1677340413
 20
165.9088787233
 10
184.2488398785
 20
165.9205570761
 10
184.3445107366
 20
165.9246579682
 10
184.4401815947
 20
165.9205570761
 10
184.5212874319
 20
165.9088787233
 10
184.5754806198
 20
165.8914008332
 10
184.5945107366
 20
165.8707842561
 10
184.5754806198
 20
165.850167679
 10
184.5212874319
 20
165.8326897889
 10
184.4401815947
 20
165.8210114361
 10
184.3445107366
 20
165.816910544
  0
LWPOLYLINE
  5
2DB
330
1F
100
AcDbEntity
  8
0
  6
Continuous
 62
     7
370
    15
100
AcDbPolyline
 90
       17
 70
   128
 43
0.0
 10
184.3445107366
 20
165.66606415
 10
184.4401815947
 20
165.6619632579
 10
184.5212874319
 20
165.6502849051
 10
184.5754806198
 20
165.632807015
 10
184.5945107366
 20
165.6121904379
 10
184.5754806198
 20
165.5915738608
 10
184.5212874319
 20
165.5740959707
 10
184.4401815947
 20
165.5624176179
 10
184.3445107366
 20
165.5583167258
 10
184.2488398785
 20
165.5624176179
 10
184.1677340413
 20
165.5740959707
 10
184.1135408535
 20
165.5915738608
 10
184.0945107366
 20
165.6121904379
 10
184.1135408535
 20
165.632807015
 10
184.1677340413
 20
165.6502849051
 10
184.2488398785
 20
165.6619632579
 10
184.3445107366
 20
165.66606415
  0
LWPOLYLINE
  5
2DC
330
1F
100
AcDbEntity
  8
0
  6
Continuous
 62
     7
370
    15
100
AcDbPolyline
 90
       17
 70
   128
 43
0.0
 10
185.3445107366
 20
165.9246579682
 10
185.4401815947
 20
165.9205570761
 10
185.5212874319
 20
165.9088787233
 10
185.5754806198
 20
165.8914008332
 10
185.5945107366
 20
165.8707842561
 10
185.5754806198
 20
165.850167679
 10
185.5212874319
 20
165.8326897889
 10
185.4401815947
 20
165.8210114361
 10
185.3445107366
 20
165.816910544
 10
185.2488398785
 20
165.8210114361
 10
185.1677340413
 20
165.8326897889
 10
185.1135408535
 20
165.850167679
 10
185.0945107366
 20
165.8707842561
 10
185.1135408535
 20
165.8914008332
 10
185.1677340413
 20
165.9088787233
 10
185.2488398785
 20
165.9205570761
 10
185.3445107366
 20
165.9246579682
  0
LWPOLYLINE
  5
2DD
330
1F
100
AcDbEntity
  8
0
  6
Continuous
 62
     7
370
    15
100
AcDbPolyline
 90
       17
 70
   128
 43
0.0
 10
185.3445107366
 20
165.5583167258
 10
185.2488398785
 20
165.5624176179
 10
185.1677340413
 20
165.5740959707
 10
185.1135408535
 20
165.5915738608
 10
185.0945107366
 20
165.6121904379
 10
185.1135408535
 20
165.632807015
 10
185.1677340413
 20
165.6502849051
 10
185.2488398785
 20
165.6619632579
 10
185.3445107366
 20
165.66606415
 10
185.4401815947
 20
165.6619632579
 10
185.5212874319
 20
165.6502849051
 10
185.5754806198
 20
165.632807015
 10
185.5945107366
 20
165.6121904379
 10
185.5754806198
 20
165.5915738608
 10
185.5212874319
 20
165.5740959707
 10
185.4401815947
 20
165.5624176179
 10
185.3445107366
 20
165.5583167258
  0
ARC
  5
2DE
330
1F
100
AcDbEntity
  8
0
  6
Continuous
 62
     7
370
    15
100
AcDbCircle
 10
182.7443459163
 20
163.3491143807
 30
0.0
 40
0.5102289471102373
100
AcDbArc
 50
89.9814916251
 51
113.0576959534
  0
ARC
  5
2DF
330
1F
100
AcDbEntity
  8
0
  6
Continuous
 62
     7
370
    15
100
AcDbCircle
 10
182.7421888351
 20
163.3687130455
 30
0.0
 40
0.1976923984593347
100
AcDbArc
 50
89.3270443605
 51
179.3108520603
  0
ARC
  5
2E0
330
1F
100
AcDbEntity
  8
0
  6
Continuous
 62
     7
370
    15
100
AcDbCircle
 10
182.7421888351
 20
162.8946243787
 30
0.0
 40
0.1976923984593628
100
AcDbArc
 50
89.3270443605
 51
179.3108520604
  0
LINE
  5
2E1
330
1F
100
AcDbEntity
  8
0
  6
Continuous
 62
     7
370
    15
100
AcDbLine
 10
182.7445107366
 20
163.8593433012
 30
0.0
 11
185.6445107366
 21
163.8593433012
 31
0.0
  0
LINE
  5
2E2
330
1F
100
AcDbEntity
  8
0
  6
Continuous
 62
     7
370
    15
100
AcDbLine
 10
182.7445107366
 20
163.5663918081
 30
0.0
 11
185.6445107366
 21
163.5663918081
 31
0.0
  0
ARC
  5
2E3
330
1F
100
AcDbEntity
  8
0
  6
Continuous
 62
     7
370
    15
100
AcDbCircle
 10
185.6921888351
 20
163.5949949659
 30
0.0
 40
0.2686135577968269
100
AcDbArc
 50
55.4540446259
 51
100.224000484
  0
LINE
  5
2E4
330
1F
100
AcDbEntity
  8
0
  6
Continuous
 62
     7
370
    15
100
AcDbLine
 10
185.8445107366
 20
163.8162443315
 30
0.0
 11
185.8445107366
 21
163.5232928384
 31
0.0
  0
ARC
  5
2E5
330
1F
100
AcDbEntity
  8
0
  6
Continuous
 62
     7
370
    15
100
AcDbCircle
 10
185.6921888351
 20
163.3020434728
 30
0.0
 40
0.2686135577964607
100
AcDbArc
 50
55.4540446258
 51
100.224000484
  0
LINE
  5
2E6
330
1F
100
AcDbEntity
  8
0
  6
Continuous
 62
     7
370
    15
100
AcDbLine
 10
185.8445107366
 20
163.5232928384
 30
0.0
 11
185.8445107366
 21
163.135402111
 31
0.0
  0
ARC
  5
2E7
330
1F
100
AcDbEntity
  8
0
  6
Continuous
 62
     7
370
    15
100
AcDbCircle
 10
185.6921888351
 20
163.3566514766
 30
0.0
 40
0.268613557796351
100
AcDbArc
 50
259.775999516
 51
304.5459553742
  0
LINE
  5
2E8
330
1F
100
AcDbEntity
  8
0
  6
Continuous
 62
     7
370
    15
100
AcDbLine
 10
185.6445107366
 20
163.0923031413
 30
0.0
 11
182.7445107366
 21
163.0923031413
 31
0.0
  0
LWPOLYLINE
  5
2E9
330
1F
100
AcDbEntity
  8
0
  6
Continuous
 62
     7
370
    15
100
AcDbPolyline
 90
       17
 70
   128
 43
0.0
 10
185.3445107366
 20
163.1461768535
 10
185.2488398785
 20
163.1502777456
 10
185.1677340413
 20
163.1619560984
 10
185.1135408535
 20
163.1794339885
 10
185.0945107366
 20
163.2000505656
 10
185.1135408535
 20
163.2206671427
 10
185.1677340413
 20
163.2381450328
 10
185.2488398785
 20
163.2498233856
 10
185.3445107366
 20
163.2539242777
 10
185.4401815947
 20
163.2498233856
 10
185.5212874319
 20
163.2381450328
 10
185.5754806198
 20
163.2206671427
 10
185.5945107366
 20
163.2000505656
 10
185.5754806198
 20
163.1794339885
 10
185.5212874319
 20
163.1619560984
 10
185.4401815947
 20
163.1502777456
 10
185.3445107366
 20
163.1461768535
  0
LWPOLYLINE
  5
2EA
330
1F
100
AcDbEntity
  8
0
  6
Continuous
 62
     7
370
    15
100
AcDbPolyline
 90
       17
 70
   128
 43
0.0
 10
185.3445107366
 20
163.5125180959
 10
185.4401815947
 20
163.5084172038
 10
185.5212874319
 20
163.496738851
 10
185.5754806198
 20
163.4792609609
 10
185.5945107366
 20
163.4586443838
 10
185.5754806198
 20
163.4380278067
 10
185.5212874319
 20
163.4205499166
 10
185.4401815947
 20
163.4088715638
 10
185.3445107366
 20
163.4047706717
 10
185.2488398785
 20
163.4088715638
 10
185.1677340413
 20
163.4205499166
 10
185.1135408535
 20
163.4380278067
 10
185.0945107366
 20
163.4586443838
 10
185.1135408535
 20
163.4792609609
 10
185.1677340413
 20
163.496738851
 10
185.2488398785
 20
163.5084172038
 10
185.3445107366
 20
163.5125180959
  0
LWPOLYLINE
  5
2EB
330
1F
100
AcDbEntity
  8
0
  6
Continuous
 62
     7
370
    15
100
AcDbPolyline
 90
       17
 70
   128
 43
0.0
 10
184.3445107366
 20
163.2539242777
 10
184.4401815947
 20
163.2498233856
 10
184.5212874319
 20
163.2381450328
 10
184.5754806198
 20
163.2206671427
 10
184.5945107366
 20
163.2000505656
 10
184.5754806198
 20
163.1794339885
 10
184.5212874319
 20
163.1619560984
 10
184.4401815947
 20
163.1502777456
 10
184.3445107366
 20
163.1461768535
 10
184.2488398785
 20
163.1502777456
 10
184.1677340413
 20
163.1619560984
 10
184.1135408535
 20
163.1794339885
 10
184.0945107366
 20
163.2000505656
 10
184.1135408535
 20
163.2206671427
 10
184.1677340413
 20
163.2381450328
 10
184.2488398785
 20
163.2498233856
 10
184.3445107366
 20
163.2539242777
  0
LWPOLYLINE
  5
2EC
330
1F
100
AcDbEntity
  8
0
  6
Continuous
 62
     7
370
    15
100
AcDbPolyline
 90
       17
 70
   128
 43
0.0
 10
184.3445107366
 20
163.4047706717
 10
184.2488398785
 20
163.4088715638
 10
184.1677340413
 20
163.4205499166
 10
184.1135408535
 20
163.4380278067
 10
184.0945107366
 20
163.4586443838
 10
184.1135408535
 20
163.4792609609
 10
184.1677340413
 20
163.496738851
 10
184.2488398785
 20
163.5084172038
 10
184.3445107366
 20
163.5125180959
 10
184.4401815947
 20
163.5084172038
 10
184.5212874319
 20
163.496738851
 10
184.5754806198
 20
163.4792609609
 10
184.5945107366
 20
163.4586443838
 10
184.5754806198
 20
163.4380278067
 10
184.5212874319
 20
163.4205499166
 10
184.4401815947
 20
163.4088715638
 10
184.3445107366
 20
163.4047706717
  0
ARC
  5
2ED
330
1F
100
AcDbEntity
  8
0
  6
Continuous
 62
     7
370
    15
100
AcDbCircle
 10
182.7421914153
 20
160.9964816682
 30
0.0
 40
0.1976949458991228
100
AcDbArc
 50
89.3278008638
 51
179.3116453942
  0
ARC
  5
2EE
330
1F
100
AcDbEntity
  8
0
  6
Continuous
 62
     7
370
    15
100
AcDbCircle
 10
182.7443552589
 20
160.9768603714
 30
0.0
 40
0.5102620807149603
100
AcDbArc
 50
89.9825418804
 51
113.0572524221
  0
ARC
  5
2EF
330
1F
100
AcDbEntity
  8
0
  6
Continuous
 62
     7
370
    15
100
AcDbCircle
 10
182.7421914153
 20
160.5226564812
 30
0.0
 40
0.1976949458991231
100
AcDbArc
 50
89.3278008638
 51
179.3116453941
  0
LINE
  5
2F0
330
1F
100
AcDbEntity
  8
0
  6
Continuous
 62
     7
370
    15
100
AcDbLine
 10
185.6445107366
 20
161.1941630087
 30
0.0
 11
182.7445107366
 21
161.1941630087
 31
0.0
  0
LINE
  5
2F1
330
1F
100
AcDbEntity
  8
0
  6
Continuous
 62
     7
370
    15
100
AcDbLine
 10
185.6445107366
 20
161.4871224284
 30
0.0
 11
182.7445107366
 21
161.4871224284
 31
0.0
  0
ARC
  5
2F2
330
1F
100
AcDbEntity
  8
0
  6
Continuous
 62
     7
370
    15
100
AcDbCircle
 10
185.6921914153
 20
161.2226630346
 30
0.0
 40
0.2687233113794325
100
AcDbArc
 50
55.4708216032
 51
100.2203388693
  0
LINE
  5
2F3
330
1F
100
AcDbEntity
  8
0
  6
Continuous
 62
     7
370
    15
100
AcDbLine
 10
185.8445107366
 20
161.4440474117
 30
0.0
 11
185.8445107366
 21
161.151087992
 31
0.0
  0
ARC
  5
2F4
330
1F
100
AcDbEntity
  8
0
  6
Continuous
 62
     7
370
    15
100
AcDbCircle
 10
185.6921914153
 20
160.9297036149
 30
0.0
 40
0.2687233113789603
100
AcDbArc
 50
55.4708216032
 51
100.2203388694
  0
LINE
  5
2F5
330
1F
100
AcDbEntity
  8
0
  6
Continuous
 62
     7
370
    15
100
AcDbLine
 10
185.8445107366
 20
160.7634128384
 30
0.0
 11
185.8445107366
 21
161.151087992
 31
0.0
  0
ARC
  5
2F6
330
1F
100
AcDbEntity
  8
0
  6
Continuous
 62
     7
370
    15
100
AcDbCircle
 10
185.6921914153
 20
160.9847972155
 30
0.0
 40
0.2687233113793877
100
AcDbArc
 50
259.7796611307
 51
304.5291783968
  0
LINE
  5
2F7
330
1F
100
AcDbEntity
  8
0
  6
Continuous
 62
     7
370
    15
100
AcDbLine
 10
182.7445107366
 20
160.7203378217
 30
0.0
 11
185.6445107366
 21
160.7203378217
 31
0.0
  0
LWPOLYLINE
  5
2F8
330
1F
100
AcDbEntity
  8
0
  6
Continuous
 62
     7
370
    15
100
AcDbPolyline
 90
       17
 70
   128
 43
0.0
 10
185.3445107366
 20
160.8818691342
 10
185.2488398785
 20
160.8777705212
 10
185.1677340413
 20
160.8660986589
 10
185.1135408535
 20
160.8486304824
 10
185.0945107366
 20
160.8280253634
 10
185.1135408535
 20
160.8074202444
 10
185.1677340413
 20
160.7899520679
 10
185.2488398785
 20
160.7782802056
 10
185.3445107366
 20
160.7741815926
 10
185.4401815947
 20
160.7782802056
 10
185.5212874319
 20
160.7899520679
 10
185.5754806198
 20
160.8074202444
 10
185.5945107366
 20
160.8280253634
 10
185.5754806198
 20
160.8486304824
 10
185.5212874319
 20
160.8660986589
 10
185.4401815947
 20
160.8777705212
 10
185.3445107366
 20
160.8818691342
  0
LWPOLYLINE
  5
2F9
330
1F
100
AcDbEntity
  8
0
  6
Continuous
 62
     7
370
    15
100
AcDbPolyline
 90
       17
 70
   128
 43
0.0
 10
184.3445107366
 20
161.1403192378
 10
184.2488398785
 20
161.1362206248
 10
184.1677340413
 20
161.1245487625
 10
184.1135408535
 20
161.107080586
 10
184.0945107366
 20
161.086475467
 10
184.1135408535
 20
161.065870348
 10
184.1677340413
 20
161.0484021715
 10
184.2488398785
 20
161.0367303092
 10
184.3445107366
 20
161.0326316962
 10
184.4401815947
 20
161.0367303092
 10
184.5212874319
 20
161.0484021715
 10
184.5754806198
 20
161.065870348
 10
184.5945107366
 20
161.086475467
 10
184.5754806198
 20
161.107080586
 10
184.5212874319
 20
161.1245487625
 10
184.4401815947
 20
161.1362206248
 10
184.3445107366
 20
161.1403192378
  0
LWPOLYLINE
  5
2FA
330
1F
100
AcDbEntity
  8
0
  6
Continuous
 62
     7
370
    15
100
AcDbPolyline
 90
       17
 70
   128
 43
0.0
 10
184.3445107366
 20
160.7741815926
 10
184.4401815947
 20
160.7782802056
 10
184.5212874319
 20
160.7899520679
 10
184.5754806198
 20
160.8074202444
 10
184.5945107366
 20
160.8280253634
 10
184.5754806198
 20
160.8486304824
 10
184.5212874319
 20
160.8660986589
 10
184.4401815947
 20
160.8777705212
 10
184.3445107366
 20
160.8818691342
 10
184.2488398785
 20
160.8777705212
 10
184.1677340413
 20
160.8660986589
 10
184.1135408535
 20
160.8486304824
 10
184.0945107366
 20
160.8280253634
 10
184.1135408535
 20
160.8074202444
 10
184.1677340413
 20
160.7899520679
 10
184.2488398785
 20
160.7782802056
 10
184.3445107366
 20
160.7741815926
  0
LWPOLYLINE
  5
2FB
330
1F
100
AcDbEntity
  8
0
  6
Continuous
 62
     7
370
    15
100
AcDbPolyline
 90
       17
 70
   128
 43
0.0
 10
185.3445107366
 20
161.0326316962
 10
185.4401815947
 20
161.0367303092
 10
185.5212874319
 20
161.0484021715
 10
185.5754806198
 20
161.065870348
 10
185.5945107366
 20
161.086475467
 10
185.5754806198
 20
161.107080586
 10
185.5212874319
 20
161.1245487625
 10
185.4401815947
 20
161.1362206248
 10
185.3445107366
 20
161.1403192378
 10
185.2488398785
 20
161.1362206248
 10
185.1677340413
 20
161.1245487625
 10
185.1135408535
 20
161.107080586
 10
185.0945107366
 20
161.086475467
 10
185.1135408535
 20
161.065870348
 10
185.1677340413
 20
161.0484021715
 10
185.2488398785
 20
161.0367303092
 10
185.3445107366
 20
161.0326316962
  0
ARC
  5
2FC
330
1F
100
AcDbEntity
  8
0
  6
Continuous
 62
     7
370
    15
100
AcDbCircle
 10
269.0443459163
 20
165.761254253
 30
0.0
 40
0.5102289471110548
100
AcDbArc
 50
89.9814916251
 51
113.0576959534
  0
ARC
  5
2FD
330
1F
100
AcDbEntity
  8
0
  6
Continuous
 62
     7
370
    15
100
AcDbCircle
 10
269.0421888351
 20
165.7808529177
 30
0.0
 40
0.1976923984594204
100
AcDbArc
 50
89.3270443605
 51
179.3108520603
  0
ARC
  5
2FE
330
1F
100
AcDbEntity
  8
0
  6
Continuous
 62
     7
370
    15
100
AcDbCircle
 10
269.0421888351
 20
165.306764251
 30
0.0
 40
0.197692398459382
100
AcDbArc
 50
89.3270443605
 51
179.3108520603
  0
LINE
  5
2FF
330
1F
100
AcDbEntity
  8
0
  6
Continuous
 62
     7
370
    15
100
AcDbLine
 10
269.0445107366
 20
166.2714831734
 30
0.0
 11
271.9445107366
 21
166.2714831734
 31
0.0
  0
LINE
  5
300
330
1F
100
AcDbEntity
  8
0
  6
Continuous
 62
     7
370
    15
100
AcDbLine
 10
269.0445107366
 20
165.9785316803
 30
0.0
 11
271.9445107366
 21
165.9785316803
 31
0.0
  0
ARC
  5
301
330
1F
100
AcDbEntity
  8
0
  6
Continuous
 62
     7
370
    15
100
AcDbCircle
 10
271.9921888351
 20
166.0071348382
 30
0.0
 40
0.2686135577971346
100
AcDbArc
 50
55.4540446259
 51
100.224000484
  0
LINE
  5
302
330
1F
100
AcDbEntity
  8
0
  6
Continuous
 62
     7
370
    15
100
AcDbLine
 10
272.1445107366
 20
166.2283842037
 30
0.0
 11
272.1445107366
 21
165.9354327106
 31
0.0
  0
ARC
  5
303
330
1F
100
AcDbEntity
  8
0
  6
Continuous
 62
     7
370
    15
100
AcDbCircle
 10
271.9921888351
 20
165.7141833451
 30
0.0
 40
0.268613557796853
100
AcDbArc
 50
55.4540446259
 51
100.224000484
  0
LINE
  5
304
330
1F
100
AcDbEntity
  8
0
  6
Continuous
 62
     7
370
    15
100
AcDbLine
 10
272.1445107366
 20
165.9354327106
 30
0.0
 11
272.1445107366
 21
165.5475419833
 31
0.0
  0
ARC
  5
305
330
1F
100
AcDbEntity
  8
0
  6
Continuous
 62
     7
370
    15
100
AcDbCircle
 10
271.9921888351
 20
165.7687913489
 30
0.0
 40
0.2686135577963258
100
AcDbArc
 50
259.775999516
 51
304.5459553742
  0
LINE
  5
306
330
1F
100
AcDbEntity
  8
0
  6
Continuous
 62
     7
370
    15
100
AcDbLine
 10
271.9445107366
 20
165.5044430136
 30
0.0
 11
269.0445107366
 21
165.5044430136
 31
0.0
  0
LWPOLYLINE
  5
307
330
1F
100
AcDbEntity
  8
0
  6
Continuous
 62
     7
370
    15
100
AcDbPolyline
 90
       17
 70
   128
 43
0.0
 10
270.6445107366
 20
165.8169105439
 10
270.5488398785
 20
165.8210114361
 10
270.4677340413
 20
165.8326897889
 10
270.4135408535
 20
165.850167679
 10
270.3945107366
 20
165.8707842561
 10
270.4135408535
 20
165.8914008331
 10
270.4677340413
 20
165.9088787232
 10
270.5488398785
 20
165.920557076
 10
270.6445107366
 20
165.9246579682
 10
270.7401815947
 20
165.920557076
 10
270.8212874319
 20
165.9088787232
 10
270.8754806198
 20
165.8914008331
 10
270.8945107366
 20
165.8707842561
 10
270.8754806198
 20
165.850167679
 10
270.8212874319
 20
165.8326897889
 10
270.7401815947
 20
165.8210114361
 10
270.6445107366
 20
165.8169105439
  0
LWPOLYLINE
  5
308
330
1F
100
AcDbEntity
  8
0
  6
Continuous
 62
     7
370
    15
100
AcDbPolyline
 90
       17
 70
   128
 43
0.0
 10
270.6445107366
 20
165.66606415
 10
270.7401815947
 20
165.6619632578
 10
270.8212874319
 20
165.650284905
 10
270.8754806198
 20
165.6328070149
 10
270.8945107366
 20
165.6121904379
 10
270.8754806198
 20
165.5915738608
 10
270.8212874319
 20
165.5740959707
 10
270.7401815947
 20
165.5624176179
 10
270.6445107366
 20
165.5583167257
 10
270.5488398785
 20
165.5624176179
 10
270.4677340413
 20
165.5740959707
 10
270.4135408535
 20
165.5915738608
 10
270.3945107366
 20
165.6121904379
 10
270.4135408535
 20
165.6328070149
 10
270.4677340413
 20
165.650284905
 10
270.5488398785
 20
165.6619632578
 10
270.6445107366
 20
165.66606415
  0
LWPOLYLINE
  5
309
330
1F
100
AcDbEntity
  8
0
  6
Continuous
 62
     7
370
    15
100
AcDbPolyline
 90
       17
 70
   128
 43
0.0
 10
271.6445107366
 20
165.9246579682
 10
271.7401815947
 20
165.920557076
 10
271.8212874319
 20
165.9088787232
 10
271.8754806198
 20
165.8914008331
 10
271.8945107366
 20
165.8707842561
 10
271.8754806198
 20
165.850167679
 10
271.8212874319
 20
165.8326897889
 10
271.7401815947
 20
165.8210114361
 10
271.6445107366
 20
165.8169105439
 10
271.5488398785
 20
165.8210114361
 10
271.4677340413
 20
165.8326897889
 10
271.4135408535
 20
165.850167679
 10
271.3945107366
 20
165.8707842561
 10
271.4135408535
 20
165.8914008331
 10
271.4677340413
 20
165.9088787232
 10
271.5488398785
 20
165.920557076
 10
271.6445107366
 20
165.9246579682
  0
LWPOLYLINE
  5
30A
330
1F
100
AcDbEntity
  8
0
  6
Continuous
 62
     7
370
    15
100
AcDbPolyline
 90
       17
 70
   128
 43
0.0
 10
271.6445107366
 20
165.5583167257
 10
271.5488398785
 20
165.5624176179
 10
271.4677340413
 20
165.5740959707
 10
271.4135408535
 20
165.5915738608
 10
271.3945107366
 20
165.6121904379
 10
271.4135408535
 20
165.6328070149
 10
271.4677340413
 20
165.650284905
 10
271.5488398785
 20
165.6619632578
 10
271.6445107366
 20
165.66606415
 10
271.7401815947
 20
165.6619632578
 10
271.8212874319
 20
165.650284905
 10
271.8754806198
 20
165.6328070149
 10
271.8945107366
 20
165.6121904379
 10
271.8754806198
 20
165.5915738608
 10
271.8212874319
 20
165.5740959707
 10
271.7401815947
 20
165.5624176179
 10
271.6445107366
 20
165.5583167257
  0
ARC
  5
30B
330
1F
100
AcDbEntity
  8
0
  6
Continuous
 62
     7
370
    15
100
AcDbCircle
 10
269.0443459163
 20
163.3491143807
 30
0.0
 40
0.5102289471103827
100
AcDbArc
 50
89.9814916251
 51
113.0576959534
  0
ARC
  5
30C
330
1F
100
AcDbEntity
  8
0
  6
Continuous
 62
     7
370
    15
100
AcDbCircle
 10
269.0421888351
 20
163.3687130454
 30
0.0
 40
0.1976923984593635
100
AcDbArc
 50
89.3270443605
 51
179.3108520603
  0
ARC
  5
30D
330
1F
100
AcDbEntity
  8
0
  6
Continuous
 62
     7
370
    15
100
AcDbCircle
 10
269.0421888351
 20
162.8946243787
 30
0.0
 40
0.1976923984593806
100
AcDbArc
 50
89.3270443605
 51
179.3108520603
  0
LINE
  5
30E
330
1F
100
AcDbEntity
  8
0
  6
Continuous
 62
     7
370
    15
100
AcDbLine
 10
269.0445107366
 20
163.8593433012
 30
0.0
 11
271.9445107366
 21
163.8593433012
 31
0.0
  0
LINE
  5
30F
330
1F
100
AcDbEntity
  8
0
  6
Continuous
 62
     7
370
    15
100
AcDbLine
 10
269.0445107366
 20
163.566391808
 30
0.0
 11
271.9445107366
 21
163.566391808
 31
0.0
  0
ARC
  5
310
330
1F
100
AcDbEntity
  8
0
  6
Continuous
 62
     7
370
    15
100
AcDbCircle
 10
271.9921888351
 20
163.5949949659
 30
0.0
 40
0.2686135577976
100
AcDbArc
 50
55.4540446259
 51
100.2240004839
  0
LINE
  5
311
330
1F
100
AcDbEntity
  8
0
  6
Continuous
 62
     7
370
    15
100
AcDbLine
 10
272.1445107366
 20
163.8162443315
 30
0.0
 11
272.1445107366
 21
163.5232928383
 31
0.0
  0
ARC
  5
312
330
1F
100
AcDbEntity
  8
0
  6
Continuous
 62
     7
370
    15
100
AcDbCircle
 10
271.9921888351
 20
163.3020434728
 30
0.0
 40
0.2686135577964139
100
AcDbArc
 50
55.4540446258
 51
100.224000484
  0
LINE
  5
313
330
1F
100
AcDbEntity
  8
0
  6
Continuous
 62
     7
370
    15
100
AcDbLine
 10
272.1445107366
 20
163.5232928383
 30
0.0
 11
272.1445107366
 21
163.135402111
 31
0.0
  0
ARC
  5
314
330
1F
100
AcDbEntity
  8
0
  6
Continuous
 62
     7
370
    15
100
AcDbCircle
 10
271.9921888351
 20
163.3566514766
 30
0.0
 40
0.2686135577964139
100
AcDbArc
 50
259.775999516
 51
304.5459553742
  0
LINE
  5
315
330
1F
100
AcDbEntity
  8
0
  6
Continuous
 62
     7
370
    15
100
AcDbLine
 10
271.9445107366
 20
163.0923031413
 30
0.0
 11
269.0445107366
 21
163.0923031413
 31
0.0
  0
LWPOLYLINE
  5
316
330
1F
100
AcDbEntity
  8
0
  6
Continuous
 62
     7
370
    15
100
AcDbPolyline
 90
       17
 70
   128
 43
0.0
 10
271.6445107366
 20
163.1461768534
 10
271.5488398785
 20
163.1502777456
 10
271.4677340413
 20
163.1619560984
 10
271.4135408535
 20
163.1794339885
 10
271.3945107366
 20
163.2000505656
 10
271.4135408535
 20
163.2206671426
 10
271.4677340413
 20
163.2381450327
 10
271.5488398785
 20
163.2498233855
 10
271.6445107366
 20
163.2539242777
 10
271.7401815947
 20
163.2498233855
 10
271.8212874319
 20
163.2381450327
 10
271.8754806198
 20
163.2206671426
 10
271.8945107366
 20
163.2000505656
 10
271.8754806198
 20
163.1794339885
 10
271.8212874319
 20
163.1619560984
 10
271.7401815947
 20
163.1502777456
 10
271.6445107366
 20
163.1461768534
  0
LWPOLYLINE
  5
317
330
1F
100
AcDbEntity
  8
0
  6
Continuous
 62
     7
370
    15
100
AcDbPolyline
 90
       17
 70
   128
 43
0.0
 10
271.6445107366
 20
163.5125180959
 10
271.7401815947
 20
163.5084172037
 10
271.8212874319
 20
163.4967388509
 10
271.8754806198
 20
163.4792609608
 10
271.8945107366
 20
163.4586443838
 10
271.8754806198
 20
163.4380278067
 10
271.8212874319
 20
163.4205499166
 10
271.7401815947
 20
163.4088715638
 10
271.6445107366
 20
163.4047706716
 10
271.5488398785
 20
163.4088715638
 10
271.4677340413
 20
163.4205499166
 10
271.4135408535
 20
163.4380278067
 10
271.3945107366
 20
163.4586443838
 10
271.4135408535
 20
163.4792609608
 10
271.4677340413
 20
163.4967388509
 10
271.5488398785
 20
163.5084172037
 10
271.6445107366
 20
163.5125180959
  0
LWPOLYLINE
  5
318
330
1F
100
AcDbEntity
  8
0
  6
Continuous
 62
     7
370
    15
100
AcDbPolyline
 90
       17
 70
   128
 43
0.0
 10
270.6445107366
 20
163.2539242777
 10
270.7401815947
 20
163.2498233855
 10
270.8212874319
 20
163.2381450327
 10
270.8754806198
 20
163.2206671426
 10
270.8945107366
 20
163.2000505656
 10
270.8754806198
 20
163.1794339885
 10
270.8212874319
 20
163.1619560984
 10
270.7401815947
 20
163.1502777456
 10
270.6445107366
 20
163.1461768534
 10
270.5488398785
 20
163.1502777456
 10
270.4677340413
 20
163.1619560984
 10
270.4135408535
 20
163.1794339885
 10
270.3945107366
 20
163.2000505656
 10
270.4135408535
 20
163.2206671426
 10
270.4677340413
 20
163.2381450327
 10
270.5488398785
 20
163.2498233855
 10
270.6445107366
 20
163.2539242777
  0
LWPOLYLINE
  5
319
330
1F
100
AcDbEntity
  8
0
  6
Continuous
 62
     7
370
    15
100
AcDbPolyline
 90
       17
 70
   128
 43
0.0
 10
270.6445107366
 20
163.4047706716
 10
270.5488398785
 20
163.4088715638
 10
270.4677340413
 20
163.4205499166
 10
270.4135408535
 20
163.4380278067
 10
270.3945107366
 20
163.4586443838
 10
270.4135408535
 20
163.4792609608
 10
270.4677340413
 20
163.4967388509
 10
270.5488398785
 20
163.5084172037
 10
270.6445107366
 20
163.5125180959
 10
270.7401815947
 20
163.5084172037
 10
270.8212874319
 20
163.4967388509
 10
270.8754806198
 20
163.4792609608
 10
270.8945107366
 20
163.4586443838
 10
270.8754806198
 20
163.4380278067
 10
270.8212874319
 20
163.4205499166
 10
270.7401815947
 20
163.4088715638
 10
270.6445107366
 20
163.4047706716
  0
ARC
  5
31A
330
1F
100
AcDbEntity
  8
0
  6
Continuous
 62
     7
370
    15
100
AcDbCircle
 10
269.0421914153
 20
160.9964816681
 30
0.0
 40
0.1976949458992087
100
AcDbArc
 50
89.3278008638
 51
179.3116453941
  0
ARC
  5
31B
330
1F
100
AcDbEntity
  8
0
  6
Continuous
 62
     7
370
    15
100
AcDbCircle
 10
269.0443552589
 20
160.9768603713
 30
0.0
 40
0.5102620807137837
100
AcDbArc
 50
89.9825418803
 51
113.0572524221
  0
ARC
  5
31C
330
1F
100
AcDbEntity
  8
0
  6
Continuous
 62
     7
370
    15
100
AcDbCircle
 10
269.0421914153
 20
160.5226564812
 30
0.0
 40
0.1976949458990908
100
AcDbArc
 50
89.3278008638
 51
179.3116453941
  0
LINE
  5
31D
330
1F
100
AcDbEntity
  8
0
  6
Continuous
 62
     7
370
    15
100
AcDbLine
 10
271.9445107366
 20
161.1941630086
 30
0.0
 11
269.0445107366
 21
161.1941630086
 31
0.0
  0
LINE
  5
31E
330
1F
100
AcDbEntity
  8
0
  6
Continuous
 62
     7
370
    15
100
AcDbLine
 10
271.9445107366
 20
161.4871224284
 30
0.0
 11
269.0445107366
 21
161.4871224284
 31
0.0
  0
ARC
  5
31F
330
1F
100
AcDbEntity
  8
0
  6
Continuous
 62
     7
370
    15
100
AcDbCircle
 10
271.9921914153
 20
161.2226630346
 30
0.0
 40
0.2687233113797742
100
AcDbArc
 50
55.4708216033
 51
100.2203388693
  0
LINE
  5
320
330
1F
100
AcDbEntity
  8
0
  6
Continuous
 62
     7
370
    15
100
AcDbLine
 10
272.1445107366
 20
161.4440474117
 30
0.0
 11
272.1445107366
 21
161.151087992
 31
0.0
  0
ARC
  5
321
330
1F
100
AcDbEntity
  8
0
  6
Continuous
 62
     7
370
    15
100
AcDbCircle
 10
271.9921914153
 20
160.9297036148
 30
0.0
 40
0.2687233113794106
100
AcDbArc
 50
55.4708216032
 51
100.2203388693
  0
LINE
  5
322
330
1F
100
AcDbEntity
  8
0
  6
Continuous
 62
     7
370
    15
100
AcDbLine
 10
272.1445107366
 20
160.7634128384
 30
0.0
 11
272.1445107366
 21
161.151087992
 31
0.0
  0
ARC
  5
323
330
1F
100
AcDbEntity
  8
0
  6
Continuous
 62
     7
370
    15
100
AcDbCircle
 10
271.9921914153
 20
160.9847972155
 30
0.0
 40
0.2687233113795892
100
AcDbArc
 50
259.7796611307
 51
304.5291783968
  0
LINE
  5
324
330
1F
100
AcDbEntity
  8
0
  6
Continuous
 62
     7
370
    15
100
AcDbLine
 10
269.0445107366
 20
160.7203378217
 30
0.0
 11
271.9445107366
 21
160.7203378217
 31
0.0
  0
LWPOLYLINE
  5
325
330
1F
100
AcDbEntity
  8
0
  6
Continuous
 62
     7
370
    15
100
AcDbPolyline
 90
       17
 70
   128
 43
0.0
 10
271.6445107366
 20
160.8818691342
 10
271.5488398785
 20
160.8777705212
 10
271.4677340413
 20
160.8660986589
 10
271.4135408535
 20
160.8486304824
 10
271.3945107366
 20
160.8280253634
 10
271.4135408535
 20
160.8074202443
 10
271.4677340413
 20
160.7899520679
 10
271.5488398785
 20
160.7782802055
 10
271.6445107366
 20
160.7741815925
 10
271.7401815947
 20
160.7782802055
 10
271.8212874319
 20
160.7899520679
 10
271.8754806198
 20
160.8074202443
 10
271.8945107366
 20
160.8280253634
 10
271.8754806198
 20
160.8486304824
 10
271.8212874319
 20
160.8660986589
 10
271.7401815947
 20
160.8777705212
 10
271.6445107366
 20
160.8818691342
  0
LWPOLYLINE
  5
326
330
1F
100
AcDbEntity
  8
0
  6
Continuous
 62
     7
370
    15
100
AcDbPolyline
 90
       17
 70
   128
 43
0.0
 10
270.6445107366
 20
161.1403192378
 10
270.5488398785
 20
161.1362206248
 10
270.4677340413
 20
161.1245487624
 10
270.4135408535
 20
161.107080586
 10
270.3945107366
 20
161.086475467
 10
270.4135408535
 20
161.0658703479
 10
270.4677340413
 20
161.0484021715
 10
270.5488398785
 20
161.0367303091
 10
270.6445107366
 20
161.0326316961
 10
270.7401815947
 20
161.0367303091
 10
270.8212874319
 20
161.0484021715
 10
270.8754806198
 20
161.0658703479
 10
270.8945107366
 20
161.086475467
 10
270.8754806198
 20
161.107080586
 10
270.8212874319
 20
161.1245487624
 10
270.7401815947
 20
161.1362206248
 10
270.6445107366
 20
161.1403192378
  0
LWPOLYLINE
  5
327
330
1F
100
AcDbEntity
  8
0
  6
Continuous
 62
     7
370
    15
100
AcDbPolyline
 90
       17
 70
   128
 43
0.0
 10
270.6445107366
 20
160.7741815925
 10
270.7401815947
 20
160.7782802055
 10
270.8212874319
 20
160.7899520679
 10
270.8754806198
 20
160.8074202443
 10
270.8945107366
 20
160.8280253634
 10
270.8754806198
 20
160.8486304824
 10
270.8212874319
 20
160.8660986589
 10
270.7401815947
 20
160.8777705212
 10
270.6445107366
 20
160.8818691342
 10
270.5488398785
 20
160.8777705212
 10
270.4677340413
 20
160.8660986589
 10
270.4135408535
 20
160.8486304824
 10
270.3945107366
 20
160.8280253634
 10
270.4135408535
 20
160.8074202443
 10
270.4677340413
 20
160.7899520679
 10
270.5488398785
 20
160.7782802055
 10
270.6445107366
 20
160.7741815925
  0
LWPOLYLINE
  5
328
330
1F
100
AcDbEntity
  8
0
  6
Continuous
 62
     7
370
    15
100
AcDbPolyline
 90
       17
 70
   128
 43
0.0
 10
271.6445107366
 20
161.0326316961
 10
271.7401815947
 20
161.0367303091
 10
271.8212874319
 20
161.0484021715
 10
271.8754806198
 20
161.0658703479
 10
271.8945107366
 20
161.086475467
 10
271.8754806198
 20
161.107080586
 10
271.8212874319
 20
161.1245487624
 10
271.7401815947
 20
161.1362206248
 10
271.6445107366
 20
161.1403192378
 10
271.5488398785
 20
161.1362206248
 10
271.4677340413
 20
161.1245487624
 10
271.4135408535
 20
161.107080586
 10
271.3945107366
 20
161.086475467
 10
271.4135408535
 20
161.0658703479
 10
271.4677340413
 20
161.0484021715
 10
271.5488398785
 20
161.0367303091
 10
271.6445107366
 20
161.0326316961
  0
LINE
  5
329
330
1F
100
AcDbEntity
  8
0
  6
Continuous
 62
     7
370
    15
100
AcDbLine
 10
268.1845107366
 20
159.2974437425
 30
0.0
 11
268.1845107366
 21
159.7974437425
 31
0.0
  0
LINE
  5
32A
330
1F
100
AcDbEntity
  8
0
  6
Continuous
 62
     7
370
    15
100
AcDbLine
 10
268.1845107366
 20
159.7974437425
 30
0.0
 11
268.4845107366
 21
159.7974437425
 31
0.0
  0
LINE
  5
32B
330
1F
100
AcDbEntity
  8
0
  6
Continuous
 62
     7
370
    15
100
AcDbLine
 10
268.4845107366
 20
159.2974437425
 30
0.0
 11
268.4845107366
 21
159.7974437425
 31
0.0
  0
LINE
  5
32C
330
1F
100
AcDbEntity
  8
0
  6
Continuous
 62
     7
370
    15
100
AcDbLine
 10
268.1845107366
 20
159.1524437425
 30
0.0
 11
268.1845107366
 21
159.2974437425
 31
0.0
  0
LINE
  5
32D
330
1F
100
AcDbEntity
  8
0
  6
Continuous
 62
     7
370
    15
100
AcDbLine
 10
268.4845107366
 20
159.1524437425
 30
0.0
 11
268.4845107366
 21
159.2974437425
 31
0.0
  0
LINE
  5
32E
330
1F
100
AcDbEntity
  8
0
  6
Continuous
 62
     7
370
    15
100
AcDbLine
 10
268.9045107366
 20
159.1524437425
 30
0.0
 11
268.9045107366
 21
159.2974437425
 31
0.0
  0
LINE
  5
32F
330
1F
100
AcDbEntity
  8
0
  6
Continuous
 62
     7
370
    15
100
AcDbLine
 10
269.2045107366
 20
159.1524437425
 30
0.0
 11
269.2045107366
 21
159.2974437425
 31
0.0
  0
LINE
  5
330
330
1F
100
AcDbEntity
  8
0
  6
Continuous
 62
     7
370
    15
100
AcDbLine
 10
268.9045107366
 20
159.2974437425
 30
0.0
 11
268.9045107366
 21
159.7974437425
 31
0.0
  0
LINE
  5
331
330
1F
100
AcDbEntity
  8
0
  6
Continuous
 62
     7
370
    15
100
AcDbLine
 10
268.9045107366
 20
159.7974437425
 30
0.0
 11
269.2045107366
 21
159.7974437425
 31
0.0
  0
LINE
  5
332
330
1F
100
AcDbEntity
  8
0
  6
Continuous
 62
     7
370
    15
100
AcDbLine
 10
269.2045107366
 20
159.2974437425
 30
0.0
 11
269.2045107366
 21
159.7974437425
 31
0.0
  0
LINE
  5
333
330
1F
100
AcDbEntity
  8
0
  6
Continuous
 62
     7
370
    15
100
AcDbLine
 10
95.5845107366
 20
159.2974437425
 30
0.0
 11
95.5845107366
 21
159.7974437425
 31
0.0
  0
LINE
  5
334
330
1F
100
AcDbEntity
  8
0
  6
Continuous
 62
     7
370
    15
100
AcDbLine
 10
95.5845107366
 20
159.7974437425
 30
0.0
 11
95.8845107366
 21
159.7974437425
 31
0.0
  0
LINE
  5
335
330
1F
100
AcDbEntity
  8
0
  6
Continuous
 62
     7
370
    15
100
AcDbLine
 10
95.8845107366
 20
159.2974437425
 30
0.0
 11
95.8845107366
 21
159.7974437425
 31
0.0
  0
LINE
  5
336
330
1F
100
AcDbEntity
  8
0
  6
Continuous
 62
     7
370
    15
100
AcDbLine
 10
95.5845107366
 20
159.1524437425
 30
0.0
 11
95.5845107366
 21
159.2974437425
 31
0.0
  0
LINE
  5
337
330
1F
100
AcDbEntity
  8
0
  6
Continuous
 62
     7
370
    15
100
AcDbLine
 10
95.8845107366
 20
159.1524437425
 30
0.0
 11
95.8845107366
 21
159.2974437425
 31
0.0
  0
LINE
  5
338
330
1F
100
AcDbEntity
  8
0
  6
Continuous
 62
     7
370
    15
100
AcDbLine
 10
96.3045107366
 20
159.1524437425
 30
0.0
 11
96.3045107366
 21
159.2974437425
 31
0.0
  0
LINE
  5
339
330
1F
100
AcDbEntity
  8
0
  6
Continuous
 62
     7
370
    15
100
AcDbLine
 10
96.6045107366
 20
159.1524437425
 30
0.0
 11
96.6045107366
 21
159.2974437425
 31
0.0
  0
LINE
  5
33A
330
1F
100
AcDbEntity
  8
0
  6
Continuous
 62
     7
370
    15
100
AcDbLine
 10
96.3045107366
 20
159.2974437425
 30
0.0
 11
96.3045107366
 21
159.7974437425
 31
0.0
  0
LINE
  5
33B
330
1F
100
AcDbEntity
  8
0
  6
Continuous
 62
     7
370
    15
100
AcDbLine
 10
96.3045107366
 20
159.7974437425
 30
0.0
 11
96.6045107366
 21
159.7974437425
 31
0.0
  0
LINE
  5
33C
330
1F
100
AcDbEntity
  8
0
  6
Continuous
 62
     7
370
    15
100
AcDbLine
 10
96.6045107366
 20
159.2974437425
 30
0.0
 11
96.6045107366
 21
159.7974437425
 31
0.0
  0
LINE
  5
33D
330
1F
100
AcDbEntity
  8
0
  6
Continuous
 62
     7
370
    15
100
AcDbLine
 10
181.8845107366
 20
159.2974437425
 30
0.0
 11
181.8845107366
 21
159.7974437425
 31
0.0
  0
LINE
  5
33E
330
1F
100
AcDbEntity
  8
0
  6
Continuous
 62
     7
370
    15
100
AcDbLine
 10
181.8845107366
 20
159.7974437425
 30
0.0
 11
182.1845107366
 21
159.7974437425
 31
0.0
  0
LINE
  5
33F
330
1F
100
AcDbEntity
  8
0
  6
Continuous
 62
     7
370
    15
100
AcDbLine
 10
182.1845107366
 20
159.2974437425
 30
0.0
 11
182.1845107366
 21
159.7974437425
 31
0.0
  0
LINE
  5
340
330
1F
100
AcDbEntity
  8
0
  6
Continuous
 62
     7
370
    15
100
AcDbLine
 10
181.8845107366
 20
159.1524437425
 30
0.0
 11
181.8845107366
 21
159.2974437425
 31
0.0
  0
LINE
  5
341
330
1F
100
AcDbEntity
  8
0
  6
Continuous
 62
     7
370
    15
100
AcDbLine
 10
182.1845107366
 20
159.1524437425
 30
0.0
 11
182.1845107366
 21
159.2974437425
 31
0.0
  0
LINE
  5
342
330
1F
100
AcDbEntity
  8
0
  6
Continuous
 62
     7
370
    15
100
AcDbLine
 10
182.6045107366
 20
159.2974437425
 30
0.0
 11
182.6045107366
 21
159.7974437425
 31
0.0
  0
LINE
  5
343
330
1F
100
AcDbEntity
  8
0
  6
Continuous
 62
     7
370
    15
100
AcDbLine
 10
182.6045107366
 20
159.7974437425
 30
0.0
 11
182.9045107366
 21
159.7974437425
 31
0.0
  0
LINE
  5
344
330
1F
100
AcDbEntity
  8
0
  6
Continuous
 62
     7
370
    15
100
AcDbLine
 10
182.9045107366
 20
159.2974437425
 30
0.0
 11
182.9045107366
 21
159.7974437425
 31
0.0
  0
LINE
  5
345
330
1F
100
AcDbEntity
  8
0
  6
Continuous
 62
     7
370
    15
100
AcDbLine
 10
182.6045107366
 20
159.1524437425
 30
0.0
 11
182.6045107366
 21
159.2974437425
 31
0.0
  0
LINE
  5
346
330
1F
100
AcDbEntity
  8
0
  6
Continuous
 62
     7
370
    15
100
AcDbLine
 10
182.9045107366
 20
159.1524437425
 30
0.0
 11
182.9045107366
 21
159.2974437425
 31
0.0
  0
LINE
  5
347
330
1F
100
AcDbEntity
  8
0
  6
Continuous
 62
     7
370
    15
100
AcDbLine
 10
233.7095128301
 20
100.3574437425
 30
0.0
 11
233.6596488635
 21
100.3574437425
 31
0.0
  0
LINE
  5
348
330
1F
100
AcDbEntity
  8
0
  6
Continuous
 62
     7
370
    15
100
AcDbLine
 10
233.6596488635
 20
100.4574437425
 30
0.0
 11
233.6596488635
 21
100.3574437425
 31
0.0
  0
LINE
  5
349
330
1F
100
AcDbEntity
  8
0
  6
Continuous
 62
     7
370
    15
100
AcDbLine
 10
131.1596530668
 20
100.3574437425
 30
0.0
 11
131.1095599947
 21
100.3574437425
 31
0.0
  0
ARC
  5
34A
330
1F
100
AcDbEntity
  8
0
  6
Continuous
 62
     7
370
    15
100
AcDbCircle
 10
75.1465518743
 20
100.4555672932
 30
0.0
 40
56.0132945317369
100
AcDbArc
 50
359.899629753
 51
0.0019194126
  0
LINE
  5
34B
330
1F
100
AcDbEntity
  8
0
  6
Continuous
 62
     7
370
    15
100
AcDbLine
 10
131.15976046
 20
100.3574437425
 30
0.0
 11
131.1596530668
 21
100.3574437425
 31
0.0
  0
LINE
  5
34C
330
1F
100
AcDbEntity
  8
0
  6
Continuous
 62
     7
370
    15
100
AcDbLine
 10
97.5024496949
 20
156.5965218679
 30
0.0
 11
97.4845107366
 21
156.5974437424
 31
0.0
  0
LINE
  5
34D
330
1F
100
AcDbEntity
  8
0
  6
Continuous
 62
     7
370
    15
100
AcDbLine
 10
94.7345107366
 20
156.5974437424
 30
0.0
 11
94.7360696026
 21
156.5974437424
 31
0.0
  0
LINE
  5
34E
330
1F
100
AcDbEntity
  8
0
  6
Continuous
 62
     7
370
    15
100
AcDbLine
 10
97.4417534945
 20
156.5974437424
 30
0.0
 11
97.4845107366
 21
156.5974437424
 31
0.0
  0
LWPOLYLINE
  5
34F
330
1F
100
AcDbEntity
  8
0
  6
Continuous
 62
     7
370
    15
100
AcDbPolyline
 90
        3
 70
   128
 43
0.0
 10
94.7345107366
 20
156.5974437424
 10
94.7003699303
 20
156.5940811665
 10
94.6687297889
 20
156.5846099131
  0
LINE
  5
350
330
1F
100
AcDbEntity
  8
0
  6
Continuous
 62
     7
370
    15
100
AcDbLine
 10
94.5857991522
 20
156.4224437424
 30
0.0
 11
94.5815596453
 21
156.4224437424
 31
0.0
  0
LINE
  5
351
330
1F
100
AcDbEntity
  8
0
  6
Continuous
 62
     7
370
    15
100
AcDbLine
 10
94.5815570708
 20
153.8224437424
 30
0.0
 11
94.5834011518
 21
153.8224437424
 31
0.0
  0
LINE
  5
352
330
1F
100
AcDbEntity
  8
0
  6
Continuous
 62
     7
370
    15
100
AcDbLine
 10
270.1024418054
 20
156.5965226808
 30
0.0
 11
270.0845107366
 21
156.5974437424
 31
0.0
  0
LINE
  5
353
330
1F
100
AcDbEntity
  8
0
  6
Continuous
 62
     7
370
    15
100
AcDbLine
 10
267.3345107366
 20
156.5974437424
 30
0.0
 11
267.3360625248
 21
156.5974437424
 31
0.0
  0
LINE
  5
354
330
1F
100
AcDbEntity
  8
0
  6
Continuous
 62
     7
370
    15
100
AcDbLine
 10
270.0417605724
 20
156.5974437424
 30
0.0
 11
270.0845107366
 21
156.5974437424
 31
0.0
  0
LWPOLYLINE
  5
355
330
1F
100
AcDbEntity
  8
0
  6
Continuous
 62
     7
370
    15
100
AcDbPolyline
 90
        3
 70
   128
 43
0.0
 10
267.3345107366
 20
156.5974437424
 10
267.3003699303
 20
156.5940811665
 10
267.2687178766
 20
156.5846050805
  0
LINE
  5
356
330
1F
100
AcDbEntity
  8
0
  6
Continuous
 62
     7
370
    15
100
AcDbLine
 10
267.1857920743
 20
156.4224437424
 30
0.0
 11
267.1815525674
 21
156.4224437424
 31
0.0
  0
SPLINE
  5
357
330
1F
100
AcDbEntity
  8
0
  6
Continuous
 62
     7
370
    15
100
AcDbSpline
210
0.0
220
0.0
230
1.0
 70
     8
 71
     3
 72
     9
 73
     5
 74
     0
 42
0.00000001
 43
0.00000001
 40
0.0
 40
0.0
 40
0.0
 40
0.0
 40
0.415300653859383
 40
1.0
 40
1.0
 40
1.0
 40
1.0
 10
267.2008630285357
 20
156.5123520722634
 30
0.0
 10
267.1946929560036
 20
156.5004596976628
 30
0.0
 10
267.1798360746701
 20
156.4718241188597
 30
0.0
 10
267.1739251365188
 20
156.4406633964531
 30
0.0
 10
267.1704690148467
 20
156.4224437424367
 30
0.0
  0
LINE
  5
358
330
1F
100
AcDbEntity
  8
0
  6
Continuous
 62
     7
370
    15
100
AcDbLine
 10
183.80244575
 20
156.5965222744
 30
0.0
 11
183.7845107366
 21
156.5974437424
 31
0.0
  0
LWPOLYLINE
  5
359
330
1F
100
AcDbEntity
  8
0
  6
Continuous
 62
     7
370
    15
100
AcDbPolyline
 90
        3
 70
   128
 43
0.0
 10
181.0345107366
 20
156.5974437424
 10
181.0003699303
 20
156.5940811665
 10
180.9687238317
 20
156.5846074965
  0
LINE
  5
35A
330
1F
100
AcDbEntity
  8
0
  6
Continuous
 62
     7
370
    15
100
AcDbLine
 10
180.9047576152
 20
156.5206411983
 30
0.0
 11
180.8938584562
 21
156.4974437424
 31
0.0
  0
ENDSEC
  0
SECTION
  2
OBJECTS
  0
DICTIONARY
  5
C
330
0
100
AcDbDictionary
281
     1
  3
ACAD_GROUP
350
D
  3
ACAD_LAYOUT
350
1A
  3
ACAD_MATERIAL
350
3B
  3
ACAD_MLEADERSTYLE
350
35D
  3
ACAD_MLINESTYLE
350
17
  3
ACAD_PLOTSETTINGS
350
19
  3
ACAD_PLOTSTYLENAME
350
E
  3
ACAD_VISUALSTYLE
350
2A
  3
AcDbVariableDictionary
350
35B
  0
DICTIONARY
  5
D
102
{ACAD_REACTORS
330
C
102
}
330
C
100
AcDbDictionary
281
     1
  0
DICTIONARY
  5
1A
102
{ACAD_REACTORS
330
C
102
}
330
C
100
AcDbDictionary
281
     1
  3
Layout1
350
1E
  3
Layout2
350
26
  3
Model
350
22
  0
DICTIONARY
  5
3B
102
{ACAD_REACTORS
330
C
102
}
330
C
100
AcDbDictionary
281
     1
  3
ByBlock
350
3D
  3
ByLayer
350
3C
  3
Global
350
3E
  0
DICTIONARY
  5
35D
102
{ACAD_REACTORS
330
C
102
}
330
C
100
AcDbDictionary
281
     1
  0
DICTIONARY
  5
17
102
{ACAD_REACTORS
330
C
102
}
330
C
100
AcDbDictionary
281
     1
  3
Standard
350
18
  0
DICTIONARY
  5
19
102
{ACAD_REACTORS
330
C
102
}
330
C
100
AcDbDictionary
281
     1
  0
ACDBDICTIONARYWDFLT
  5
E
102
{ACAD_REACTORS
330
C
102
}
330
C
100
AcDbDictionary
281
     1
  3
Normal
350
F
100
AcDbDictionaryWithDefault
340
F
  0
DICTIONARY
  5
2A
102
{ACAD_REACTORS
330
C
102
}
330
C
100
AcDbDictionary
281
     1
  3
2dWireframe
350
2F
  3
3D Hidden
350
31
  3
3dWireframe
350
30
  3
Basic
350
32
  3
Brighten
350
36
  3
ColorChange
350
3A
  3
Conceptual
350
34
  3
Dim
350
35
  3
Facepattern
350
39
  3
Flat
350
2B
  3
FlatWithEdges
350
2C
  3
Gouraud
350
2D
  3
GouraudWithEdges
350
2E
  3
Linepattern
350
38
  3
Realistic
350
33
  3
Thicken
350
37
  0
DICTIONARY
  5
35B
102
{ACAD_REACTORS
330
C
102
}
330
C
100
AcDbDictionary
281
     1
  3
DIMASSOC
350
360
  3
HIDETEXT
350
361
  3
PSOLHEIGHT
350
35F
  3
PSOLWIDTH
350
35E
  0
LAYOUT
  5
1E
102
{ACAD_REACTORS
330
1A
102
}
330
1A
100
AcDbPlotSettings
  1

  2
none_device
  4

  6

 40
0.0
 41
0.0
 42
0.0
 43
0.0
 44
0.0
 45
0.0
 46
0.0
 47
0.0
 48
0.0
 49
0.0
140
0.0
141
0.0
142
1.0
143
1.0
 70
   688
 72
     0
 73
     0
 74
     5
  7

 75
    16
147
1.0
148
0.0
149
0.0
100
AcDbLayout
  1
Layout1
 70
     1
 71
     1
 10
0.0
 20
0.0
 11
420.0
 21
297.0
 12
0.0
 22
0.0
 32
0.0
 14
1.0000000000E+20
 24
1.0000000000E+20
 34
1.0000000000E+20
 15
-1.0000000000E+20
 25
-1.0000000000E+20
 35
-1.0000000000E+20
146
0.0
 13
0.0
 23
0.0
 33
0.0
 16
1.0
 26
0.0
 36
0.0
 17
0.0
 27
1.0
 37
0.0
 76
     0
330
1B
  0
LAYOUT
  5
26
102
{ACAD_REACTORS
330
1A
102
}
330
1A
100
AcDbPlotSettings
  1

  2
none_device
  4

  6

 40
0.0
 41
0.0
 42
0.0
 43
0.0
 44
0.0
 45
0.0
 46
0.0
 47
0.0
 48
0.0
 49
0.0
140
0.0
141
0.0
142
1.0
143
1.0
 70
   688
 72
     0
 73
     0
 74
     5
  7

 75
    16
147
1.0
148
0.0
149
0.0
100
AcDbLayout
  1
Layout2
 70
     1
 71
     2
 10
0.0
 20
0.0
 11
0.0
 21
0.0
 12
0.0
 22
0.0
 32
0.0
 14
0.0
 24
0.0
 34
0.0
 15
0.0
 25
0.0
 35
0.0
146
0.0
 13
0.0
 23
0.0
 33
0.0
 16
1.0
 26
0.0
 36
0.0
 17
0.0
 27
1.0
 37
0.0
 76
     0
330
23
  0
LAYOUT
  5
22
102
{ACAD_REACTORS
330
1A
102
}
330
1A
100
AcDbPlotSettings
  1

  2
none_device
  4

  6

 40
0.0
 41
0.0
 42
0.0
 43
0.0
 44
0.0
 45
0.0
 46
0.0
 47
0.0
 48
0.0
 49
0.0
140
0.0
141
0.0
142
1.0
143
1.0
 70
  1712
 72
     0
 73
     0
 74
     0
  7

 75
     0
147
1.0
148
0.0
149
0.0
100
AcDbLayout
  1
Model
 70
     1
 71
     0
 10
0.0
 20
0.0
 11
420.0
 21
297.0
 12
0.0
 22
0.0
 32
0.0
 14
0.0
 24
0.0
 34
0.0
 15
420.0
 25
297.0
 35
0.0
146
0.0
 13
0.0
 23
0.0
 33
0.0
 16
1.0
 26
0.0
 36
0.0
 17
0.0
 27
1.0
 37
0.0
 76
     0
330
1F
331
29
  0
MATERIAL
  5
3D
102
{ACAD_REACTORS
330
3B
102
}
102
{ACAD_XDICTIONARY
360
384
102
}
330
3B
100
AcDbMaterial
  1
ByBlock
  0
MATERIAL
  5
3C
102
{ACAD_REACTORS
330
3B
102
}
102
{ACAD_XDICTIONARY
360
382
102
}
330
3B
100
AcDbMaterial
  1
ByLayer
  0
MATERIAL
  5
3E
102
{ACAD_REACTORS
330
3B
102
}
102
{ACAD_XDICTIONARY
360
386
102
}
330
3B
100
AcDbMaterial
  1
Global
  0
MLINESTYLE
  5
18
102
{ACAD_REACTORS
330
17
102
}
330
17
100
AcDbMlineStyle
  2
Standard
 70
     0
  3

 62
   256
 51
90.0
 52
90.0
 71
     2
 49
0.5
 62
   256
  6
BYLAYER
 49
-0.5
 62
   256
  6
BYLAYER
  0
ACDBPLACEHOLDER
  5
F
102
{ACAD_REACTORS
330
E
102
}
330
E
  0
VISUALSTYLE
  5
2F
102
{ACAD_REACTORS
330
2A
102
}
102
{ACAD_XDICTIONARY
360
36A
102
}
330
2A
100
AcDbVisualStyle
  2
2dWireframe
 70
     4
 71
     0
 72
     2
 73
     0
 90
        0
 40
-0.6
 41
-30.0
 62
     5
 63
     7
 74
     1
 91
        4
 64
     7
 65
   257
 75
     1
175
     1
 42
1.0
 92
        0
 66
   257
 43
1.0
 76
     1
 77
     6
 78
     2
 67
     7
 79
     5
170
     0
171
     0
290
     0
174
     0
 93
        1
 44
0.0
173
     0
291
     0
 45
0.0
1001
ACAD
1000
AcDbSavedByObjectVersion
1070
     0
  0
VISUALSTYLE
  5
31
102
{ACAD_REACTORS
330
2A
102
}
102
{ACAD_XDICTIONARY
360
36E
102
}
330
2A
100
AcDbVisualStyle
  2
3D Hidden
 70
     6
 71
     1
 72
     2
 73
     2
 90
        0
 40
-0.6
 41
-30.0
 62
     5
 63
     7
 74
     2
 91
        2
 64
     7
 65
   257
 75
     2
175
     1
 42
40.0
 92
        0
 66
   257
 43
1.0
 76
     1
 77
     6
 78
     2
 67
     7
 79
     3
170
     0
171
     0
290
     0
174
     0
 93
        1
 44
0.0
173
     0
291
     0
 45
0.0
1001
ACAD
1000
AcDbSavedByObjectVersion
1070
     0
  0
VISUALSTYLE
  5
30
102
{ACAD_REACTORS
330
2A
102
}
102
{ACAD_XDICTIONARY
360
36C
102
}
330
2A
100
AcDbVisualStyle
  2
3dWireframe
 70
     5
 71
     0
 72
     2
 73
     0
 90
        0
 40
-0.6
 41
-30.0
 62
     5
 63
     7
 74
     1
 91
        4
 64
     7
 65
   257
 75
     1
175
     1
 42
1.0
 92
        0
 66
   257
 43
1.0
 76
     1
 77
     6
 78
     2
 67
     7
 79
     5
170
     0
171
     0
290
     0
174
     0
 93
        1
 44
0.0
173
     0
291
     0
 45
0.0
1001
ACAD
1000
AcDbSavedByObjectVersion
1070
     0
  0
VISUALSTYLE
  5
32
102
{ACAD_REACTORS
330
2A
102
}
102
{ACAD_XDICTIONARY
360
370
102
}
330
2A
100
AcDbVisualStyle
  2
Basic
 70
     7
 71
     1
 72
     0
 73
     1
 90
        0
 40
-0.6
 41
-30.0
 62
     5
 63
     7
 74
     0
 91
        4
 64
     7
 65
   257
 75
     1
175
     1
 42
1.0
 92
        8
 66
     7
 43
1.0
 76
     1
 77
     6
 78
     2
 67
     7
 79
     5
170
     0
171
     0
290
     0
174
     0
 93
        1
 44
0.0
173
     0
291
     1
 45
0.0
1001
ACAD
1000
AcDbSavedByObjectVersion
1070
     0
  0
VISUALSTYLE
  5
36
102
{ACAD_REACTORS
330
2A
102
}
102
{ACAD_XDICTIONARY
360
378
102
}
330
2A
100
AcDbVisualStyle
  2
Brighten
 70
    12
 71
     2
 72
     2
 73
     0
 90
        0
 40
-0.6
 41
-30.0
 62
     5
 63
     7
 74
     1
 91
        4
 64
     7
 65
   257
 75
     1
175
     1
 42
1.0
 92
        8
 66
     7
 43
1.0
 76
     1
 77
     6
 78
     2
 67
     7
 79
     5
170
     0
171
     0
290
     0
174
     0
 93
        1
 44
50.0
173
     0
291
     1
 45
0.0
1001
ACAD
1000
AcDbSavedByObjectVersion
1070
     0
  0
VISUALSTYLE
  5
3A
102
{ACAD_REACTORS
330
2A
102
}
102
{ACAD_XDICTIONARY
360
380
102
}
330
2A
100
AcDbVisualStyle
  2
ColorChange
 70
    16
 71
     2
 72
     2
 73
     3
 90
        0
 40
-0.6
 41
-30.0
 62
     5
 63
     8
 74
     1
 91
        4
 64
     7
 65
   257
 75
     1
175
     1
 42
1.0
 92
        8
 66
     8
 43
1.0
 76
     1
 77
     6
 78
     2
 67
     7
 79
     5
170
     0
171
     0
290
     0
174
     0
 93
        1
 44
0.0
173
     0
291
     1
 45
0.0
1001
ACAD
1000
AcDbSavedByObjectVersion
1070
     0
  0
VISUALSTYLE
  5
34
102
{ACAD_REACTORS
330
2A
102
}
102
{ACAD_XDICTIONARY
360
374
102
}
330
2A
100
AcDbVisualStyle
  2
Conceptual
 70
     9
 71
     3
 72
     2
 73
     0
 90
        0
 40
-0.6
 41
-30.0
 62
     5
 63
     7
 74
     2
 91
        2
 64
     7
 65
   257
 75
     1
175
     1
 42
40.0
 92
        8
 66
     7
 43
1.0
 76
     1
 77
     6
 78
     2
 67
     7
 79
     3
170
     0
171
     0
290
     0
174
     0
 93
        1
 44
0.0
173
     0
291
     0
 45
0.0
1001
ACAD
1000
AcDbSavedByObjectVersion
1070
     0
  0
VISUALSTYLE
  5
35
102
{ACAD_REACTORS
330
2A
102
}
102
{ACAD_XDICTIONARY
360
376
102
}
330
2A
100
AcDbVisualStyle
  2
Dim
 70
    11
 71
     2
 72
     2
 73
     0
 90
        0
 40
-0.6
 41
-30.0
 62
     5
 63
     7
 74
     1
 91
        4
 64
     7
 65
   257
 75
     1
175
     1
 42
1.0
 92
        8
 66
     7
 43
1.0
 76
     1
 77
     6
 78
     2
 67
     7
 79
     5
170
     0
171
     0
290
     0
174
     0
 93
        1
 44
-50.0
173
     0
291
     1
 45
0.0
1001
ACAD
1000
AcDbSavedByObjectVersion
1070
     0
  0
VISUALSTYLE
  5
39
102
{ACAD_REACTORS
330
2A
102
}
102
{ACAD_XDICTIONARY
360
37E
102
}
330
2A
100
AcDbVisualStyle
  2
Facepattern
 70
    15
 71
     2
 72
     2
 73
     0
 90
        0
 40
-0.6
 41
-30.0
 62
     5
 63
     7
 74
     1
 91
        4
 64
     7
 65
   257
 75
     1
175
     1
 42
1.0
 92
        8
 66
     7
 43
1.0
 76
     1
 77
     6
 78
     2
 67
     7
 79
     5
170
     0
171
     0
290
     0
174
     0
 93
        1
 44
0.0
173
     0
291
     1
 45
0.0
1001
ACAD
1000
AcDbSavedByObjectVersion
1070
     0
  0
VISUALSTYLE
  5
2B
102
{ACAD_REACTORS
330
2A
102
}
102
{ACAD_XDICTIONARY
360
362
102
}
330
2A
100
AcDbVisualStyle
  2
Flat
 70
     0
 71
     2
 72
     1
 73
     1
 90
        2
 40
-0.6
 41
30.0
 62
     5
 63
     7
 74
     0
 91
        4
 64
     7
 65
   257
 75
     1
175
     1
 42
1.0
 92
        8
 66
     7
 43
1.0
 76
     1
 77
     6
 78
     2
 67
     7
 79
     5
170
     0
171
     0
290
     0
174
     0
 93
       13
 44
0.0
173
     0
291
     1
 45
0.0
1001
ACAD
1000
AcDbSavedByObjectVersion
1070
     0
  0
VISUALSTYLE
  5
2C
102
{ACAD_REACTORS
330
2A
102
}
102
{ACAD_XDICTIONARY
360
364
102
}
330
2A
100
AcDbVisualStyle
  2
FlatWithEdges
 70
     1
 71
     2
 72
     1
 73
     1
 90
        2
 40
-0.6
 41
30.0
 62
     5
 63
     7
 74
     1
 91
        4
 64
     7
 65
   257
 75
     1
175
     1
 42
1.0
 92
        0
 66
   257
 43
1.0
 76
     1
 77
     6
 78
     2
 67
     7
 79
     5
170
     0
171
     0
290
     0
174
     0
 93
       13
 44
0.0
173
     0
291
     1
 45
0.0
1001
ACAD
1000
AcDbSavedByObjectVersion
1070
     0
  0
VISUALSTYLE
  5
2D
102
{ACAD_REACTORS
330
2A
102
}
102
{ACAD_XDICTIONARY
360
366
102
}
330
2A
100
AcDbVisualStyle
  2
Gouraud
 70
     2
 71
     2
 72
     2
 73
     1
 90
        2
 40
-0.6
 41
30.0
 62
     5
 63
     7
 74
     0
 91
        4
 64
     7
 65
   257
 75
     1
175
     1
 42
1.0
 92
        0
 66
     7
 43
1.0
 76
     1
 77
     6
 78
     2
 67
     7
 79
     5
170
     0
171
     0
290
     0
174
     0
 93
       13
 44
0.0
173
     0
291
     1
 45
0.0
1001
ACAD
1000
AcDbSavedByObjectVersion
1070
     0
  0
VISUALSTYLE
  5
2E
102
{ACAD_REACTORS
330
2A
102
}
102
{ACAD_XDICTIONARY
360
368
102
}
330
2A
100
AcDbVisualStyle
  2
GouraudWithEdges
 70
     3
 71
     2
 72
     2
 73
     1
 90
        2
 40
-0.6
 41
30.0
 62
     5
 63
     7
 74
     1
 91
        4
 64
     7
 65
   257
 75
     1
175
     1
 42
1.0
 92
        0
 66
   257
 43
1.0
 76
     1
 77
     6
 78
     2
 67
     7
 79
     5
170
     0
171
     0
290
     0
174
     0
 93
       13
 44
0.0
173
     0
291
     1
 45
0.0
1001
ACAD
1000
AcDbSavedByObjectVersion
1070
     0
  0
VISUALSTYLE
  5
38
102
{ACAD_REACTORS
330
2A
102
}
102
{ACAD_XDICTIONARY
360
37C
102
}
330
2A
100
AcDbVisualStyle
  2
Linepattern
 70
    14
 71
     2
 72
     2
 73
     0
 90
        0
 40
-0.6
 41
-30.0
 62
     5
 63
     7
 74
     1
 91
        4
 64
     7
 65
   257
 75
     7
175
     7
 42
1.0
 92
        8
 66
     7
 43
1.0
 76
     1
 77
     6
 78
     2
 67
     7
 79
     5
170
     0
171
     0
290
     0
174
     0
 93
        1
 44
0.0
173
     0
291
     1
 45
0.0
1001
ACAD
1000
AcDbSavedByObjectVersion
1070
     0
  0
VISUALSTYLE
  5
33
102
{ACAD_REACTORS
330
2A
102
}
102
{ACAD_XDICTIONARY
360
372
102
}
330
2A
100
AcDbVisualStyle
  2
Realistic
 70
     8
 71
     2
 72
     2
 73
     0
 90
        0
 40
-0.6
 41
-30.0
 62
     5
 63
     7
 74
     1
 91
        0
 64
     7
 65
   257
 75
     1
175
     1
 42
1.0
 92
        8
 66
     8
 43
1.0
 76
     1
 77
     6
 78
     2
 67
     7
 79
     5
170
     0
171
     0
290
     0
174
     0
 93
       13
 44
0.0
173
     0
291
     0
 45
0.0
1001
ACAD
1000
AcDbSavedByObjectVersion
1070
     0
  0
VISUALSTYLE
  5
37
102
{ACAD_REACTORS
330
2A
102
}
102
{ACAD_XDICTIONARY
360
37A
102
}
330
2A
100
AcDbVisualStyle
  2
Thicken
 70
    13
 71
     2
 72
     2
 73
     0
 90
        0
 40
-0.6
 41
-30.0
 62
     5
 63
     7
 74
     1
 91
        4
 64
     7
 65
   257
 75
     1
175
     1
 42
1.0
 92
       12
 66
     7
 43
1.0
 76
     1
 77
     6
 78
     2
 67
     7
 79
     5
170
     0
171
     0
290
     0
174
     0
 93
        1
 44
0.0
173
     0
291
     1
 45
0.0
1001
ACAD
1000
AcDbSavedByObjectVersion
1070
     0
  0
DICTIONARYVAR
  5
360
102
{ACAD_REACTORS
330
35B
102
}
330
35B
100
DictionaryVariables
280
     0
  1
2
  0
DICTIONARYVAR
  5
361
102
{ACAD_REACTORS
330
35B
102
}
330
35B
100
DictionaryVariables
280
     0
  1
1
  0
DICTIONARYVAR
  5
35F
102
{ACAD_REACTORS
330
35B
102
}
330
35B
100
DictionaryVariables
280
     0
  1
80.000000
  0
DICTIONARYVAR
  5
35E
102
{ACAD_REACTORS
330
35B
102
}
330
35B
100
DictionaryVariables
280
     0
  1
5.000000
  0
DICTIONARY
  5
384
330
3D
100
AcDbDictionary
280
     1
281
     1
  3
ACAD_XREC_ROUNDTRIP
360
385
  0
DICTIONARY
  5
382
330
3C
100
AcDbDictionary
280
     1
281
     1
  3
ACAD_XREC_ROUNDTRIP
360
383
  0
DICTIONARY
  5
386
330
3E
100
AcDbDictionary
280
     1
281
     1
  3
ACAD_XREC_ROUNDTRIP
360
387
  0
DICTIONARY
  5
36A
330
2F
100
AcDbDictionary
280
     1
281
     1
  3
ACAD_XREC_ROUNDTRIP
360
36B
  0
DICTIONARY
  5
36E
330
31
100
AcDbDictionary
280
     1
281
     1
  3
ACAD_XREC_ROUNDTRIP
360
36F
  0
DICTIONARY
  5
36C
330
30
100
AcDbDictionary
280
     1
281
     1
  3
ACAD_XREC_ROUNDTRIP
360
36D
  0
DICTIONARY
  5
370
330
32
100
AcDbDictionary
280
     1
281
     1
  3
ACAD_XREC_ROUNDTRIP
360
371
  0
DICTIONARY
  5
378
330
36
100
AcDbDictionary
280
     1
281
     1
  3
ACAD_XREC_ROUNDTRIP
360
379
  0
DICTIONARY
  5
380
330
3A
100
AcDbDictionary
280
     1
281
     1
  3
ACAD_XREC_ROUNDTRIP
360
381
  0
DICTIONARY
  5
374
330
34
100
AcDbDictionary
280
     1
281
     1
  3
ACAD_XREC_ROUNDTRIP
360
375
  0
DICTIONARY
  5
376
330
35
100
AcDbDictionary
280
     1
281
     1
  3
ACAD_XREC_ROUNDTRIP
360
377
  0
DICTIONARY
  5
37E
330
39
100
AcDbDictionary
280
     1
281
     1
  3
ACAD_XREC_ROUNDTRIP
360
37F
  0
DICTIONARY
  5
362
330
2B
100
AcDbDictionary
280
     1
281
     1
  3
ACAD_XREC_ROUNDTRIP
360
363
  0
DICTIONARY
  5
364
330
2C
100
AcDbDictionary
280
     1
281
     1
  3
ACAD_XREC_ROUNDTRIP
360
365
  0
DICTIONARY
  5
366
330
2D
100
AcDbDictionary
280
     1
281
     1
  3
ACAD_XREC_ROUNDTRIP
360
367
  0
DICTIONARY
  5
368
330
2E
100
AcDbDictionary
280
     1
281
     1
  3
ACAD_XREC_ROUNDTRIP
360
369
  0
DICTIONARY
  5
37C
330
38
100
AcDbDictionary
280
     1
281
     1
  3
ACAD_XREC_ROUNDTRIP
360
37D
  0
DICTIONARY
  5
372
330
33
100
AcDbDictionary
280
     1
281
     1
  3
ACAD_XREC_ROUNDTRIP
360
373
  0
DICTIONARY
  5
37A
330
37
100
AcDbDictionary
280
     1
281
     1
  3
ACAD_XREC_ROUNDTRIP
360
37B
  0
XRECORD
  5
385
102
{ACAD_REACTORS
330
384
102
}
330
384
100
AcDbXrecord
280
     1
102
MATERIAL
148
0.0
149
0.0
149
0.0
 93
        0
 94
      127
282
     0
 72
     1
 77
     1
171
     1
175
     1
179
     1
273
     0
  0
XRECORD
  5
383
102
{ACAD_REACTORS
330
382
102
}
330
382
100
AcDbXrecord
280
     1
102
MATERIAL
148
0.0
149
0.0
149
0.0
 93
        0
 94
      127
282
     0
 72
     1
 77
     1
171
     1
175
     1
179
     1
273
     0
  0
XRECORD
  5
387
102
{ACAD_REACTORS
330
386
102
}
330
386
100
AcDbXrecord
280
     1
102
MATERIAL
148
0.0
149
0.0
149
0.0
 93
        0
 94
      127
282
     0
 72
     1
 77
     1
171
     1
175
     1
179
     1
273
     0
  0
XRECORD
  5
36B
102
{ACAD_REACTORS
330
36A
102
}
330
36A
100
AcDbXrecord
280
     1
102
RTVSPropertyOp0
 70
     1
102
RTVSPropertyOp1
 70
     1
102
RTVSPropertyOp2
 70
     1
102
RTVSPropertyOp3
 70
     1
102
RTVSPropertyOp4
 70
     1
102
RTVSPropertyOp5
 70
     1
102
RTVSPropertyOp6
 70
     1
102
RTVSPropertyOp7
 70
     1
102
RTVSPropertyOp8
 70
     1
102
RTVSPropertyOp9
 70
     1
102
RTVSPropertyOp10
 70
     1
102
RTVSPropertyOp11
 70
     1
102
RTVSPropertyOp12
 70
     1
102
RTVSPropertyOp13
 70
     1
102
RTVSPropertyOp14
 70
     1
102
RTVSPropertyOp15
 70
     1
102
RTVSPropertyOp16
 70
     1
102
RTVSPropertyOp17
 70
     1
102
RTVSPropertyOp18
 70
     1
102
RTVSPropertyOp19
 70
     1
102
RTVSPropertyOp20
 70
     1
102
RTVSPropertyOp21
 70
     1
102
RTVSPropertyOp22
 70
     1
102
RTVSPropertyOp23
 70
     1
102
RTVSPropertyOp24
 70
     1
102
RTVSPropertyOp25
 70
     1
102
RTVSPropertyOp26
 70
     1
102
RTVSPropertyOp27
 70
     1
  0
XRECORD
  5
36F
102
{ACAD_REACTORS
330
36E
102
}
330
36E
100
AcDbXrecord
280
     1
102
RTVSPropertyOp0
 70
     1
102
RTVSPropertyOp1
 70
     1
102
RTVSPropertyOp2
 70
     1
102
RTVSPropertyOp3
 70
     1
102
RTVSPropertyOp4
 70
     1
102
RTVSPropertyOp5
 70
     1
102
RTVSPropertyOp6
 70
     1
102
RTVSPropertyOp7
 70
     1
102
RTVSPropertyOp8
 70
     1
102
RTVSPropertyOp9
 70
     1
102
RTVSPropertyOp10
 70
     1
102
RTVSPropertyOp11
 70
     1
102
RTVSPropertyOp12
 70
     1
102
RTVSPropertyOp13
 70
     1
102
RTVSPropertyOp14
 70
     1
102
RTVSPropertyOp15
 70
     1
102
RTVSPropertyOp16
 70
     1
102
RTVSPropertyOp17
 70
     1
102
RTVSPropertyOp18
 70
     1
102
RTVSPropertyOp19
 70
     1
102
RTVSPropertyOp20
 70
     1
102
RTVSPropertyOp21
 70
     1
102
RTVSPropertyOp22
 70
     1
102
RTVSPropertyOp23
 70
     1
102
RTVSPropertyOp24
 70
     1
102
RTVSPropertyOp25
 70
     1
102
RTVSPropertyOp26
 70
     1
102
RTVSPropertyOp27
 70
     1
  0
XRECORD
  5
36D
102
{ACAD_REACTORS
330
36C
102
}
330
36C
100
AcDbXrecord
280
     1
102
RTVSPropertyOp0
 70
     1
102
RTVSPropertyOp1
 70
     1
102
RTVSPropertyOp2
 70
     1
102
RTVSPropertyOp3
 70
     1
102
RTVSPropertyOp4
 70
     1
102
RTVSPropertyOp5
 70
     1
102
RTVSPropertyOp6
 70
     1
102
RTVSPropertyOp7
 70
     1
102
RTVSPropertyOp8
 70
     1
102
RTVSPropertyOp9
 70
     1
102
RTVSPropertyOp10
 70
     1
102
RTVSPropertyOp11
 70
     1
102
RTVSPropertyOp12
 70
     1
102
RTVSPropertyOp13
 70
     1
102
RTVSPropertyOp14
 70
     1
102
RTVSPropertyOp15
 70
     1
102
RTVSPropertyOp16
 70
     1
102
RTVSPropertyOp17
 70
     1
102
RTVSPropertyOp18
 70
     1
102
RTVSPropertyOp19
 70
     1
102
RTVSPropertyOp20
 70
     1
102
RTVSPropertyOp21
 70
     1
102
RTVSPropertyOp22
 70
     1
102
RTVSPropertyOp23
 70
     1
102
RTVSPropertyOp24
 70
     1
102
RTVSPropertyOp25
 70
     1
102
RTVSPropertyOp26
 70
     1
102
RTVSPropertyOp27
 70
     1
  0
XRECORD
  5
371
102
{ACAD_REACTORS
330
370
102
}
330
370
100
AcDbXrecord
280
     1
102
RTVSPropertyOp0
 70
     1
102
RTVSPropertyOp1
 70
     1
102
RTVSPropertyOp2
 70
     1
102
RTVSPropertyOp3
 70
     1
102
RTVSPropertyOp4
 70
     1
102
RTVSPropertyOp5
 70
     1
102
RTVSPropertyOp6
 70
     1
102
RTVSPropertyOp7
 70
     1
102
RTVSPropertyOp8
 70
     1
102
RTVSPropertyOp9
 70
     1
102
RTVSPropertyOp10
 70
     1
102
RTVSPropertyOp11
 70
     1
102
RTVSPropertyOp12
 70
     1
102
RTVSPropertyOp13
 70
     1
102
RTVSPropertyOp14
 70
     1
102
RTVSPropertyOp15
 70
     1
102
RTVSPropertyOp16
 70
     1
102
RTVSPropertyOp17
 70
     1
102
RTVSPropertyOp18
 70
     1
102
RTVSPropertyOp19
 70
     1
102
RTVSPropertyOp20
 70
     1
102
RTVSPropertyOp21
 70
     1
102
RTVSPropertyOp22
 70
     1
102
RTVSPropertyOp23
 70
     1
102
RTVSPropertyOp24
 70
     1
102
RTVSPropertyOp25
 70
     1
102
RTVSPropertyOp26
 70
     1
102
RTVSPropertyOp27
 70
     1
  0
XRECORD
  5
379
102
{ACAD_REACTORS
330
378
102
}
330
378
100
AcDbXrecord
280
     1
102
RTVSPropertyOp0
 70
     1
102
RTVSPropertyOp1
 70
     1
102
RTVSPropertyOp2
 70
     1
102
RTVSPropertyOp3
 70
     1
102
RTVSPropertyOp4
 70
     1
102
RTVSPropertyOp5
 70
     1
102
RTVSPropertyOp6
 70
     1
102
RTVSPropertyOp7
 70
     1
102
RTVSPropertyOp8
 70
     1
102
RTVSPropertyOp9
 70
     1
102
RTVSPropertyOp10
 70
     1
102
RTVSPropertyOp11
 70
     1
102
RTVSPropertyOp12
 70
     1
102
RTVSPropertyOp13
 70
     1
102
RTVSPropertyOp14
 70
     1
102
RTVSPropertyOp15
 70
     1
102
RTVSPropertyOp16
 70
     1
102
RTVSPropertyOp17
 70
     1
102
RTVSPropertyOp18
 70
     1
102
RTVSPropertyOp19
 70
     1
102
RTVSPropertyOp20
 70
     1
102
RTVSPropertyOp21
 70
     1
102
RTVSPropertyOp22
 70
     1
102
RTVSPropertyOp23
 70
     1
102
RTVSPropertyOp24
 70
     1
102
RTVSPropertyOp25
 70
     1
102
RTVSPropertyOp26
 70
     1
102
RTVSPropertyOp27
 70
     1
  0
XRECORD
  5
381
102
{ACAD_REACTORS
330
380
102
}
330
380
100
AcDbXrecord
280
     1
102
RTVSPropertyOp0
 70
     1
102
RTVSPropertyOp1
 70
     1
102
RTVSPropertyOp2
 70
     1
102
RTVSPropertyOp3
 70
     1
102
RTVSPropertyOp4
 70
     1
102
RTVSPropertyOp5
 70
     1
102
RTVSPropertyOp6
 70
     1
102
RTVSPropertyOp7
 70
     1
102
RTVSPropertyOp8
 70
     1
102
RTVSPropertyOp9
 70
     1
102
RTVSPropertyOp10
 70
     1
102
RTVSPropertyOp11
 70
     1
102
RTVSPropertyOp12
 70
     1
102
RTVSPropertyOp13
 70
     1
102
RTVSPropertyOp14
 70
     1
102
RTVSPropertyOp15
 70
     1
102
RTVSPropertyOp16
 70
     1
102
RTVSPropertyOp17
 70
     1
102
RTVSPropertyOp18
 70
     1
102
RTVSPropertyOp19
 70
     1
102
RTVSPropertyOp20
 70
     1
102
RTVSPropertyOp21
 70
     1
102
RTVSPropertyOp22
 70
     1
102
RTVSPropertyOp23
 70
     1
102
RTVSPropertyOp24
 70
     1
102
RTVSPropertyOp25
 70
     1
102
RTVSPropertyOp26
 70
     1
102
RTVSPropertyOp27
 70
     1
  0
XRECORD
  5
375
102
{ACAD_REACTORS
330
374
102
}
330
374
100
AcDbXrecord
280
     1
102
RTVSPropertyOp0
 70
     1
102
RTVSPropertyOp1
 70
     1
102
RTVSPropertyOp2
 70
     1
102
RTVSPropertyOp3
 70
     1
102
RTVSPropertyOp4
 70
     1
102
RTVSPropertyOp5
 70
     1
102
RTVSPropertyOp6
 70
     1
102
RTVSPropertyOp7
 70
     1
102
RTVSPropertyOp8
 70
     1
102
RTVSPropertyOp9
 70
     1
102
RTVSPropertyOp10
 70
     1
102
RTVSPropertyOp11
 70
     1
102
RTVSPropertyOp12
 70
     1
102
RTVSPropertyOp13
 70
     1
102
RTVSPropertyOp14
 70
     1
102
RTVSPropertyOp15
 70
     1
102
RTVSPropertyOp16
 70
     1
102
RTVSPropertyOp17
 70
     1
102
RTVSPropertyOp18
 70
     1
102
RTVSPropertyOp19
 70
     1
102
RTVSPropertyOp20
 70
     1
102
RTVSPropertyOp21
 70
     1
102
RTVSPropertyOp22
 70
     1
102
RTVSPropertyOp23
 70
     1
102
RTVSPropertyOp24
 70
     1
102
RTVSPropertyOp25
 70
     1
102
RTVSPropertyOp26
 70
     1
102
RTVSPropertyOp27
 70
     1
  0
XRECORD
  5
377
102
{ACAD_REACTORS
330
376
102
}
330
376
100
AcDbXrecord
280
     1
102
RTVSPropertyOp0
 70
     1
102
RTVSPropertyOp1
 70
     1
102
RTVSPropertyOp2
 70
     1
102
RTVSPropertyOp3
 70
     1
102
RTVSPropertyOp4
 70
     1
102
RTVSPropertyOp5
 70
     1
102
RTVSPropertyOp6
 70
     1
102
RTVSPropertyOp7
 70
     1
102
RTVSPropertyOp8
 70
     1
102
RTVSPropertyOp9
 70
     1
102
RTVSPropertyOp10
 70
     1
102
RTVSPropertyOp11
 70
     1
102
RTVSPropertyOp12
 70
     1
102
RTVSPropertyOp13
 70
     1
102
RTVSPropertyOp14
 70
     1
102
RTVSPropertyOp15
 70
     1
102
RTVSPropertyOp16
 70
     1
102
RTVSPropertyOp17
 70
     1
102
RTVSPropertyOp18
 70
     1
102
RTVSPropertyOp19
 70
     1
102
RTVSPropertyOp20
 70
     1
102
RTVSPropertyOp21
 70
     1
102
RTVSPropertyOp22
 70
     1
102
RTVSPropertyOp23
 70
     1
102
RTVSPropertyOp24
 70
     1
102
RTVSPropertyOp25
 70
     1
102
RTVSPropertyOp26
 70
     1
102
RTVSPropertyOp27
 70
     1
  0
XRECORD
  5
37F
102
{ACAD_REACTORS
330
37E
102
}
330
37E
100
AcDbXrecord
280
     1
102
RTVSPropertyOp0
 70
     1
102
RTVSPropertyOp1
 70
     1
102
RTVSPropertyOp2
 70
     1
102
RTVSPropertyOp3
 70
     1
102
RTVSPropertyOp4
 70
     1
102
RTVSPropertyOp5
 70
     1
102
RTVSPropertyOp6
 70
     1
102
RTVSPropertyOp7
 70
     1
102
RTVSPropertyOp8
 70
     1
102
RTVSPropertyOp9
 70
     1
102
RTVSPropertyOp10
 70
     1
102
RTVSPropertyOp11
 70
     1
102
RTVSPropertyOp12
 70
     1
102
RTVSPropertyOp13
 70
     1
102
RTVSPropertyOp14
 70
     1
102
RTVSPropertyOp15
 70
     1
102
RTVSPropertyOp16
 70
     1
102
RTVSPropertyOp17
 70
     1
102
RTVSPropertyOp18
 70
     1
102
RTVSPropertyOp19
 70
     1
102
RTVSPropertyOp20
 70
     1
102
RTVSPropertyOp21
 70
     1
102
RTVSPropertyOp22
 70
     1
102
RTVSPropertyOp23
 70
     1
102
RTVSPropertyOp24
 70
     1
102
RTVSPropertyOp25
 70
     1
102
RTVSPropertyOp26
 70
     1
102
RTVSPropertyOp27
 70
     1
  0
XRECORD
  5
363
102
{ACAD_REACTORS
330
362
102
}
330
362
100
AcDbXrecord
280
     1
102
RTVSPropertyOp0
 70
     1
102
RTVSPropertyOp1
 70
     1
102
RTVSPropertyOp2
 70
     1
102
RTVSPropertyOp3
 70
     1
102
RTVSPropertyOp4
 70
     1
102
RTVSPropertyOp5
 70
     1
102
RTVSPropertyOp6
 70
     1
102
RTVSPropertyOp7
 70
     1
102
RTVSPropertyOp8
 70
     1
102
RTVSPropertyOp9
 70
     1
102
RTVSPropertyOp10
 70
     1
102
RTVSPropertyOp11
 70
     1
102
RTVSPropertyOp12
 70
     1
102
RTVSPropertyOp13
 70
     1
102
RTVSPropertyOp14
 70
     1
102
RTVSPropertyOp15
 70
     1
102
RTVSPropertyOp16
 70
     1
102
RTVSPropertyOp17
 70
     1
102
RTVSPropertyOp18
 70
     1
102
RTVSPropertyOp19
 70
     1
102
RTVSPropertyOp20
 70
     1
102
RTVSPropertyOp21
 70
     1
102
RTVSPropertyOp22
 70
     1
102
RTVSPropertyOp23
 70
     1
102
RTVSPropertyOp24
 70
     1
102
RTVSPropertyOp25
 70
     1
102
RTVSPropertyOp26
 70
     1
102
RTVSPropertyOp27
 70
     1
  0
XRECORD
  5
365
102
{ACAD_REACTORS
330
364
102
}
330
364
100
AcDbXrecord
280
     1
102
RTVSPropertyOp0
 70
     1
102
RTVSPropertyOp1
 70
     1
102
RTVSPropertyOp2
 70
     1
102
RTVSPropertyOp3
 70
     1
102
RTVSPropertyOp4
 70
     1
102
RTVSPropertyOp5
 70
     1
102
RTVSPropertyOp6
 70
     1
102
RTVSPropertyOp7
 70
     1
102
RTVSPropertyOp8
 70
     1
102
RTVSPropertyOp9
 70
     1
102
RTVSPropertyOp10
 70
     1
102
RTVSPropertyOp11
 70
     1
102
RTVSPropertyOp12
 70
     1
102
RTVSPropertyOp13
 70
     1
102
RTVSPropertyOp14
 70
     1
102
RTVSPropertyOp15
 70
     1
102
RTVSPropertyOp16
 70
     1
102
RTVSPropertyOp17
 70
     1
102
RTVSPropertyOp18
 70
     1
102
RTVSPropertyOp19
 70
     1
102
RTVSPropertyOp20
 70
     1
102
RTVSPropertyOp21
 70
     1
102
RTVSPropertyOp22
 70
     1
102
RTVSPropertyOp23
 70
     1
102
RTVSPropertyOp24
 70
     1
102
RTVSPropertyOp25
 70
     1
102
RTVSPropertyOp26
 70
     1
102
RTVSPropertyOp27
 70
     1
  0
XRECORD
  5
367
102
{ACAD_REACTORS
330
366
102
}
330
366
100
AcDbXrecord
280
     1
102
RTVSPropertyOp0
 70
     1
102
RTVSPropertyOp1
 70
     1
102
RTVSPropertyOp2
 70
     1
102
RTVSPropertyOp3
 70
     1
102
RTVSPropertyOp4
 70
     1
102
RTVSPropertyOp5
 70
     1
102
RTVSPropertyOp6
 70
     1
102
RTVSPropertyOp7
 70
     1
102
RTVSPropertyOp8
 70
     1
102
RTVSPropertyOp9
 70
     1
102
RTVSPropertyOp10
 70
     1
102
RTVSPropertyOp11
 70
     1
102
RTVSPropertyOp12
 70
     1
102
RTVSPropertyOp13
 70
     1
102
RTVSPropertyOp14
 70
     1
102
RTVSPropertyOp15
 70
     1
102
RTVSPropertyOp16
 70
     1
102
RTVSPropertyOp17
 70
     1
102
RTVSPropertyOp18
 70
     1
102
RTVSPropertyOp19
 70
     1
102
RTVSPropertyOp20
 70
     1
102
RTVSPropertyOp21
 70
     1
102
RTVSPropertyOp22
 70
     1
102
RTVSPropertyOp23
 70
     1
102
RTVSPropertyOp24
 70
     1
102
RTVSPropertyOp25
 70
     1
102
RTVSPropertyOp26
 70
     1
102
RTVSPropertyOp27
 70
     1
  0
XRECORD
  5
369
102
{ACAD_REACTORS
330
368
102
}
330
368
100
AcDbXrecord
280
     1
102
RTVSPropertyOp0
 70
     1
102
RTVSPropertyOp1
 70
     1
102
RTVSPropertyOp2
 70
     1
102
RTVSPropertyOp3
 70
     1
102
RTVSPropertyOp4
 70
     1
102
RTVSPropertyOp5
 70
     1
102
RTVSPropertyOp6
 70
     1
102
RTVSPropertyOp7
 70
     1
102
RTVSPropertyOp8
 70
     1
102
RTVSPropertyOp9
 70
     1
102
RTVSPropertyOp10
 70
     1
102
RTVSPropertyOp11
 70
     1
102
RTVSPropertyOp12
 70
     1
102
RTVSPropertyOp13
 70
     1
102
RTVSPropertyOp14
 70
     1
102
RTVSPropertyOp15
 70
     1
102
RTVSPropertyOp16
 70
     1
102
RTVSPropertyOp17
 70
     1
102
RTVSPropertyOp18
 70
     1
102
RTVSPropertyOp19
 70
     1
102
RTVSPropertyOp20
 70
     1
102
RTVSPropertyOp21
 70
     1
102
RTVSPropertyOp22
 70
     1
102
RTVSPropertyOp23
 70
     1
102
RTVSPropertyOp24
 70
     1
102
RTVSPropertyOp25
 70
     1
102
RTVSPropertyOp26
 70
     1
102
RTVSPropertyOp27
 70
     1
  0
XRECORD
  5
37D
102
{ACAD_REACTORS
330
37C
102
}
330
37C
100
AcDbXrecord
280
     1
102
RTVSPropertyOp0
 70
     1
102
RTVSPropertyOp1
 70
     1
102
RTVSPropertyOp2
 70
     1
102
RTVSPropertyOp3
 70
     1
102
RTVSPropertyOp4
 70
     1
102
RTVSPropertyOp5
 70
     1
102
RTVSPropertyOp6
 70
     1
102
RTVSPropertyOp7
 70
     1
102
RTVSPropertyOp8
 70
     1
102
RTVSPropertyOp9
 70
     1
102
RTVSPropertyOp10
 70
     1
102
RTVSPropertyOp11
 70
     1
102
RTVSPropertyOp12
 70
     1
102
RTVSPropertyOp13
 70
     1
102
RTVSPropertyOp14
 70
     1
102
RTVSPropertyOp15
 70
     1
102
RTVSPropertyOp16
 70
     1
102
RTVSPropertyOp17
 70
     1
102
RTVSPropertyOp18
 70
     1
102
RTVSPropertyOp19
 70
     1
102
RTVSPropertyOp20
 70
     1
102
RTVSPropertyOp21
 70
     1
102
RTVSPropertyOp22
 70
     1
102
RTVSPropertyOp23
 70
     1
102
RTVSPropertyOp24
 70
     1
102
RTVSPropertyOp25
 70
     1
102
RTVSPropertyOp26
 70
     1
102
RTVSPropertyOp27
 70
     1
  0
XRECORD
  5
373
102
{ACAD_REACTORS
330
372
102
}
330
372
100
AcDbXrecord
280
     1
102
RTVSPropertyOp0
 70
     1
102
RTVSPropertyOp1
 70
     1
102
RTVSPropertyOp2
 70
     1
102
RTVSPropertyOp3
 70
     1
102
RTVSPropertyOp4
 70
     1
102
RTVSPropertyOp5
 70
     1
102
RTVSPropertyOp6
 70
     1
102
RTVSPropertyOp7
 70
     1
102
RTVSPropertyOp8
 70
     1
102
RTVSPropertyOp9
 70
     1
102
RTVSPropertyOp10
 70
     1
102
RTVSPropertyOp11
 70
     1
102
RTVSPropertyOp12
 70
     1
102
RTVSPropertyOp13
 70
     1
102
RTVSPropertyOp14
 70
     1
102
RTVSPropertyOp15
 70
     1
102
RTVSPropertyOp16
 70
     1
102
RTVSPropertyOp17
 70
     1
102
RTVSPropertyOp18
 70
     1
102
RTVSPropertyOp19
 70
     1
102
RTVSPropertyOp20
 70
     1
102
RTVSPropertyOp21
 70
     1
102
RTVSPropertyOp22
 70
     1
102
RTVSPropertyOp23
 70
     1
102
RTVSPropertyOp24
 70
     1
102
RTVSPropertyOp25
 70
     1
102
RTVSPropertyOp26
 70
     1
102
RTVSPropertyOp27
 70
     1
  0
XRECORD
  5
37B
102
{ACAD_REACTORS
330
37A
102
}
330
37A
100
AcDbXrecord
280
     1
102
RTVSPropertyOp0
 70
     1
102
RTVSPropertyOp1
 70
     1
102
RTVSPropertyOp2
 70
     1
102
RTVSPropertyOp3
 70
     1
102
RTVSPropertyOp4
 70
     1
102
RTVSPropertyOp5
 70
     1
102
RTVSPropertyOp6
 70
     1
102
RTVSPropertyOp7
 70
     1
102
RTVSPropertyOp8
 70
     1
102
RTVSPropertyOp9
 70
     1
102
RTVSPropertyOp10
 70
     1
102
RTVSPropertyOp11
 70
     1
102
RTVSPropertyOp12
 70
     1
102
RTVSPropertyOp13
 70
     1
102
RTVSPropertyOp14
 70
     1
102
RTVSPropertyOp15
 70
     1
102
RTVSPropertyOp16
 70
     1
102
RTVSPropertyOp17
 70
     1
102
RTVSPropertyOp18
 70
     1
102
RTVSPropertyOp19
 70
     1
102
RTVSPropertyOp20
 70
     1
102
RTVSPropertyOp21
 70
     1
102
RTVSPropertyOp22
 70
     1
102
RTVSPropertyOp23
 70
     1
102
RTVSPropertyOp24
 70
     1
102
RTVSPropertyOp25
 70
     1
102
RTVSPropertyOp26
 70
     1
102
RTVSPropertyOp27
 70
     1
  0
ENDSEC
  0
EOF
