  0
SECTION
  2
HEADER
  9
$ACADVER
  1
AC1015
  9
$ACADMAINTVER
 70
     6
  9
$DWGCODEPAGE
  3
ANSI_1252
  9
$INSBASE
 10
0.0
 20
0.0
 30
0.0
  9
$EXTMIN
 10
0.0
 20
0.0
 30
0.0
  9
$EXTMAX
 10
1000.0
 20
1000.0
 30
0.0
  9
$LIMMIN
 10
0.0
 20
0.0
  9
$LIMMAX
 10
1000.0
 20
1000.0
  9
$ORTHOMODE
 70
     0
  9
$REGENMODE
 70
     1
  9
$FILLMODE
 70
     1
  9
$QTEXTMODE
 70
     0
  9
$MIRRTEXT
 70
     1
  9
$LTSCALE
 40
1.0
  9
$ATTMODE
 70
     1
  9
$TEXTSIZE
 40
3.5
  9
$TRACEWID
 40
1.0
  9
$TEXTSTYLE
  7
Standard
  9
$CLAYER
  8
0
  9
$CELTYPE
  6
ByLayer
  9
$CECOLOR
 62
   256
  9
$CELTSCALE
 40
1.0
  9
$DISPSILH
 70
     0
  9
$DIMSCALE
 40
1.0
  9
$DIMASZ
 40
3.302
  9
$DIMEXO
 40
1.0
  9
$DIMDLI
 40
3.75
  9
$DIMRND
 40
0.0
  9
$DIMDLE
 40
0.0
  9
$DIMEXE
 40
1.0
  9
$DIMTP
 40
0.0
  9
$DIMTM
 40
0.0
  9
$DIMTXT
 40
3.5
  9
$DIMCEN
 40
2.5
  9
$DIMTSZ
 40
0.0
  9
$DIMTOL
 70
     0
  9
$DIMLIM
 70
     0
  9
$DIMTIH
 70
     1
  9
$DIMTOH
 70
     1
  9
$DIMSE1
 70
     0
  9
$DIMSE2
 70
     0
  9
$DIMTAD
 70
     1
  9
$DIMZIN
 70
     0
  9
$DIMBLK
  1

  9
$DIMASO
 70
     1
  9
$DIMSHO
 70
     1
  9
$DIMPOST
  1

  9
$DIMAPOST
  1

  9
$DIMALT
 70
     0
  9
$DIMALTD
 70
     3
  9
$DIMALTF
 40
0.0393700787
  9
$DIMLFAC
 40
1.0
  9
$DIMTOFL
 70
     1
  9
$DIMTVP
 40
0.0
  9
$DIMTIX
 70
     0
  9
$DIMSOXD
 70
     0
  9
$DIMSAH
 70
     0
  9
$DIMBLK1
  1

  9
$DIMBLK2
  1

  9
$DIMSTYLE
  2
ISO-25
  9
$DIMCLRD
 70
     0
  9
$DIMCLRE
 70
     0
  9
$DIMCLRT
 70
     0
  9
$DIMTFAC
 40
1.0
  9
$DIMGAP
 40
1.524
  9
$DIMJUST
 70
     0
  9
$DIMSD1
 70
     0
  9
$DIMSD2
 70
     0
  9
$DIMTOLJ
 70
     0
  9
$DIMTZIN
 70
     0
  9
$DIMALTZ
 70
     0
  9
$DIMALTTZ
 70
     0
  9
$DIMUPT
 70
     0
  9
$DIMDEC
 70
     3
  9
$DIMTDEC
 70
     3
  9
$DIMALTU
 70
     2
  9
$DIMALTTD
 70
     3
  9
$DIMTXSTY
  7
Standard
  9
$DIMAUNIT
 70
     0
  9
$DIMADEC
 70
     2
  9
$DIMALTRND
 40
0.0
  9
$DIMAZIN
 70
     0
  9
$DIMDSEP
 70
    44
  9
$DIMATFIT
 70
     3
  9
$DIMFRAC
 70
     0
  9
$DIMLDRBLK
  1

  9
$DIMLUNIT
 70
     2
  9
$DIMLWD
 70
    -2
  9
$DIMLWE
 70
    -2
  9
$DIMTMOVE
 70
     0
  9
$LUNITS
 70
     2
  9
$LUPREC
 70
     8
  9
$SKETCHINC
 40
1.0
  9
$FILLETRAD
 40
10.0
  9
$AUNITS
 70
     0
  9
$AUPREC
 70
     8
  9
$MENU
  1
.
  9
$ELEVATION
 40
0.0
  9
$PELEVATION
 40
0.0
  9
$THICKNESS
 40
0.0
  9
$LIMCHECK
 70
     0
  9
$CHAMFERA
 40
10.0
  9
$CHAMFERB
 40
10.0
  9
$CHAMFERC
 40
20.0
  9
$CHAMFERD
 40
0.0
  9
$SKPOLY
 70
     0
  9
$TDCREATE
 40
2457053.578347153
  9
$TDUCREATE
 40
2457053.578347153
  9
$TDUPDATE
 40
2457053.578347512
  9
$TDUUPDATE
 40
2457053.578347512
  9
$TDINDWG
 40
0.0000000116
  9
$TDUSRTIMER
 40
0.0000000116
  9
$USRTIMER
 70
     1
  9
$ANGBASE
 50
0.0
  9
$ANGDIR
 70
     0
  9
$PDMODE
 70
     0
  9
$PDSIZE
 40
-1.0
  9
$PLINEWID
 40
0.0
  9
$SPLFRAME
 70
     0
  9
$SPLINETYPE
 70
     6
  9
$SPLINESEGS
 70
     8
  9
$HANDSEED
  5
1ED
  9
$SURFTAB1
 70
     6
  9
$SURFTAB2
 70
     6
  9
$SURFTYPE
 70
     6
  9
$SURFU
 70
     6
  9
$SURFV
 70
     6
  9
$UCSBASE
  2

  9
$UCSNAME
  2

  9
$UCSORG
 10
0.0
 20
0.0
 30
0.0
  9
$UCSXDIR
 10
1.0
 20
0.0
 30
0.0
  9
$UCSYDIR
 10
0.0
 20
1.0
 30
0.0
  9
$UCSORTHOREF
  2

  9
$UCSORTHOVIEW
 70
     0
  9
$UCSORGTOP
 10
0.0
 20
0.0
 30
0.0
  9
$UCSORGBOTTOM
 10
0.0
 20
0.0
 30
0.0
  9
$UCSORGLEFT
 10
0.0
 20
0.0
 30
0.0
  9
$UCSORGRIGHT
 10
0.0
 20
0.0
 30
0.0
  9
$UCSORGFRONT
 10
0.0
 20
0.0
 30
0.0
  9
$UCSORGBACK
 10
0.0
 20
0.0
 30
0.0
  9
$PUCSBASE
  2

  9
$PUCSNAME
  2

  9
$PUCSORG
 10
0.0
 20
0.0
 30
0.0
  9
$PUCSXDIR
 10
1.0
 20
0.0
 30
0.0
  9
$PUCSYDIR
 10
0.0
 20
1.0
 30
0.0
  9
$PUCSORTHOREF
  2

  9
$PUCSORTHOVIEW
 70
     0
  9
$PUCSORGTOP
 10
0.0
 20
0.0
 30
0.0
  9
$PUCSORGBOTTOM
 10
0.0
 20
0.0
 30
0.0
  9
$PUCSORGLEFT
 10
0.0
 20
0.0
 30
0.0
  9
$PUCSORGRIGHT
 10
0.0
 20
0.0
 30
0.0
  9
$PUCSORGFRONT
 10
0.0
 20
0.0
 30
0.0
  9
$PUCSORGBACK
 10
0.0
 20
0.0
 30
0.0
  9
$USERI1
 70
     0
  9
$USERI2
 70
     0
  9
$USERI3
 70
     0
  9
$USERI4
 70
     0
  9
$USERI5
 70
     0
  9
$USERR1
 40
0.0
  9
$USERR2
 40
0.0
  9
$USERR3
 40
0.0
  9
$USERR4
 40
0.0
  9
$USERR5
 40
0.0
  9
$WORLDVIEW
 70
     1
  9
$SHADEDGE
 70
     3
  9
$SHADEDIF
 70
    70
  9
$TILEMODE
 70
     1
  9
$MAXACTVP
 70
    64
  9
$PINSBASE
 10
0.0
 20
0.0
 30
0.0
  9
$PLIMCHECK
 70
     0
  9
$PEXTMIN
 10
1.0000000000E+20
 20
1.0000000000E+20
 30
1.0000000000E+20
  9
$PEXTMAX
 10
-1.0000000000E+20
 20
-1.0000000000E+20
 30
-1.0000000000E+20
  9
$PLIMMIN
 10
0.0
 20
0.0
  9
$PLIMMAX
 10
420.0
 20
297.0
  9
$UNITMODE
 70
     0
  9
$VISRETAIN
 70
     1
  9
$PLINEGEN
 70
     0
  9
$PSLTSCALE
 70
     1
  9
$TREEDEPTH
 70
  3020
  9
$CMLSTYLE
  2
Standard
  9
$CMLJUST
 70
     0
  9
$CMLSCALE
 40
20.0
  9
$PROXYGRAPHICS
 70
     1
  9
$MEASUREMENT
 70
     1
  9
$CELWEIGHT
370
    -1
  9
$ENDCAPS
280
     0
  9
$JOINSTYLE
280
     0
  9
$LWDISPLAY
290
     1
  9
$INSUNITS
 70
     4
  9
$HYPERLINKBASE
  1

  9
$STYLESHEET
  1

  9
$XEDIT
290
     1
  9
$CEPSNTYPE
380
     0
  9
$PSTYLEMODE
290
     1
  9
$FINGERPRINTGUID
  2
{F91B19AE-190D-464A-AA08-B24AE88CCEDD}
  9
$VERSIONGUID
  2
{FAEB1C32-E019-11D5-929B-00C0DF256EC4}
  9
$EXTNAMES
290
     1
  9
$PSVPSCALE
 40
0.0
  9
$OLESTARTUP
290
     0
  0
ENDSEC
  0
SECTION
  2
CLASSES
  0
CLASS
  1
ACDBDICTIONARYWDFLT
  2
AcDbDictionaryWithDefault
  3
ObjectDBX Classes
 90
        0
280
     0
281
     0
  0
CLASS
  1
VISUALSTYLE
  2
AcDbVisualStyle
  3
ObjectDBX Classes
 90
     4095
280
     0
281
     0
  0
CLASS
  1
MATERIAL
  2
AcDbMaterial
  3
ObjectDBX Classes
 90
     1153
280
     0
281
     0
  0
CLASS
  1
ACDBPLACEHOLDER
  2
AcDbPlaceHolder
  3
ObjectDBX Classes
 90
        0
280
     0
281
     0
  0
CLASS
  1
LAYOUT
  2
AcDbLayout
  3
ObjectDBX Classes
 90
        0
280
     0
281
     0
  0
ENDSEC
  0
SECTION
  2
TABLES
  0
TABLE
  2
VPORT
  5
8
330
0
100
AcDbSymbolTable
 70
     1
  0
VPORT
  5
29
330
8
100
AcDbSymbolTableRecord
100
AcDbViewportTableRecord
  2
*Active
 70
     0
 10
0.0
 20
0.0
 11
1.0
 21
1.0
 12
500.0
 22
500.0
 13
0.0
 23
0.0
 14
10.0
 24
10.0
 15
10.0
 25
10.0
 16
0.0
 26
0.0
 36
1.0
 17
0.0
 27
0.0
 37
0.0
 40
1000.0
 41
1.0
 42
50.0
 43
0.0
 44
0.0
 50
0.0
 51
0.0
 71
     0
 72
  2000
 73
     1
 74
     3
 75
     0
 76
     0
 77
     0
 78
     0
281
     0
 65
     1
110
0.0
120
0.0
130
0.0
111
1.0
121
0.0
131
0.0
112
0.0
122
1.0
132
0.0
 79
     0
146
0.0
  0
ENDTAB
  0
TABLE
  2
LTYPE
  5
5
330
0
100
AcDbSymbolTable
 70
     6
  0
LTYPE
  5
14
330
5
100
AcDbSymbolTableRecord
100
AcDbLinetypeTableRecord
  2
ByBlock
 70
     0
  3

 72
    65
 73
     0
 40
0.0
  0
LTYPE
  5
15
330
5
100
AcDbSymbolTableRecord
100
AcDbLinetypeTableRecord
  2
ByLayer
 70
     0
  3

 72
    65
 73
     0
 40
0.0
  0
LTYPE
  5
16
330
5
100
AcDbSymbolTableRecord
100
AcDbLinetypeTableRecord
  2
Continuous
 70
     0
  3
Solid line
 72
    65
 73
     0
 40
0.0
  0
LTYPE
  5
3F
330
5
100
AcDbSymbolTableRecord
100
AcDbLinetypeTableRecord
  2
HIDDEN
 70
     0
  3
Hidden __ __ __ __ __ __ __ __ __ __ __ __ __ __
 72
    65
 73
     2
 40
1.905
 49
1.27
 74
     0
 49
-0.635
 74
     0
  0
LTYPE
  5
40
330
5
100
AcDbSymbolTableRecord
100
AcDbLinetypeTableRecord
  2
PHANTOM
 70
     0
  3
Phantom ______  __  __  ______  __  __  ______
 72
    65
 73
     6
 40
12.7
 49
6.35
 74
     0
 49
-1.27
 74
     0
 49
1.27
 74
     0
 49
-1.27
 74
     0
 49
1.27
 74
     0
 49
-1.27
 74
     0
  0
LTYPE
  5
41
330
5
100
AcDbSymbolTableRecord
100
AcDbLinetypeTableRecord
  2
CENTER
 70
     0
  3
Center ____ _ ____ _ ____ _ ____ _ ____ _ ____
 72
    65
 73
     4
 40
10.16
 49
6.35
 74
     0
 49
-1.27
 74
     0
 49
1.27
 74
     0
 49
-1.27
 74
     0
  0
LTYPE
  5
42
330
5
100
AcDbSymbolTableRecord
100
AcDbLinetypeTableRecord
  2
CENTERX2
 70
     0
  3
Center (2x) ________  __  ________  __  _____
 72
    65
 73
     4
 40
20.32
 49
12.7
 74
     0
 49
-2.54
 74
     0
 49
2.54
 74
     0
 49
-2.54
 74
     0
  0
LTYPE
  5
43
330
5
100
AcDbSymbolTableRecord
100
AcDbLinetypeTableRecord
  2
DOT2
 70
     0
  3
Dot (.5x) ........................................
 72
    65
 73
     2
 40
0.635
 49
0.0
 74
     0
 49
-0.635
 74
     0
  0
ENDTAB
  0
TABLE
  2
LAYER
  5
2
330
0
100
AcDbSymbolTable
 70
     1
  0
LAYER
  5
10
330
2
100
AcDbSymbolTableRecord
100
AcDbLayerTableRecord
  2
0
 70
     0
 62
     7
  6
Continuous
370
    -3
390
F
  0
ENDTAB
  0
TABLE
  2
STYLE
  5
3
330
0
100
AcDbSymbolTable
 70
     1
  0
STYLE
  5
11
330
3
100
AcDbSymbolTableRecord
100
AcDbTextStyleTableRecord
  2
Standard
 70
     0
 40
0.0
 41
1.0
 50
0.0
 71
     0
 42
3.5
  3
txt
  4

  0
ENDTAB
  0
TABLE
  2
VIEW
  5
6
330
0
100
AcDbSymbolTable
 70
     0
  0
ENDTAB
  0
TABLE
  2
UCS
  5
7
330
0
100
AcDbSymbolTable
 70
     0
  0
ENDTAB
  0
TABLE
  2
APPID
  5
9
330
0
100
AcDbSymbolTable
 70
     1
  0
APPID
  5
12
330
9
100
AcDbSymbolTableRecord
100
AcDbRegAppTableRecord
  2
ACAD
 70
     0
  0
ENDTAB
  0
TABLE
  2
DIMSTYLE
  5
A
330
0
100
AcDbSymbolTable
 70
     1
100
AcDbDimStyleTable
  0
DIMSTYLE
105
27
330
A
100
AcDbSymbolTableRecord
100
AcDbDimStyleTableRecord
  2
ISO-25
 70
     0
 41
2.5
 42
0.625
 43
3.75
 44
1.25
 73
     0
 74
     0
 77
     1
 78
     8
140
2.5
141
2.5
143
0.0393700787
147
0.625
171
     3
172
     1
178
     0
271
     2
272
     2
274
     3
278
    44
283
     0
284
     8
340
11
  0
ENDTAB
  0
TABLE
  2
BLOCK_RECORD
  5
1
330
0
100
AcDbSymbolTable
 70
     1
  0
BLOCK_RECORD
  5
1F
330
1
100
AcDbSymbolTableRecord
100
AcDbBlockTableRecord
  2
*Model_Space
340
22
  0
BLOCK_RECORD
  5
1B
330
1
100
AcDbSymbolTableRecord
100
AcDbBlockTableRecord
  2
*Paper_Space
340
1E
  0
BLOCK_RECORD
  5
23
330
1
100
AcDbSymbolTableRecord
100
AcDbBlockTableRecord
  2
*Paper_Space0
340
26
  0
ENDTAB
  0
ENDSEC
  0
SECTION
  2
BLOCKS
  0
BLOCK
  5
20
330
1F
100
AcDbEntity
  8
0
100
AcDbBlockBegin
  2
*Model_Space
 70
     0
 10
0.0
 20
0.0
 30
0.0
  3
*Model_Space
  1

  0
ENDBLK
  5
21
330
1F
100
AcDbEntity
  8
0
100
AcDbBlockEnd
  0
BLOCK
  5
1C
330
1B
100
AcDbEntity
 67
     1
  8
0
100
AcDbBlockBegin
  2
*Paper_Space
 70
     0
 10
0.0
 20
0.0
 30
0.0
  3
*Paper_Space
  1

  0
ENDBLK
  5
1D
330
1B
100
AcDbEntity
 67
     1
  8
0
100
AcDbBlockEnd
  0
BLOCK
  5
24
330
23
100
AcDbEntity
  8
0
100
AcDbBlockBegin
  2
*Paper_Space0
 70
     0
 10
0.0
 20
0.0
 30
0.0
  3
*Paper_Space0
  1

  0
ENDBLK
  5
25
330
23
100
AcDbEntity
  8
0
100
AcDbBlockEnd
  0
ENDSEC
  0
SECTION
  2
ENTITIES
  0
LINE
  5
44
330
1F
100
AcDbEntity
  8
0
  6
Continuous
 62
     7
100
AcDbLine
 10
289.0973871734
 20
693.1684085511
 30
0.0
 11
289.0973871734
 21
747.3684085511
 31
0.0
  0
LINE
  5
45
330
1F
100
AcDbEntity
  8
0
  6
Continuous
 62
     7
100
AcDbLine
 10
289.0973871734
 20
747.3684085511
 30
0.0
 11
289.0973871734
 21
872.6201447195
 31
0.0
  0
LINE
  5
46
330
1F
100
AcDbEntity
  8
0
  6
Continuous
 62
     7
370
    15
100
AcDbLine
 10
654.5973871734
 20
44.6684085511
 30
0.0
 11
654.5973871734
 21
48.6684085511
 31
0.0
  0
LINE
  5
47
330
1F
100
AcDbEntity
  8
0
  6
Continuous
 62
     7
370
    15
100
AcDbLine
 10
597.5973871734
 20
48.6684085511
 30
0.0
 11
597.5973871734
 21
44.6684085511
 31
0.0
  0
ARC
  5
48
330
1F
100
AcDbEntity
  8
0
  6
Continuous
 62
     7
370
    15
100
AcDbCircle
 10
652.5973871734
 20
44.6684085511
 30
0.0
 40
2.0
100
AcDbArc
 50
270.0
 51
0.0
  0
ARC
  5
49
330
1F
100
AcDbEntity
  8
0
  6
Continuous
 62
     7
370
    15
100
AcDbCircle
 10
599.5973871734
 20
44.6684085511
 30
0.0
 40
2.0
100
AcDbArc
 50
180.0
 51
270.0
  0
ARC
  5
4A
330
1F
100
AcDbEntity
  8
0
  6
Continuous
 62
     7
370
    15
100
AcDbCircle
 10
378.5973871734
 20
44.6684085511
 30
0.0
 40
2.0
100
AcDbArc
 50
270.0
 51
0.0
  0
ARC
  5
4B
330
1F
100
AcDbEntity
  8
0
  6
Continuous
 62
     7
370
    15
100
AcDbCircle
 10
325.5973871734
 20
44.6684085511
 30
0.0
 40
2.0
100
AcDbArc
 50
180.0
 51
270.0
  0
LINE
  5
4C
330
1F
100
AcDbEntity
  8
0
  6
Continuous
 62
     7
370
    15
100
AcDbLine
 10
380.5973871734
 20
44.6684085511
 30
0.0
 11
380.5973871734
 21
48.6684085511
 31
0.0
  0
LINE
  5
4D
330
1F
100
AcDbEntity
  8
0
  6
Continuous
 62
     7
370
    15
100
AcDbLine
 10
323.5973871734
 20
48.6684085511
 30
0.0
 11
323.5973871734
 21
44.6684085511
 31
0.0
  0
LINE
  5
4E
330
1F
100
AcDbEntity
  8
0
  6
Continuous
 62
     7
370
    15
100
AcDbLine
 10
380.3973871734
 20
48.6684085511
 30
0.0
 11
380.3973871734
 21
116.6684085511
 31
0.0
  0
LINE
  5
4F
330
1F
100
AcDbEntity
  8
0
  6
Continuous
 62
     7
370
    15
100
AcDbLine
 10
323.7973871734
 20
116.6684085511
 30
0.0
 11
323.7973871734
 21
48.6684085511
 31
0.0
  0
LINE
  5
50
330
1F
100
AcDbEntity
  8
0
  6
Continuous
 62
     7
370
    15
100
AcDbLine
 10
654.3973871734
 20
48.6684085511
 30
0.0
 11
654.3973871734
 21
116.6684085511
 31
0.0
  0
LINE
  5
51
330
1F
100
AcDbEntity
  8
0
  6
Continuous
 62
     7
370
    15
100
AcDbLine
 10
597.7973871734
 20
116.6684085511
 30
0.0
 11
597.7973871734
 21
48.6684085511
 31
0.0
  0
ARC
  5
52
330
1F
100
AcDbEntity
  8
0
  6
Continuous
 62
     7
370
    15
100
AcDbCircle
 10
385.4973871734
 20
209.1684085511
 30
0.0
 40
1.500000000000057
100
AcDbArc
 50
90.0
 51
180.0
  0
ARC
  5
53
330
1F
100
AcDbEntity
  8
0
  6
Continuous
 62
     7
370
    15
100
AcDbCircle
 10
318.6973871734
 20
209.1684085511
 30
0.0
 40
1.500000000000057
100
AcDbArc
 50
0.0
 51
90.0
  0
ARC
  5
54
330
1F
100
AcDbEntity
  8
0
  6
Continuous
 62
     7
370
    15
100
AcDbCircle
 10
379.2973871734
 20
122.7009744967
 30
0.0
 40
4.700000000000045
100
AcDbArc
 50
350.5402980318
 51
0.0
  0
ARC
  5
55
330
1F
100
AcDbEntity
  8
0
  6
Continuous
 62
     7
370
    15
100
AcDbCircle
 10
324.8973871734
 20
122.7009744967
 30
0.0
 40
4.700000000000045
100
AcDbArc
 50
180.0
 51
189.4597019682
  0
LINE
  5
56
330
1F
100
AcDbEntity
  8
0
  6
Continuous
 62
     7
370
    15
100
AcDbLine
 10
383.9973871734
 20
122.7009744967
 30
0.0
 11
383.9973871734
 21
209.1684085511
 31
0.0
  0
LINE
  5
57
330
1F
100
AcDbEntity
  8
0
  6
Continuous
 62
     7
370
    15
100
AcDbLine
 10
320.1973871734
 20
209.1684085511
 30
0.0
 11
320.1973871734
 21
122.7009744967
 31
0.0
  0
LINE
  5
58
330
1F
100
AcDbEntity
  8
0
  6
Continuous
 62
     7
370
    15
100
AcDbLine
 10
320.2613004004
 20
121.9285112723
 30
0.0
 11
321.1377369531
 21
116.6684085511
 31
0.0
  0
LINE
  5
59
330
1F
100
AcDbEntity
  8
0
  6
Continuous
 62
     7
370
    15
100
AcDbLine
 10
383.0570373937
 20
116.6684085511
 30
0.0
 11
383.9334739464
 21
121.9285112723
 31
0.0
  0
ARC
  5
5A
330
1F
100
AcDbEntity
  8
0
  6
Continuous
 62
     7
370
    15
100
AcDbCircle
 10
659.4973871734
 20
209.1684085511
 30
0.0
 40
1.500000000000057
100
AcDbArc
 50
90.0
 51
180.0
  0
ARC
  5
5B
330
1F
100
AcDbEntity
  8
0
  6
Continuous
 62
     7
370
    15
100
AcDbCircle
 10
592.6973871734
 20
209.1684085511
 30
0.0
 40
1.500000000000057
100
AcDbArc
 50
0.0
 51
90.0
  0
ARC
  5
5C
330
1F
100
AcDbEntity
  8
0
  6
Continuous
 62
     7
370
    15
100
AcDbCircle
 10
653.2973871734
 20
122.7009744967
 30
0.0
 40
4.700000000000045
100
AcDbArc
 50
350.5402980318
 51
0.0
  0
ARC
  5
5D
330
1F
100
AcDbEntity
  8
0
  6
Continuous
 62
     7
370
    15
100
AcDbCircle
 10
598.8973871734
 20
122.7009744967
 30
0.0
 40
4.700000000000116
100
AcDbArc
 50
180.0
 51
189.4597019682
  0
LINE
  5
5E
330
1F
100
AcDbEntity
  8
0
  6
Continuous
 62
     7
370
    15
100
AcDbLine
 10
657.9973871734
 20
122.7009744967
 30
0.0
 11
657.9973871734
 21
209.1684085511
 31
0.0
  0
LINE
  5
5F
330
1F
100
AcDbEntity
  8
0
  6
Continuous
 62
     7
370
    15
100
AcDbLine
 10
594.1973871734
 20
209.1684085511
 30
0.0
 11
594.1973871734
 21
122.7009744967
 31
0.0
  0
LINE
  5
60
330
1F
100
AcDbEntity
  8
0
  6
Continuous
 62
     7
370
    15
100
AcDbLine
 10
594.2613004004
 20
121.9285112723
 30
0.0
 11
595.1377369531
 21
116.6684085511
 31
0.0
  0
LINE
  5
61
330
1F
100
AcDbEntity
  8
0
  6
Continuous
 62
     7
370
    15
100
AcDbLine
 10
657.0570373937
 20
116.6684085511
 30
0.0
 11
657.9334739464
 21
121.9285112723
 31
0.0
  0
SPLINE
  5
62
330
1F
100
AcDbEntity
  8
0
  6
Continuous
 62
     7
370
    15
100
AcDbSpline
210
0.0
220
0.0
230
1.0
 70
     8
 71
     3
 72
    13
 73
     9
 74
     0
 42
0.00000001
 43
0.00000001
 12
1.0
 22
0.0
 32
0.0
 13
1.0
 23
0.0
 33
0.0
 40
0.0
 40
0.0
 40
0.0
 40
0.0
 40
0.0761497760584667
 40
0.2250864180634774
 40
0.4231711252704826
 40
0.644772188273739
 40
0.9049967047149289
 40
1.0
 40
1.0
 40
1.0
 40
1.0
 10
431.4279128701105
 20
200.8338012303269
 30
0.0
 10
431.4276943554702
 20
200.8341706582921
 30
0.0
 10
431.4270484615462
 20
200.8352626275891
 30
0.0
 10
431.4371470573908
 20
200.813147116525
 30
0.0
 10
431.4514589707146
 20
200.7623163521966
 30
0.0
 10
431.4661506115437
 20
200.6761217769226
 30
0.0
 10
431.474310305211
 20
200.5885847588883
 30
0.0
 10
431.4732923899339
 20
200.5332353519077
 30
0.0
 10
431.4730201553215
 20
200.5184325243091
 30
0.0
  0
ARC
  5
63
330
1F
100
AcDbEntity
  8
0
  6
Continuous
 62
     7
370
    15
100
AcDbCircle
 10
431.7241121065
 20
195.4184085511
 30
0.0
 40
0.2500000000000568
100
AcDbArc
 50
180.0
 51
270.0
  0
LINE
  5
64
330
1F
100
AcDbEntity
  8
0
  6
Continuous
 62
     7
370
    15
100
AcDbLine
 10
431.4741121065
 20
200.5184085511
 30
0.0
 11
431.4741121065
 21
195.4184085511
 31
0.0
  0
ARC
  5
65
330
1F
100
AcDbEntity
  8
0
  6
Continuous
 62
     7
370
    15
100
AcDbCircle
 10
437.6843803647
 20
195.4184085511
 30
0.0
 40
0.2500000000000284
100
AcDbArc
 50
270.0
 51
0.0
  0
LINE
  5
66
330
1F
100
AcDbEntity
  8
0
  6
Continuous
 62
     7
370
    15
100
AcDbLine
 10
437.9343803647
 20
195.4184085511
 30
0.0
 11
437.9343803647
 21
200.5184085511
 31
0.0
  0
ARC
  5
67
330
1F
100
AcDbEntity
  8
0
  6
Continuous
 62
     7
370
    15
100
AcDbCircle
 10
440.5473871734
 20
201.7184085511
 30
0.0
 40
0.2499999999999716
100
AcDbArc
 50
0.0
 51
90.0
  0
ARC
  5
68
330
1F
100
AcDbEntity
  8
0
  6
Continuous
 62
     7
370
    15
100
AcDbCircle
 10
440.5473871734
 20
201.0184085511
 30
0.0
 40
0.2499999999999716
100
AcDbArc
 50
270.0
 51
0.0
  0
LINE
  5
69
330
1F
100
AcDbEntity
  8
0
  6
Continuous
 62
     7
370
    15
100
AcDbLine
 10
440.7973871734
 20
201.0184085511
 30
0.0
 11
440.7973871734
 21
201.7184085511
 31
0.0
  0
LINE
  5
6A
330
1F
100
AcDbEntity
  8
0
  6
Continuous
 62
     7
370
    15
100
AcDbLine
 10
426.2603939821
 20
199.5684085511
 30
0.0
 11
426.2603939821
 21
195.4184085511
 31
0.0
  0
ARC
  5
6B
330
1F
100
AcDbEntity
  8
0
  6
Continuous
 62
     7
370
    15
100
AcDbCircle
 10
426.5103939821
 20
195.4184085511
 30
0.0
 40
0.2500000000000108
100
AcDbArc
 50
180.0
 51
226.1616147494
  0
ARC
  5
6C
330
1F
100
AcDbEntity
  8
0
  6
Continuous
 62
     7
370
    15
100
AcDbCircle
 10
423.3473871734
 20
201.0184085511
 30
0.0
 40
1.449999999999989
100
AcDbArc
 50
180.0
 51
270.0
  0
ARC
  5
6D
330
1F
100
AcDbEntity
  8
0
  6
Continuous
 62
     7
370
    15
100
AcDbCircle
 10
422.1473871734
 20
206.1184085511
 30
0.0
 40
0.2500000000000284
100
AcDbArc
 50
90.0
 51
180.0
  0
LINE
  5
6E
330
1F
100
AcDbEntity
  8
0
  6
Continuous
 62
     7
370
    15
100
AcDbLine
 10
421.8973871734
 20
206.1184085511
 30
0.0
 11
421.8973871734
 21
201.0184085511
 31
0.0
  0
SPLINE
  5
6F
330
1F
100
AcDbEntity
  8
0
  6
Continuous
 62
     7
370
    15
100
AcDbSpline
210
0.0
220
0.0
230
1.0
 70
     8
 71
     3
 72
    12
 73
     8
 74
     0
 42
0.00000001
 43
0.00000001
 12
1.0
 22
0.0
 32
0.0
 13
1.0
 23
0.0
 33
0.0
 40
0.0
 40
0.0
 40
0.0
 40
0.0
 40
0.1499323333646531
 40
0.443008700367773
 40
0.6706957064871254
 40
0.8669292807920942
 40
0.9999999999999999
 40
0.9999999999999999
 40
0.9999999999999999
 40
0.9999999999999999
 10
424.7454876531341
 20
200.7734191953594
 30
0.0
 10
424.7259932881931
 20
200.7728074190566
 30
0.0
 10
424.6683928154786
 20
200.7709997887824
 30
0.0
 10
424.5857228166616
 20
200.8118722301388
 30
0.0
 10
424.5185296609665
 20
200.8813127819584
 30
0.0
 10
424.4842487793749
 20
200.9534277069006
 30
0.0
 10
424.4834826697842
 20
201.0000748700747
 30
0.0
 10
424.4831730875642
 20
201.0189248264065
 30
0.0
  0
ARC
  5
70
330
1F
100
AcDbEntity
  8
0
  6
Continuous
 62
     7
370
    15
100
AcDbCircle
 10
424.2306538041
 20
206.1184085511
 30
0.0
 40
0.2500000000000568
100
AcDbArc
 50
0.0
 51
90.0
  0
LINE
  5
71
330
1F
100
AcDbEntity
  8
0
  6
Continuous
 62
     7
370
    15
100
AcDbLine
 10
424.4806538041
 20
201.0184085511
 30
0.0
 11
424.4806538041
 21
206.1184085511
 31
0.0
  0
LINE
  5
72
330
1F
100
AcDbEntity
  8
0
  6
Continuous
 62
     7
370
    15
100
AcDbLine
 10
441.0448282122
 20
206.1184085511
 30
0.0
 11
441.0448282122
 21
201.0184085511
 31
0.0
  0
ARC
  5
73
330
1F
100
AcDbEntity
  8
0
  6
Continuous
 62
     7
370
    15
100
AcDbCircle
 10
441.2948282122
 20
206.1184085511
 30
0.0
 40
0.2500000000000284
100
AcDbArc
 50
90.0
 51
180.0
  0
ARC
  5
74
330
1F
100
AcDbEntity
  8
0
  6
Continuous
 62
     7
370
    15
100
AcDbCircle
 10
440.8473871734
 20
201.0184085511
 30
0.0
 40
1.449999999999989
100
AcDbArc
 50
270.0
 51
0.0
  0
ARC
  5
75
330
1F
100
AcDbEntity
  8
0
  6
Continuous
 62
     7
370
    15
100
AcDbCircle
 10
442.0473871734
 20
206.1184085511
 30
0.0
 40
0.2500000000000284
100
AcDbArc
 50
0.0
 51
90.0
  0
LINE
  5
76
330
1F
100
AcDbEntity
  8
0
  6
Continuous
 62
     7
370
    15
100
AcDbLine
 10
442.2973871734
 20
201.0184085511
 30
0.0
 11
442.2973871734
 21
206.1184085511
 31
0.0
  0
LINE
  5
77
330
1F
100
AcDbEntity
  8
0
  6
Continuous
 62
     7
370
    15
100
AcDbLine
 10
439.7141205427
 20
206.1184085511
 30
0.0
 11
439.7141205427
 21
201.9684085511
 31
0.0
  0
ARC
  5
78
330
1F
100
AcDbEntity
  8
0
  6
Continuous
 62
     7
370
    15
100
AcDbCircle
 10
439.9641205427
 20
206.1184085511
 30
0.0
 40
0.2500000000000284
100
AcDbArc
 50
90.0
 51
180.0
  0
LINE
  5
79
330
1F
100
AcDbEntity
  8
0
  6
Continuous
 62
     7
370
    15
100
AcDbLine
 10
426.5079284296
 20
194.7087327155
 30
0.0
 11
427.0973871734
 21
194.3684085511
 31
0.0
  0
LINE
  5
7A
330
1F
100
AcDbEntity
  8
0
  6
Continuous
 62
     7
370
    15
100
AcDbLine
 10
427.0973871734
 20
199.5684085511
 30
0.0
 11
426.5079284296
 21
199.2280843867
 31
0.0
  0
LINE
  5
7B
330
1F
100
AcDbEntity
  8
0
  6
Continuous
 62
     7
370
    15
100
AcDbLine
 10
437.0973871734
 20
194.3684085511
 30
0.0
 11
437.6868459172
 21
194.7087327155
 31
0.0
  0
LINE
  5
7C
330
1F
100
AcDbEntity
  8
0
  6
Continuous
 62
     7
370
    15
100
AcDbLine
 10
426.9095571258
 20
207.5268522796
 30
0.0
 11
427.0973871734
 21
207.4184085511
 31
0.0
  0
LINE
  5
7D
330
1F
100
AcDbEntity
  8
0
  6
Continuous
 62
     7
370
    15
100
AcDbLine
 10
437.0973871734
 20
207.4184085511
 30
0.0
 11
437.285217221
 21
207.5268522796
 31
0.0
  0
LINE
  5
7E
330
1F
100
AcDbEntity
  8
0
  6
Continuous
 62
     7
370
    15
100
AcDbLine
 10
437.0973871734
 20
201.9684085511
 30
0.0
 11
437.3073012919
 21
202.0896025239
 31
0.0
  0
LINE
  5
7F
330
1F
100
AcDbEntity
  8
0
  6
Continuous
 62
     7
370
    15
100
AcDbLine
 10
437.3073012919
 20
207.0472145782
 30
0.0
 11
437.0973871734
 21
207.1684085511
 31
0.0
  0
LINE
  5
80
330
1F
100
AcDbEntity
  8
0
  6
Continuous
 62
     7
370
    15
100
AcDbLine
 10
426.8874730549
 20
202.0896025239
 30
0.0
 11
427.0973871734
 21
201.9684085511
 31
0.0
  0
LINE
  5
81
330
1F
100
AcDbEntity
  8
0
  6
Continuous
 62
     7
370
    15
100
AcDbLine
 10
427.0973871734
 20
207.1684085511
 30
0.0
 11
426.8874730549
 21
207.0472145782
 31
0.0
  0
LINE
  5
82
330
1F
100
AcDbEntity
  8
0
  6
Continuous
 62
     7
370
    15
100
AcDbLine
 10
429.0973871734
 20
207.4184085511
 30
0.0
 11
429.0973871734
 21
207.1684085511
 31
0.0
  0
LINE
  5
83
330
1F
100
AcDbEntity
  8
0
  6
Continuous
 62
     7
370
    15
100
AcDbLine
 10
435.0973871734
 20
207.1684085511
 30
0.0
 11
435.0973871734
 21
207.4184085511
 31
0.0
  0
LINE
  5
84
330
1F
100
AcDbEntity
  8
0
  6
Continuous
 62
     7
370
    15
100
AcDbLine
 10
308.5973871734
 20
960.3684085511
 30
0.0
 11
308.5973871734
 21
969.8684085511
 31
0.0
  0
LINE
  5
85
330
1F
100
AcDbEntity
  8
0
  6
Continuous
 62
     7
370
    15
100
AcDbLine
 10
289.5973871734
 20
969.8684085511
 30
0.0
 11
289.5973871734
 21
960.3684085511
 31
0.0
  0
ARC
  5
86
330
1F
100
AcDbEntity
  8
0
  6
Continuous
 62
     7
370
    15
100
AcDbCircle
 10
291.5973871734
 20
969.8684085511
 30
0.0
 40
2.0
100
AcDbArc
 50
90.0
 51
180.0
  0
ARC
  5
87
330
1F
100
AcDbEntity
  8
0
  6
Continuous
 62
     7
370
    15
100
AcDbCircle
 10
306.5973871734
 20
969.8684085511
 30
0.0
 40
2.0
100
AcDbArc
 50
0.0
 51
90.0
  0
ARC
  5
88
330
1F
100
AcDbEntity
  8
0
  6
Continuous
 62
     7
370
    15
100
AcDbCircle
 10
671.5973871734
 20
969.8684085511
 30
0.0
 40
2.0
100
AcDbArc
 50
90.0
 51
180.0
  0
ARC
  5
89
330
1F
100
AcDbEntity
  8
0
  6
Continuous
 62
     7
370
    15
100
AcDbCircle
 10
686.5973871734
 20
969.8684085511
 30
0.0
 40
2.0
100
AcDbArc
 50
0.0
 51
90.0
  0
LINE
  5
8A
330
1F
100
AcDbEntity
  8
0
  6
Continuous
 62
     7
370
    15
100
AcDbLine
 10
688.5973871734
 20
960.3684085511
 30
0.0
 11
688.5973871734
 21
969.8684085511
 31
0.0
  0
LINE
  5
8B
330
1F
100
AcDbEntity
  8
0
  6
Continuous
 62
     7
370
    15
100
AcDbLine
 10
669.5973871734
 20
969.8684085511
 30
0.0
 11
669.5973871734
 21
960.3684085511
 31
0.0
  0
LINE
  5
8C
330
1F
100
AcDbEntity
  8
0
  6
Continuous
 62
     7
370
    15
100
AcDbLine
 10
654.5973871734
 20
48.6684085511
 30
0.0
 11
597.5973871734
 21
48.6684085511
 31
0.0
  0
LINE
  5
8D
330
1F
100
AcDbEntity
  8
0
  6
Continuous
 62
     7
370
    15
100
AcDbLine
 10
652.5973871026
 20
42.6684085511
 30
0.0
 11
599.5973871734
 21
42.6684085511
 31
0.0
  0
LINE
  5
8E
330
1F
100
AcDbEntity
  8
0
  6
Continuous
 62
     7
370
    15
100
AcDbLine
 10
378.5973871734
 20
42.6684085511
 30
0.0
 11
325.5973871734
 21
42.6684085511
 31
0.0
  0
LINE
  5
8F
330
1F
100
AcDbEntity
  8
0
  6
Continuous
 62
     7
370
    15
100
AcDbLine
 10
380.5973871734
 20
48.6684085511
 30
0.0
 11
323.5973871734
 21
48.6684085511
 31
0.0
  0
LINE
  5
90
330
1F
100
AcDbEntity
  8
0
  6
Continuous
 62
     7
370
    15
100
AcDbLine
 10
387.0973871734
 20
210.6684085511
 30
0.0
 11
387.0973871734
 21
212.3684085511
 31
0.0
  0
LINE
  5
91
330
1F
100
AcDbEntity
  8
0
  6
Continuous
 62
     7
370
    15
100
AcDbLine
 10
317.0973871734
 20
210.6684085511
 30
0.0
 11
317.0973871734
 21
212.3684085511
 31
0.0
  0
LINE
  5
92
330
1F
100
AcDbEntity
  8
0
  6
Continuous
 62
     7
370
    15
100
AcDbLine
 10
317.0973871734
 20
210.6684085511
 30
0.0
 11
387.0973871734
 21
210.6684085511
 31
0.0
  0
LINE
  5
93
330
1F
100
AcDbEntity
  8
0
  6
Continuous
 62
     7
370
    15
100
AcDbLine
 10
383.0570373937
 20
116.6684085511
 30
0.0
 11
321.1377369531
 21
116.6684085511
 31
0.0
  0
LINE
  5
94
330
1F
100
AcDbEntity
  8
0
  6
Continuous
 62
     7
370
    15
100
AcDbLine
 10
661.0973871734
 20
210.6684085511
 30
0.0
 11
661.0973871734
 21
212.3684085511
 31
0.0
  0
LINE
  5
95
330
1F
100
AcDbEntity
  8
0
  6
Continuous
 62
     7
370
    15
100
AcDbLine
 10
591.0973871734
 20
210.6684085511
 30
0.0
 11
661.0973871734
 21
210.6684085511
 31
0.0
  0
LINE
  5
96
330
1F
100
AcDbEntity
  8
0
  6
Continuous
 62
     7
370
    15
100
AcDbLine
 10
591.0973871734
 20
210.6684085511
 30
0.0
 11
591.0973871734
 21
212.3684085511
 31
0.0
  0
LINE
  5
97
330
1F
100
AcDbEntity
  8
0
  6
Continuous
 62
     7
370
    15
100
AcDbLine
 10
657.0570373937
 20
116.6684085511
 30
0.0
 11
595.1377369531
 21
116.6684085511
 31
0.0
  0
LINE
  5
98
330
1F
100
AcDbEntity
  8
0
  6
Continuous
 62
     7
370
    15
100
AcDbLine
 10
658.5973871734
 20
242.3684085511
 30
0.0
 11
658.5973871734
 21
212.3684085511
 31
0.0
  0
LINE
  5
99
330
1F
100
AcDbEntity
  8
0
  6
Continuous
 62
     7
370
    15
100
AcDbLine
 10
655.8973871734
 20
242.3684085511
 30
0.0
 11
658.5973871734
 21
242.3684085511
 31
0.0
  0
LINE
  5
9A
330
1F
100
AcDbEntity
  8
0
  6
Continuous
 62
     7
370
    15
100
AcDbLine
 10
655.8973871734
 20
691.4684085511
 30
0.0
 11
655.8973871734
 21
242.3684085511
 31
0.0
  0
LINE
  5
9B
330
1F
100
AcDbEntity
  8
0
  6
Continuous
 62
     7
370
    15
100
AcDbLine
 10
686.5973871734
 20
691.4684085511
 30
0.0
 11
655.8973871734
 21
691.4684085511
 31
0.0
  0
ARC
  5
9C
330
1F
100
AcDbEntity
  8
0
  6
Continuous
 62
     7
370
    15
100
AcDbCircle
 10
686.5973871734
 20
689.4684085511
 30
0.0
 40
2.000000000000114
100
AcDbArc
 50
0.0
 51
90.0
  0
LINE
  5
9D
330
1F
100
AcDbEntity
  8
0
  6
Continuous
 62
     7
370
    15
100
AcDbLine
 10
688.5973871734
 20
214.6684085511
 30
0.0
 11
688.5973871734
 21
689.4684085511
 31
0.0
  0
ARC
  5
9E
330
1F
100
AcDbEntity
  8
0
  6
Continuous
 62
     7
370
    15
100
AcDbCircle
 10
686.2973871734
 20
214.6684085511
 30
0.0
 40
2.299999999999983
100
AcDbArc
 50
270.0
 51
0.0
  0
LINE
  5
9F
330
1F
100
AcDbEntity
  8
0
  6
Continuous
 62
     7
370
    15
100
AcDbLine
 10
658.5973871734
 20
212.3684085511
 30
0.0
 11
686.2973871734
 21
212.3684085511
 31
0.0
  0
CIRCLE
  5
A0
330
1F
100
AcDbEntity
  8
0
  6
Continuous
 62
     7
370
    15
100
AcDbCircle
 10
678.7973871734
 20
657.3684085511
 30
0.0
 40
3.25
  0
CIRCLE
  5
A1
330
1F
100
AcDbEntity
  8
0
  6
Continuous
 62
     7
370
    15
100
AcDbCircle
 10
678.7973871734
 20
257.3684085511
 30
0.0
 40
3.249999999999886
  0
CIRCLE
  5
A2
330
1F
100
AcDbEntity
  8
0
  6
Continuous
 62
     7
370
    15
100
AcDbCircle
 10
663.0973871734
 20
220.3684085511
 30
0.0
 40
3.249999999999886
  0
CIRCLE
  5
A3
330
1F
100
AcDbEntity
  8
0
  6
Continuous
 62
     7
370
    15
100
AcDbCircle
 10
678.7973871734
 20
632.3684085511
 30
0.0
 40
3.25
  0
CIRCLE
  5
A4
330
1F
100
AcDbEntity
  8
0
  6
Continuous
 62
     7
370
    15
100
AcDbCircle
 10
678.7973871734
 20
232.3684085511
 30
0.0
 40
3.25
  0
LINE
  5
A5
330
1F
100
AcDbEntity
  8
0
  6
Continuous
 62
     7
370
    15
100
AcDbLine
 10
653.5973871734
 20
691.4684085511
 30
0.0
 11
655.8973871734
 21
691.4684085511
 31
0.0
  0
SPLINE
  5
A6
330
1F
100
AcDbEntity
  8
0
  6
Continuous
 62
     7
370
    15
100
AcDbSpline
210
0.0
220
0.0
230
1.0
 70
     8
 71
     3
 72
    12
 73
     8
 74
     0
 42
0.00000001
 43
0.00000001
 12
1.0
 22
0.0
 32
0.0
 13
1.0
 23
0.0
 33
0.0
 40
0.0
 40
0.0
 40
0.0
 40
0.0
 40
0.2198978436629112
 40
0.4398222720281658
 40
0.6597467564610404
 40
0.8796710939937065
 40
1.0
 40
1.0
 40
1.0
 40
1.0
 10
655.8973871733963
 20
242.3684085510693
 30
0.0
 10
655.6325367312519
 20
242.4270700013735
 30
0.0
 10
655.1028038276852
 20
242.5443999938985
 30
0.0
 10
654.4012146662853
 20
242.7204206901079
 30
0.0
 10
653.880204917515
 20
242.8963606322829
 30
0.0
 10
653.6286495399413
 20
243.0460256008537
 30
0.0
 10
653.6055545901519
 20
243.136435521876
 30
0.0
 10
653.5973871733963
 20
243.1684085510692
 30
0.0
  0
LINE
  5
A7
330
1F
100
AcDbEntity
  8
0
  6
Continuous
 62
     7
370
    15
100
AcDbLine
 10
653.5973871734
 20
243.1684085511
 30
0.0
 11
653.5973871734
 21
691.4684085511
 31
0.0
  0
LINE
  5
A8
330
1F
100
AcDbEntity
  8
0
  6
Continuous
 62
     7
370
    15
100
AcDbLine
 10
665.69738717
 20
872.9582393289
 30
0.0
 11
665.69738717
 21
873.0189340852
 31
0.0
  0
LINE
  5
A9
330
1F
100
AcDbEntity
  8
0
  6
Continuous
 62
     7
370
    15
100
AcDbLine
 10
655.0275739578
 20
692.3684085511
 30
0.0
 11
654.668659107
 21
691.8558250223
 31
0.0
  0
LINE
  5
AA
330
1F
100
AcDbEntity
  8
0
  6
Continuous
 62
     7
370
    15
100
AcDbLine
 10
654.668659107
 20
691.8558250223
 30
0.0
 11
654.0133374715
 21
692.3146861714
 31
0.0
  0
LINE
  5
AB
330
1F
100
AcDbEntity
  8
0
  6
Continuous
 62
     7
370
    15
100
AcDbLine
 10
654.0509542868
 20
692.3684085511
 30
0.0
 11
654.0133374715
 21
692.3146861714
 31
0.0
  0
ARC
  5
AC
330
1F
100
AcDbEntity
  8
0
  6
Continuous
 62
     7
370
    15
100
AcDbCircle
 10
655.8973871734
 20
690.9954603678
 30
0.0
 40
2.300000000000027
100
AcDbArc
 50
145.0
 51
168.1336396604
  0
ARC
  5
AD
330
1F
100
AcDbEntity
  8
0
  6
Continuous
 62
     7
370
    15
100
AcDbCircle
 10
655.8973871734
 20
690.9954603678
 30
0.0
 40
1.500000000000024
100
AcDbArc
 50
145.0
 51
161.6211476572
  0
LINE
  5
AE
330
1F
100
AcDbEntity
  8
0
  6
Continuous
 62
     7
370
    15
100
AcDbLine
 10
658.5973871734
 20
212.3684085511
 30
0.0
 11
319.5973871734
 21
212.3684085511
 31
0.0
  0
LINE
  5
AF
330
1F
100
AcDbEntity
  8
0
  6
Continuous
 62
     7
370
    15
100
AcDbLine
 10
319.5973871734
 20
240.0684085511
 30
0.0
 11
658.5973871734
 21
240.0684085511
 31
0.0
  0
LINE
  5
B0
330
1F
100
AcDbEntity
  8
0
  6
Continuous
 62
     7
370
    15
100
AcDbLine
 10
322.2973871734
 20
242.3684085511
 30
0.0
 11
655.8973871734
 21
242.3684085511
 31
0.0
  0
ARC
  5
B1
330
1F
100
AcDbEntity
  8
0
  6
Continuous
 62
     7
370
    15
100
AcDbCircle
 10
291.5973871734
 20
689.4684085511
 30
0.0
 40
2.000000000000114
100
AcDbArc
 50
90.0
 51
180.0
  0
LINE
  5
B2
330
1F
100
AcDbEntity
  8
0
  6
Continuous
 62
     7
370
    15
100
AcDbLine
 10
291.5973871734
 20
691.4684085511
 30
0.0
 11
322.2973871734
 21
691.4684085511
 31
0.0
  0
LINE
  5
B3
330
1F
100
AcDbEntity
  8
0
  6
Continuous
 62
     7
370
    15
100
AcDbLine
 10
322.2973871734
 20
691.4684085511
 30
0.0
 11
322.2973871734
 21
242.3684085511
 31
0.0
  0
LINE
  5
B4
330
1F
100
AcDbEntity
  8
0
  6
Continuous
 62
     7
370
    15
100
AcDbLine
 10
322.2973871734
 20
242.3684085511
 30
0.0
 11
319.5973871734
 21
242.3684085511
 31
0.0
  0
LINE
  5
B5
330
1F
100
AcDbEntity
  8
0
  6
Continuous
 62
     7
370
    15
100
AcDbLine
 10
319.5973871734
 20
242.3684085511
 30
0.0
 11
319.5973871734
 21
212.3684085511
 31
0.0
  0
LINE
  5
B6
330
1F
100
AcDbEntity
  8
0
  6
Continuous
 62
     7
370
    15
100
AcDbLine
 10
319.5973871734
 20
212.3684085511
 30
0.0
 11
291.8973871734
 21
212.3684085511
 31
0.0
  0
ARC
  5
B7
330
1F
100
AcDbEntity
  8
0
  6
Continuous
 62
     7
370
    15
100
AcDbCircle
 10
291.8973871734
 20
214.6684085511
 30
0.0
 40
2.299999999999955
100
AcDbArc
 50
180.0
 51
270.0
  0
CIRCLE
  5
B8
330
1F
100
AcDbEntity
  8
0
  6
Continuous
 62
     7
370
    15
100
AcDbCircle
 10
315.0973871734
 20
220.3684085511
 30
0.0
 40
3.25
  0
CIRCLE
  5
B9
330
1F
100
AcDbEntity
  8
0
  6
Continuous
 62
     7
370
    15
100
AcDbCircle
 10
299.3973871734
 20
632.3684085511
 30
0.0
 40
3.250000000000057
  0
CIRCLE
  5
BA
330
1F
100
AcDbEntity
  8
0
  6
Continuous
 62
     7
370
    15
100
AcDbCircle
 10
299.3973871734
 20
232.3684085511
 30
0.0
 40
3.250000000000057
  0
CIRCLE
  5
BB
330
1F
100
AcDbEntity
  8
0
  6
Continuous
 62
     7
370
    15
100
AcDbCircle
 10
299.3973871734
 20
657.3684085511
 30
0.0
 40
3.250000000000057
  0
CIRCLE
  5
BC
330
1F
100
AcDbEntity
  8
0
  6
Continuous
 62
     7
370
    15
100
AcDbCircle
 10
299.3973871734
 20
257.3684085511
 30
0.0
 40
3.250000000000057
  0
LINE
  5
BD
330
1F
100
AcDbEntity
  8
0
  6
Continuous
 62
     7
370
    15
100
AcDbLine
 10
289.5973871734
 20
214.6684085511
 30
0.0
 11
289.5973871734
 21
689.4684085511
 31
0.0
  0
LINE
  5
BE
330
1F
100
AcDbEntity
  8
0
  6
Continuous
 62
     7
370
    15
100
AcDbLine
 10
324.5973871734
 20
691.4684085511
 30
0.0
 11
324.5973871734
 21
243.1684085511
 31
0.0
  0
LINE
  5
BF
330
1F
100
AcDbEntity
  8
0
  6
Continuous
 62
     7
370
    15
100
AcDbLine
 10
322.2973871734
 20
691.4684085511
 30
0.0
 11
324.5973871734
 21
691.4684085511
 31
0.0
  0
SPLINE
  5
C0
330
1F
100
AcDbEntity
  8
0
  6
Continuous
 62
     7
370
    15
100
AcDbSpline
210
0.0
220
0.0
230
1.0
 70
     8
 71
     3
 72
    12
 73
     8
 74
     0
 42
0.00000001
 43
0.00000001
 12
1.0
 22
0.0
 32
0.0
 13
1.0
 23
0.0
 33
0.0
 40
0.0
 40
0.0
 40
0.0
 40
0.0
 40
0.2198978436627587
 40
0.4398222720279972
 40
0.6597467564608939
 40
0.8796710939935907
 40
1.0
 40
1.0
 40
1.0
 40
1.0
 10
324.5973871734021
 20
243.1684085510768
 30
0.0
 10
324.5707021149268
 20
243.1097471007728
 30
0.0
 10
324.5173287718674
 20
242.9924171082478
 30
0.0
 10
324.1018093206336
 20
242.8163964120383
 30
0.0
 10
323.4928426342488
 20
242.6404564698632
 30
0.0
 10
322.8499982322833
 20
242.4907915012924
 30
0.0
 10
322.4417589955143
 20
242.40038158027
 30
0.0
 10
322.2973871734022
 20
242.3684085510768
 30
0.0
  0
LINE
  5
C1
330
1F
100
AcDbEntity
  8
0
  6
Continuous
 62
     7
370
    15
100
AcDbLine
 10
312.4973871768
 20
873.0189340852
 30
0.0
 11
312.4973871768
 21
872.9582393289
 31
0.0
  0
LINE
  5
C2
330
1F
100
AcDbEntity
  8
0
  6
Continuous
 62
     7
370
    15
100
AcDbLine
 10
323.5261152398
 20
691.8558250223
 30
0.0
 11
324.1814368753
 21
692.3146861714
 31
0.0
  0
LINE
  5
C3
330
1F
100
AcDbEntity
  8
0
  6
Continuous
 62
     7
370
    15
100
AcDbLine
 10
323.5261152398
 20
691.8558250223
 30
0.0
 11
323.167200389
 21
692.3684085511
 31
0.0
  0
LINE
  5
C4
330
1F
100
AcDbEntity
  8
0
  6
Continuous
 62
     7
370
    15
100
AcDbLine
 10
324.1814368753
 20
692.3146861714
 30
0.0
 11
324.14382006
 21
692.3684085511
 31
0.0
  0
ARC
  5
C5
330
1F
100
AcDbEntity
  8
0
  6
Continuous
 62
     7
370
    15
100
AcDbCircle
 10
322.2973871734
 20
690.9954603678
 30
0.0
 40
2.299999999999925
100
AcDbArc
 50
11.8663603396
 51
35.0
  0
ARC
  5
C6
330
1F
100
AcDbEntity
  8
0
  6
Continuous
 62
     7
370
    15
100
AcDbCircle
 10
322.2973871734
 20
690.9954603678
 30
0.0
 40
1.499999999999943
100
AcDbArc
 50
18.3788523428
 51
35.0
  0
LINE
  5
C7
330
1F
100
AcDbEntity
  8
0
  6
Continuous
 62
     7
370
    15
100
AcDbLine
 10
291.73183527
 20
692.3684085511
 30
0.0
 11
291.8973871734
 21
692.2184085511
 31
0.0
  0
LINE
  5
C8
330
1F
100
AcDbEntity
  8
0
  6
Continuous
 62
     7
370
    15
100
AcDbLine
 10
291.7917977817
 20
692.3684085511
 30
0.0
 11
291.8973871734
 21
692.2184085511
 31
0.0
  0
LINE
  5
C9
330
1F
100
AcDbEntity
  8
0
  6
Continuous
 62
     7
370
    15
100
AcDbLine
 10
289.5973871734
 20
689.4684085511
 30
0.0
 11
289.5973871734
 21
692.3684085511
 31
0.0
  0
LINE
  5
CA
330
1F
100
AcDbEntity
  8
0
  6
Continuous
 62
     7
370
    15
100
AcDbLine
 10
292.5402443163
 20
691.4684085511
 30
0.0
 11
291.8973871734
 21
692.2184085511
 31
0.0
  0
LINE
  5
CB
330
1F
100
AcDbEntity
  8
0
  6
Continuous
 62
     7
370
    15
100
AcDbLine
 10
686.2973871734
 20
692.2184085511
 30
0.0
 11
686.4584595883
 21
692.3684085511
 31
0.0
  0
LINE
  5
CC
330
1F
100
AcDbEntity
  8
0
  6
Continuous
 62
     7
370
    15
100
AcDbLine
 10
686.2973871734
 20
692.2184085511
 30
0.0
 11
686.404681658
 21
692.3684085511
 31
0.0
  0
LINE
  5
CD
330
1F
100
AcDbEntity
  8
0
  6
Continuous
 62
     7
370
    15
100
AcDbLine
 10
688.5973871734
 20
692.3684085511
 30
0.0
 11
688.5973871734
 21
689.4684085511
 31
0.0
  0
LINE
  5
CE
330
1F
100
AcDbEntity
  8
0
  6
Continuous
 62
     7
370
    15
100
AcDbLine
 10
685.6545300305
 20
691.4684085511
 30
0.0
 11
686.2973871734
 21
692.2184085511
 31
0.0
  0
CIRCLE
  5
CF
330
1F
100
AcDbEntity
  8
0
  6
Continuous
 62
     7
370
    15
100
AcDbCircle
 10
315.0973871734
 20
220.3684085511
 30
0.0
 40
2.099999999999966
  0
CIRCLE
  5
D0
330
1F
100
AcDbEntity
  8
0
  6
Continuous
 62
     7
370
    15
100
AcDbCircle
 10
663.0973871734
 20
220.3684085511
 30
0.0
 40
2.100000000000023
  0
SPLINE
  5
D1
330
1F
100
AcDbEntity
  8
0
  6
Continuous
 62
     7
370
    15
100
AcDbSpline
210
0.0
220
0.0
230
1.0
 70
     8
 71
     3
 72
    12
 73
     8
 74
     0
 42
0.00000001
 43
0.00000001
 12
1.0
 22
0.0
 32
0.0
 13
1.0
 23
0.0
 33
0.0
 40
0.0
 40
0.0
 40
0.0
 40
0.0
 40
0.2028202020467078
 40
0.4049472449427052
 40
0.6098312030740897
 40
0.8226939241827105
 40
1.0
 40
1.0
 40
1.0
 40
1.0
 10
437.8247570780678
 20
200.5184085510689
 30
0.0
 10
437.8196938767715
 20
200.6755493916044
 30
0.0
 10
437.8095847781962
 20
200.9892940274969
 30
0.0
 10
437.7308577939663
 20
201.4096902779662
 30
0.0
 10
437.6131552813364
 20
201.736768813406
 30
0.0
 10
437.470597861877
 20
201.9349780796719
 30
0.0
 10
437.3684761398363
 20
201.9579632855938
 30
0.0
 10
437.3220685287372
 20
201.9684085510687
 30
0.0
  0
LINE
  5
D2
330
1F
100
AcDbEntity
  8
0
  6
Continuous
 62
     7
370
    15
100
AcDbLine
 10
437.8247570781
 20
200.5184085511
 30
0.0
 11
431.9307159487
 21
200.5184085511
 31
0.0
  0
SPLINE
  5
D3
330
1F
100
AcDbEntity
  8
0
  6
Continuous
 62
     7
370
    15
100
AcDbSpline
210
0.0
220
0.0
230
1.0
 70
     8
 71
     3
 72
    12
 73
     8
 74
     0
 42
0.00000001
 43
0.00000001
 12
1.0
 22
0.0
 32
0.0
 13
1.0
 23
0.0
 33
0.0
 40
0.0
 40
0.0
 40
0.0
 40
0.0
 40
0.2289440738515826
 40
0.4594214300241357
 40
0.6825355698157625
 40
0.8947175231628791
 40
1.0
 40
1.0
 40
1.0
 40
1.0
 10
431.5724891917898
 20
201.9684085510687
 30
0.0
 10
431.6137594256413
 20
201.9510740664911
 30
0.0
 10
431.6965762880064
 20
201.9162890049719
 30
0.0
 10
431.8084103321602
 20
201.6424191591597
 30
0.0
 10
431.8897471749411
 20
201.2453826246767
 30
0.0
 10
431.9265471285722
 20
200.844506635324
 30
0.0
 10
431.9296777301104
 20
200.5996212422369
 30
0.0
 10
431.9307159487346
 20
200.5184085510687
 30
0.0
  0
LINE
  5
D4
330
1F
100
AcDbEntity
  8
0
  6
Continuous
 62
     7
370
    15
100
AcDbLine
 10
431.5724891918
 20
201.9684085511
 30
0.0
 11
437.3220685287
 21
201.9684085511
 31
0.0
  0
LINE
  5
D5
330
1F
100
AcDbEntity
  8
0
  6
Continuous
 62
     7
370
    15
100
AcDbLine
 10
437.6843803647
 20
195.1684085511
 30
0.0
 11
431.9348010278
 21
195.1684085511
 31
0.0
  0
ARC
  5
D6
330
1F
100
AcDbEntity
  8
0
  6
Continuous
 62
     7
370
    15
100
AcDbCircle
 10
435.7586751549
 20
195.3559252389
 30
0.0
 40
3.828469125905931
100
AcDbArc
 50
179.0648510125
 51
182.8074446632
  0
LINE
  5
D7
330
1F
100
AcDbEntity
  8
0
  6
Continuous
 62
     7
370
    15
100
AcDbLine
 10
431.9307159487
 20
195.4184085511
 30
0.0
 11
437.8247570781
 21
195.4184085511
 31
0.0
  0
LWPOLYLINE
  5
D8
330
1F
100
AcDbEntity
  8
0
  6
Continuous
 62
     7
370
    15
100
AcDbPolyline
 90
        9
 70
   128
 43
0.0
 10
437.6843803647
 20
195.1684085511
 10
437.7117665029
 20
195.173212231
 10
437.7381002072
 20
195.1874386679
 10
437.7623694881
 20
195.210541148
 10
437.7836416906
 20
195.2416318558
 10
437.8010993361
 20
195.2795159928
 10
437.814071537
 20
195.322737693
 10
437.8220597789
 20
195.3696359706
 10
437.8247570781
 20
195.4184085511
  0
LINE
  5
D9
330
1F
100
AcDbEntity
  8
0
  6
Continuous
 62
     7
370
    15
100
AcDbLine
 10
437.8247570781
 20
195.4184085511
 30
0.0
 11
437.8247570781
 21
200.5184085511
 31
0.0
  0
LINE
  5
DA
330
1F
100
AcDbEntity
  8
0
  6
Continuous
 62
     7
370
    15
100
AcDbLine
 10
431.9307159487
 20
200.5184085511
 30
0.0
 11
431.9307159487
 21
195.4184085511
 31
0.0
  0
LINE
  5
DB
330
1F
100
AcDbEntity
  8
0
  6
Continuous
 62
     7
370
    15
100
AcDbLine
 10
431.9307159487
 20
200.5184085511
 30
0.0
 11
431.6952352221
 21
200.5184085511
 31
0.0
  0
SPLINE
  5
DC
330
1F
100
AcDbEntity
  8
0
  6
Continuous
 62
     7
370
    15
100
AcDbSpline
210
0.0
220
0.0
230
1.0
 70
     8
 71
     3
 72
    12
 73
     8
 74
     0
 42
0.00000001
 43
0.00000001
 12
1.0
 22
0.0
 32
0.0
 13
1.0
 23
0.0
 33
0.0
 40
0.0
 40
0.0
 40
0.0
 40
0.0
 40
0.1044203826439061
 40
0.315173103097991
 40
0.5377472974585944
 40
0.769028349473453
 40
1.0
 40
1.0
 40
1.0
 40
1.0
 10
431.6952352220643
 20
200.5184085510687
 30
0.0
 10
431.694211968395
 20
200.5856281197053
 30
0.0
 10
431.6911234714362
 20
200.7885176274783
 30
0.0
 10
431.6547302357678
 20
201.1208749926433
 30
0.0
 10
431.5736801943878
 20
201.4495197808969
 30
0.0
 10
431.4610172067308
 20
201.675581493773
 30
0.0
 10
431.3756022692562
 20
201.7041392368604
 30
0.0
 10
431.3329233860833
 20
201.7184085510687
 30
0.0
  0
ARC
  5
DD
330
1F
100
AcDbEntity
  8
0
  6
Continuous
 62
     7
370
    15
100
AcDbCircle
 10
431.5778199032
 20
201.7235167758
 30
0.0
 40
0.2449497868476473
100
AcDbArc
 50
91.2469959079
 51
181.1949426056
  0
ARC
  5
DE
330
1F
100
AcDbEntity
  8
0
  6
Continuous
 62
     7
370
    15
100
AcDbCircle
 10
431.9401317392
 20
195.4133003263
 30
0.0
 40
0.2449497868470364
100
AcDbArc
 50
178.8050573942
 51
268.7530040922
  0
LINE
  5
DF
330
1F
100
AcDbEntity
  8
0
  6
Continuous
 62
     7
370
    15
100
AcDbLine
 10
431.9307159487
 20
195.4184085511
 30
0.0
 11
431.6952352221
 21
195.4184085511
 31
0.0
  0
LINE
  5
E0
330
1F
100
AcDbEntity
  8
0
  6
Continuous
 62
     7
370
    15
100
AcDbLine
 10
431.6952352221
 20
195.4184085511
 30
0.0
 11
431.6952352221
 21
200.5184085511
 31
0.0
  0
SPLINE
  5
E1
330
1F
100
AcDbEntity
  8
0
  6
Continuous
 62
     7
370
    15
100
AcDbSpline
210
0.0
220
0.0
230
1.0
 70
     8
 71
     3
 72
    13
 73
     9
 74
     0
 42
0.00000001
 43
0.00000001
 12
1.0
 22
0.0
 32
0.0
 13
1.0
 23
0.0
 33
0.0
 40
0.0
 40
0.0
 40
0.0
 40
0.0
 40
0.0075462231153519
 40
0.2722763788511826
 40
0.481519541573286
 40
0.6613541616922021
 40
0.8304588949397863
 40
1.0
 40
1.0
 40
1.0
 40
1.0
 10
431.4809721208293
 20
201.9684085510684
 30
0.0
 10
431.4802892203472
 20
201.9684053670259
 30
0.0
 10
431.4556493882741
 20
201.9682904831228
 30
0.0
 10
431.4116683995334
 20
201.9567048235104
 30
0.0
 10
431.3576096609165
 20
201.9139860442384
 30
0.0
 10
431.3200199557476
 20
201.858314441134
 30
0.0
 10
431.2951118206847
 20
201.7921786477535
 30
0.0
 10
431.2918313050449
 20
201.7430196983551
 30
0.0
 10
431.2901889336238
 20
201.7184085510685
 30
0.0
  0
LINE
  5
E2
330
1F
100
AcDbEntity
  8
0
  6
Continuous
 62
     7
370
    15
100
AcDbLine
 10
424.4806538041
 20
201.9684085511
 30
0.0
 11
431.4809721208
 21
201.9684085511
 31
0.0
  0
SPLINE
  5
E3
330
1F
100
AcDbEntity
  8
0
  6
Continuous
 62
     7
370
    15
100
AcDbSpline
210
0.0
220
0.0
230
1.0
 70
     8
 71
     3
 72
    13
 73
     9
 74
     0
 42
0.00000001
 43
0.00000001
 12
1.0
 22
0.0
 32
0.0
 13
1.0
 23
0.0
 33
0.0
 40
0.0
 40
0.0
 40
0.0
 40
0.0
 40
0.1695411050602501
 40
0.3386458383075554
 40
0.5184804584264386
 40
0.7277236211482864
 40
0.9924537768849396
 40
1.0
 40
1.0
 40
1.0
 40
1.0
 10
431.2901889336237
 20
201.0184085510685
 30
0.0
 10
431.2918313050449
 20
200.9937974037818
 30
0.0
 10
431.2951118206847
 20
200.9446384543835
 30
0.0
 10
431.3200199557476
 20
200.8785026610029
 30
0.0
 10
431.3576096609165
 20
200.8228310578986
 30
0.0
 10
431.4116683995331
 20
200.7801122786264
 30
0.0
 10
431.4556493882744
 20
200.768526619014
 30
0.0
 10
431.4802892203473
 20
200.768411735111
 30
0.0
 10
431.4809721208293
 20
200.7684085510685
 30
0.0
  0
LINE
  5
E4
330
1F
100
AcDbEntity
  8
0
  6
Continuous
 62
     7
370
    15
100
AcDbLine
 10
431.4809721208
 20
200.7684085511
 30
0.0
 11
425.0599480083
 21
200.7684085511
 31
0.0
  0
LINE
  5
E5
330
1F
100
AcDbEntity
  8
0
  6
Continuous
 62
     7
370
    15
100
AcDbLine
 10
424.7478044655
 20
200.7684085511
 30
0.0
 11
424.5693215589
 21
200.7684085511
 31
0.0
  0
LINE
  5
E6
330
1F
100
AcDbEntity
  8
0
  6
Continuous
 62
     7
370
    15
100
AcDbLine
 10
431.2901889336
 20
201.0184085511
 30
0.0
 11
431.2901889336
 21
201.7184085511
 31
0.0
  0
LINE
  5
E7
330
1F
100
AcDbEntity
  8
0
  6
Continuous
 62
     7
370
    15
100
AcDbLine
 10
431.3329233861
 20
201.7184085511
 30
0.0
 11
431.2901889336
 21
201.7184085511
 31
0.0
  0
LINE
  5
E8
330
1F
100
AcDbEntity
  8
0
  6
Continuous
 62
     7
370
    15
100
AcDbLine
 10
431.4845463008
 20
195.4184085511
 30
0.0
 11
431.6952352221
 21
195.4184085511
 31
0.0
  0
LINE
  5
E9
330
1F
100
AcDbEntity
  8
0
  6
Continuous
 62
     7
370
    15
100
AcDbLine
 10
431.4845463008
 20
200.5184085511
 30
0.0
 11
431.4845463008
 21
195.4184085511
 31
0.0
  0
SPLINE
  5
EA
330
1F
100
AcDbEntity
  8
0
  6
Continuous
 62
     7
370
    15
100
AcDbSpline
210
0.0
220
0.0
230
1.0
 70
     8
 71
     3
 72
    12
 73
     8
 74
     0
 42
0.00000001
 43
0.00000001
 12
1.0
 22
0.0
 32
0.0
 13
1.0
 23
0.0
 33
0.0
 40
0.0
 40
0.0
 40
0.0
 40
0.0
 40
0.1009214352040013
 40
0.3119724040343186
 40
0.5359629038280027
 40
0.7681188099357046
 40
1.0
 40
1.0
 40
1.0
 40
1.0
 10
431.4845463008212
 20
200.5184085510687
 30
0.0
 10
431.4841426091512
 20
200.5455295097409
 30
0.0
 10
431.4828947012065
 20
200.6293669091947
 30
0.0
 10
431.4678426909291
 20
200.7678381115793
 30
0.0
 10
431.4338521470105
 20
200.905559649548
 30
0.0
 10
431.3866049081118
 20
201.0003610968594
 30
0.0
 10
431.3508101631068
 20
201.012395107763
 30
0.0
 10
431.3329233860833
 20
201.0184085510687
 30
0.0
  0
LINE
  5
EB
330
1F
100
AcDbEntity
  8
0
  6
Continuous
 62
     7
370
    15
100
AcDbLine
 10
431.2901889336
 20
201.0184085511
 30
0.0
 11
431.3329233861
 21
201.0184085511
 31
0.0
  0
ARC
  5
EC
330
1F
100
AcDbEntity
  8
0
  6
Continuous
 62
     7
370
    15
100
AcDbCircle
 10
431.729442818
 20
195.4133003263
 30
0.0
 40
0.2449497868466442
100
AcDbArc
 50
178.8050573941
 51
268.7530040923
  0
LINE
  5
ED
330
1F
100
AcDbEntity
  8
0
  6
Continuous
 62
     7
370
    15
100
AcDbLine
 10
431.9348010278
 20
195.1684085511
 30
0.0
 11
431.7241121065
 21
195.1684085511
 31
0.0
  0
LINE
  5
EE
330
1F
100
AcDbEntity
  8
0
  6
Continuous
 62
     7
370
    15
100
AcDbLine
 10
431.4809721208
 20
201.9684085511
 30
0.0
 11
431.5724891918
 21
201.9684085511
 31
0.0
  0
LINE
  5
EF
330
1F
100
AcDbEntity
  8
0
  6
Continuous
 62
     7
370
    15
100
AcDbLine
 10
437.9343803647
 20
200.5184085511
 30
0.0
 11
437.8247570781
 21
200.5184085511
 31
0.0
  0
LINE
  5
F0
330
1F
100
AcDbEntity
  8
0
  6
Continuous
 62
     7
370
    15
100
AcDbLine
 10
437.2305514578
 20
201.9684085511
 30
0.0
 11
440.5473871734
 21
201.9684085511
 31
0.0
  0
LINE
  5
F1
330
1F
100
AcDbEntity
  8
0
  6
Continuous
 62
     7
370
    15
100
AcDbLine
 10
440.4655340081
 20
200.7684085511
 30
0.0
 11
437.8991095222
 21
200.7684085511
 31
0.0
  0
LINE
  5
F2
330
1F
100
AcDbEntity
  8
0
  6
Continuous
 62
     7
370
    15
100
AcDbLine
 10
440.4655340081
 20
199.5684085511
 30
0.0
 11
437.9343803647
 21
199.5684085511
 31
0.0
  0
LINE
  5
F3
330
1F
100
AcDbEntity
  8
0
  6
Continuous
 62
     7
370
    15
100
AcDbLine
 10
431.4741121065
 20
199.5684085511
 30
0.0
 11
425.0599480083
 21
199.5684085511
 31
0.0
  0
SPLINE
  5
F4
330
1F
100
AcDbEntity
  8
0
  6
Continuous
 62
     7
370
    15
100
AcDbSpline
210
0.0
220
0.0
230
1.0
 70
     8
 71
     3
 72
    13
 73
     9
 74
     0
 42
0.00000001
 43
0.00000001
 12
1.0
 22
0.0
 32
0.0
 13
1.0
 23
0.0
 33
0.0
 40
0.0
 40
0.0
 40
0.0
 40
0.0
 40
0.0075462231153632
 40
0.2722763788511897
 40
0.4815195415732958
 40
0.6613541616922051
 40
0.8304588949397866
 40
1.0
 40
1.0
 40
1.0
 40
1.0
 10
425.0599480083112
 20
199.5684085510689
 30
0.0
 10
425.0595434069795
 20
199.5684117351114
 30
0.0
 10
425.044944927212
 20
199.5685266190145
 30
0.0
 10
425.0190899826548
 20
199.5801122786269
 30
0.0
 10
424.9877034830131
 20
199.622831057899
 30
0.0
 10
424.9660651767877
 20
199.6785026610033
 30
0.0
 10
424.9518153775795
 20
199.7446384543838
 30
0.0
 10
424.9499445578984
 20
199.7937974037822
 30
0.0
 10
424.9490079427088
 20
199.8184085510689
 30
0.0
  0
SPLINE
  5
F5
330
1F
100
AcDbEntity
  8
0
  6
Continuous
 62
     7
370
    15
100
AcDbSpline
210
0.0
220
0.0
230
1.0
 70
     8
 71
     3
 72
    13
 73
     9
 74
     0
 42
0.00000001
 43
0.00000001
 12
1.0
 22
0.0
 32
0.0
 13
1.0
 23
0.0
 33
0.0
 40
0.0
 40
0.0
 40
0.0
 40
0.0
 40
0.0075462231144719
 40
0.272276378851371
 40
0.4815195415730086
 40
0.6613541616925225
 40
0.8304588949399293
 40
1.0
 40
1.0
 40
1.0
 40
1.0
 10
440.4655340080706
 20
199.5684085510689
 30
0.0
 10
440.4663366351633
 20
199.5684117351114
 30
0.0
 10
440.4952963405788
 20
199.5685266190145
 30
0.0
 10
440.5467559157225
 20
199.5801122786267
 30
0.0
 10
440.6095568683165
 20
199.6228310578993
 30
0.0
 10
440.6530120716542
 20
199.6785026610033
 30
0.0
 10
440.6817055662809
 20
199.7446384543838
 30
0.0
 10
440.685477821459
 20
199.7937974037822
 30
0.0
 10
440.6873663794718
 20
199.8184085510689
 30
0.0
  0
SPLINE
  5
F6
330
1F
100
AcDbEntity
  8
0
  6
Continuous
 62
     7
370
    15
100
AcDbSpline
210
0.0
220
0.0
230
1.0
 70
     8
 71
     3
 72
    13
 73
     9
 74
     0
 42
0.00000001
 43
0.00000001
 12
1.0
 22
0.0
 32
0.0
 13
1.0
 23
0.0
 33
0.0
 40
0.0
 40
0.0
 40
0.0
 40
0.0
 40
0.1695411050602455
 40
0.3386458383075516
 40
0.5184804584264273
 40
0.7277236211482828
 40
0.992453776884922
 40
0.9999999999999999
 40
0.9999999999999999
 40
0.9999999999999999
 40
0.9999999999999999
 10
424.9490079427089
 20
200.5184085510689
 30
0.0
 10
424.9499445578986
 20
200.5430196983555
 30
0.0
 10
424.9518153775798
 20
200.5921786477539
 30
0.0
 10
424.9660651767877
 20
200.6583144411345
 30
0.0
 10
424.987703483013
 20
200.7139860442387
 30
0.0
 10
425.0190899826551
 20
200.7567048235109
 30
0.0
 10
425.0449449272117
 20
200.7682904831234
 30
0.0
 10
425.0595434069796
 20
200.7684053670263
 30
0.0
 10
425.0599480083113
 20
200.7684085510689
 30
0.0
  0
LINE
  5
F7
330
1F
100
AcDbEntity
  8
0
  6
Continuous
 62
     7
370
    15
100
AcDbLine
 10
437.921710627
 20
200.7684085511
 30
0.0
 11
440.4655340081
 21
200.7684085511
 31
0.0
  0
SPLINE
  5
F8
330
1F
100
AcDbEntity
  8
0
  6
Continuous
 62
     7
370
    15
100
AcDbSpline
210
0.0
220
0.0
230
1.0
 70
     8
 71
     3
 72
    13
 73
     9
 74
     0
 42
0.00000001
 43
0.00000001
 12
1.0
 22
0.0
 32
0.0
 13
1.0
 23
0.0
 33
0.0
 40
0.0
 40
0.0
 40
0.0
 40
0.0
 40
0.1695411050600433
 40
0.3386458383077506
 40
0.5184804584270883
 40
0.7277236211487658
 40
0.9924537768853836
 40
1.0
 40
1.0
 40
1.0
 40
1.0
 10
440.6873663794719
 20
200.5184085510689
 30
0.0
 10
440.6854778214591
 20
200.5430196983555
 30
0.0
 10
440.6817055662812
 20
200.592178647754
 30
0.0
 10
440.6530120716542
 20
200.6583144411345
 30
0.0
 10
440.6095568683168
 20
200.7139860442386
 30
0.0
 10
440.546755915722
 20
200.7567048235111
 30
0.0
 10
440.4952963405802
 20
200.7682904831233
 30
0.0
 10
440.4663366351633
 20
200.7684053670263
 30
0.0
 10
440.4655340080706
 20
200.7684085510689
 30
0.0
  0
LINE
  5
F9
330
1F
100
AcDbEntity
  8
0
  6
Continuous
 62
     7
370
    15
100
AcDbLine
 10
424.9490079427
 20
200.5184085511
 30
0.0
 11
424.9490079427
 21
199.8184085511
 31
0.0
  0
LINE
  5
FA
330
1F
100
AcDbEntity
  8
0
  6
Continuous
 62
     7
370
    15
100
AcDbLine
 10
440.6873663795
 20
200.5184085511
 30
0.0
 11
440.6873663795
 21
199.8184085511
 31
0.0
  0
SPLINE
  5
FB
330
1F
100
AcDbEntity
  8
0
  6
Continuous
 62
     7
370
    15
100
AcDbSpline
210
0.0
220
0.0
230
1.0
 70
     8
 71
     3
 72
    12
 73
     8
 74
     0
 42
0.00000001
 43
0.00000001
 12
1.0
 22
0.0
 32
0.0
 13
1.0
 23
0.0
 33
0.0
 40
0.0
 40
0.0
 40
0.0
 40
0.0
 40
0.228944073851584
 40
0.4594214300241338
 40
0.6825355698157624
 40
0.8947175231628788
 40
1.0
 40
1.0
 40
1.0
 40
1.0
 10
424.7478044655186
 20
199.5684085510687
 30
0.0
 10
424.5773116899385
 20
199.5857430356463
 30
0.0
 10
424.2351843159995
 20
199.6205280971654
 30
0.0
 10
423.7837363066254
 20
199.8943979429776
 30
0.0
 10
423.4587750629929
 20
200.2914344774607
 30
0.0
 10
423.3128572625244
 20
200.6923104668134
 30
0.0
 10
423.3004463831447
 20
200.9371958599004
 30
0.0
 10
423.2963304948858
 20
201.0184085510686
 30
0.0
  0
LINE
  5
FC
330
1F
100
AcDbEntity
  8
0
  6
Continuous
 62
     7
370
    15
100
AcDbLine
 10
424.7478044655
 20
199.5684085511
 30
0.0
 11
423.3473871734
 21
199.5684085511
 31
0.0
  0
LINE
  5
FD
330
1F
100
AcDbEntity
  8
0
  6
Continuous
 62
     7
370
    15
100
AcDbLine
 10
423.2963304949
 20
201.0184085511
 30
0.0
 11
423.5674888213
 21
201.0184085511
 31
0.0
  0
SPLINE
  5
FE
330
1F
100
AcDbEntity
  8
0
  6
Continuous
 62
     7
370
    15
100
AcDbSpline
210
0.0
220
0.0
230
1.0
 70
     8
 71
     3
 72
    12
 73
     8
 74
     0
 42
0.00000001
 43
0.00000001
 12
1.0
 22
0.0
 32
0.0
 13
1.0
 23
0.0
 33
0.0
 40
0.0
 40
0.0
 40
0.0
 40
0.0
 40
0.1044203826439056
 40
0.3151731030979903
 40
0.5377472974585931
 40
0.7690283494734537
 40
1.0
 40
1.0
 40
1.0
 40
1.0
 10
423.5674888212782
 20
201.0184085510686
 30
0.0
 10
423.5709789026607
 20
200.951188982432
 30
0.0
 10
423.5815130507987
 20
200.748299474659
 30
0.0
 10
423.7056419526096
 20
200.4159421094941
 30
0.0
 10
423.982084880627
 20
200.0872973212405
 30
0.0
 10
424.3663522499804
 20
199.8612356083644
 30
0.0
 10
424.6576828281009
 20
199.832677865277
 30
0.0
 10
424.8032506184186
 20
199.8184085510686
 30
0.0
  0
ARC
  5
FF
330
1F
100
AcDbEntity
  8
0
  6
Continuous
 62
     7
370
    15
100
AcDbCircle
 10
424.47986106
 20
199.7589828269
 30
0.0
 40
0.328804232333316
100
AcDbArc
 50
324.5777268432
 51
10.4124488135
  0
LINE
  5
100
330
1F
100
AcDbEntity
  8
0
  6
Continuous
 62
     7
370
    15
100
AcDbLine
 10
423.2963304949
 20
201.0184085511
 30
0.0
 11
423.2963304949
 21
206.1184085511
 31
0.0
  0
LINE
  5
101
330
1F
100
AcDbEntity
  8
0
  6
Continuous
 62
     7
370
    15
100
AcDbLine
 10
423.2963304949
 20
206.1184085511
 30
0.0
 11
423.5674888213
 21
206.1184085511
 31
0.0
  0
LINE
  5
102
330
1F
100
AcDbEntity
  8
0
  6
Continuous
 62
     7
370
    15
100
AcDbLine
 10
423.5674888213
 20
206.1184085511
 30
0.0
 11
423.5674888213
 21
201.0184085511
 31
0.0
  0
ARC
  5
103
330
1F
100
AcDbEntity
  8
0
  6
Continuous
 62
     7
370
    15
100
AcDbCircle
 10
423.2440992628
 20
206.1778342752
 30
0.0
 40
0.3288042323309504
100
AcDbArc
 50
349.5875511863
 51
35.422273157
  0
ARC
  5
104
330
1F
100
AcDbEntity
  8
0
  6
Continuous
 62
     7
370
    15
100
AcDbCircle
 10
423.5305491091
 20
206.1343768093
 30
0.0
 40
0.2347623149369273
100
AcDbArc
 50
94.5213484738
 51
183.9002033129
  0
LINE
  5
105
330
1F
100
AcDbEntity
  8
0
  6
Continuous
 62
     7
370
    15
100
AcDbLine
 10
424.8032506184
 20
199.8184085511
 30
0.0
 11
424.9490079427
 21
199.8184085511
 31
0.0
  0
LINE
  5
106
330
1F
100
AcDbEntity
  8
0
  6
Continuous
 62
     7
370
    15
100
AcDbLine
 10
424.286099957
 20
206.1184085511
 30
0.0
 11
423.5674888213
 21
206.1184085511
 31
0.0
  0
LINE
  5
107
330
1F
100
AcDbEntity
  8
0
  6
Continuous
 62
     7
370
    15
100
AcDbLine
 10
424.286099957
 20
201.0184085511
 30
0.0
 11
424.286099957
 21
206.1184085511
 31
0.0
  0
SPLINE
  5
108
330
1F
100
AcDbEntity
  8
0
  6
Continuous
 62
     7
370
    15
100
AcDbSpline
210
0.0
220
0.0
230
1.0
 70
     8
 71
     3
 72
    12
 73
     8
 74
     0
 42
0.00000001
 43
0.00000001
 12
1.0
 22
0.0
 32
0.0
 13
1.0
 23
0.0
 33
0.0
 40
0.0
 40
0.0
 40
0.0
 40
0.0
 40
0.1009214352040009
 40
0.3119724040343178
 40
0.5359629038279944
 40
0.7681188099357127
 40
1.0
 40
1.0
 40
1.0
 40
1.0
 10
424.2860999570361
 20
201.0184085510686
 30
0.0
 10
424.2874768558676
 20
200.9912875923965
 30
0.0
 10
424.2917331809751
 20
200.9074501929426
 30
0.0
 10
424.3430721034834
 20
200.7689789905581
 30
0.0
 10
424.4590059799599
 20
200.6312574525893
 30
0.0
 10
424.6201553740809
 20
200.5364560052779
 30
0.0
 10
424.7422429627903
 20
200.5244219943744
 30
0.0
 10
424.8032506184186
 20
200.5184085510687
 30
0.0
  0
LINE
  5
109
330
1F
100
AcDbEntity
  8
0
  6
Continuous
 62
     7
370
    15
100
AcDbLine
 10
424.9490079427
 20
200.5184085511
 30
0.0
 11
424.8032506184
 21
200.5184085511
 31
0.0
  0
LINE
  5
10A
330
1F
100
AcDbEntity
  8
0
  6
Continuous
 62
     7
370
    15
100
AcDbLine
 10
423.5120426684
 20
206.3684085511
 30
0.0
 11
424.2306538041
 21
206.3684085511
 31
0.0
  0
ARC
  5
10B
330
1F
100
AcDbEntity
  8
0
  6
Continuous
 62
     7
370
    15
100
AcDbCircle
 10
423.9627103986
 20
206.1778342752
 30
0.0
 40
0.3288042323264859
100
AcDbArc
 50
349.5875511859
 51
35.4222731572
  0
LINE
  5
10C
330
1F
100
AcDbEntity
  8
0
  6
Continuous
 62
     7
370
    15
100
AcDbLine
 10
422.1473871734
 20
206.3684085511
 30
0.0
 11
423.5120426684
 21
206.3684085511
 31
0.0
  0
ARC
  5
10D
330
1F
100
AcDbEntity
  8
0
  6
Continuous
 62
     7
370
    15
100
AcDbCircle
 10
424.47986106
 20
200.5778342752
 30
0.0
 40
0.328804232332652
100
AcDbArc
 50
349.5875511864
 51
35.4222731568
  0
LINE
  5
10E
330
1F
100
AcDbEntity
  8
0
  6
Continuous
 62
     7
370
    15
100
AcDbLine
 10
425.0599480083
 20
199.5684085511
 30
0.0
 11
424.7478044655
 21
199.5684085511
 31
0.0
  0
LINE
  5
10F
330
1F
100
AcDbEntity
  8
0
  6
Continuous
 62
     7
370
    15
100
AcDbLine
 10
424.7478044655
 20
200.7684085511
 30
0.0
 11
425.0599480083
 21
200.7684085511
 31
0.0
  0
LINE
  5
110
330
1F
100
AcDbEntity
  8
0
  6
Continuous
 62
     7
370
    15
100
AcDbLine
 10
440.8331237038
 20
200.5184085511
 30
0.0
 11
440.6873663795
 21
200.5184085511
 31
0.0
  0
ARC
  5
111
330
1F
100
AcDbEntity
  8
0
  6
Continuous
 62
     7
370
    15
100
AcDbCircle
 10
440.5097341453
 20
200.5778342752
 30
0.0
 40
0.3288042323313012
100
AcDbArc
 50
349.5875511863
 51
35.4222731569
  0
LINE
  5
112
330
1F
100
AcDbEntity
  8
0
  6
Continuous
 62
     7
370
    15
100
AcDbLine
 10
440.4655340081
 20
200.7684085511
 30
0.0
 11
440.7776775509
 21
200.7684085511
 31
0.0
  0
LINE
  5
113
330
1F
100
AcDbEntity
  8
0
  6
Continuous
 62
     7
370
    15
100
AcDbLine
 10
440.6873663795
 20
199.8184085511
 30
0.0
 11
440.8331237038
 21
199.8184085511
 31
0.0
  0
ARC
  5
114
330
1F
100
AcDbEntity
  8
0
  6
Continuous
 62
     7
370
    15
100
AcDbCircle
 10
440.5097341453
 20
199.7589828269
 30
0.0
 40
0.3288042323308796
100
AcDbArc
 50
324.5777268431
 51
10.4124488138
  0
LINE
  5
115
330
1F
100
AcDbEntity
  8
0
  6
Continuous
 62
     7
370
    15
100
AcDbLine
 10
440.7776775509
 20
199.5684085511
 30
0.0
 11
440.4655340081
 21
199.5684085511
 31
0.0
  0
LINE
  5
116
330
1F
100
AcDbEntity
  8
0
  6
Continuous
 62
     7
370
    15
100
AcDbLine
 10
441.3502743651
 20
206.1184085511
 30
0.0
 11
441.3502743651
 21
201.0184085511
 31
0.0
  0
LINE
  5
117
330
1F
100
AcDbEntity
  8
0
  6
Continuous
 62
     7
370
    15
100
AcDbLine
 10
442.0688855009
 20
206.1184085511
 30
0.0
 11
441.3502743651
 21
206.1184085511
 31
0.0
  0
LINE
  5
118
330
1F
100
AcDbEntity
  8
0
  6
Continuous
 62
     7
370
    15
100
AcDbLine
 10
442.0688855009
 20
201.0184085511
 30
0.0
 11
442.0688855009
 21
206.1184085511
 31
0.0
  0
SPLINE
  5
119
330
1F
100
AcDbEntity
  8
0
  6
Continuous
 62
     7
370
    15
100
AcDbSpline
210
0.0
220
0.0
230
1.0
 70
     8
 71
     3
 72
    12
 73
     8
 74
     0
 42
0.00000001
 43
0.00000001
 12
1.0
 22
0.0
 32
0.0
 13
1.0
 23
0.0
 33
0.0
 40
0.0
 40
0.0
 40
0.0
 40
0.0
 40
0.1789601577903931
 40
0.3929009169381236
 40
0.5976976172812758
 40
0.7987833678438222
 40
1.0
 40
1.0
 40
1.0
 40
1.0
 10
440.8331237037624
 20
199.8184085510689
 30
0.0
 10
440.9457063139623
 20
199.8270205209228
 30
0.0
 10
441.1928775912174
 20
199.8459278067346
 30
0.0
 10
441.5430344890083
 20
200.0094638318866
 30
0.0
 10
441.8345611699235
 20
200.2800361436523
 30
0.0
 10
442.0309213990438
 20
200.6281662632121
 30
0.0
 10
442.056228055933
 20
200.8882995786055
 30
0.0
 10
442.0688855009026
 20
201.0184085510689
 30
0.0
  0
SPLINE
  5
11A
330
1F
100
AcDbEntity
  8
0
  6
Continuous
 62
     7
370
    15
100
AcDbSpline
210
0.0
220
0.0
230
1.0
 70
     8
 71
     3
 72
    12
 73
     8
 74
     0
 42
0.00000001
 43
0.00000001
 12
1.0
 22
0.0
 32
0.0
 13
1.0
 23
0.0
 33
0.0
 40
0.0
 40
0.0
 40
0.0
 40
0.0
 40
0.1818603118646099
 40
0.3964966430177601
 40
0.6005836871107502
 40
0.8002123703305277
 40
1.0
 40
1.0
 40
1.0
 40
1.0
 10
440.8331237037625
 20
200.5184085510689
 30
0.0
 10
440.8808915255138
 20
200.5221263026627
 30
0.0
 10
440.9850361889343
 20
200.5302318426315
 30
0.0
 10
441.1316881810429
 20
200.5993865416382
 30
0.0
 10
441.2529166422381
 20
200.7122259485919
 30
0.0
 10
441.3344816418363
 20
200.8566470493374
 30
0.0
 10
441.3450087276349
 20
200.9644737473947
 30
0.0
 10
441.3502743651443
 20
201.0184085510689
 30
0.0
  0
LINE
  5
11B
330
1F
100
AcDbEntity
  8
0
  6
Continuous
 62
     7
370
    15
100
AcDbLine
 10
442.0688855009
 20
201.0184085511
 30
0.0
 11
442.2625863876
 21
201.0184085511
 31
0.0
  0
SPLINE
  5
11C
330
1F
100
AcDbEntity
  8
0
  6
Continuous
 62
     7
370
    15
100
AcDbSpline
210
0.0
220
0.0
230
1.0
 70
     8
 71
     3
 72
    12
 73
     8
 74
     0
 42
0.00000001
 43
0.00000001
 12
1.0
 22
0.0
 32
0.0
 13
1.0
 23
0.0
 33
0.0
 40
0.0
 40
0.0
 40
0.0
 40
0.0
 40
0.2028202020467397
 40
0.4049472449426639
 40
0.6098312030740521
 40
0.8226939241827665
 40
1.0
 40
1.0
 40
1.0
 40
1.0
 10
442.2625863875659
 20
201.0184085510689
 30
0.0
 10
442.2473841477077
 20
200.8612677105335
 30
0.0
 10
442.2170316232284
 20
200.547523074641
 30
0.0
 10
441.981295563795
 20
200.1271268241715
 30
0.0
 10
441.6311018377316
 20
199.8000482887319
 30
0.0
 10
441.2102412867405
 20
199.6018390224658
 30
0.0
 10
440.9128309862539
 20
199.5788538165437
 30
0.0
 10
440.7776775508629
 20
199.5684085510689
 30
0.0
  0
SPLINE
  5
11D
330
1F
100
AcDbEntity
  8
0
  6
Continuous
 62
     7
370
    15
100
AcDbSpline
210
0.0
220
0.0
230
1.0
 70
     8
 71
     3
 72
    12
 73
     8
 74
     0
 42
0.00000001
 43
0.00000001
 12
1.0
 22
0.0
 32
0.0
 13
1.0
 23
0.0
 33
0.0
 40
0.0
 40
0.0
 40
0.0
 40
0.0
 40
0.1857269751953293
 40
0.3769257606106785
 40
0.5812231028236022
 40
0.8052780461447454
 40
1.0
 40
1.0
 40
1.0
 40
1.0
 10
441.0462487247084
 20
201.0184085510689
 30
0.0
 10
441.0434578433474
 20
200.9913014345393
 30
0.0
 10
441.0377938568495
 20
200.9362885829856
 30
0.0
 10
440.9946884904883
 20
200.8638488009292
 30
0.0
 10
440.9315513787267
 20
200.8079051907164
 30
0.0
 10
440.855858613009
 20
200.7741525442344
 30
0.0
 10
440.8024918910202
 20
200.7702316703302
 30
0.0
 10
440.7776775508629
 20
200.7684085510689
 30
0.0
  0
ARC
  5
11E
330
1F
100
AcDbEntity
  8
0
  6
Continuous
 62
     7
370
    15
100
AcDbCircle
 10
441.0268848067
 20
206.1778342752
 30
0.0
 40
0.3288042323270408
100
AcDbArc
 50
349.587551186
 51
35.4222731572
  0
LINE
  5
11F
330
1F
100
AcDbEntity
  8
0
  6
Continuous
 62
     7
370
    15
100
AcDbLine
 10
440.8473871734
 20
199.5684085511
 30
0.0
 11
440.7776775509
 21
199.5684085511
 31
0.0
  0
LINE
  5
120
330
1F
100
AcDbEntity
  8
0
  6
Continuous
 62
     7
370
    15
100
AcDbLine
 10
441.2948282122
 20
206.3684085511
 30
0.0
 11
442.013439348
 21
206.3684085511
 31
0.0
  0
ARC
  5
121
330
1F
100
AcDbEntity
  8
0
  6
Continuous
 62
     7
370
    15
100
AcDbCircle
 10
441.7454959425
 20
206.1778342752
 30
0.0
 40
0.3288042323294068
100
AcDbArc
 50
349.5875511861
 51
35.422273157
  0
LINE
  5
122
330
1F
100
AcDbEntity
  8
0
  6
Continuous
 62
     7
370
    15
100
AcDbLine
 10
442.0688855009
 20
206.1184085511
 30
0.0
 11
442.2625863876
 21
206.1184085511
 31
0.0
  0
LINE
  5
123
330
1F
100
AcDbEntity
  8
0
  6
Continuous
 62
     7
370
    15
100
AcDbLine
 10
442.2625863876
 20
206.1184085511
 30
0.0
 11
442.2625863876
 21
201.0184085511
 31
0.0
  0
ARC
  5
124
330
1F
100
AcDbEntity
  8
0
  6
Continuous
 62
     7
370
    15
100
AcDbCircle
 10
442.0130121378
 20
206.1188343037
 30
0.0
 40
0.2495746129626572
100
AcDbArc
 50
359.9022583145
 51
89.9019236932
  0
LINE
  5
125
330
1F
100
AcDbEntity
  8
0
  6
Continuous
 62
     7
370
    15
100
AcDbLine
 10
439.9641205427
 20
206.3684085511
 30
0.0
 11
441.2948282122
 21
206.3684085511
 31
0.0
  0
ARC
  5
126
330
1F
100
AcDbEntity
  8
0
  6
Continuous
 62
     7
370
    15
100
AcDbCircle
 10
439.9844567818
 20
206.1357036614
 30
0.0
 40
0.2335917983990594
100
AcDbArc
 50
94.9944286969
 51
184.2460585012
  0
LINE
  5
127
330
1F
100
AcDbEntity
  8
0
  6
Continuous
 62
     7
370
    15
100
AcDbLine
 10
442.013439348
 20
206.3684085511
 30
0.0
 11
442.0473871734
 21
206.3684085511
 31
0.0
  0
LINE
  5
128
330
1F
100
AcDbEntity
  8
0
  6
Continuous
 62
     7
370
    15
100
AcDbLine
 10
426.3372373418
 20
199.1218265637
 30
0.0
 11
427.9472052548
 21
199.5684085511
 31
0.0
  0
SPLINE
  5
129
330
1F
100
AcDbEntity
  8
0
  6
Continuous
 62
     7
370
    15
100
AcDbSpline
210
0.0
220
0.0
230
1.0
 70
     8
 71
     3
 72
     9
 73
     5
 74
     0
 42
0.00000001
 43
0.00000001
 12
1.0
 22
0.0
 32
0.0
 13
1.0
 23
0.0
 33
0.0
 40
0.0
 40
0.0
 40
0.0
 40
0.0
 40
0.0702005767034327
 40
1.0
 40
1.0
 40
1.0
 40
1.0
 10
427.9472052547931
 20
199.5684085510687
 30
0.0
 10
427.9853710204111
 20
199.5679624348011
 30
0.0
 10
428.5290384290026
 20
199.5616075544206
 30
0.0
 10
429.0618060971662
 20
199.3337180725252
 30
0.0
 10
429.5571731677758
 20
199.1218265636835
 30
0.0
  0
LINE
  5
12A
330
1F
100
AcDbEntity
  8
0
  6
Continuous
 62
     7
370
    15
100
AcDbLine
 10
429.5571731678
 20
199.1218265637
 30
0.0
 11
429.5571731678
 21
194.8149905385
 31
0.0
  0
SPLINE
  5
12B
330
1F
100
AcDbEntity
  8
0
  6
Continuous
 62
     7
370
    15
100
AcDbSpline
210
0.0
220
0.0
230
1.0
 70
     8
 71
     3
 72
     9
 73
     5
 74
     0
 42
0.00000001
 43
0.00000001
 12
1.0
 22
0.0
 32
0.0
 13
1.0
 23
0.0
 33
0.0
 40
0.0
 40
0.0
 40
0.0
 40
0.0
 40
0.0702005767034326
 40
1.0
 40
1.0
 40
1.0
 40
1.0
 10
427.9472052547931
 20
194.3684085510687
 30
0.0
 10
427.9853710204111
 20
194.3688546673363
 30
0.0
 10
428.5290384290027
 20
194.3752095477167
 30
0.0
 10
429.0618060971663
 20
194.6030990296121
 30
0.0
 10
429.5571731677758
 20
194.8149905384539
 30
0.0
  0
LINE
  5
12C
330
1F
100
AcDbEntity
  8
0
  6
Continuous
 62
     7
370
    15
100
AcDbLine
 10
426.3372373418
 20
194.8149905385
 30
0.0
 11
427.9472052548
 21
194.3684085511
 31
0.0
  0
LINE
  5
12D
330
1F
100
AcDbEntity
  8
0
  6
Continuous
 62
     7
370
    15
100
AcDbLine
 10
426.3372373418
 20
199.1218265637
 30
0.0
 11
426.3372373418
 21
194.8149905385
 31
0.0
  0
LINE
  5
12E
330
1F
100
AcDbEntity
  8
0
  6
Continuous
 62
     7
370
    15
100
AcDbLine
 10
431.4741121065
 20
199.4978153517
 30
0.0
 11
429.5571731678
 21
199.1218265637
 31
0.0
  0
SPLINE
  5
12F
330
1F
100
AcDbEntity
  8
0
  6
Continuous
 62
     7
370
    15
100
AcDbSpline
210
0.0
220
0.0
230
1.0
 70
     8
 71
     3
 72
     9
 73
     5
 74
     0
 42
0.00000001
 43
0.00000001
 12
1.0
 22
0.0
 32
0.0
 13
1.0
 23
0.0
 33
0.0
 40
0.0
 40
0.0
 40
0.0
 40
0.0
 40
0.2686336050555716
 40
1.0
 40
1.0
 40
1.0
 40
1.0
 10
432.4372480835686
 20
194.3684085510687
 30
0.0
 10
432.1753686839289
 20
194.3750375036531
 30
0.0
 10
431.2005115003479
 20
194.3997140610895
 30
0.0
 10
430.2513546162992
 20
194.6395688246895
 30
0.0
 10
429.5571731677758
 20
194.8149905384539
 30
0.0
  0
LINE
  5
130
330
1F
100
AcDbEntity
  8
0
  6
Continuous
 62
     7
370
    15
100
AcDbLine
 10
432.4372480836
 20
194.3684085511
 30
0.0
 11
427.9472052548
 21
194.3684085511
 31
0.0
  0
LINE
  5
131
330
1F
100
AcDbEntity
  8
0
  6
Continuous
 62
     7
370
    15
100
AcDbLine
 10
435.3173229994
 20
195.1684085511
 30
0.0
 11
435.3173229994
 21
194.8149905385
 31
0.0
  0
SPLINE
  5
132
330
1F
100
AcDbEntity
  8
0
  6
Continuous
 62
     7
370
    15
100
AcDbSpline
210
0.0
220
0.0
230
1.0
 70
     8
 71
     3
 72
     9
 73
     5
 74
     0
 42
0.00000001
 43
0.00000001
 12
1.0
 22
0.0
 32
0.0
 13
1.0
 23
0.0
 33
0.0
 40
0.0
 40
0.0
 40
0.0
 40
0.0
 40
0.2575513451038067
 40
1.0
 40
1.0
 40
1.0
 40
1.0
 10
435.3173229993614
 20
194.8149905384539
 30
0.0
 10
435.0755357062595
 20
194.747575315679
 30
0.0
 10
434.1367431210198
 20
194.4858208187351
 30
0.0
 10
433.1613944169558
 20
194.4184373309425
 30
0.0
 10
432.4372480835686
 20
194.3684085510687
 30
0.0
  0
LINE
  5
133
330
1F
100
AcDbEntity
  8
0
  6
Continuous
 62
     7
370
    15
100
AcDbLine
 10
435.3173229994
 20
194.8149905385
 30
0.0
 11
436.5874300022
 21
194.3684085511
 31
0.0
  0
LINE
  5
134
330
1F
100
AcDbEntity
  8
0
  6
Continuous
 62
     7
370
    15
100
AcDbLine
 10
436.5874300022
 20
194.3684085511
 30
0.0
 11
432.4372480836
 21
194.3684085511
 31
0.0
  0
LINE
  5
135
330
1F
100
AcDbEntity
  8
0
  6
Continuous
 62
     7
370
    15
100
AcDbLine
 10
437.857537005
 20
195.2380844597
 30
0.0
 11
437.857537005
 21
194.8149905385
 31
0.0
  0
SPLINE
  5
136
330
1F
100
AcDbEntity
  8
0
  6
Continuous
 62
     7
370
    15
100
AcDbSpline
210
0.0
220
0.0
230
1.0
 70
     8
 71
     3
 72
     9
 73
     5
 74
     0
 42
0.00000001
 43
0.00000001
 12
1.0
 22
0.0
 32
0.0
 13
1.0
 23
0.0
 33
0.0
 40
0.0
 40
0.0
 40
0.0
 40
0.0
 40
0.0702005767034266
 40
1.0
 40
1.0
 40
1.0
 40
1.0
 10
436.5874300021716
 20
194.3684085510687
 30
0.0
 10
436.6175390532825
 20
194.3688546673362
 30
0.0
 10
437.046439391782
 20
194.3752095477167
 30
0.0
 10
437.4667409026064
 20
194.6030990296121
 30
0.0
 10
437.8575370049817
 20
194.8149905384539
 30
0.0
  0
LINE
  5
137
330
1F
100
AcDbEntity
  8
0
  6
Continuous
 62
     7
370
    15
100
AcDbLine
 10
426.5278477489
 20
194.7432339885
 30
0.0
 11
426.3372373418
 21
194.8149905385
 31
0.0
  0
LINE
  5
138
330
1F
100
AcDbEntity
  8
0
  6
Continuous
 62
     7
370
    15
100
AcDbLine
 10
427.9472052548
 20
194.3684085511
 30
0.0
 11
427.0973871734
 21
194.3684085511
 31
0.0
  0
LINE
  5
139
330
1F
100
AcDbEntity
  8
0
  6
Continuous
 62
     7
370
    15
100
AcDbLine
 10
426.5278477489
 20
199.1935831136
 30
0.0
 11
426.3372373418
 21
199.1218265637
 31
0.0
  0
LINE
  5
13A
330
1F
100
AcDbEntity
  8
0
  6
Continuous
 62
     7
370
    15
100
AcDbLine
 10
437.0973871734
 20
194.3684085511
 30
0.0
 11
436.5874300022
 21
194.3684085511
 31
0.0
  0
LINE
  5
13B
330
1F
100
AcDbEntity
  8
0
  6
Continuous
 62
     7
370
    15
100
AcDbLine
 10
430.7100577046
 20
212.1718265637
 30
0.0
 11
431.9309681021
 21
212.3684085511
 31
0.0
  0
LINE
  5
13C
330
1F
100
AcDbEntity
  8
0
  6
Continuous
 62
     7
370
    15
100
AcDbLine
 10
435.1168971801
 20
212.3684085511
 30
0.0
 11
436.2572250617
 21
212.1718265637
 31
0.0
  0
LINE
  5
13D
330
1F
100
AcDbEntity
  8
0
  6
Continuous
 62
     7
370
    15
100
AcDbLine
 10
436.2572250617
 20
212.1718265637
 30
0.0
 11
436.2572250617
 21
207.8649905385
 31
0.0
  0
SPLINE
  5
13E
330
1F
100
AcDbEntity
  8
0
  6
Continuous
 62
     7
370
    15
100
AcDbSpline
210
0.0
220
0.0
230
1.0
 70
     8
 71
     3
 72
     9
 73
     5
 74
     0
 42
0.00000001
 43
0.00000001
 12
1.0
 22
0.0
 32
0.0
 13
1.0
 23
0.0
 33
0.0
 40
0.0
 40
0.0
 40
0.0
 40
0.0
 40
0.0702005767034291
 40
1.0
 40
1.0
 40
1.0
 40
1.0
 10
433.4836413831654
 20
207.4184085510687
 30
0.0
 10
433.5493917274698
 20
207.4188546673363
 30
0.0
 10
434.4859986243361
 20
207.4252095477167
 30
0.0
 10
435.4038279158187
 20
207.6530990296122
 30
0.0
 10
436.2572250617238
 20
207.8649905384539
 30
0.0
  0
LINE
  5
13F
330
1F
100
AcDbEntity
  8
0
  6
Continuous
 62
     7
370
    15
100
AcDbLine
 10
430.7100577046
 20
207.8649905385
 30
0.0
 11
433.4836413832
 21
207.4184085511
 31
0.0
  0
LINE
  5
140
330
1F
100
AcDbEntity
  8
0
  6
Continuous
 62
     7
370
    15
100
AcDbLine
 10
430.7100577046
 20
212.1718265637
 30
0.0
 11
430.7100577046
 21
207.8649905385
 31
0.0
  0
SPLINE
  5
141
330
1F
100
AcDbEntity
  8
0
  6
Continuous
 62
     7
370
    15
100
AcDbSpline
210
0.0
220
0.0
230
1.0
 70
     8
 71
     3
 72
     9
 73
     5
 74
     0
 42
0.00000001
 43
0.00000001
 12
1.0
 22
0.0
 32
0.0
 13
1.0
 23
0.0
 33
0.0
 40
0.0
 40
0.0
 40
0.0
 40
0.0
 40
0.2575513451038075
 40
1.0
 40
1.0
 40
1.0
 40
1.0
 10
430.7100577046069
 20
207.8649905384539
 30
0.0
 10
430.5354448955362
 20
207.797575315679
 30
0.0
 10
429.85747208588
 20
207.5358208187351
 30
0.0
 10
429.1530993504263
 20
207.4684373309425
 30
0.0
 10
428.6301387604431
 20
207.4184085510687
 30
0.0
  0
LINE
  5
142
330
1F
100
AcDbEntity
  8
0
  6
Continuous
 62
     7
370
    15
100
AcDbLine
 10
433.4836413832
 20
207.4184085511
 30
0.0
 11
428.6301387604
 21
207.4184085511
 31
0.0
  0
SPLINE
  5
143
330
1F
100
AcDbEntity
  8
0
  6
Continuous
 62
     7
370
    15
100
AcDbSpline
210
0.0
220
0.0
230
1.0
 70
     8
 71
     3
 72
     9
 73
     5
 74
     0
 42
0.00000001
 43
0.00000001
 12
1.0
 22
0.0
 32
0.0
 13
1.0
 23
0.0
 33
0.0
 40
0.0
 40
0.0
 40
0.0
 40
0.0
 40
0.9250528693316696
 40
1.0
 40
1.0
 40
1.0
 40
1.0
 10
430.7100577046069
 20
212.1718265636835
 30
0.0
 10
430.5369577513397
 20
212.2503802764484
 30
0.0
 10
430.3498333620145
 20
212.3352983555866
 30
0.0
 10
430.1553587588526
 20
212.3661000522824
 30
0.0
 10
430.1407834453578
 20
212.3684085510695
 30
0.0
  0
LINE
  5
144
330
1F
100
AcDbEntity
  8
0
  6
Continuous
 62
     7
370
    15
100
AcDbLine
 10
436.2572250617
 20
212.1718265637
 30
0.0
 11
436.5625709913
 21
212.3684085511
 31
0.0
  0
LINE
  5
145
330
1F
100
AcDbEntity
  8
0
  6
Continuous
 62
     7
370
    15
100
AcDbLine
 10
436.2572250617
 20
207.8649905385
 30
0.0
 11
436.9508897961
 21
207.4184085511
 31
0.0
  0
LINE
  5
146
330
1F
100
AcDbEntity
  8
0
  6
Continuous
 62
     7
370
    15
100
AcDbLine
 10
436.9508897961
 20
207.4184085511
 30
0.0
 11
433.4836413832
 21
207.4184085511
 31
0.0
  0
SPLINE
  5
147
330
1F
100
AcDbEntity
  8
0
  6
Continuous
 62
     7
370
    15
100
AcDbSpline
210
0.0
220
0.0
230
1.0
 70
     8
 71
     3
 72
     9
 73
     5
 74
     0
 42
0.00000001
 43
0.00000001
 12
1.0
 22
0.0
 32
0.0
 13
1.0
 23
0.0
 33
0.0
 40
0.0
 40
0.0
 40
0.0
 40
0.0
 40
0.2686336050555695
 40
0.9999999999999999
 40
0.9999999999999999
 40
0.9999999999999999
 40
0.9999999999999999
 10
428.6301387604431
 20
207.4184085510687
 30
0.0
 10
428.4410159284605
 20
207.4250375036532
 30
0.0
 10
427.7369981569554
 20
207.4497140610895
 30
0.0
 10
427.0515405067772
 20
207.6895688246895
 30
0.0
 10
426.5502198162793
 20
207.8649905384539
 30
0.0
  0
LINE
  5
148
330
1F
100
AcDbEntity
  8
0
  6
Continuous
 62
     7
370
    15
100
AcDbLine
 10
426.5502198163
 20
212.1718265637
 30
0.0
 11
426.5502198163
 21
207.8649905385
 31
0.0
  0
LINE
  5
149
330
1F
100
AcDbEntity
  8
0
  6
Continuous
 62
     7
370
    15
100
AcDbLine
 10
427.2740217384
 20
212.3684085511
 30
0.0
 11
426.5502198163
 21
212.1718265637
 31
0.0
  0
LINE
  5
14A
330
1F
100
AcDbEntity
  8
0
  6
Continuous
 62
     7
370
    15
100
AcDbLine
 10
437.2478625695
 20
212.4452646683
 30
0.0
 11
437.6445545305
 21
212.1718265637
 31
0.0
  0
LINE
  5
14B
330
1F
100
AcDbEntity
  8
0
  6
Continuous
 62
     7
370
    15
100
AcDbLine
 10
437.6445545305
 20
212.1718265637
 30
0.0
 11
437.6445545305
 21
207.8649905385
 31
0.0
  0
SPLINE
  5
14C
330
1F
100
AcDbEntity
  8
0
  6
Continuous
 62
     7
370
    15
100
AcDbSpline
210
0.0
220
0.0
230
1.0
 70
     8
 71
     3
 72
     9
 73
     5
 74
     0
 42
0.00000001
 43
0.00000001
 12
1.0
 22
0.0
 32
0.0
 13
1.0
 23
0.0
 33
0.0
 40
0.0
 40
0.0
 40
0.0
 40
0.0
 40
0.0702005767034234
 40
0.9999999999999999
 40
0.9999999999999999
 40
0.9999999999999999
 40
0.9999999999999999
 10
436.9508897961184
 20
207.4184085510687
 30
0.0
 10
436.9673337546948
 20
207.4188546673363
 30
0.0
 10
437.2015762545226
 20
207.4252095477167
 30
0.0
 10
437.4311225330854
 20
207.6530990296122
 30
0.0
 10
437.644554530513
 20
207.8649905384539
 30
0.0
  0
LINE
  5
14D
330
1F
100
AcDbEntity
  8
0
  6
Continuous
 62
     7
370
    15
100
AcDbLine
 10
426.9469117773
 20
212.4452646683
 30
0.0
 11
426.5502198163
 21
212.1718265637
 31
0.0
  0
LINE
  5
14E
330
1F
100
AcDbEntity
  8
0
  6
Continuous
 62
     7
370
    15
100
AcDbLine
 10
426.9469117773
 20
207.5915524338
 30
0.0
 11
426.5502198163
 21
207.8649905385
 31
0.0
  0
LINE
  5
14F
330
1F
100
AcDbEntity
  8
0
  6
Continuous
 62
     7
370
    15
100
AcDbLine
 10
428.6301387604
 20
207.4184085511
 30
0.0
 11
427.0973871734
 21
207.4184085511
 31
0.0
  0
LINE
  5
150
330
1F
100
AcDbEntity
  8
0
  6
Continuous
 62
     7
370
    15
100
AcDbLine
 10
437.0973871734
 20
207.4184085511
 30
0.0
 11
436.9508897961
 21
207.4184085511
 31
0.0
  0
LINE
  5
151
330
1F
100
AcDbEntity
  8
0
  6
Continuous
 62
     7
370
    15
100
AcDbLine
 10
433.543506311
 20
206.7218265637
 30
0.0
 11
435.6022840783
 21
207.1684085511
 31
0.0
  0
SPLINE
  5
152
330
1F
100
AcDbEntity
  8
0
  6
Continuous
 62
     7
370
    15
100
AcDbSpline
210
0.0
220
0.0
230
1.0
 70
     8
 71
     3
 72
     9
 73
     5
 74
     0
 42
0.00000001
 43
0.00000001
 12
1.0
 22
0.0
 32
0.0
 13
1.0
 23
0.0
 33
0.0
 40
0.0
 40
0.0
 40
0.0
 40
0.0
 40
0.0702005767034277
 40
1.0
 40
1.0
 40
1.0
 40
1.0
 10
435.6022840783041
 20
207.1684085510687
 30
0.0
 10
435.6510892930506
 20
207.1679624348011
 30
0.0
 10
436.3463145609663
 20
207.1616075544206
 30
0.0
 10
437.0276015739134
 20
206.9337180725252
 30
0.0
 10
437.6610618456511
 20
206.7218265636835
 30
0.0
  0
LINE
  5
153
330
1F
100
AcDbEntity
  8
0
  6
Continuous
 62
     7
370
    15
100
AcDbLine
 10
437.6610618457
 20
206.7218265637
 30
0.0
 11
437.6610618457
 21
202.4149905385
 31
0.0
  0
SPLINE
  5
154
330
1F
100
AcDbEntity
  8
0
  6
Continuous
 62
     7
370
    15
100
AcDbSpline
210
0.0
220
0.0
230
1.0
 70
     8
 71
     3
 72
     9
 73
     5
 74
     0
 42
0.00000001
 43
0.00000001
 12
1.0
 22
0.0
 32
0.0
 13
1.0
 23
0.0
 33
0.0
 40
0.0
 40
0.0
 40
0.0
 40
0.0
 40
0.0702005767034277
 40
0.9999999999999999
 40
0.9999999999999999
 40
0.9999999999999999
 40
0.9999999999999999
 10
435.6022840783041
 20
201.9684085510687
 30
0.0
 10
435.6510892930506
 20
201.9688546673363
 30
0.0
 10
436.3463145609663
 20
201.9752095477168
 30
0.0
 10
437.0276015739134
 20
202.2030990296121
 30
0.0
 10
437.6610618456511
 20
202.4149905384539
 30
0.0
  0
LINE
  5
155
330
1F
100
AcDbEntity
  8
0
  6
Continuous
 62
     7
370
    15
100
AcDbLine
 10
433.543506311
 20
202.4149905385
 30
0.0
 11
435.6022840783
 21
201.9684085511
 31
0.0
  0
LINE
  5
156
330
1F
100
AcDbEntity
  8
0
  6
Continuous
 62
     7
370
    15
100
AcDbLine
 10
433.543506311
 20
206.7218265637
 30
0.0
 11
433.543506311
 21
202.4149905385
 31
0.0
  0
SPLINE
  5
157
330
1F
100
AcDbEntity
  8
0
  6
Continuous
 62
     7
370
    15
100
AcDbSpline
210
0.0
220
0.0
230
1.0
 70
     8
 71
     3
 72
     9
 73
     5
 74
     0
 42
0.00000001
 43
0.00000001
 12
1.0
 22
0.0
 32
0.0
 13
1.0
 23
0.0
 33
0.0
 40
0.0
 40
0.0
 40
0.0
 40
0.0
 40
0.2575513451038089
 40
1.0
 40
1.0
 40
1.0
 40
1.0
 10
433.5435063109572
 20
202.4149905384539
 30
0.0
 10
433.3099662333489
 20
202.347575315679
 30
0.0
 10
432.4031952843785
 20
202.085820818735
 30
0.0
 10
431.461115123258
 20
202.0184373309425
 30
0.0
 10
430.7616689748297
 20
201.9684085510687
 30
0.0
  0
SPLINE
  5
158
330
1F
100
AcDbEntity
  8
0
  6
Continuous
 62
     7
370
    15
100
AcDbSpline
210
0.0
220
0.0
230
1.0
 70
     8
 71
     3
 72
     9
 73
     5
 74
     0
 42
0.00000001
 43
0.00000001
 12
1.0
 22
0.0
 32
0.0
 13
1.0
 23
0.0
 33
0.0
 40
0.0
 40
0.0
 40
0.0
 40
0.0
 40
0.257551345103809
 40
1.0
 40
1.0
 40
1.0
 40
1.0
 10
433.5435063109572
 20
206.7218265636835
 30
0.0
 10
433.3099662333489
 20
206.7892417864583
 30
0.0
 10
432.4031952843785
 20
207.0509962834023
 30
0.0
 10
431.461115123258
 20
207.1183797711948
 30
0.0
 10
430.7616689748297
 20
207.1684085510687
 30
0.0
  0
LINE
  5
159
330
1F
100
AcDbEntity
  8
0
  6
Continuous
 62
     7
370
    15
100
AcDbLine
 10
430.7616689748
 20
207.1684085511
 30
0.0
 11
435.6022840783
 21
207.1684085511
 31
0.0
  0
SPLINE
  5
15A
330
1F
100
AcDbEntity
  8
0
  6
Continuous
 62
     7
370
    15
100
AcDbSpline
210
0.0
220
0.0
230
1.0
 70
     8
 71
     3
 72
     9
 73
     5
 74
     0
 42
0.00000001
 43
0.00000001
 12
1.0
 22
0.0
 32
0.0
 13
1.0
 23
0.0
 33
0.0
 40
0.0
 40
0.0
 40
0.0
 40
0.0
 40
0.2686336050555708
 40
1.0
 40
1.0
 40
1.0
 40
1.0
 10
430.7616689748297
 20
201.9684085510687
 30
0.0
 10
430.5087221200498
 20
201.9750375036531
 30
0.0
 10
429.5671167139518
 20
201.9997140610895
 30
0.0
 10
428.6503349860146
 20
202.2395688246895
 30
0.0
 10
427.9798316387023
 20
202.4149905384538
 30
0.0
  0
LINE
  5
15B
330
1F
100
AcDbEntity
  8
0
  6
Continuous
 62
     7
370
    15
100
AcDbLine
 10
427.9798316387
 20
206.7218265637
 30
0.0
 11
427.9798316387
 21
202.4149905385
 31
0.0
  0
SPLINE
  5
15C
330
1F
100
AcDbEntity
  8
0
  6
Continuous
 62
     7
370
    15
100
AcDbSpline
210
0.0
220
0.0
230
1.0
 70
     8
 71
     3
 72
     9
 73
     5
 74
     0
 42
0.00000001
 43
0.00000001
 12
1.0
 22
0.0
 32
0.0
 13
1.0
 23
0.0
 33
0.0
 40
0.0
 40
0.0
 40
0.0
 40
0.0
 40
0.2686336050555709
 40
1.0
 40
1.0
 40
1.0
 40
1.0
 10
430.7616689748297
 20
207.1684085510687
 30
0.0
 10
430.5087221200498
 20
207.1617795984842
 30
0.0
 10
429.5671167139519
 20
207.1371030410479
 30
0.0
 10
428.6503349860146
 20
206.8972482774479
 30
0.0
 10
427.9798316387023
 20
206.7218265636834
 30
0.0
  0
SPLINE
  5
15D
330
1F
100
AcDbEntity
  8
0
  6
Continuous
 62
     7
370
    15
100
AcDbSpline
210
0.0
220
0.0
230
1.0
 70
     8
 71
     3
 72
     9
 73
     5
 74
     0
 42
0.00000001
 43
0.00000001
 12
1.0
 22
0.0
 32
0.0
 13
1.0
 23
0.0
 33
0.0
 40
0.0
 40
0.0
 40
0.0
 40
0.0
 40
0.0702005767034309
 40
0.9999999999999999
 40
0.9999999999999999
 40
0.9999999999999999
 40
0.9999999999999999
 10
427.2567720699217
 20
207.1684085510687
 30
0.0
 10
427.2739128600005
 20
207.1679624348011
 30
0.0
 10
427.5180816529598
 20
207.1616075544207
 30
0.0
 10
427.757355216921
 20
206.9337180725253
 30
0.0
 10
427.9798316387023
 20
206.7218265636835
 30
0.0
  0
LINE
  5
15E
330
1F
100
AcDbEntity
  8
0
  6
Continuous
 62
     7
370
    15
100
AcDbLine
 10
430.7616689748
 20
207.1684085511
 30
0.0
 11
427.2567720699
 21
207.1684085511
 31
0.0
  0
SPLINE
  5
15F
330
1F
100
AcDbEntity
  8
0
  6
Continuous
 62
     7
370
    15
100
AcDbSpline
210
0.0
220
0.0
230
1.0
 70
     8
 71
     3
 72
     9
 73
     5
 74
     0
 42
0.00000001
 43
0.00000001
 12
1.0
 22
0.0
 32
0.0
 13
1.0
 23
0.0
 33
0.0
 40
0.0
 40
0.0
 40
0.0
 40
0.0
 40
0.0702005767034309
 40
1.0
 40
1.0
 40
1.0
 40
1.0
 10
427.2567720699217
 20
201.9684085510687
 30
0.0
 10
427.2739128600005
 20
201.9688546673363
 30
0.0
 10
427.5180816529598
 20
201.9752095477166
 30
0.0
 10
427.757355216921
 20
202.2030990296121
 30
0.0
 10
427.9798316387023
 20
202.4149905384539
 30
0.0
  0
LINE
  5
160
330
1F
100
AcDbEntity
  8
0
  6
Continuous
 62
     7
370
    15
100
AcDbLine
 10
426.5337125011
 20
206.7218265637
 30
0.0
 11
427.2567720699
 21
207.1684085511
 31
0.0
  0
LINE
  5
161
330
1F
100
AcDbEntity
  8
0
  6
Continuous
 62
     7
370
    15
100
AcDbLine
 10
426.5337125011
 20
202.4149905385
 30
0.0
 11
426.9329667228
 21
202.1683998681
 31
0.0
  0
LINE
  5
162
330
1F
100
AcDbEntity
  8
0
  6
Continuous
 62
     7
370
    15
100
AcDbLine
 10
426.5337125011
 20
206.7218265637
 30
0.0
 11
426.5337125011
 21
202.4149905385
 31
0.0
  0
LINE
  5
163
330
1F
100
AcDbEntity
  8
0
  6
Continuous
 62
     7
370
    15
100
AcDbLine
 10
437.6610618457
 20
202.4149905385
 30
0.0
 11
437.261807624
 21
202.1683998681
 31
0.0
  0
LINE
  5
164
330
1F
100
AcDbEntity
  8
0
  6
Continuous
 62
     7
370
    15
100
AcDbLine
 10
437.6610618457
 20
206.7218265637
 30
0.0
 11
437.261807624
 21
206.968417234
 31
0.0
  0
LINE
  5
165
330
1F
100
AcDbEntity
  8
0
  6
Continuous
 62
     7
370
    15
100
AcDbLine
 10
435.6022840783
 20
207.1684085511
 30
0.0
 11
437.0973871734
 21
207.1684085511
 31
0.0
  0
LINE
  5
166
330
1F
100
AcDbEntity
  8
0
  6
Continuous
 62
     7
370
    15
100
AcDbLine
 10
427.0973871734
 20
207.1684085511
 30
0.0
 11
427.2567720699
 21
207.1684085511
 31
0.0
  0
LINE
  5
167
330
1F
100
AcDbEntity
  8
0
  6
Continuous
 62
     7
370
    15
100
AcDbLine
 10
678.0973871734
 20
877.3573923985
 30
0.0
 11
680.6449990736
 21
877.9790065614
 31
0.0
  0
LINE
  5
168
330
1F
100
AcDbEntity
  8
0
  6
Continuous
 62
     7
370
    15
100
AcDbLine
 10
675.5497752732
 20
877.9790065614
 30
0.0
 11
678.0973871734
 21
877.3573923985
 31
0.0
  0
LINE
  5
169
330
1F
100
AcDbEntity
  8
0
  6
Continuous
 62
     7
370
    15
100
AcDbLine
 10
678.0973871734
 20
878.8537640802
 30
0.0
 11
678.0973871734
 21
877.3573923985
 31
0.0
  0
LINE
  5
16A
330
1F
100
AcDbEntity
  8
0
  6
Continuous
 62
     7
370
    15
100
AcDbLine
 10
300.0973871734
 20
877.3573923985
 30
0.0
 11
302.6449990736
 21
877.9790065614
 31
0.0
  0
LINE
  5
16B
330
1F
100
AcDbEntity
  8
0
  6
Continuous
 62
     7
370
    15
100
AcDbLine
 10
297.5497752732
 20
877.9790065614
 30
0.0
 11
300.0973871734
 21
877.3573923985
 31
0.0
  0
LINE
  5
16C
330
1F
100
AcDbEntity
  8
0
  6
Continuous
 62
     7
370
    15
100
AcDbLine
 10
300.0973871734
 20
878.8537640802
 30
0.0
 11
300.0973871734
 21
877.3573923985
 31
0.0
  0
LINE
  5
16D
330
1F
100
AcDbEntity
  8
0
  6
Continuous
 62
     7
370
    15
100
AcDbLine
 10
689.0973871734
 20
751.9326857779
 30
0.0
 11
289.0973871734
 21
751.9326857779
 31
0.0
  0
LINE
  5
16E
330
1F
100
AcDbEntity
  8
0
  6
Continuous
 62
     7
370
    15
100
AcDbLine
 10
689.0973871734
 20
742.8041313243
 30
0.0
 11
689.0973871734
 21
751.9326857779
 31
0.0
  0
LINE
  5
16F
330
1F
100
AcDbEntity
  8
0
  6
Continuous
 62
     7
370
    15
100
AcDbLine
 10
689.0973871734
 20
742.8041313243
 30
0.0
 11
289.0973871734
 21
742.8041313243
 31
0.0
  0
LINE
  5
170
330
1F
100
AcDbEntity
  8
0
  6
Continuous
 62
     7
370
    15
100
AcDbLine
 10
289.0973871734
 20
742.8041313243
 30
0.0
 11
289.0973871734
 21
751.9326857779
 31
0.0
  0
LINE
  5
171
330
1F
100
AcDbEntity
  8
0
  6
Continuous
 62
     7
370
    15
100
AcDbLine
 10
689.0973871734
 20
698.6041313243
 30
0.0
 11
689.0973871734
 21
742.8041313243
 31
0.0
  0
LINE
  5
172
330
1F
100
AcDbEntity
  8
0
  6
Continuous
 62
     7
370
    15
100
AcDbLine
 10
689.0973871734
 20
698.6041313243
 30
0.0
 11
289.0973871734
 21
698.6041313243
 31
0.0
  0
LINE
  5
173
330
1F
100
AcDbEntity
  8
0
  6
Continuous
 62
     7
370
    15
100
AcDbLine
 10
289.0973871734
 20
698.6041313243
 30
0.0
 11
289.0973871734
 21
742.8041313243
 31
0.0
  0
LINE
  5
174
330
1F
100
AcDbEntity
  8
0
  6
Continuous
 62
     7
370
    15
100
AcDbLine
 10
310.5973871734
 20
871.4628314803
 30
0.0
 11
310.9973871734
 21
871.4628314803
 31
0.0
  0
LINE
  5
175
330
1F
100
AcDbEntity
  8
0
  6
Continuous
 62
     7
370
    15
100
AcDbLine
 10
310.9973871734
 20
871.4628314803
 30
0.0
 11
310.9973871734
 21
872.9582393289
 31
0.0
  0
LINE
  5
176
330
1F
100
AcDbEntity
  8
0
  6
Continuous
 62
     7
370
    15
100
AcDbLine
 10
667.1973871734
 20
872.9582393289
 30
0.0
 11
665.4397661294
 21
872.9582393289
 31
0.0
  0
LINE
  5
177
330
1F
100
AcDbEntity
  8
0
  6
Continuous
 62
     7
370
    15
100
AcDbLine
 10
312.7550082174
 20
872.9582393289
 30
0.0
 11
310.9973871734
 21
872.9582393289
 31
0.0
  0
LINE
  5
178
330
1F
100
AcDbEntity
  8
0
  6
Continuous
 62
     7
370
    15
100
AcDbLine
 10
667.1973871734
 20
872.9582393289
 30
0.0
 11
667.1973871734
 21
871.4628314803
 31
0.0
  0
LINE
  5
179
330
1F
100
AcDbEntity
  8
0
  6
Continuous
 62
     7
370
    15
100
AcDbLine
 10
667.1973871734
 20
871.4628314803
 30
0.0
 11
667.5973871734
 21
871.4628314803
 31
0.0
  0
LINE
  5
17A
330
1F
100
AcDbEntity
  8
0
  6
Continuous
 62
     7
370
    15
100
AcDbLine
 10
667.5973871734
 20
871.4628314803
 30
0.0
 11
667.5973871734
 21
871.8253545951
 31
0.0
  0
LINE
  5
17B
330
1F
100
AcDbEntity
  8
0
  6
Continuous
 62
     7
370
    15
100
AcDbLine
 10
667.5973871734
 20
871.8253545951
 30
0.0
 11
689.0973871734
 21
871.8253545951
 31
0.0
  0
LINE
  5
17C
330
1F
100
AcDbEntity
  8
0
  6
Continuous
 62
     7
370
    15
100
AcDbLine
 10
289.0973871734
 20
751.9326857779
 30
0.0
 11
289.0973871734
 21
871.8253545951
 31
0.0
  0
LINE
  5
17D
330
1F
100
AcDbEntity
  8
0
  6
Continuous
 62
     7
370
    15
100
AcDbLine
 10
289.0973871734
 20
871.8253545951
 30
0.0
 11
310.5973871734
 21
871.8253545951
 31
0.0
  0
LINE
  5
17E
330
1F
100
AcDbEntity
  8
0
  6
Continuous
 62
     7
370
    15
100
AcDbLine
 10
310.5973871734
 20
871.8253545951
 30
0.0
 11
310.5973871734
 21
871.4628314803
 31
0.0
  0
LINE
  5
17F
330
1F
100
AcDbEntity
  8
0
  6
Continuous
 62
     7
370
    15
100
AcDbLine
 10
689.0973871734
 20
751.9326857779
 30
0.0
 11
689.0973871734
 21
871.8253545951
 31
0.0
  0
LINE
  5
180
330
1F
100
AcDbEntity
  8
0
  6
Continuous
 62
     7
370
    15
100
AcDbLine
 10
689.0973871734
 20
692.3684085511
 30
0.0
 11
689.0973871734
 21
698.6041313243
 31
0.0
  0
LINE
  5
181
330
1F
100
AcDbEntity
  8
0
  6
Continuous
 62
     7
370
    15
100
AcDbLine
 10
689.0973871734
 20
692.3684085511
 30
0.0
 11
289.0973871734
 21
692.3684085511
 31
0.0
  0
LINE
  5
182
330
1F
100
AcDbEntity
  8
0
  6
Continuous
 62
     7
370
    15
100
AcDbLine
 10
289.0973871734
 20
692.3684085511
 30
0.0
 11
289.0973871734
 21
698.6041313243
 31
0.0
  0
LINE
  5
183
330
1F
100
AcDbEntity
  8
0
  6
Continuous
 62
     7
370
    15
100
AcDbLine
 10
667.6309669632
 20
879.5362732105
 30
0.0
 11
667.5973871734
 21
879.3820369074
 31
0.0
  0
LINE
  5
184
330
1F
100
AcDbEntity
  8
0
  6
Continuous
 62
     7
370
    15
100
AcDbLine
 10
667.5973871734
 20
879.3820369074
 30
0.0
 11
667.5973871734
 21
879.5282611976
 31
0.0
  0
ARC
  5
185
330
1F
100
AcDbEntity
  8
0
  6
Continuous
 62
     7
370
    15
100
AcDbCircle
 10
688.3756688983
 20
879.2369467775
 30
0.0
 40
0.7361578733381887
100
AcDbArc
 50
11.3669030058
 51
71.3350719426
  0
LINE
  5
186
330
1F
100
AcDbEntity
  8
0
  6
Continuous
 62
     7
370
    15
100
AcDbLine
 10
689.0973871734
 20
879.3820369074
 30
0.0
 11
689.0973871734
 21
873.4865121561
 31
0.0
  0
LINE
  5
187
330
1F
100
AcDbEntity
  8
0
  6
Continuous
 62
     7
370
    15
100
AcDbLine
 10
689.0973871734
 20
873.4865121561
 30
0.0
 11
667.5973871734
 21
873.4865121561
 31
0.0
  0
LINE
  5
188
330
1F
100
AcDbEntity
  8
0
  6
Continuous
 62
     7
370
    15
100
AcDbLine
 10
667.5973871734
 20
873.4865121561
 30
0.0
 11
667.5973871734
 21
879.3820369074
 31
0.0
  0
LWPOLYLINE
  5
189
330
1F
100
AcDbEntity
  8
0
  6
Continuous
 62
     7
370
    15
100
AcDbPolyline
 90
       18
 70
   128
 43
0.0
 10
678.0973871734
 20
878.8537640802
 10
679.0908017554
 20
878.7752832904
 10
679.9500501934
 20
878.5504401864
 10
680.5590862246
 20
878.2096010755
 10
680.8356561582
 20
877.7987981681
 10
680.7424076921
 20
877.3735126732
 10
680.2919345484
 20
876.9911817536
 10
679.5450756213
 20
876.7034413184
 10
678.6026983474
 20
876.5491523079
 10
677.5920759994
 20
876.5491523079
 10
676.6496987255
 20
876.7034413184
 10
675.9028397984
 20
876.9911817536
 10
675.4523666547
 20
877.3735126732
 10
675.3591181886
 20
877.7987981681
 10
675.6356881222
 20
878.2096010755
 10
676.2447241534
 20
878.5504401864
 10
677.1039725914
 20
878.7752832904
 10
678.0973871734
 20
878.8537640802
  0
LINE
  5
18A
330
1F
100
AcDbEntity
  8
0
  6
Continuous
 62
     7
370
    15
100
AcDbLine
 10
689.0973871734
 20
880.107083137
 30
0.0
 11
689.0973871734
 21
879.3820369074
 31
0.0
  0
LWPOLYLINE
  5
18B
330
1F
100
AcDbEntity
  8
0
  6
Continuous
 62
     7
370
    15
100
AcDbPolyline
 90
        3
 70
   128
 43
0.0
 10
689.0462961741
 20
880.2969105901
 10
689.0589577342
 20
880.2719806026
 10
689.0973871734
 20
880.107083137
  0
LWPOLYLINE
  5
18C
330
1F
100
AcDbEntity
  8
0
  6
Continuous
 62
     7
370
    15
100
AcDbPolyline
 90
        3
 70
   128
 43
0.0
 10
310.5973871734
 20
879.297513255
 10
310.5589577342
 20
879.4624107206
 10
310.5067520694
 20
879.549077887
  0
LINE
  5
18D
330
1F
100
AcDbEntity
  8
0
  6
Continuous
 62
     7
370
    15
100
AcDbLine
 10
310.5973871734
 20
879.297513255
 30
0.0
 11
310.5973871734
 21
873.4865121561
 31
0.0
  0
LINE
  5
18E
330
1F
100
AcDbEntity
  8
0
  6
Continuous
 62
     7
370
    15
100
AcDbLine
 10
310.5973871734
 20
873.4865121561
 30
0.0
 11
289.0973871734
 21
873.4865121561
 31
0.0
  0
LINE
  5
18F
330
1F
100
AcDbEntity
  8
0
  6
Continuous
 62
     7
370
    15
100
AcDbLine
 10
289.0973871734
 20
873.4865121561
 30
0.0
 11
289.0973871734
 21
879.297513255
 31
0.0
  0
ARC
  5
190
330
1F
100
AcDbEntity
  8
0
  6
Continuous
 62
     7
370
    15
100
AcDbCircle
 10
289.8631658399
 20
879.1311774115
 30
0.0
 40
0.7836354885116106
100
AcDbArc
 50
103.820550097
 51
167.745070152
  0
LWPOLYLINE
  5
191
330
1F
100
AcDbEntity
  8
0
  6
Continuous
 62
     7
370
    15
100
AcDbPolyline
 90
       18
 70
   128
 43
0.0
 10
300.0973871734
 20
876.5293636406
 10
299.1039725914
 20
876.6078444305
 10
298.2447241534
 20
876.8326875344
 10
297.6356881222
 20
877.1735266454
 10
297.3591181886
 20
877.5843295528
 10
297.4523666547
 20
878.0096150476
 10
297.9028397984
 20
878.3919459673
 10
298.6496987255
 20
878.6796864024
 10
299.5920759994
 20
878.8339754129
 10
300.6026983474
 20
878.8339754129
 10
301.5450756213
 20
878.6796864024
 10
302.2919345484
 20
878.3919459673
 10
302.7424076921
 20
878.0096150476
 10
302.8356561582
 20
877.5843295528
 10
302.5590862246
 20
877.1735266454
 10
301.9500501934
 20
876.8326875344
 10
301.0908017554
 20
876.6078444305
 10
300.0973871734
 20
876.5293636406
  0
LINE
  5
192
330
1F
100
AcDbEntity
  8
0
  6
Continuous
 62
     7
370
    15
100
AcDbLine
 10
289.0973871734
 20
879.297513255
 30
0.0
 11
289.0973871734
 21
880.0225594847
 31
0.0
  0
LWPOLYLINE
  5
193
330
1F
100
AcDbEntity
  8
0
  6
Continuous
 62
     7
370
    15
100
AcDbPolyline
 90
        3
 70
   128
 43
0.0
 10
289.0973871734
 20
880.0225594847
 10
289.1358166126
 20
880.1874569502
 10
289.174261551
 20
880.2546488138
  0
LINE
  5
194
330
1F
100
AcDbEntity
  8
0
  6
Continuous
 62
     7
370
    15
100
AcDbLine
 10
310.5973871734
 20
879.5282611976
 30
0.0
 11
310.5973871734
 21
879.297513255
 31
0.0
  0
ARC
  5
195
330
1F
100
AcDbEntity
  8
0
  6
Continuous
 62
     7
370
    15
100
AcDbCircle
 10
678.0973871734
 20
881.4200704392
 30
0.0
 40
4.261046713027745
100
AcDbArc
 50
232.1801728015
 51
307.8198271972
  0
ARC
  5
196
330
1F
100
AcDbEntity
  8
0
  6
Continuous
 62
     7
370
    15
100
AcDbCircle
 10
299.6895205512
 20
880.5900172954
 30
0.0
 40
3.360451171501676
100
AcDbArc
 50
228.9939093624
 51
276.9713245752
  0
ARC
  5
197
330
1F
100
AcDbEntity
  8
0
  6
Continuous
 62
     7
370
    15
100
AcDbCircle
 10
300.5052537956
 20
880.5900172954
 30
0.0
 40
3.360451171502213
100
AcDbArc
 50
263.0286754248
 51
311.0060906376
  0
LINE
  5
198
330
1F
100
AcDbEntity
  8
0
  6
Continuous
 62
     7
370
    15
100
AcDbLine
 10
667.5973871734
 20
873.4865121561
 30
0.0
 11
667.5973871734
 21
871.8253545951
 31
0.0
  0
LINE
  5
199
330
1F
100
AcDbEntity
  8
0
  6
Continuous
 62
     7
370
    15
100
AcDbLine
 10
689.0973871734
 20
871.8253545951
 30
0.0
 11
689.0973871734
 21
873.4865121561
 31
0.0
  0
LINE
  5
19A
330
1F
100
AcDbEntity
  8
0
  6
Continuous
 62
     7
370
    15
100
AcDbLine
 10
289.0973871734
 20
873.4865121561
 30
0.0
 11
289.0973871734
 21
871.8253545951
 31
0.0
  0
LINE
  5
19B
330
1F
100
AcDbEntity
  8
0
  6
Continuous
 62
     7
370
    15
100
AcDbLine
 10
310.5973871734
 20
871.8253545951
 30
0.0
 11
310.5973871734
 21
873.4865121561
 31
0.0
  0
LINE
  5
19C
330
1F
100
AcDbEntity
  8
0
  6
Continuous
 62
     7
370
    15
100
AcDbLine
 10
689.0973871734
 20
942.3684085511
 30
0.0
 11
289.0973871734
 21
942.3684085511
 31
0.0
  0
LINE
  5
19D
330
1F
100
AcDbEntity
  8
0
  6
Continuous
 62
     7
370
    15
100
AcDbLine
 10
689.0973871734
 20
942.3684085511
 30
0.0
 11
689.0973871734
 21
925.2969894102
 31
0.0
  0
LINE
  5
19E
330
1F
100
AcDbEntity
  8
0
  6
Continuous
 62
     7
370
    15
100
AcDbLine
 10
689.0973871734
 20
925.2969894102
 30
0.0
 11
289.0973871734
 21
925.2969894102
 31
0.0
  0
LINE
  5
19F
330
1F
100
AcDbEntity
  8
0
  6
Continuous
 62
     7
370
    15
100
AcDbLine
 10
289.0973871734
 20
942.3684085511
 30
0.0
 11
289.0973871734
 21
925.2969894102
 31
0.0
  0
LINE
  5
1A0
330
1F
100
AcDbEntity
  8
0
  6
Continuous
 62
     7
370
    15
100
AcDbLine
 10
689.0973871734
 20
894.3344339585
 30
0.0
 11
289.0973871734
 21
894.3344339585
 31
0.0
  0
LINE
  5
1A1
330
1F
100
AcDbEntity
  8
0
  6
Continuous
 62
     7
370
    15
100
AcDbLine
 10
289.0973871734
 20
925.2969894102
 30
0.0
 11
289.0973871734
 21
894.3344339585
 31
0.0
  0
LINE
  5
1A2
330
1F
100
AcDbEntity
  8
0
  6
Continuous
 62
     7
370
    15
100
AcDbLine
 10
689.0973871734
 20
925.2969894102
 30
0.0
 11
689.0973871734
 21
894.3344339585
 31
0.0
  0
LINE
  5
1A3
330
1F
100
AcDbEntity
  8
0
  6
Continuous
 62
     7
370
    15
100
AcDbLine
 10
689.0973871734
 20
888.530159655
 30
0.0
 11
289.0973871734
 21
888.530159655
 31
0.0
  0
LINE
  5
1A4
330
1F
100
AcDbEntity
  8
0
  6
Continuous
 62
     7
370
    15
100
AcDbLine
 10
289.0973871734
 20
894.3344339585
 30
0.0
 11
289.0973871734
 21
888.530159655
 31
0.0
  0
LINE
  5
1A5
330
1F
100
AcDbEntity
  8
0
  6
Continuous
 62
     7
370
    15
100
AcDbLine
 10
689.0973871734
 20
894.3344339585
 30
0.0
 11
689.0973871734
 21
888.530159655
 31
0.0
  0
LWPOLYLINE
  5
1A6
330
1F
100
AcDbEntity
  8
0
  6
Continuous
 62
     7
370
    15
100
AcDbPolyline
 90
        9
 70
   128
 43
0.0
 10
311.5973871734
 20
873.7248457552
 10
311.6358166126
 20
873.5599482896
 10
311.7496281084
 20
873.4013877412
 10
311.9344479488
 20
873.2552575029
 10
312.183173611
 20
873.1271732777
 10
312.4862467074
 20
873.0220572707
 10
312.8320203087
 20
872.943949031
 10
313.2072065294
 20
872.8958502145
 10
313.5973871734
 20
872.8796092317
  0
LINE
  5
1A7
330
1F
100
AcDbEntity
  8
0
  6
Continuous
 62
     7
370
    15
100
AcDbLine
 10
311.5973871734
 20
878.7962648961
 30
0.0
 11
311.5973871734
 21
873.7248457552
 31
0.0
  0
LWPOLYLINE
  5
1A8
330
1F
100
AcDbEntity
  8
0
  6
Continuous
 62
     7
370
    15
100
AcDbPolyline
 90
        9
 70
   128
 43
0.0
 10
309.5973871734
 20
879.6415014195
 10
309.9875678174
 20
879.6252604367
 10
310.3627540381
 20
879.5771616202
 10
310.7085276394
 20
879.4990533805
 10
311.0116007358
 20
879.3939373735
 10
311.260326398
 20
879.2658531484
 10
311.4451462384
 20
879.11972291
 10
311.5589577342
 20
878.9611623616
 10
311.5973871734
 20
878.7962648961
  0
LINE
  5
1A9
330
1F
100
AcDbEntity
  8
0
  6
Continuous
 62
     7
370
    15
100
AcDbLine
 10
309.5973871734
 20
879.6415014195
 30
0.0
 11
291.0973871734
 21
879.6415014195
 31
0.0
  0
LWPOLYLINE
  5
1AA
330
1F
100
AcDbEntity
  8
0
  6
Continuous
 62
     7
370
    15
100
AcDbPolyline
 90
        9
 70
   128
 43
0.0
 10
289.0973871734
 20
880.486737943
 10
289.1358166126
 20
880.3218404775
 10
289.2496281084
 20
880.1632799291
 10
289.4344479488
 20
880.0171496907
 10
289.683173611
 20
879.8890654656
 10
289.9862467074
 20
879.7839494585
 10
290.3320203087
 20
879.7058412188
 10
290.7072065294
 20
879.6577424023
 10
291.0973871734
 20
879.6415014195
  0
LWPOLYLINE
  5
1AB
330
1F
100
AcDbEntity
  8
0
  6
Continuous
 62
     7
370
    15
100
AcDbPolyline
 90
        9
 70
   128
 43
0.0
 10
687.0973871734
 20
879.6415014195
 10
687.4875678174
 20
879.6577424023
 10
687.8627540381
 20
879.7058412188
 10
688.2085276394
 20
879.7839494585
 10
688.5116007358
 20
879.8890654656
 10
688.760326398
 20
880.0171496907
 10
688.9451462384
 20
880.1632799291
 10
689.0589577342
 20
880.3218404775
 10
689.0973871734
 20
880.486737943
  0
LINE
  5
1AC
330
1F
100
AcDbEntity
  8
0
  6
Continuous
 62
     7
370
    15
100
AcDbLine
 10
687.0973871734
 20
879.6415014195
 30
0.0
 11
668.5973871734
 21
879.6415014195
 31
0.0
  0
LWPOLYLINE
  5
1AD
330
1F
100
AcDbEntity
  8
0
  6
Continuous
 62
     7
370
    15
100
AcDbPolyline
 90
        9
 70
   128
 43
0.0
 10
666.5973871734
 20
878.7962648961
 10
666.6358166126
 20
878.9611623616
 10
666.7496281084
 20
879.11972291
 10
666.9344479488
 20
879.2658531484
 10
667.183173611
 20
879.3939373735
 10
667.4862467074
 20
879.4990533805
 10
667.8320203087
 20
879.5771616202
 10
668.2072065294
 20
879.6252604367
 10
668.5973871734
 20
879.6415014195
  0
LINE
  5
1AE
330
1F
100
AcDbEntity
  8
0
  6
Continuous
 62
     7
370
    15
100
AcDbLine
 10
666.5973871734
 20
873.7248457552
 30
0.0
 11
666.5973871734
 21
878.7962648961
 31
0.0
  0
LWPOLYLINE
  5
1AF
330
1F
100
AcDbEntity
  8
0
  6
Continuous
 62
     7
370
    15
100
AcDbPolyline
 90
        9
 70
   128
 43
0.0
 10
664.5973871734
 20
872.8796092317
 10
664.9875678174
 20
872.8958502145
 10
665.3627540381
 20
872.943949031
 10
665.7085276394
 20
873.0220572707
 10
666.0116007358
 20
873.1271732777
 10
666.260326398
 20
873.2552575029
 10
666.4451462384
 20
873.4013877412
 10
666.5589577342
 20
873.5599482896
 10
666.5973871734
 20
873.7248457552
  0
LINE
  5
1B0
330
1F
100
AcDbEntity
  8
0
  6
Continuous
 62
     7
370
    15
100
AcDbLine
 10
313.5973871734
 20
872.8796092317
 30
0.0
 11
664.5973871734
 21
872.8796092317
 31
0.0
  0
LINE
  5
1B1
330
1F
100
AcDbEntity
  8
0
  6
Continuous
 62
     7
370
    15
100
AcDbLine
 10
689.0973871734
 20
888.530159655
 30
0.0
 11
689.0973871734
 21
880.486737943
 31
0.0
  0
LINE
  5
1B2
330
1F
100
AcDbEntity
  8
0
  6
Continuous
 62
     7
370
    15
100
AcDbLine
 10
289.0973871734
 20
888.530159655
 30
0.0
 11
289.0973871734
 21
880.486737943
 31
0.0
  0
LINE
  5
1B3
330
1F
100
AcDbEntity
  8
0
  6
Continuous
 62
     7
370
    15
100
AcDbLine
 10
689.0973871734
 20
944.6184085511
 30
0.0
 11
289.0973871734
 21
944.6184085511
 31
0.0
  0
LINE
  5
1B4
330
1F
100
AcDbEntity
  8
0
  6
Continuous
 62
     7
370
    15
100
AcDbLine
 10
289.0973871734
 20
944.6184085511
 30
0.0
 11
289.0973871734
 21
942.3684085511
 31
0.0
  0
LINE
  5
1B5
330
1F
100
AcDbEntity
  8
0
  6
Continuous
 62
     7
370
    15
100
AcDbLine
 10
689.0973871734
 20
944.6184085511
 30
0.0
 11
689.0973871734
 21
942.3684085511
 31
0.0
  0
LINE
  5
1B6
330
1F
100
AcDbEntity
  8
0
  6
Continuous
 62
     7
370
    15
100
AcDbLine
 10
689.0973871734
 20
960.3684085511
 30
0.0
 11
289.0973871734
 21
960.3684085511
 31
0.0
  0
LINE
  5
1B7
330
1F
100
AcDbEntity
  8
0
  6
Continuous
 62
     7
370
    15
100
AcDbLine
 10
689.0973871734
 20
960.3684085511
 30
0.0
 11
689.0973871734
 21
956.1184085511
 31
0.0
  0
LINE
  5
1B8
330
1F
100
AcDbEntity
  8
0
  6
Continuous
 62
     7
370
    15
100
AcDbLine
 10
689.0973871734
 20
956.1184085511
 30
0.0
 11
289.0973871734
 21
956.1184085511
 31
0.0
  0
LINE
  5
1B9
330
1F
100
AcDbEntity
  8
0
  6
Continuous
 62
     7
370
    15
100
AcDbLine
 10
289.0973871734
 20
960.3684085511
 30
0.0
 11
289.0973871734
 21
956.1184085511
 31
0.0
  0
LINE
  5
1BA
330
1F
100
AcDbEntity
  8
0
  6
Continuous
 62
     7
370
    15
100
AcDbLine
 10
289.0973871734
 20
956.1184085511
 30
0.0
 11
289.0973871734
 21
944.6184085511
 31
0.0
  0
LINE
  5
1BB
330
1F
100
AcDbEntity
  8
0
  6
Continuous
 62
     7
370
    15
100
AcDbLine
 10
689.0973871734
 20
956.1184085511
 30
0.0
 11
689.0973871734
 21
944.6184085511
 31
0.0
  0
LINE
  5
1BC
330
1F
100
AcDbEntity
  8
0
  6
Continuous
 62
     7
370
    15
100
AcDbLine
 10
299.0973871734
 20
971.8684085511
 30
0.0
 11
306.5973871734
 21
971.8684085511
 31
0.0
  0
LINE
  5
1BD
330
1F
100
AcDbEntity
  8
0
  6
Continuous
 62
     7
370
    15
100
AcDbLine
 10
291.5973871734
 20
971.8684085511
 30
0.0
 11
299.0973871734
 21
971.8684085511
 31
0.0
  0
LINE
  5
1BE
330
1F
100
AcDbEntity
  8
0
  6
Continuous
 62
     7
370
    15
100
AcDbLine
 10
679.0973871734
 20
971.8684085511
 30
0.0
 11
686.5973871734
 21
971.8684085511
 31
0.0
  0
LINE
  5
1BF
330
1F
100
AcDbEntity
  8
0
  6
Continuous
 62
     7
370
    15
100
AcDbLine
 10
671.5973871734
 20
971.8684085511
 30
0.0
 11
679.0973871734
 21
971.8684085511
 31
0.0
  0
LINE
  5
1C0
330
1F
100
AcDbEntity
  8
0
  6
Continuous
 62
     8
370
    15
100
AcDbLine
 10
654.5973871734
 20
44.6684085511
 30
0.0
 11
597.5973871734
 21
44.6684085511
 31
0.0
  0
LINE
  5
1C1
330
1F
100
AcDbEntity
  8
0
  6
Continuous
 62
     8
370
    15
100
AcDbLine
 10
380.5973871734
 20
44.6684085511
 30
0.0
 11
323.5973871734
 21
44.6684085511
 31
0.0
  0
LINE
  5
1C2
330
1F
100
AcDbEntity
  8
0
  6
Continuous
 62
     8
370
    15
100
AcDbLine
 10
383.9973871734
 20
209.1684085511
 30
0.0
 11
320.1973871734
 21
209.1684085511
 31
0.0
  0
LINE
  5
1C3
330
1F
100
AcDbEntity
  8
0
  6
Continuous
 62
     8
370
    15
100
AcDbLine
 10
383.9334739464
 20
121.9285112723
 30
0.0
 11
320.2613004004
 21
121.9285112723
 31
0.0
  0
LINE
  5
1C4
330
1F
100
AcDbEntity
  8
0
  6
Continuous
 62
     8
370
    15
100
AcDbLine
 10
383.9973871734
 20
122.7009744967
 30
0.0
 11
320.1973871734
 21
122.7009744967
 31
0.0
  0
LINE
  5
1C5
330
1F
100
AcDbEntity
  8
0
  6
Continuous
 62
     8
370
    15
100
AcDbLine
 10
657.9973871734
 20
209.1684085511
 30
0.0
 11
594.1973871734
 21
209.1684085511
 31
0.0
  0
LINE
  5
1C6
330
1F
100
AcDbEntity
  8
0
  6
Continuous
 62
     8
370
    15
100
AcDbLine
 10
657.9334739464
 20
121.9285112723
 30
0.0
 11
594.2613004004
 21
121.9285112723
 31
0.0
  0
LINE
  5
1C7
330
1F
100
AcDbEntity
  8
0
  6
Continuous
 62
     8
370
    15
100
AcDbLine
 10
657.9973871734
 20
122.7009744967
 30
0.0
 11
594.1973871734
 21
122.7009744967
 31
0.0
  0
LINE
  5
1C8
330
1F
100
AcDbEntity
  8
0
  6
Continuous
 62
     8
370
    15
100
AcDbLine
 10
653.5973871734
 20
243.8684085511
 30
0.0
 11
324.5973871734
 21
243.8684085511
 31
0.0
  0
LINE
  5
1C9
330
1F
100
AcDbEntity
  8
0
  6
Continuous
 62
     8
370
    15
100
AcDbLine
 10
291.8973871734
 20
691.4684085511
 30
0.0
 11
291.8973871734
 21
692.2184085511
 31
0.0
  0
LINE
  5
1CA
330
1F
100
AcDbEntity
  8
0
  6
Continuous
 62
     8
370
    15
100
AcDbLine
 10
686.2973871734
 20
691.4684085511
 30
0.0
 11
686.2973871734
 21
692.2184085511
 31
0.0
  0
LINE
  5
1CB
330
1F
100
AcDbEntity
  8
0
  6
Continuous
 62
     8
370
    15
100
AcDbLine
 10
431.2901889336
 20
201.7184085511
 30
0.0
 11
424.4806538041
 21
201.7184085511
 31
0.0
  0
LINE
  5
1CC
330
1F
100
AcDbEntity
  8
0
  6
Continuous
 62
     8
370
    15
100
AcDbLine
 10
424.4806538041
 20
201.0184085511
 30
0.0
 11
431.2901889336
 21
201.0184085511
 31
0.0
  0
ARC
  5
1CD
330
1F
100
AcDbEntity
  8
0
  6
Continuous
 62
     8
370
    15
100
AcDbCircle
 10
431.5870462067
 20
201.0171032941
 30
0.0
 40
0.2541261726939842
100
AcDbArc
 50
179.7057129369
 51
228.9080796239
  0
LINE
  5
1CE
330
1F
100
AcDbEntity
  8
0
  6
Continuous
 62
     8
370
    15
100
AcDbLine
 10
431.4741449394
 20
200.5184085511
 30
0.0
 11
431.4845463008
 21
200.5184085511
 31
0.0
  0
LINE
  5
1CF
330
1F
100
AcDbEntity
  8
0
  6
Continuous
 62
     8
370
    15
100
AcDbLine
 10
431.4741121065
 20
195.4184085511
 30
0.0
 11
431.4845463008
 21
195.4184085511
 31
0.0
  0
LINE
  5
1D0
330
1F
100
AcDbEntity
  8
0
  6
Continuous
 62
     8
370
    15
100
AcDbLine
 10
437.9343803647
 20
195.4184085511
 30
0.0
 11
437.8247570781
 21
195.4184085511
 31
0.0
  0
LINE
  5
1D1
330
1F
100
AcDbEntity
  8
0
  6
Continuous
 62
     8
370
    15
100
AcDbLine
 10
440.7973871734
 20
201.7184085511
 30
0.0
 11
437.518899882
 21
201.7184085511
 31
0.0
  0
LINE
  5
1D2
330
1F
100
AcDbEntity
  8
0
  6
Continuous
 62
     8
370
    15
100
AcDbLine
 10
437.8472391067
 20
201.0184085511
 30
0.0
 11
440.7973871734
 21
201.0184085511
 31
0.0
  0
LINE
  5
1D3
330
1F
100
AcDbEntity
  8
0
  6
Continuous
 62
     8
370
    15
100
AcDbLine
 10
426.4815170976
 20
199.1761416331
 30
0.0
 11
426.4815170976
 21
199.5684085511
 31
0.0
  0
LINE
  5
1D4
330
1F
100
AcDbEntity
  8
0
  6
Continuous
 62
     8
370
    15
100
AcDbLine
 10
426.2708281764
 20
195.4184085511
 30
0.0
 11
426.3372373418
 21
195.4184085511
 31
0.0
  0
LINE
  5
1D5
330
1F
100
AcDbEntity
  8
0
  6
Continuous
 62
     8
370
    15
100
AcDbLine
 10
426.2708281764
 20
199.5684085511
 30
0.0
 11
426.2708281764
 21
195.4184085511
 31
0.0
  0
LINE
  5
1D6
330
1F
100
AcDbEntity
  8
0
  6
Continuous
 62
     8
370
    15
100
AcDbLine
 10
426.8663884241
 20
199.5684085511
 30
0.0
 11
426.8663884241
 21
199.435041361
 31
0.0
  0
ARC
  5
1D7
330
1F
100
AcDbEntity
  8
0
  6
Continuous
 62
     8
370
    15
100
AcDbCircle
 10
426.5265619637
 20
195.417563109
 30
0.0
 40
0.2557351848284821
100
AcDbArc
 50
179.8105839372
 51
222.2417348363
  0
LINE
  5
1D8
330
1F
100
AcDbEntity
  8
0
  6
Continuous
 62
     8
370
    15
100
AcDbLine
 10
426.2708281764
 20
195.4184085511
 30
0.0
 11
426.2603939821
 21
195.4184085511
 31
0.0
  0
LINE
  5
1D9
330
1F
100
AcDbEntity
  8
0
  6
Continuous
 62
     8
370
    15
100
AcDbLine
 10
424.9490079427
 20
199.8184085511
 30
0.0
 11
431.4741121065
 21
199.8184085511
 31
0.0
  0
LINE
  5
1DA
330
1F
100
AcDbEntity
  8
0
  6
Continuous
 62
     8
370
    15
100
AcDbLine
 10
437.9343803647
 20
199.8184085511
 30
0.0
 11
440.6873663795
 21
199.8184085511
 31
0.0
  0
LINE
  5
1DB
330
1F
100
AcDbEntity
  8
0
  6
Continuous
 62
     8
370
    15
100
AcDbLine
 10
440.6873663795
 20
200.5184085511
 30
0.0
 11
437.9343803647
 21
200.5184085511
 31
0.0
  0
LINE
  5
1DC
330
1F
100
AcDbEntity
  8
0
  6
Continuous
 62
     8
370
    15
100
AcDbLine
 10
431.4704338928
 20
200.5184085511
 30
0.0
 11
424.9490079427
 21
200.5184085511
 31
0.0
  0
LINE
  5
1DD
330
1F
100
AcDbEntity
  8
0
  6
Continuous
 62
     8
370
    15
100
AcDbLine
 10
421.8973871734
 20
201.0184085511
 30
0.0
 11
423.2963304949
 21
201.0184085511
 31
0.0
  0
LINE
  5
1DE
330
1F
100
AcDbEntity
  8
0
  6
Continuous
 62
     8
370
    15
100
AcDbLine
 10
423.2963304949
 20
206.1184085511
 30
0.0
 11
421.8973871734
 21
206.1184085511
 31
0.0
  0
LINE
  5
1DF
330
1F
100
AcDbEntity
  8
0
  6
Continuous
 62
     8
370
    15
100
AcDbLine
 10
424.4806500233
 20
201.0184085511
 30
0.0
 11
424.286099957
 21
201.0184085511
 31
0.0
  0
LINE
  5
1E0
330
1F
100
AcDbEntity
  8
0
  6
Continuous
 62
     8
370
    15
100
AcDbLine
 10
424.4806538041
 20
206.1184085511
 30
0.0
 11
424.286099957
 21
206.1184085511
 31
0.0
  0
LINE
  5
1E1
330
1F
100
AcDbEntity
  8
0
  6
Continuous
 62
     8
370
    15
100
AcDbLine
 10
441.3502743651
 20
201.0184085511
 30
0.0
 11
441.0448282122
 21
201.0184085511
 31
0.0
  0
LINE
  5
1E2
330
1F
100
AcDbEntity
  8
0
  6
Continuous
 62
     8
370
    15
100
AcDbLine
 10
441.3502743651
 20
206.1184085511
 30
0.0
 11
441.0448282122
 21
206.1184085511
 31
0.0
  0
LINE
  5
1E3
330
1F
100
AcDbEntity
  8
0
  6
Continuous
 62
     8
370
    15
100
AcDbLine
 10
442.2625863876
 20
201.0184085511
 30
0.0
 11
442.2973871734
 21
201.0184085511
 31
0.0
  0
LINE
  5
1E4
330
1F
100
AcDbEntity
  8
0
  6
Continuous
 62
     8
370
    15
100
AcDbLine
 10
440.7973871734
 20
201.0184085511
 30
0.0
 11
441.0448282122
 21
201.0184085511
 31
0.0
  0
LINE
  5
1E5
330
1F
100
AcDbEntity
  8
0
  6
Continuous
 62
     8
370
    15
100
AcDbLine
 10
441.0448282122
 20
206.1184085511
 30
0.0
 11
439.7515061273
 21
206.1184085511
 31
0.0
  0
LINE
  5
1E6
330
1F
100
AcDbEntity
  8
0
  6
Continuous
 62
     8
370
    15
100
AcDbLine
 10
439.7515061273
 20
206.1184085511
 30
0.0
 11
439.7515061273
 21
201.9684085511
 31
0.0
  0
LINE
  5
1E7
330
1F
100
AcDbEntity
  8
0
  6
Continuous
 62
     8
370
    15
100
AcDbLine
 10
442.2973871734
 20
206.1184085511
 30
0.0
 11
442.2625863876
 21
206.1184085511
 31
0.0
  0
LINE
  5
1E8
330
1F
100
AcDbEntity
  8
0
  6
Continuous
 62
     8
370
    15
100
AcDbLine
 10
439.7515061273
 20
206.1184085511
 30
0.0
 11
439.7141205427
 21
206.1184085511
 31
0.0
  0
LINE
  5
1E9
330
1F
100
AcDbEntity
  8
0
  6
Continuous
 62
     8
370
    15
100
AcDbLine
 10
299.0973871734
 20
969.8684085511
 30
0.0
 11
289.5973871734
 21
969.8684085511
 31
0.0
  0
LINE
  5
1EA
330
1F
100
AcDbEntity
  8
0
  6
Continuous
 62
     8
370
    15
100
AcDbLine
 10
308.5973871734
 20
969.8684085511
 30
0.0
 11
299.0973871734
 21
969.8684085511
 31
0.0
  0
LINE
  5
1EB
330
1F
100
AcDbEntity
  8
0
  6
Continuous
 62
     8
370
    15
100
AcDbLine
 10
679.0973871734
 20
969.8684085511
 30
0.0
 11
669.5973871734
 21
969.8684085511
 31
0.0
  0
LINE
  5
1EC
330
1F
100
AcDbEntity
  8
0
  6
Continuous
 62
     8
370
    15
100
AcDbLine
 10
688.5973871734
 20
969.8684085511
 30
0.0
 11
679.0973871734
 21
969.8684085511
 31
0.0
  0
ENDSEC
  0
SECTION
  2
OBJECTS
  0
DICTIONARY
  5
C
330
0
100
AcDbDictionary
281
     1
  3
ACAD_GROUP
350
D
  3
ACAD_LAYOUT
350
1A
  3
ACAD_MLINESTYLE
350
17
  3
ACAD_PLOTSETTINGS
350
19
  3
ACAD_PLOTSTYLENAME
350
E
  0
DICTIONARY
  5
D
102
{ACAD_REACTORS
330
C
102
}
330
C
100
AcDbDictionary
281
     1
  0
DICTIONARY
  5
1A
102
{ACAD_REACTORS
330
C
102
}
330
C
100
AcDbDictionary
281
     1
  3
Layout1
350
1E
  3
Layout2
350
26
  3
Model
350
22
  0
DICTIONARY
  5
17
102
{ACAD_REACTORS
330
C
102
}
330
C
100
AcDbDictionary
281
     1
  3
Standard
350
18
  0
DICTIONARY
  5
19
102
{ACAD_REACTORS
330
C
102
}
330
C
100
AcDbDictionary
281
     1
  0
ACDBDICTIONARYWDFLT
  5
E
102
{ACAD_REACTORS
330
C
102
}
330
C
100
AcDbDictionary
281
     1
  3
Normal
350
F
100
AcDbDictionaryWithDefault
340
F
  0
LAYOUT
  5
1E
102
{ACAD_REACTORS
330
1A
102
}
330
1A
100
AcDbPlotSettings
  1

  2
none_device
  4

  6

 40
0.0
 41
0.0
 42
0.0
 43
0.0
 44
0.0
 45
0.0
 46
0.0
 47
0.0
 48
0.0
 49
0.0
140
0.0
141
0.0
142
1.0
143
1.0
 70
   688
 72
     0
 73
     0
 74
     5
  7

 75
    16
147
1.0
148
0.0
149
0.0
100
AcDbLayout
  1
Layout1
 70
     1
 71
     1
 10
0.0
 20
0.0
 11
420.0
 21
297.0
 12
0.0
 22
0.0
 32
0.0
 14
1.0000000000E+20
 24
1.0000000000E+20
 34
1.0000000000E+20
 15
-1.0000000000E+20
 25
-1.0000000000E+20
 35
-1.0000000000E+20
146
0.0
 13
0.0
 23
0.0
 33
0.0
 16
1.0
 26
0.0
 36
0.0
 17
0.0
 27
1.0
 37
0.0
 76
     0
330
1B
  0
LAYOUT
  5
26
102
{ACAD_REACTORS
330
1A
102
}
330
1A
100
AcDbPlotSettings
  1

  2
none_device
  4

  6

 40
0.0
 41
0.0
 42
0.0
 43
0.0
 44
0.0
 45
0.0
 46
0.0
 47
0.0
 48
0.0
 49
0.0
140
0.0
141
0.0
142
1.0
143
1.0
 70
   688
 72
     0
 73
     0
 74
     5
  7

 75
    16
147
1.0
148
0.0
149
0.0
100
AcDbLayout
  1
Layout2
 70
     1
 71
     2
 10
0.0
 20
0.0
 11
0.0
 21
0.0
 12
0.0
 22
0.0
 32
0.0
 14
0.0
 24
0.0
 34
0.0
 15
0.0
 25
0.0
 35
0.0
146
0.0
 13
0.0
 23
0.0
 33
0.0
 16
1.0
 26
0.0
 36
0.0
 17
0.0
 27
1.0
 37
0.0
 76
     0
330
23
  0
LAYOUT
  5
22
102
{ACAD_REACTORS
330
1A
102
}
330
1A
100
AcDbPlotSettings
  1

  2
none_device
  4

  6

 40
0.0
 41
0.0
 42
0.0
 43
0.0
 44
0.0
 45
0.0
 46
0.0
 47
0.0
 48
0.0
 49
0.0
140
0.0
141
0.0
142
1.0
143
1.0
 70
  1712
 72
     0
 73
     0
 74
     0
  7

 75
     0
147
1.0
148
0.0
149
0.0
100
AcDbLayout
  1
Model
 70
     1
 71
     0
 10
0.0
 20
0.0
 11
1000.0
 21
1000.0
 12
0.0
 22
0.0
 32
0.0
 14
0.0
 24
0.0
 34
0.0
 15
1000.0
 25
1000.0
 35
0.0
146
0.0
 13
0.0
 23
0.0
 33
0.0
 16
1.0
 26
0.0
 36
0.0
 17
0.0
 27
1.0
 37
0.0
 76
     0
330
1F
331
29
  0
MLINESTYLE
  5
18
102
{ACAD_REACTORS
330
17
102
}
330
17
100
AcDbMlineStyle
  2
Standard
 70
     0
  3

 62
   256
 51
90.0
 52
90.0
 71
     2
 49
0.5
 62
   256
  6
BYLAYER
 49
-0.5
 62
   256
  6
BYLAYER
  0
ACDBPLACEHOLDER
  5
F
102
{ACAD_REACTORS
330
E
102
}
330
E
  0
ENDSEC
  0
EOF
