  0
SECTION
  2
HEADER
  9
$ACADVER
  1
AC1015
  9
$ACADMAINTVER
 70
     6
  9
$DWGCODEPAGE
  3
ANSI_1252
  9
$INSBASE
 10
0.0
 20
0.0
 30
0.0
  9
$EXTMIN
 10
0.0
 20
0.0
 30
0.0
  9
$EXTMAX
 10
1100.0
 20
1100.0
 30
0.0
  9
$LIMMIN
 10
0.0
 20
0.0
  9
$LIMMAX
 10
1100.0
 20
1100.0
  9
$ORTHOMODE
 70
     0
  9
$REGENMODE
 70
     1
  9
$FILLMODE
 70
     1
  9
$QTEXTMODE
 70
     0
  9
$MIRRTEXT
 70
     1
  9
$LTSCALE
 40
1.0
  9
$ATTMODE
 70
     1
  9
$TEXTSIZE
 40
3.5
  9
$TRACEWID
 40
1.0
  9
$TEXTSTYLE
  7
Standard
  9
$CLAYER
  8
0
  9
$CELTYPE
  6
ByLayer
  9
$CECOLOR
 62
   256
  9
$CELTSCALE
 40
1.0
  9
$DISPSILH
 70
     0
  9
$DIMSCALE
 40
1.0
  9
$DIMASZ
 40
3.302
  9
$DIMEXO
 40
1.0
  9
$DIMDLI
 40
3.75
  9
$DIMRND
 40
0.0
  9
$DIMDLE
 40
0.0
  9
$DIMEXE
 40
1.0
  9
$DIMTP
 40
0.0
  9
$DIMTM
 40
0.0
  9
$DIMTXT
 40
3.5
  9
$DIMCEN
 40
2.5
  9
$DIMTSZ
 40
0.0
  9
$DIMTOL
 70
     0
  9
$DIMLIM
 70
     0
  9
$DIMTIH
 70
     1
  9
$DIMTOH
 70
     1
  9
$DIMSE1
 70
     0
  9
$DIMSE2
 70
     0
  9
$DIMTAD
 70
     1
  9
$DIMZIN
 70
     0
  9
$DIMBLK
  1

  9
$DIMASO
 70
     1
  9
$DIMSHO
 70
     1
  9
$DIMPOST
  1

  9
$DIMAPOST
  1

  9
$DIMALT
 70
     0
  9
$DIMALTD
 70
     3
  9
$DIMALTF
 40
0.0393700787
  9
$DIMLFAC
 40
1.0
  9
$DIMTOFL
 70
     1
  9
$DIMTVP
 40
0.0
  9
$DIMTIX
 70
     0
  9
$DIMSOXD
 70
     0
  9
$DIMSAH
 70
     0
  9
$DIMBLK1
  1

  9
$DIMBLK2
  1

  9
$DIMSTYLE
  2
ISO-25
  9
$DIMCLRD
 70
     0
  9
$DIMCLRE
 70
     0
  9
$DIMCLRT
 70
     0
  9
$DIMTFAC
 40
1.0
  9
$DIMGAP
 40
1.524
  9
$DIMJUST
 70
     0
  9
$DIMSD1
 70
     0
  9
$DIMSD2
 70
     0
  9
$DIMTOLJ
 70
     0
  9
$DIMTZIN
 70
     0
  9
$DIMALTZ
 70
     0
  9
$DIMALTTZ
 70
     0
  9
$DIMUPT
 70
     0
  9
$DIMDEC
 70
     1
  9
$DIMTDEC
 70
     1
  9
$DIMALTU
 70
     2
  9
$DIMALTTD
 70
     3
  9
$DIMTXSTY
  7
Standard
  9
$DIMAUNIT
 70
     0
  9
$DIMADEC
 70
     1
  9
$DIMALTRND
 40
0.0
  9
$DIMAZIN
 70
     0
  9
$DIMDSEP
 70
    44
  9
$DIMATFIT
 70
     3
  9
$DIMFRAC
 70
     0
  9
$DIMLDRBLK
  1

  9
$DIMLUNIT
 70
     2
  9
$DIMLWD
 70
    -2
  9
$DIMLWE
 70
    -2
  9
$DIMTMOVE
 70
     0
  9
$LUNITS
 70
     2
  9
$LUPREC
 70
     1
  9
$SKETCHINC
 40
1.0
  9
$FILLETRAD
 40
10.0
  9
$AUNITS
 70
     0
  9
$AUPREC
 70
     1
  9
$MENU
  1
.
  9
$ELEVATION
 40
0.0
  9
$PELEVATION
 40
0.0
  9
$THICKNESS
 40
0.0
  9
$LIMCHECK
 70
     0
  9
$CHAMFERA
 40
10.0
  9
$CHAMFERB
 40
10.0
  9
$CHAMFERC
 40
20.0
  9
$CHAMFERD
 40
0.0
  9
$SKPOLY
 70
     0
  9
$TDCREATE
 40
2457423.361786331
  9
$TDUCREATE
 40
2457423.361786331
  9
$TDUPDATE
 40
2457423.361786956
  9
$TDUUPDATE
 40
2457423.361786956
  9
$TDINDWG
 40
0.0000000116
  9
$TDUSRTIMER
 40
0.0000000116
  9
$USRTIMER
 70
     1
  9
$ANGBASE
 50
0.0
  9
$ANGDIR
 70
     0
  9
$PDMODE
 70
     0
  9
$PDSIZE
 40
-1.0
  9
$PLINEWID
 40
0.0
  9
$SPLFRAME
 70
     0
  9
$SPLINETYPE
 70
     6
  9
$SPLINESEGS
 70
     8
  9
$HANDSEED
  5
150
  9
$SURFTAB1
 70
     6
  9
$SURFTAB2
 70
     6
  9
$SURFTYPE
 70
     6
  9
$SURFU
 70
     6
  9
$SURFV
 70
     6
  9
$UCSBASE
  2

  9
$UCSNAME
  2

  9
$UCSORG
 10
0.0
 20
0.0
 30
0.0
  9
$UCSXDIR
 10
1.0
 20
0.0
 30
0.0
  9
$UCSYDIR
 10
0.0
 20
1.0
 30
0.0
  9
$UCSORTHOREF
  2

  9
$UCSORTHOVIEW
 70
     0
  9
$UCSORGTOP
 10
0.0
 20
0.0
 30
0.0
  9
$UCSORGBOTTOM
 10
0.0
 20
0.0
 30
0.0
  9
$UCSORGLEFT
 10
0.0
 20
0.0
 30
0.0
  9
$UCSORGRIGHT
 10
0.0
 20
0.0
 30
0.0
  9
$UCSORGFRONT
 10
0.0
 20
0.0
 30
0.0
  9
$UCSORGBACK
 10
0.0
 20
0.0
 30
0.0
  9
$PUCSBASE
  2

  9
$PUCSNAME
  2

  9
$PUCSORG
 10
0.0
 20
0.0
 30
0.0
  9
$PUCSXDIR
 10
1.0
 20
0.0
 30
0.0
  9
$PUCSYDIR
 10
0.0
 20
1.0
 30
0.0
  9
$PUCSORTHOREF
  2

  9
$PUCSORTHOVIEW
 70
     0
  9
$PUCSORGTOP
 10
0.0
 20
0.0
 30
0.0
  9
$PUCSORGBOTTOM
 10
0.0
 20
0.0
 30
0.0
  9
$PUCSORGLEFT
 10
0.0
 20
0.0
 30
0.0
  9
$PUCSORGRIGHT
 10
0.0
 20
0.0
 30
0.0
  9
$PUCSORGFRONT
 10
0.0
 20
0.0
 30
0.0
  9
$PUCSORGBACK
 10
0.0
 20
0.0
 30
0.0
  9
$USERI1
 70
     0
  9
$USERI2
 70
     0
  9
$USERI3
 70
     0
  9
$USERI4
 70
     0
  9
$USERI5
 70
     0
  9
$USERR1
 40
0.0
  9
$USERR2
 40
0.0
  9
$USERR3
 40
0.0
  9
$USERR4
 40
0.0
  9
$USERR5
 40
0.0
  9
$WORLDVIEW
 70
     1
  9
$SHADEDGE
 70
     3
  9
$SHADEDIF
 70
    70
  9
$TILEMODE
 70
     1
  9
$MAXACTVP
 70
    64
  9
$PINSBASE
 10
0.0
 20
0.0
 30
0.0
  9
$PLIMCHECK
 70
     0
  9
$PEXTMIN
 10
1.0000000000E+20
 20
1.0000000000E+20
 30
1.0000000000E+20
  9
$PEXTMAX
 10
-1.0000000000E+20
 20
-1.0000000000E+20
 30
-1.0000000000E+20
  9
$PLIMMIN
 10
0.0
 20
0.0
  9
$PLIMMAX
 10
420.0
 20
297.0
  9
$UNITMODE
 70
     0
  9
$VISRETAIN
 70
     1
  9
$PLINEGEN
 70
     0
  9
$PSLTSCALE
 70
     1
  9
$TREEDEPTH
 70
  3020
  9
$CMLSTYLE
  2
Standard
  9
$CMLJUST
 70
     0
  9
$CMLSCALE
 40
20.0
  9
$PROXYGRAPHICS
 70
     1
  9
$MEASUREMENT
 70
     1
  9
$CELWEIGHT
370
    -1
  9
$ENDCAPS
280
     0
  9
$JOINSTYLE
280
     0
  9
$LWDISPLAY
290
     1
  9
$INSUNITS
 70
     4
  9
$HYPERLINKBASE
  1

  9
$STYLESHEET
  1

  9
$XEDIT
290
     1
  9
$CEPSNTYPE
380
     0
  9
$PSTYLEMODE
290
     1
  9
$FINGERPRINTGUID
  2
{FC1D63EA-87DC-4141-9A79-8F0E86CA32C9}
  9
$VERSIONGUID
  2
{FAEB1C32-E019-11D5-929B-00C0DF256EC4}
  9
$EXTNAMES
290
     1
  9
$PSVPSCALE
 40
0.0
  9
$OLESTARTUP
290
     0
  0
ENDSEC
  0
SECTION
  2
CLASSES
  0
CLASS
  1
ACDBDICTIONARYWDFLT
  2
AcDbDictionaryWithDefault
  3
ObjectDBX Classes
 90
        0
280
     0
281
     0
  0
CLASS
  1
VISUALSTYLE
  2
AcDbVisualStyle
  3
ObjectDBX Classes
 90
     4095
280
     0
281
     0
  0
CLASS
  1
MATERIAL
  2
AcDbMaterial
  3
ObjectDBX Classes
 90
     1153
280
     0
281
     0
  0
CLASS
  1
ACDBPLACEHOLDER
  2
AcDbPlaceHolder
  3
ObjectDBX Classes
 90
        0
280
     0
281
     0
  0
CLASS
  1
LAYOUT
  2
AcDbLayout
  3
ObjectDBX Classes
 90
        0
280
     0
281
     0
  0
ENDSEC
  0
SECTION
  2
TABLES
  0
TABLE
  2
VPORT
  5
8
330
0
100
AcDbSymbolTable
 70
     1
  0
VPORT
  5
29
330
8
100
AcDbSymbolTableRecord
100
AcDbViewportTableRecord
  2
*Active
 70
     0
 10
0.0
 20
0.0
 11
1.0
 21
1.0
 12
550.0
 22
550.0
 13
0.0
 23
0.0
 14
10.0
 24
10.0
 15
10.0
 25
10.0
 16
0.0
 26
0.0
 36
1.0
 17
0.0
 27
0.0
 37
0.0
 40
1100.0
 41
1.0
 42
50.0
 43
0.0
 44
0.0
 50
0.0
 51
0.0
 71
     0
 72
  2000
 73
     1
 74
     3
 75
     0
 76
     0
 77
     0
 78
     0
281
     0
 65
     1
110
0.0
120
0.0
130
0.0
111
1.0
121
0.0
131
0.0
112
0.0
122
1.0
132
0.0
 79
     0
146
0.0
  0
ENDTAB
  0
TABLE
  2
LTYPE
  5
5
330
0
100
AcDbSymbolTable
 70
     6
  0
LTYPE
  5
14
330
5
100
AcDbSymbolTableRecord
100
AcDbLinetypeTableRecord
  2
ByBlock
 70
     0
  3

 72
    65
 73
     0
 40
0.0
  0
LTYPE
  5
15
330
5
100
AcDbSymbolTableRecord
100
AcDbLinetypeTableRecord
  2
ByLayer
 70
     0
  3

 72
    65
 73
     0
 40
0.0
  0
LTYPE
  5
16
330
5
100
AcDbSymbolTableRecord
100
AcDbLinetypeTableRecord
  2
Continuous
 70
     0
  3
Solid line
 72
    65
 73
     0
 40
0.0
  0
LTYPE
  5
3F
330
5
100
AcDbSymbolTableRecord
100
AcDbLinetypeTableRecord
  2
HIDDEN
 70
     0
  3
Hidden __ __ __ __ __ __ __ __ __ __ __ __ __ __
 72
    65
 73
     2
 40
1.905
 49
1.27
 74
     0
 49
-0.635
 74
     0
  0
LTYPE
  5
40
330
5
100
AcDbSymbolTableRecord
100
AcDbLinetypeTableRecord
  2
PHANTOM
 70
     0
  3
Phantom ______  __  __  ______  __  __  ______
 72
    65
 73
     6
 40
12.7
 49
6.35
 74
     0
 49
-1.27
 74
     0
 49
1.27
 74
     0
 49
-1.27
 74
     0
 49
1.27
 74
     0
 49
-1.27
 74
     0
  0
LTYPE
  5
41
330
5
100
AcDbSymbolTableRecord
100
AcDbLinetypeTableRecord
  2
CENTER
 70
     0
  3
Center ____ _ ____ _ ____ _ ____ _ ____ _ ____
 72
    65
 73
     4
 40
10.16
 49
6.35
 74
     0
 49
-1.27
 74
     0
 49
1.27
 74
     0
 49
-1.27
 74
     0
  0
LTYPE
  5
42
330
5
100
AcDbSymbolTableRecord
100
AcDbLinetypeTableRecord
  2
CENTERX2
 70
     0
  3
Center (2x) ________  __  ________  __  _____
 72
    65
 73
     4
 40
20.32
 49
12.7
 74
     0
 49
-2.54
 74
     0
 49
2.54
 74
     0
 49
-2.54
 74
     0
  0
LTYPE
  5
43
330
5
100
AcDbSymbolTableRecord
100
AcDbLinetypeTableRecord
  2
DOT2
 70
     0
  3
Dot (.5x) ........................................
 72
    65
 73
     2
 40
0.635
 49
0.0
 74
     0
 49
-0.635
 74
     0
  0
ENDTAB
  0
TABLE
  2
LAYER
  5
2
330
0
100
AcDbSymbolTable
 70
     4
  0
LAYER
  5
10
330
2
100
AcDbSymbolTableRecord
100
AcDbLayerTableRecord
  2
0
 70
     0
 62
     7
  6
Continuous
370
    -3
390
F
  0
LAYER
  5
44
330
2
100
AcDbSymbolTableRecord
100
AcDbLayerTableRecord
  2
FORMAT
 70
     0
 62
     7
  6
Continuous
370
    -3
390
F
  0
LAYER
  5
45
330
2
100
AcDbSymbolTableRecord
100
AcDbLayerTableRecord
  2
SLD-0
 70
     0
 62
     1
  6
Continuous
370
    -3
390
F
  0
LAYER
  5
46
330
2
100
AcDbSymbolTableRecord
100
AcDbLayerTableRecord
  2
WATERMARK
 70
     0
 62
     1
  6
Continuous
370
    -3
390
F
  0
ENDTAB
  0
TABLE
  2
STYLE
  5
3
330
0
100
AcDbSymbolTable
 70
     1
  0
STYLE
  5
11
330
3
100
AcDbSymbolTableRecord
100
AcDbTextStyleTableRecord
  2
Standard
 70
     0
 40
0.0
 41
1.0
 50
0.0
 71
     0
 42
3.5
  3
txt
  4

  0
ENDTAB
  0
TABLE
  2
VIEW
  5
6
330
0
100
AcDbSymbolTable
 70
     0
  0
ENDTAB
  0
TABLE
  2
UCS
  5
7
330
0
100
AcDbSymbolTable
 70
     0
  0
ENDTAB
  0
TABLE
  2
APPID
  5
9
330
0
100
AcDbSymbolTable
 70
     1
  0
APPID
  5
12
330
9
100
AcDbSymbolTableRecord
100
AcDbRegAppTableRecord
  2
ACAD
 70
     0
  0
ENDTAB
  0
TABLE
  2
DIMSTYLE
  5
A
330
0
100
AcDbSymbolTable
 70
     1
100
AcDbDimStyleTable
  0
DIMSTYLE
105
27
330
A
100
AcDbSymbolTableRecord
100
AcDbDimStyleTableRecord
  2
ISO-25
 70
     0
 41
2.5
 42
0.625
 43
3.75
 44
1.25
 73
     0
 74
     0
 77
     1
 78
     8
140
2.5
141
2.5
143
0.0393700787
147
0.625
171
     3
172
     1
178
     0
271
     2
272
     2
274
     3
278
    44
283
     0
284
     8
340
11
  0
ENDTAB
  0
TABLE
  2
BLOCK_RECORD
  5
1
330
0
100
AcDbSymbolTable
 70
     1
  0
BLOCK_RECORD
  5
1F
330
1
100
AcDbSymbolTableRecord
100
AcDbBlockTableRecord
  2
*Model_Space
340
22
  0
BLOCK_RECORD
  5
1B
330
1
100
AcDbSymbolTableRecord
100
AcDbBlockTableRecord
  2
*Paper_Space
340
1E
  0
BLOCK_RECORD
  5
23
330
1
100
AcDbSymbolTableRecord
100
AcDbBlockTableRecord
  2
*Paper_Space0
340
26
  0
ENDTAB
  0
ENDSEC
  0
SECTION
  2
BLOCKS
  0
BLOCK
  5
20
330
1F
100
AcDbEntity
  8
0
100
AcDbBlockBegin
  2
*Model_Space
 70
     0
 10
0.0
 20
0.0
 30
0.0
  3
*Model_Space
  1

  0
ENDBLK
  5
21
330
1F
100
AcDbEntity
  8
0
100
AcDbBlockEnd
  0
BLOCK
  5
1C
330
1B
100
AcDbEntity
 67
     1
  8
0
100
AcDbBlockBegin
  2
*Paper_Space
 70
     0
 10
0.0
 20
0.0
 30
0.0
  3
*Paper_Space
  1

  0
ENDBLK
  5
1D
330
1B
100
AcDbEntity
 67
     1
  8
0
100
AcDbBlockEnd
  0
BLOCK
  5
24
330
23
100
AcDbEntity
  8
0
100
AcDbBlockBegin
  2
*Paper_Space0
 70
     0
 10
0.0
 20
0.0
 30
0.0
  3
*Paper_Space0
  1

  0
ENDBLK
  5
25
330
23
100
AcDbEntity
  8
0
100
AcDbBlockEnd
  0
ENDSEC
  0
SECTION
  2
ENTITIES
  0
ARC
  5
47
330
1F
100
AcDbEntity
  8
0
  6
Continuous
 62
     7
370
    15
100
AcDbCircle
 10
705.0757635468
 20
829.6699507389
 30
0.0
 40
2.0
100
AcDbArc
 50
90.0
 51
180.0
  0
ARC
  5
48
330
1F
100
AcDbEntity
  8
0
  6
Continuous
 62
     7
370
    15
100
AcDbCircle
 10
720.0757635468
 20
829.6699507389
 30
0.0
 40
2.0
100
AcDbArc
 50
0.0
 51
90.0
  0
LINE
  5
49
330
1F
100
AcDbEntity
  8
0
  6
Continuous
 62
     7
370
    15
100
AcDbLine
 10
722.0757636719
 20
820.1699434474
 30
0.0
 11
722.0757636719
 21
829.669940348
 31
0.0
  0
LINE
  5
4A
330
1F
100
AcDbEntity
  8
0
  6
Continuous
 62
     7
370
    15
100
AcDbLine
 10
703.0757698708
 20
829.669940348
 30
0.0
 11
703.0757698708
 21
820.1699434474
 31
0.0
  0
ARC
  5
4B
330
1F
100
AcDbEntity
  8
0
  6
Continuous
 62
     7
370
    15
100
AcDbCircle
 10
325.0757635468
 20
829.6699507389
 30
0.0
 40
2.0
100
AcDbArc
 50
90.0
 51
180.0
  0
ARC
  5
4C
330
1F
100
AcDbEntity
  8
0
  6
Continuous
 62
     7
370
    15
100
AcDbCircle
 10
340.0757635468
 20
829.6699507389
 30
0.0
 40
2.0
100
AcDbArc
 50
0.0
 51
90.0
  0
LINE
  5
4D
330
1F
100
AcDbEntity
  8
0
  6
Continuous
 62
     7
370
    15
100
AcDbLine
 10
342.0757684403
 20
820.1699434474
 30
0.0
 11
342.0757684403
 21
829.669940348
 31
0.0
  0
LINE
  5
4E
330
1F
100
AcDbEntity
  8
0
  6
Continuous
 62
     7
370
    15
100
AcDbLine
 10
323.075759738
 20
829.669940348
 30
0.0
 11
323.075759738
 21
820.1699434474
 31
0.0
  0
LINE
  5
4F
330
1F
100
AcDbEntity
  8
0
  6
Continuous
 62
     7
370
    15
100
AcDbLine
 10
688.0757692747
 20
455.2699505046
 30
0.0
 11
688.0757692747
 21
459.2699511603
 31
0.0
  0
LINE
  5
50
330
1F
100
AcDbEntity
  8
0
  6
Continuous
 62
     7
370
    15
100
AcDbLine
 10
631.0757655196
 20
459.2699511603
 30
0.0
 11
631.0757655196
 21
455.2699505046
 31
0.0
  0
ARC
  5
51
330
1F
100
AcDbEntity
  8
0
  6
Continuous
 62
     7
370
    15
100
AcDbCircle
 10
686.0757635468
 20
455.2699507389
 30
0.0
 40
2.0
100
AcDbArc
 50
270.0
 51
0.0
  0
ARC
  5
52
330
1F
100
AcDbEntity
  8
0
  6
Continuous
 62
     7
370
    15
100
AcDbCircle
 10
633.0757635468
 20
455.2699507389
 30
0.0
 40
2.0
100
AcDbArc
 50
180.0
 51
270.0
  0
ARC
  5
53
330
1F
100
AcDbEntity
  8
0
  6
Continuous
 62
     7
370
    15
100
AcDbCircle
 10
412.0757635468
 20
455.2699507389
 30
0.0
 40
2.0
100
AcDbArc
 50
270.0
 51
0.0
  0
ARC
  5
54
330
1F
100
AcDbEntity
  8
0
  6
Continuous
 62
     7
370
    15
100
AcDbCircle
 10
359.0757635468
 20
455.2699507389
 30
0.0
 40
2.0
100
AcDbArc
 50
180.0
 51
270.0
  0
LINE
  5
55
330
1F
100
AcDbEntity
  8
0
  6
Continuous
 62
     7
370
    15
100
AcDbLine
 10
414.0757653408
 20
455.2699505046
 30
0.0
 11
414.0757653408
 21
459.2699511603
 31
0.0
  0
LINE
  5
56
330
1F
100
AcDbEntity
  8
0
  6
Continuous
 62
     7
370
    15
100
AcDbLine
 10
357.0757690363
 20
459.2699511603
 30
0.0
 11
357.0757690363
 21
455.2699505046
 31
0.0
  0
LINE
  5
57
330
1F
100
AcDbEntity
  8
0
  6
Continuous
 62
     7
370
    15
100
AcDbLine
 10
413.8757619553
 20
459.2699511603
 30
0.0
 11
413.8757619553
 21
488.2699503258
 31
0.0
  0
LINE
  5
58
330
1F
100
AcDbEntity
  8
0
  6
Continuous
 62
     7
370
    15
100
AcDbLine
 10
357.2757575207
 20
488.2699503258
 30
0.0
 11
357.2757575207
 21
459.2699511603
 31
0.0
  0
LINE
  5
59
330
1F
100
AcDbEntity
  8
0
  6
Continuous
 62
     7
370
    15
100
AcDbLine
 10
687.8757658892
 20
459.2699511603
 30
0.0
 11
687.8757658892
 21
488.2699503258
 31
0.0
  0
LINE
  5
5A
330
1F
100
AcDbEntity
  8
0
  6
Continuous
 62
     7
370
    15
100
AcDbLine
 10
631.2757614546
 20
488.2699503258
 30
0.0
 11
631.2757614546
 21
459.2699511603
 31
0.0
  0
ARC
  5
5B
330
1F
100
AcDbEntity
  8
0
  6
Continuous
 62
     7
370
    15
100
AcDbCircle
 10
418.9757635468
 20
549.7699507389
 30
0.0
 40
1.499999999999943
100
AcDbArc
 50
90.0
 51
180.0
  0
ARC
  5
5C
330
1F
100
AcDbEntity
  8
0
  6
Continuous
 62
     7
370
    15
100
AcDbCircle
 10
352.1757635468
 20
549.7699507389
 30
0.0
 40
1.499999999999943
100
AcDbArc
 50
0.0
 51
90.0
  0
ARC
  5
5D
330
1F
100
AcDbEntity
  8
0
  6
Continuous
 62
     7
370
    15
100
AcDbCircle
 10
412.7757635468
 20
494.3025166846
 30
0.0
 40
4.699999999999989
100
AcDbArc
 50
350.5402980318
 51
0.0
  0
ARC
  5
5E
330
1F
100
AcDbEntity
  8
0
  6
Continuous
 62
     7
370
    15
100
AcDbCircle
 10
358.3757635468
 20
494.3025166846
 30
0.0
 40
4.700000000000045
100
AcDbArc
 50
180.0
 51
189.4597019682
  0
LINE
  5
5F
330
1F
100
AcDbEntity
  8
0
  6
Continuous
 62
     7
370
    15
100
AcDbLine
 10
417.4757632904
 20
494.3025140718
 30
0.0
 11
417.4757632904
 21
549.7699510932
 31
0.0
  0
LINE
  5
60
330
1F
100
AcDbEntity
  8
0
  6
Continuous
 62
     7
370
    15
100
AcDbLine
 10
353.6757561856
 20
549.7699510932
 30
0.0
 11
353.6757561856
 21
494.3025140718
 31
0.0
  0
LINE
  5
61
330
1F
100
AcDbEntity
  8
0
  6
Continuous
 62
     7
370
    15
100
AcDbLine
 10
353.7396821671
 20
493.5300527767
 30
0.0
 11
354.6161088639
 21
488.2699503258
 31
0.0
  0
LINE
  5
62
330
1F
100
AcDbEntity
  8
0
  6
Continuous
 62
     7
370
    15
100
AcDbLine
 10
416.5354106121
 20
488.2699503258
 30
0.0
 11
417.4118522101
 21
493.5300527767
 31
0.0
  0
ARC
  5
63
330
1F
100
AcDbEntity
  8
0
  6
Continuous
 62
     7
370
    15
100
AcDbCircle
 10
692.9757635468
 20
549.7699507389
 30
0.0
 40
1.5
100
AcDbArc
 50
90.0
 51
180.0
  0
ARC
  5
64
330
1F
100
AcDbEntity
  8
0
  6
Continuous
 62
     7
370
    15
100
AcDbCircle
 10
626.1757635468
 20
549.7699507389
 30
0.0
 40
1.5
100
AcDbArc
 50
0.0
 51
90.0
  0
ARC
  5
65
330
1F
100
AcDbEntity
  8
0
  6
Continuous
 62
     7
370
    15
100
AcDbCircle
 10
686.7757635468
 20
494.3025166846
 30
0.0
 40
4.699999999999932
100
AcDbArc
 50
350.5402980318
 51
0.0
  0
ARC
  5
66
330
1F
100
AcDbEntity
  8
0
  6
Continuous
 62
     7
370
    15
100
AcDbCircle
 10
632.3757635468
 20
494.3025166846
 30
0.0
 40
4.700000000000122
100
AcDbArc
 50
180.0
 51
189.4597019682
  0
LINE
  5
67
330
1F
100
AcDbEntity
  8
0
  6
Continuous
 62
     7
370
    15
100
AcDbLine
 10
691.4757672243
 20
494.3025140718
 30
0.0
 11
691.4757672243
 21
549.7699510932
 31
0.0
  0
LINE
  5
68
330
1F
100
AcDbEntity
  8
0
  6
Continuous
 62
     7
370
    15
100
AcDbLine
 10
627.6757601195
 20
549.7699510932
 30
0.0
 11
627.6757601195
 21
494.3025140718
 31
0.0
  0
LINE
  5
69
330
1F
100
AcDbEntity
  8
0
  6
Continuous
 62
     7
370
    15
100
AcDbLine
 10
627.7396786504
 20
493.5300527767
 30
0.0
 11
628.6161127978
 21
488.2699503258
 31
0.0
  0
LINE
  5
6A
330
1F
100
AcDbEntity
  8
0
  6
Continuous
 62
     7
370
    15
100
AcDbLine
 10
690.535414546
 20
488.2699503258
 30
0.0
 11
691.411856144
 21
493.5300527767
 31
0.0
  0
SPLINE
  5
6B
330
1F
100
AcDbEntity
  8
0
  6
Continuous
 62
     7
370
    15
100
AcDbSpline
210
0.0
220
0.0
230
1.0
 70
     8
 71
     3
 72
    13
 73
     9
 74
     0
 42
0.00000001
 43
0.00000001
 12
1.0
 22
0.0
 32
0.0
 13
1.0
 23
0.0
 33
0.0
 40
0.0
 40
0.0
 40
0.0
 40
0.0
 40
0.1560217005995069
 40
0.4086663528134334
 40
0.5953241368163096
 40
0.7561011362168572
 40
0.9249084668325559
 40
1.0
 40
1.0
 40
1.0
 40
1.0
 10
459.0197164111427
 20
541.6709976896941
 30
0.0
 10
459.01749824901
 20
541.6707404740678
 30
0.0
 10
459.0116882352411
 20
541.6700667513009
 30
0.0
 10
458.9886408653042
 20
541.6804274641052
 30
0.0
 10
458.9488780771678
 20
541.7261490560916
 30
0.0
 10
458.9183501257664
 20
541.7939248774961
 30
0.0
 10
458.9017397864629
 20
541.862776460176
 30
0.0
 10
458.9028936759792
 20
541.9064907732043
 30
0.0
 10
458.9032489352516
 20
541.9199495271146
 30
0.0
  0
ARC
  5
6C
330
1F
100
AcDbEntity
  8
0
  6
Continuous
 62
     7
370
    15
100
AcDbCircle
 10
458.6513542108
 20
547.0199507389
 30
0.0
 40
0.25
100
AcDbArc
 50
0.0
 51
90.0
  0
LINE
  5
6D
330
1F
100
AcDbEntity
  8
0
  6
Continuous
 62
     7
370
    15
100
AcDbLine
 10
458.9013564878
 20
541.9199513898
 30
0.0
 11
458.9013564878
 21
547.0199511081
 31
0.0
  0
ARC
  5
6E
330
1F
100
AcDbEntity
  8
0
  6
Continuous
 62
     7
370
    15
100
AcDbCircle
 10
453.8251872387
 20
547.0199507389
 30
0.0
 40
0.25
100
AcDbArc
 50
90.0
 51
180.0
  0
LINE
  5
6F
330
1F
100
AcDbEntity
  8
0
  6
Continuous
 62
     7
370
    15
100
AcDbLine
 10
453.5751897388
 20
547.0199511081
 30
0.0
 11
453.5751897388
 21
541.9199513898
 31
0.0
  0
ARC
  5
70
330
1F
100
AcDbEntity
  8
0
  6
Continuous
 62
     7
370
    15
100
AcDbCircle
 10
454.1257635468
 20
540.7199507389
 30
0.0
 40
0.25
100
AcDbArc
 50
180.0
 51
270.0
  0
LINE
  5
71
330
1F
100
AcDbEntity
  8
0
  6
Continuous
 62
     7
370
    15
100
AcDbLine
 10
453.8757610612
 20
540.9831712649
 30
0.0
 11
453.8757610612
 21
540.7199515656
 31
0.0
  0
ARC
  5
72
330
1F
100
AcDbEntity
  8
0
  6
Continuous
 62
     7
370
    15
100
AcDbCircle
 10
471.3263398549
 20
547.0199507389
 30
0.0
 40
0.25
100
AcDbArc
 50
0.0
 51
90.0
  0
LINE
  5
73
330
1F
100
AcDbEntity
  8
0
  6
Continuous
 62
     7
370
    15
100
AcDbLine
 10
471.5763363533
 20
542.4914723888
 30
0.0
 11
471.5763363533
 21
547.0199511081
 31
0.0
  0
SPLINE
  5
74
330
1F
100
AcDbEntity
  8
0
  6
Continuous
 62
     7
370
    15
100
AcDbSpline
210
0.0
220
0.0
230
1.0
 70
     8
 71
     3
 72
    13
 73
     9
 74
     0
 42
0.00000001
 43
0.00000001
 12
1.0
 22
0.0
 32
0.0
 13
1.0
 23
0.0
 33
0.0
 40
0.0
 40
0.0
 40
0.0
 40
0.0
 40
0.1537437965342829
 40
0.4678178005514815
 40
0.652287930467643
 40
0.8142642427911111
 40
0.9817899123677166
 40
1.0
 40
1.0
 40
1.0
 40
1.0
 10
466.9137108617119
 20
541.6675648346841
 30
0.0
 10
466.9207893438235
 20
541.6679287725875
 30
0.0
 10
466.9423280335619
 20
541.6690361774612
 30
0.0
 10
466.9829236334758
 20
541.6467703470099
 30
0.0
 10
467.0310162390679
 20
541.5846335435234
 30
0.0
 10
467.0586421145669
 20
541.5131585173147
 30
0.0
 10
467.0698056557424
 20
541.4544492626337
 30
0.0
 10
467.0679282330893
 20
541.4233055476996
 30
0.0
 10
467.0677441649727
 20
541.4202521249949
 30
0.0
  0
ARC
  5
75
330
1F
100
AcDbEntity
  8
0
  6
Continuous
 62
     7
370
    15
100
AcDbCircle
 10
467.3183814422
 20
536.3199507389
 30
0.0
 40
0.25
100
AcDbArc
 50
180.0
 51
270.0
  0
LINE
  5
76
330
1F
100
AcDbEntity
  8
0
  6
Continuous
 62
     7
370
    15
100
AcDbLine
 10
467.0683849149
 20
541.4199503765
 30
0.0
 11
467.0683849149
 21
536.3199515894
 31
0.0
  0
ARC
  5
77
330
1F
100
AcDbEntity
  8
0
  6
Continuous
 62
     7
370
    15
100
AcDbCircle
 10
471.7562026568
 20
536.3199507389
 30
0.0
 40
0.25
100
AcDbArc
 50
270.0
 51
0.0
  0
LINE
  5
78
330
1F
100
AcDbEntity
  8
0
  6
Continuous
 62
     7
370
    15
100
AcDbLine
 10
472.0062050515
 20
536.3199515894
 30
0.0
 11
472.0062050515
 21
541.4199503765
 31
0.0
  0
ARC
  5
79
330
1F
100
AcDbEntity
  8
0
  6
Continuous
 62
     7
370
    15
100
AcDbCircle
 10
471.0257635468
 20
542.6199507389
 30
0.0
 40
0.2500000000001137
100
AcDbArc
 50
31.0756875732
 51
90.0
  0
ARC
  5
7A
330
1F
100
AcDbEntity
  8
0
  6
Continuous
 62
     7
370
    15
100
AcDbCircle
 10
453.3953244367
 20
536.3199507389
 30
0.0
 40
0.25
100
AcDbArc
 50
180.0
 51
270.0
  0
LINE
  5
7B
330
1F
100
AcDbEntity
  8
0
  6
Continuous
 62
     7
370
    15
100
AcDbLine
 10
453.1453210407
 20
541.4199503765
 30
0.0
 11
453.1453210407
 21
536.3199515894
 31
0.0
  0
LINE
  5
7C
330
1F
100
AcDbEntity
  8
0
  6
Continuous
 62
     7
370
    15
100
AcDbLine
 10
467.575762003
 20
548.3199507624
 30
0.0
 11
467.9158661061
 21
548.5163080201
 31
0.0
  0
LINE
  5
7D
330
1F
100
AcDbEntity
  8
0
  6
Continuous
 62
     7
370
    15
100
AcDbLine
 10
457.235659986
 20
548.5163080201
 30
0.0
 11
457.5757640891
 21
548.3199507624
 31
0.0
  0
LINE
  5
7E
330
1F
100
AcDbEntity
  8
0
  6
Continuous
 62
     7
370
    15
100
AcDbLine
 10
457.5757640891
 20
548.0699511871
 30
0.0
 11
457.4229824834
 21
547.9817446947
 31
0.0
  0
LINE
  5
7F
330
1F
100
AcDbEntity
  8
0
  6
Continuous
 62
     7
370
    15
100
AcDbLine
 10
467.7285436087
 20
547.9817446947
 30
0.0
 11
467.575762003
 21
548.0699511871
 31
0.0
  0
LINE
  5
80
330
1F
100
AcDbEntity
  8
0
  6
Continuous
 62
     7
370
    15
100
AcDbLine
 10
467.575762003
 20
542.8699507073
 30
0.0
 11
467.7285436087
 21
542.9581571997
 31
0.0
  0
LINE
  5
81
330
1F
100
AcDbEntity
  8
0
  6
Continuous
 62
     7
370
    15
100
AcDbLine
 10
459.5757606917
 20
548.3199507624
 30
0.0
 11
459.5757606917
 21
548.0699511871
 31
0.0
  0
LINE
  5
82
330
1F
100
AcDbEntity
  8
0
  6
Continuous
 62
     7
370
    15
100
AcDbLine
 10
465.5757654004
 20
548.0699511871
 30
0.0
 11
465.5757654004
 21
548.3199507624
 31
0.0
  0
LINE
  5
83
330
1F
100
AcDbEntity
  8
0
  6
Continuous
 62
     7
370
    15
100
AcDbLine
 10
722.5757572346
 20
602.6056735471
 30
0.0
 11
722.5757572346
 21
611.7342292026
 31
0.0
  0
LINE
  5
84
330
1F
100
AcDbEntity
  8
0
  6
Continuous
 62
     7
370
    15
100
AcDbLine
 10
322.5757661753
 20
602.6056735471
 30
0.0
 11
322.5757661753
 21
611.7342292026
 31
0.0
  0
LINE
  5
85
330
1F
100
AcDbEntity
  8
0
  6
Continuous
 62
     7
370
    15
100
AcDbLine
 10
722.5757572346
 20
558.4056735141
 30
0.0
 11
722.5757572346
 21
602.6056735471
 31
0.0
  0
LINE
  5
86
330
1F
100
AcDbEntity
  8
0
  6
Continuous
 62
     7
370
    15
100
AcDbLine
 10
322.5757661753
 20
558.4056735141
 30
0.0
 11
322.5757661753
 21
602.6056735471
 31
0.0
  0
LINE
  5
87
330
1F
100
AcDbEntity
  8
0
  6
Continuous
 62
     7
370
    15
100
AcDbLine
 10
344.6757677489
 20
731.6269009069
 30
0.0
 11
344.6757677489
 21
732.7597765878
 31
0.0
  0
LINE
  5
88
330
1F
100
AcDbEntity
  8
0
  6
Continuous
 62
     7
370
    15
100
AcDbLine
 10
700.4757705622
 20
732.7597765878
 30
0.0
 11
698.9181372814
 21
732.7597765878
 31
0.0
  0
LINE
  5
89
330
1F
100
AcDbEntity
  8
0
  6
Continuous
 62
     7
370
    15
100
AcDbLine
 10
346.2333861285
 20
732.7597765878
 30
0.0
 11
344.6757677489
 21
732.7597765878
 31
0.0
  0
LINE
  5
8A
330
1F
100
AcDbEntity
  8
0
  6
Continuous
 62
     7
370
    15
100
AcDbLine
 10
700.4757705622
 20
732.7597765878
 30
0.0
 11
700.4757705622
 21
731.6269009069
 31
0.0
  0
ARC
  5
8B
330
1F
100
AcDbEntity
  8
0
  6
Continuous
 62
     7
370
    15
100
AcDbCircle
 10
700.7757681899
 20
731.6506835705
 30
0.0
 40
0.3009388504934189
100
AcDbArc
 50
184.5327103599
 51
355.4672896401
  0
LINE
  5
8C
330
1F
100
AcDbEntity
  8
0
  6
Continuous
 62
     7
370
    15
100
AcDbLine
 10
722.5757572346
 20
611.7342292026
 30
0.0
 11
722.5757572346
 21
731.6269009069
 31
0.0
  0
LINE
  5
8D
330
1F
100
AcDbEntity
  8
0
  6
Continuous
 62
     7
370
    15
100
AcDbLine
 10
322.5757661753
 20
611.7342292026
 30
0.0
 11
322.5757661753
 21
731.6269009069
 31
0.0
  0
ARC
  5
8E
330
1F
100
AcDbEntity
  8
0
  6
Continuous
 62
     7
370
    15
100
AcDbCircle
 10
344.3757626705
 20
731.6506940616
 30
0.0
 40
0.3009471070255311
100
AcDbArc
 50
184.5345893582
 51
355.4654106418
  0
LINE
  5
8F
330
1F
100
AcDbEntity
  8
0
  6
Continuous
 62
     7
370
    15
100
AcDbLine
 10
722.5757572346
 20
552.1699507416
 30
0.0
 11
322.5757661753
 21
552.1699507416
 31
0.0
  0
LINE
  5
90
330
1F
100
AcDbEntity
  8
0
  6
Continuous
 62
     7
370
    15
100
AcDbLine
 10
322.5757661753
 20
552.1699507416
 30
0.0
 11
322.5757661753
 21
558.4056735141
 31
0.0
  0
LINE
  5
91
330
1F
100
AcDbEntity
  8
0
  6
Continuous
 62
     7
370
    15
100
AcDbLine
 10
722.5757572346
 20
552.1699507416
 30
0.0
 11
722.5757572346
 21
558.4056735141
 31
0.0
  0
LINE
  5
92
330
1F
100
AcDbEntity
  8
0
  6
Continuous
 62
     7
370
    15
100
AcDbLine
 10
701.1093381338
 20
739.337819691
 30
0.0
 11
701.0757658177
 21
739.1835777715
 31
0.0
  0
LINE
  5
93
330
1F
100
AcDbEntity
  8
0
  6
Continuous
 62
     7
370
    15
100
AcDbLine
 10
701.0757658177
 20
739.1835777715
 30
0.0
 11
701.0757658177
 21
739.3298028663
 31
0.0
  0
LINE
  5
94
330
1F
100
AcDbEntity
  8
0
  6
Continuous
 62
     7
370
    15
100
AcDbLine
 10
722.5757572346
 20
739.9086235717
 30
0.0
 11
722.5757572346
 21
739.1835777715
 31
0.0
  0
ARC
  5
95
330
1F
100
AcDbEntity
  8
0
  6
Continuous
 62
     7
370
    15
100
AcDbCircle
 10
721.8540689501
 20
739.0385224562
 30
0.0
 40
0.7361216099060497
100
AcDbArc
 50
11.3647064491
 51
71.3363531595
  0
LWPOLYLINE
  5
96
330
1F
100
AcDbEntity
  8
0
  6
Continuous
 62
     7
370
    15
100
AcDbPolyline
 90
        3
 70
   128
 43
0.0
 10
722.524676054
 20
740.0984494642
 10
722.5373271399
 20
740.0735198215
 10
722.5757572346
 20
739.9086235717
  0
LINE
  5
97
330
1F
100
AcDbEntity
  8
0
  6
Continuous
 62
     7
370
    15
100
AcDbLine
 10
722.5757572346
 20
739.1835777715
 30
0.0
 11
722.5757572346
 21
733.2880525545
 31
0.0
  0
LINE
  5
98
330
1F
100
AcDbEntity
  8
0
  6
Continuous
 62
     7
370
    15
100
AcDbLine
 10
701.0757658177
 20
733.2880525545
 30
0.0
 11
701.0757658177
 21
739.1835777715
 31
0.0
  0
LWPOLYLINE
  5
99
330
1F
100
AcDbEntity
  8
0
  6
Continuous
 62
     7
370
    15
100
AcDbPolyline
 90
       19
 70
   128
 43
0.0
 10
711.5757647448
 20
738.8454853252
 10
712.6702252322
 20
738.76393127
 10
713.6326912337
 20
738.5290889696
 10
714.3470380001
 20
738.1693004325
 10
714.727151721
 20
737.7279429391
 10
714.727151721
 20
737.2582732395
 10
714.3470380001
 20
736.8169157461
 10
713.6326912337
 20
736.457127209
 10
712.6702252322
 20
736.2222849086
 10
711.5757647448
 20
736.1407308534
 10
710.4813042574
 20
736.2222849086
 10
709.5188382559
 20
736.457127209
 10
708.8044765883
 20
736.8169157461
 10
708.4243777685
 20
737.2582732395
 10
708.4243777685
 20
737.7279429391
 10
708.8044765883
 20
738.1693004325
 10
709.5188382559
 20
738.5290889696
 10
710.4813042574
 20
738.76393127
 10
711.5757647448
 20
738.8454853252
  0
LWPOLYLINE
  5
9A
330
1F
100
AcDbEntity
  8
0
  6
Continuous
 62
     7
370
    15
100
AcDbPolyline
 90
        3
 70
   128
 43
0.0
 10
344.0757575922
 20
739.0990583852
 10
344.0373274975
 20
739.263954635
 10
343.9851287298
 20
739.3506197885
  0
LINE
  5
9B
330
1F
100
AcDbEntity
  8
0
  6
Continuous
 62
     7
370
    15
100
AcDbLine
 10
344.0757575922
 20
739.0990583852
 30
0.0
 11
344.0757575922
 21
733.2880525545
 31
0.0
  0
LINE
  5
9C
330
1F
100
AcDbEntity
  8
0
  6
Continuous
 62
     7
370
    15
100
AcDbLine
 10
322.5757661753
 20
733.2880525545
 30
0.0
 11
322.5757661753
 21
739.0990583852
 31
0.0
  0
ARC
  5
9D
330
1F
100
AcDbEntity
  8
0
  6
Continuous
 62
     7
370
    15
100
AcDbCircle
 10
323.3415839186
 20
738.9326891576
 30
0.0
 40
0.783680761456029
100
AcDbArc
 50
103.8226898823
 51
167.7432914446
  0
LWPOLYLINE
  5
9E
330
1F
100
AcDbEntity
  8
0
  6
Continuous
 62
     7
370
    15
100
AcDbPolyline
 90
       19
 70
   128
 43
0.0
 10
333.5757586651
 20
736.1407308534
 10
332.4812981777
 20
736.2222849086
 10
331.5188470774
 20
736.457127209
 10
330.8044854098
 20
736.8169157461
 10
330.4243716889
 20
737.2582732395
 10
330.4243716889
 20
737.7279429391
 10
330.8044854098
 20
738.1693004325
 10
331.5188470774
 20
738.5290889696
 10
332.4812981777
 20
738.76393127
 10
333.5757586651
 20
738.8454853252
 10
334.6702340536
 20
738.76393127
 10
335.632685154
 20
738.5290889696
 10
336.3470468216
 20
738.1693004325
 10
336.7271456414
 20
737.7279429391
 10
336.7271456414
 20
737.2582732395
 10
336.3470468216
 20
736.8169157461
 10
335.632685154
 20
736.457127209
 10
334.6702340536
 20
736.2222849086
 10
333.5757586651
 20
736.1407308534
  0
LINE
  5
9F
330
1F
100
AcDbEntity
  8
0
  6
Continuous
 62
     7
370
    15
100
AcDbLine
 10
344.0757575922
 20
739.3298028663
 30
0.0
 11
344.0757575922
 21
739.0990583852
 31
0.0
  0
LINE
  5
A0
330
1F
100
AcDbEntity
  8
0
  6
Continuous
 62
     7
370
    15
100
AcDbLine
 10
322.5757661753
 20
739.0990583852
 30
0.0
 11
322.5757661753
 21
739.8241041854
 31
0.0
  0
LWPOLYLINE
  5
A1
330
1F
100
AcDbEntity
  8
0
  6
Continuous
 62
     7
370
    15
100
AcDbPolyline
 90
        3
 70
   128
 43
0.0
 10
322.5757661753
 20
739.8241041854
 10
322.61419627
 20
739.9890004352
 10
322.6526412659
 20
740.056189771
  0
ARC
  5
A2
330
1F
100
AcDbEntity
  8
0
  6
Continuous
 62
     7
370
    15
100
AcDbCircle
 10
711.5757647448
 20
741.6764688826
 30
0.0
 40
4.909479644583747
100
AcDbArc
 50
231.1012822985
 51
308.8987177015
  0
ARC
  5
A3
330
1F
100
AcDbEntity
  8
0
  6
Continuous
 62
     7
370
    15
100
AcDbCircle
 10
333.1114268034
 20
740.7153506764
 30
0.0
 40
3.877476529200261
100
AcDbArc
 50
227.5206538881
 51
276.8777348336
  0
ARC
  5
A4
330
1F
100
AcDbEntity
  8
0
  6
Continuous
 62
     7
370
    15
100
AcDbCircle
 10
334.0401184291
 20
740.7152637752
 30
0.0
 40
3.877393594841087
100
AcDbArc
 50
263.121702049
 51
312.4799092293
  0
LINE
  5
A5
330
1F
100
AcDbEntity
  8
0
  6
Continuous
 62
     7
370
    15
100
AcDbLine
 10
322.5757661753
 20
733.2880525545
 30
0.0
 11
322.5757661753
 21
731.6269009069
 31
0.0
  0
LINE
  5
A6
330
1F
100
AcDbEntity
  8
0
  6
Continuous
 62
     7
370
    15
100
AcDbLine
 10
344.0757575922
 20
731.6269009069
 30
0.0
 11
344.0757575922
 21
733.2880525545
 31
0.0
  0
LINE
  5
A7
330
1F
100
AcDbEntity
  8
0
  6
Continuous
 62
     7
370
    15
100
AcDbLine
 10
701.0757658177
 20
733.2880525545
 30
0.0
 11
701.0757658177
 21
731.6269009069
 31
0.0
  0
LINE
  5
A8
330
1F
100
AcDbEntity
  8
0
  6
Continuous
 62
     7
370
    15
100
AcDbLine
 10
722.5757572346
 20
731.6269009069
 30
0.0
 11
722.5757572346
 21
733.2880525545
 31
0.0
  0
LINE
  5
A9
330
1F
100
AcDbEntity
  8
0
  6
Continuous
 62
     7
370
    15
100
AcDbLine
 10
347.5757572346
 20
551.9699506156
 30
0.0
 11
348.5757592612
 21
551.9699506156
 31
0.0
  0
LINE
  5
AA
330
1F
100
AcDbEntity
  8
0
  6
Continuous
 62
     7
370
    15
100
AcDbLine
 10
347.5757572346
 20
551.9699506156
 30
0.0
 11
347.5757572346
 21
552.1699507416
 31
0.0
  0
LINE
  5
AB
330
1F
100
AcDbEntity
  8
0
  6
Continuous
 62
     7
370
    15
100
AcDbLine
 10
348.5757592612
 20
551.9699506156
 30
0.0
 11
496.5757648938
 21
551.9699506156
 31
0.0
  0
LINE
  5
AC
330
1F
100
AcDbEntity
  8
0
  6
Continuous
 62
     7
370
    15
100
AcDbLine
 10
497.5757631951
 20
551.9699506156
 30
0.0
 11
497.5757631951
 21
552.1699507416
 31
0.0
  0
LINE
  5
AD
330
1F
100
AcDbEntity
  8
0
  6
Continuous
 62
     7
370
    15
100
AcDbLine
 10
496.5757648938
 20
551.9699506156
 30
0.0
 11
497.5757631951
 21
551.9699506156
 31
0.0
  0
LINE
  5
AE
330
1F
100
AcDbEntity
  8
0
  6
Continuous
 62
     7
370
    15
100
AcDbLine
 10
677.0780864649
 20
673.6255838231
 30
0.0
 11
713.0774143629
 21
673.6255838231
 31
0.0
  0
SPLINE
  5
AF
330
1F
100
AcDbEntity
  8
0
  6
Continuous
 62
     7
370
    15
100
AcDbSpline
210
0.0
220
0.0
230
1.0
 70
     8
 71
     3
 72
    11
 73
     7
 74
     0
 42
0.00000001
 43
0.00000001
 12
1.0
 22
0.0
 32
0.0
 13
1.0
 23
0.0
 33
0.0
 40
0.0
 40
0.0
 40
0.0
 40
0.0
 40
0.2833036574289939
 40
0.5580380103132032
 40
0.7754291779757462
 40
1.0
 40
1.0
 40
1.0
 40
1.0
 10
713.0774143629363
 20
673.625583823055
 30
0.0
 10
713.3745325076344
 20
673.5902853796443
 30
0.0
 10
713.9597816350193
 20
673.5207561921052
 30
0.0
 10
714.6089089968626
 20
673.0363099307656
 30
0.0
 10
715.0040629630706
 20
672.4459287479052
 30
0.0
 10
715.0516064650512
 20
672.0269793948322
 30
0.0
 10
715.0757643871597
 20
671.8141018107831
 30
0.0
  0
LINE
  5
B0
330
1F
100
AcDbEntity
  8
0
  6
Continuous
 62
     7
370
    15
100
AcDbLine
 10
715.0757643872
 20
671.8141018108
 30
0.0
 11
715.0757643872
 21
621.0582433895
 31
0.0
  0
SPLINE
  5
B1
330
1F
100
AcDbEntity
  8
0
  6
Continuous
 62
     7
370
    15
100
AcDbSpline
210
0.0
220
0.0
230
1.0
 70
     8
 71
     3
 72
    11
 73
     7
 74
     0
 42
0.00000001
 43
0.00000001
 12
1.0
 22
0.0
 32
0.0
 13
1.0
 23
0.0
 33
0.0
 40
0.0
 40
0.0
 40
0.0
 40
0.0
 40
0.283326497471705
 40
0.5580486645243886
 40
0.7754272934171633
 40
1.0
 40
1.0
 40
1.0
 40
1.0
 10
715.0757643871597
 20
621.0582433894574
 30
0.0
 10
715.0368384674141
 20
620.7889660286435
 30
0.0
 10
714.9601687675333
 20
620.2585889797977
 30
0.0
 10
714.4258004394817
 20
619.6702318923241
 30
0.0
 10
713.7745030660732
 20
619.3120929537622
 30
0.0
 10
713.3122852556776
 20
619.269008281661
 30
0.0
 10
713.0774143629363
 20
619.2471152797639
 30
0.0
  0
LINE
  5
B2
330
1F
100
AcDbEntity
  8
0
  6
Continuous
 62
     7
370
    15
100
AcDbLine
 10
713.0774143629
 20
619.2471152798
 30
0.0
 11
677.0780864649
 21
619.2471152798
 31
0.0
  0
SPLINE
  5
B3
330
1F
100
AcDbEntity
  8
0
  6
Continuous
 62
     7
370
    15
100
AcDbSpline
210
0.0
220
0.0
230
1.0
 70
     8
 71
     3
 72
    11
 73
     7
 74
     0
 42
0.00000001
 43
0.00000001
 12
1.0
 22
0.0
 32
0.0
 13
1.0
 23
0.0
 33
0.0
 40
0.0
 40
0.0
 40
0.0
 40
0.0
 40
0.2832774867171939
 40
0.5580019017942127
 40
0.7753991478480013
 40
1.0
 40
1.0
 40
1.0
 40
1.0
 10
677.0780864649108
 20
619.2471152797639
 30
0.0
 10
676.7809695383096
 20
619.2818122488576
 30
0.0
 10
676.1957066145945
 20
619.3501585723342
 30
0.0
 10
675.5455282884783
 20
619.8331633218664
 30
0.0
 10
675.1489823631654
 20
620.4226580661225
 30
0.0
 10
675.1004347155063
 20
620.8414639346676
 30
0.0
 10
675.0757652812293
 20
621.0542796805798
 30
0.0
  0
LINE
  5
B4
330
1F
100
AcDbEntity
  8
0
  6
Continuous
 62
     7
370
    15
100
AcDbLine
 10
675.0757652812
 20
621.0542796806
 30
0.0
 11
675.0757652812
 21
671.8180655197
 31
0.0
  0
SPLINE
  5
B5
330
1F
100
AcDbEntity
  8
0
  6
Continuous
 62
     7
370
    15
100
AcDbSpline
210
0.0
220
0.0
230
1.0
 70
     8
 71
     3
 72
    11
 73
     7
 74
     0
 42
0.00000001
 43
0.00000001
 12
1.0
 22
0.0
 32
0.0
 13
1.0
 23
0.0
 33
0.0
 40
0.0
 40
0.0
 40
0.0
 40
0.0
 40
0.2833519788257131
 40
0.5581106469643056
 40
0.7754835176622944
 40
1.0
 40
1.0
 40
1.0
 40
1.0
 10
675.0757652812293
 20
671.8180655196606
 30
0.0
 10
675.1153411622123
 20
672.0872829633138
 30
0.0
 10
675.1932926931354
 20
672.6175532027313
 30
0.0
 10
675.7289693047719
 20
673.2049346995866
 30
0.0
 10
676.3809881693728
 20
673.5619358729917
 30
0.0
 10
676.8432294921023
 20
673.6041404126019
 30
0.0
 10
677.0780864649108
 20
673.625583823055
 30
0.0
  0
SPLINE
  5
B6
330
1F
100
AcDbEntity
  8
0
  6
Continuous
 62
     7
370
    15
100
AcDbSpline
210
0.0
220
0.0
230
1.0
 70
     8
 71
     3
 72
    11
 73
     7
 74
     0
 42
0.00000001
 43
0.00000001
 12
1.0
 22
0.0
 32
0.0
 13
1.0
 23
0.0
 33
0.0
 40
0.0
 40
0.0
 40
0.0
 40
0.0
 40
0.2832770744506166
 40
0.5580012871081187
 40
0.7753998356961703
 40
1.0
 40
1.0
 40
1.0
 40
1.0
 10
677.0780864649108
 20
618.5709266618192
 30
0.0
 10
676.7809695760584
 20
618.6056241370906
 30
0.0
 10
676.1957065196577
 20
618.6739714818178
 30
0.0
 10
675.5455262209575
 20
619.1569706978574
 30
0.0
 10
675.1489837827663
 20
619.7464685540633
 30
0.0
 10
675.1004351209752
 20
620.1652731737518
 30
0.0
 10
675.0757652812293
 20
620.3780873373448
 30
0.0
  0
SPLINE
  5
B7
330
1F
100
AcDbEntity
  8
0
  6
Continuous
 62
     7
370
    15
100
AcDbSpline
210
0.0
220
0.0
230
1.0
 70
     8
 71
     3
 72
    11
 73
     7
 74
     0
 42
0.00000001
 43
0.00000001
 12
1.0
 22
0.0
 32
0.0
 13
1.0
 23
0.0
 33
0.0
 40
0.0
 40
0.0
 40
0.0
 40
0.0
 40
0.2833259418481096
 40
0.5580485943453088
 40
0.775427607354387
 40
0.9999999999999999
 40
0.9999999999999999
 40
0.9999999999999999
 40
0.9999999999999999
 10
715.0757643871597
 20
620.3820510462224
 30
0.0
 10
715.0368382764801
 20
620.1127750519538
 30
0.0
 10
714.9601680598159
 20
619.582399721293
 30
0.0
 10
714.4258002474812
 20
618.9940432366692
 30
0.0
 10
713.7745042944157
 20
618.6359047145884
 30
0.0
 10
713.3122854271063
 20
618.5928197687375
 30
0.0
 10
713.0774143629363
 20
618.5709266618192
 30
0.0
  0
LINE
  5
B8
330
1F
100
AcDbEntity
  8
0
  6
Continuous
 62
     7
370
    15
100
AcDbLine
 10
715.0757643872
 20
620.3820510462
 30
0.0
 11
715.0757643872
 21
621.0582433895
 31
0.0
  0
LINE
  5
B9
330
1F
100
AcDbEntity
  8
0
  6
Continuous
 62
     7
370
    15
100
AcDbLine
 10
713.0774143629
 20
618.5709266618
 30
0.0
 11
677.0780864649
 21
618.5709266618
 31
0.0
  0
SPLINE
  5
BA
330
1F
100
AcDbEntity
  8
0
  6
Continuous
 62
     7
370
    15
100
AcDbSpline
210
0.0
220
0.0
230
1.0
 70
     8
 71
     3
 72
    13
 73
     9
 74
     0
 42
0.00000001
 43
0.00000001
 12
1.0
 22
0.0
 32
0.0
 13
1.0
 23
0.0
 33
0.0
 40
0.0
 40
0.0
 40
0.0
 40
0.0
 40
0.127590584023422
 40
0.2546771629060059
 40
0.5000481442525367
 40
0.7453980376135335
 40
0.8725392818888493
 40
1.0
 40
1.0
 40
1.0
 40
1.0
 10
675.0757652812293
 20
621.0542796805798
 30
0.0
 10
675.0836109315337
 20
620.9335865452761
 30
0.0
 10
675.0992712404505
 20
620.6926770336798
 30
0.0
 10
675.2618552085071
 20
620.2397387474505
 30
0.0
 10
675.6298347451545
 20
619.7436285243343
 30
0.0
 10
676.178822580401
 20
619.4121483286299
 30
0.0
 10
676.6792164945789
 20
619.2668961000464
 30
0.0
 10
676.9450186322052
 20
619.2537143999782
 30
0.0
 10
677.0780864649108
 20
619.2471152797639
 30
0.0
  0
SPLINE
  5
BB
330
1F
100
AcDbEntity
  8
0
  6
Continuous
 62
     7
370
    15
100
AcDbSpline
210
0.0
220
0.0
230
1.0
 70
     8
 71
     3
 72
    13
 73
     9
 74
     0
 42
0.00000001
 43
0.00000001
 12
1.0
 22
0.0
 32
0.0
 13
1.0
 23
0.0
 33
0.0
 40
0.0
 40
0.0
 40
0.0
 40
0.0
 40
0.127570860092238
 40
0.2546445418207153
 40
0.4999984893555424
 40
0.7453530203035234
 40
0.8725109324983802
 40
1.0
 40
1.0
 40
1.0
 40
1.0
 10
713.0774143629363
 20
619.2471152797639
 30
0.0
 10
713.2106002056944
 20
619.2539617581768
 30
0.0
 10
713.476452829731
 20
619.2676280324131
 30
0.0
 10
713.9765589894971
 20
619.4139987639194
 30
0.0
 10
714.5247892136357
 20
619.7464608239504
 30
0.0
 10
714.8917242020847
 20
620.2433852142204
 30
0.0
 10
715.0530729578311
 20
620.6966823392563
 30
0.0
 10
715.0681940226609
 20
620.9376185976508
 30
0.0
 10
715.0757643871597
 20
621.0582433894574
 30
0.0
  0
SPLINE
  5
BC
330
1F
100
AcDbEntity
  8
0
  6
Continuous
 62
     7
370
    15
100
AcDbSpline
210
0.0
220
0.0
230
1.0
 70
     8
 71
     3
 72
    13
 73
     9
 74
     0
 42
0.00000001
 43
0.00000001
 12
1.0
 22
0.0
 32
0.0
 13
1.0
 23
0.0
 33
0.0
 40
0.0
 40
0.0
 40
0.0
 40
0.0
 40
0.1275360210934476
 40
0.2545898617130047
 40
0.4999452367555299
 40
0.7453328637490375
 40
0.8725086347845395
 40
1.0
 40
1.0
 40
1.0
 40
1.0
 10
677.0780864649108
 20
673.625583823055
 30
0.0
 10
676.9449243882601
 20
673.6189975663947
 30
0.0
 10
676.6791036860831
 20
673.605849953995
 30
0.0
 10
676.178742219938
 20
673.4603933538676
 30
0.0
 10
675.629831952087
 20
673.1288844317456
 30
0.0
 10
675.2617698635647
 20
672.6326089757382
 30
0.0
 10
675.0993306541886
 20
672.1796023682098
 30
0.0
 10
675.0836268924688
 20
671.9386773239784
 30
0.0
 10
675.0757652812293
 20
671.8180655196606
 30
0.0
  0
SPLINE
  5
BD
330
1F
100
AcDbEntity
  8
0
  6
Continuous
 62
     7
370
    15
100
AcDbSpline
210
0.0
220
0.0
230
1.0
 70
     8
 71
     3
 72
    13
 73
     9
 74
     0
 42
0.00000001
 43
0.00000001
 12
1.0
 22
0.0
 32
0.0
 13
1.0
 23
0.0
 33
0.0
 40
0.0
 40
0.0
 40
0.0
 40
0.0
 40
0.1275662045343257
 40
0.2546447202906814
 40
0.5000150759364451
 40
0.7453746037721309
 40
0.8725245269341345
 40
1.0
 40
1.0
 40
1.0
 40
1.0
 10
715.0757643871597
 20
671.8141018107831
 30
0.0
 10
715.0682111308304
 20
671.9348183434441
 30
0.0
 10
715.0531334944588
 20
672.1757899064548
 30
0.0
 10
714.8916241397345
 20
672.6290838657046
 30
0.0
 10
714.5248111049485
 20
673.1260302056183
 30
0.0
 10
713.97651761827
 20
673.458714542574
 30
0.0
 10
713.476354280594
 20
673.6049976361867
 30
0.0
 10
713.2105076344127
 20
673.618715914289
 30
0.0
 10
713.0774143629363
 20
673.625583823055
 30
0.0
  0
LINE
  5
BE
330
1F
100
AcDbEntity
  8
0
  6
Continuous
 62
     7
370
    15
100
AcDbLine
 10
712.5757667713
 20
831.6699444011
 30
0.0
 11
720.0757596188
 21
831.6699444011
 31
0.0
  0
LINE
  5
BF
330
1F
100
AcDbEntity
  8
0
  6
Continuous
 62
     7
370
    15
100
AcDbLine
 10
705.0757590227
 20
831.6699444011
 30
0.0
 11
712.5757667713
 21
831.6699444011
 31
0.0
  0
LINE
  5
C0
330
1F
100
AcDbEntity
  8
0
  6
Continuous
 62
     7
370
    15
100
AcDbLine
 10
332.5757566386
 20
831.6699444011
 30
0.0
 11
340.0757643872
 21
831.6699444011
 31
0.0
  0
LINE
  5
C1
330
1F
100
AcDbEntity
  8
0
  6
Continuous
 62
     7
370
    15
100
AcDbLine
 10
325.0757637911
 20
831.6699444011
 30
0.0
 11
332.5757566386
 21
831.6699444011
 31
0.0
  0
LINE
  5
C2
330
1F
100
AcDbEntity
  8
0
  6
Continuous
 62
     7
370
    15
100
AcDbLine
 10
333.5757586651
 20
737.1589271978
 30
0.0
 11
336.4257696562
 21
737.8543345884
 31
0.0
  0
LINE
  5
C3
330
1F
100
AcDbEntity
  8
0
  6
Continuous
 62
     7
370
    15
100
AcDbLine
 10
336.4257696562
 20
737.8543345884
 30
0.0
 11
336.4257696562
 21
738.1080864623
 31
0.0
  0
LINE
  5
C4
330
1F
100
AcDbEntity
  8
0
  6
Continuous
 62
     7
370
    15
100
AcDbLine
 10
330.7257625752
 20
738.1080864623
 30
0.0
 11
330.7257625752
 21
737.8543345884
 31
0.0
  0
LINE
  5
C5
330
1F
100
AcDbEntity
  8
0
  6
Continuous
 62
     7
370
    15
100
AcDbLine
 10
330.7257625752
 20
737.8543345884
 30
0.0
 11
333.5757586651
 21
737.1589271978
 31
0.0
  0
LINE
  5
C6
330
1F
100
AcDbEntity
  8
0
  6
Continuous
 62
     7
370
    15
100
AcDbLine
 10
333.7895903282
 20
738.8424603895
 30
0.0
 11
333.5757586651
 21
738.7902914241
 31
0.0
  0
LINE
  5
C7
330
1F
100
AcDbEntity
  8
0
  6
Continuous
 62
     7
370
    15
100
AcDbLine
 10
333.5757586651
 20
738.7902914241
 30
0.0
 11
333.3619419031
 21
738.8424603895
 31
0.0
  0
LINE
  5
C8
330
1F
100
AcDbEntity
  8
0
  6
Continuous
 62
     7
370
    15
100
AcDbLine
 10
333.5757586651
 20
738.7902914241
 30
0.0
 11
333.5757586651
 21
737.1589271978
 31
0.0
  0
LINE
  5
C9
330
1F
100
AcDbEntity
  8
0
  6
Continuous
 62
     7
370
    15
100
AcDbLine
 10
711.5757647448
 20
737.1589271978
 30
0.0
 11
714.4257608347
 21
737.8543345884
 31
0.0
  0
LINE
  5
CA
330
1F
100
AcDbEntity
  8
0
  6
Continuous
 62
     7
370
    15
100
AcDbLine
 10
714.4257608347
 20
737.8543345884
 30
0.0
 11
714.4257608347
 21
738.1080864623
 31
0.0
  0
LINE
  5
CB
330
1F
100
AcDbEntity
  8
0
  6
Continuous
 62
     7
370
    15
100
AcDbLine
 10
708.7257686549
 20
738.1080864623
 30
0.0
 11
708.7257686549
 21
737.8543345884
 31
0.0
  0
LINE
  5
CC
330
1F
100
AcDbEntity
  8
0
  6
Continuous
 62
     7
370
    15
100
AcDbLine
 10
708.7257686549
 20
737.8543345884
 30
0.0
 11
711.5757647448
 21
737.1589271978
 31
0.0
  0
LINE
  5
CD
330
1F
100
AcDbEntity
  8
0
  6
Continuous
 62
     7
370
    15
100
AcDbLine
 10
711.7895964079
 20
738.8424603895
 30
0.0
 11
711.5757647448
 21
738.7902914241
 31
0.0
  0
LINE
  5
CE
330
1F
100
AcDbEntity
  8
0
  6
Continuous
 62
     7
370
    15
100
AcDbLine
 10
711.5757647448
 20
738.7902914241
 30
0.0
 11
711.3619330817
 21
738.8424603895
 31
0.0
  0
LINE
  5
CF
330
1F
100
AcDbEntity
  8
0
  6
Continuous
 62
     7
370
    15
100
AcDbLine
 10
711.5757647448
 20
738.7902914241
 30
0.0
 11
711.5757647448
 21
737.1589271978
 31
0.0
  0
LINE
  5
D0
330
1F
100
AcDbEntity
  8
0
  6
Continuous
 62
     7
370
    15
100
AcDbLine
 10
722.5757572346
 20
802.1699516729
 30
0.0
 11
322.5757661753
 21
802.1699516729
 31
0.0
  0
LINE
  5
D1
330
1F
100
AcDbEntity
  8
0
  6
Continuous
 62
     7
370
    15
100
AcDbLine
 10
722.5757572346
 20
802.1699516729
 30
0.0
 11
722.5757572346
 21
785.0985257581
 31
0.0
  0
LINE
  5
D2
330
1F
100
AcDbEntity
  8
0
  6
Continuous
 62
     7
370
    15
100
AcDbLine
 10
322.5757661753
 20
802.1699516729
 30
0.0
 11
322.5757661753
 21
785.0985257581
 31
0.0
  0
LINE
  5
D3
330
1F
100
AcDbEntity
  8
0
  6
Continuous
 62
     7
370
    15
100
AcDbLine
 10
722.5757572346
 20
785.0985257581
 30
0.0
 11
722.5757572346
 21
754.1359691575
 31
0.0
  0
LINE
  5
D4
330
1F
100
AcDbEntity
  8
0
  6
Continuous
 62
     7
370
    15
100
AcDbLine
 10
322.5757661753
 20
785.0985257581
 30
0.0
 11
322.5757661753
 21
754.1359691575
 31
0.0
  0
LINE
  5
D5
330
1F
100
AcDbEntity
  8
0
  6
Continuous
 62
     7
370
    15
100
AcDbLine
 10
722.5757572346
 20
754.1359691575
 30
0.0
 11
722.5757572346
 21
748.3316986516
 31
0.0
  0
LINE
  5
D6
330
1F
100
AcDbEntity
  8
0
  6
Continuous
 62
     7
370
    15
100
AcDbLine
 10
322.5757661753
 20
754.1359691575
 30
0.0
 11
322.5757661753
 21
748.3316986516
 31
0.0
  0
LWPOLYLINE
  5
D7
330
1F
100
AcDbEntity
  8
0
  6
Continuous
 62
     7
370
    15
100
AcDbPolyline
 90
        9
 70
   128
 43
0.0
 10
345.0757596188
 20
733.5263817266
 10
345.1141897135
 20
733.3614854768
 10
345.2280047827
 20
733.2029371217
 10
345.412823885
 20
733.0568014339
 10
345.6615540676
 20
732.9287110523
 10
345.9646287852
 20
732.8235982612
 10
346.3103953295
 20
732.7454863742
 10
346.685576766
 20
732.6973854259
 10
347.0757636719
 20
732.6811580614
  0
LINE
  5
D8
330
1F
100
AcDbEntity
  8
0
  6
Continuous
 62
     7
370
    15
100
AcDbLine
 10
345.0757596188
 20
738.597813125
 30
0.0
 11
345.0757596188
 21
733.5263817266
 31
0.0
  0
LWPOLYLINE
  5
D9
330
1F
100
AcDbEntity
  8
0
  6
Continuous
 62
     7
370
    15
100
AcDbPolyline
 90
        9
 70
   128
 43
0.0
 10
343.0757704668
 20
739.4430367902
 10
343.4659424715
 20
739.4268094257
 10
343.8411239081
 20
739.3787084773
 10
344.1869053536
 20
739.3005965904
 10
344.4899800711
 20
739.1954837993
 10
344.7386953526
 20
739.0673934177
 10
344.923529356
 20
738.9212577299
 10
345.0373295241
 20
738.7627093748
 10
345.0757596188
 20
738.597813125
  0
LINE
  5
DA
330
1F
100
AcDbEntity
  8
0
  6
Continuous
 62
     7
370
    15
100
AcDbLine
 10
343.0757704668
 20
739.4430367902
 30
0.0
 11
324.5757702284
 21
739.4430367902
 31
0.0
  0
LWPOLYLINE
  5
DB
330
1F
100
AcDbEntity
  8
0
  6
Continuous
 62
     7
370
    15
100
AcDbPolyline
 90
        9
 70
   128
 43
0.0
 10
322.5757661753
 20
740.2882753566
 10
322.61419627
 20
740.1233791068
 10
322.7280113392
 20
739.9648158506
 10
322.9128304415
 20
739.8186950639
 10
323.161545723
 20
739.6906046823
 10
323.4646204405
 20
739.5854918912
 10
323.810401886
 20
739.5073800043
 10
324.1855833226
 20
739.4592790559
 10
324.5757702284
 20
739.4430367902
  0
LINE
  5
DC
330
1F
100
AcDbEntity
  8
0
  6
Continuous
 62
     7
370
    15
100
AcDbLine
 10
322.5757661753
 20
748.3316986516
 30
0.0
 11
322.5757661753
 21
740.2882753566
 31
0.0
  0
LWPOLYLINE
  5
DD
330
1F
100
AcDbEntity
  8
0
  6
Continuous
 62
     7
370
    15
100
AcDbPolyline
 90
        9
 70
   128
 43
0.0
 10
720.5757680826
 20
739.4430367902
 10
720.9659400873
 20
739.4592790559
 10
721.341136425
 20
739.5073800043
 10
721.6869029694
 20
739.5854918912
 10
721.9899776869
 20
739.6906046823
 10
722.2387078696
 20
739.8186950639
 10
722.4235269718
 20
739.9648158506
 10
722.5373271399
 20
740.1233791068
 10
722.5757572346
 20
740.2882753566
  0
LINE
  5
DE
330
1F
100
AcDbEntity
  8
0
  6
Continuous
 62
     7
370
    15
100
AcDbLine
 10
720.5757680826
 20
739.4430367902
 30
0.0
 11
702.0757678442
 21
739.4430367902
 31
0.0
  0
LWPOLYLINE
  5
DF
330
1F
100
AcDbEntity
  8
0
  6
Continuous
 62
     7
370
    15
100
AcDbPolyline
 90
        9
 70
   128
 43
0.0
 10
700.0757637911
 20
738.597813125
 10
700.1141938858
 20
738.7627093748
 10
700.228008955
 20
738.9212577299
 10
700.4128280573
 20
739.0673934177
 10
700.6615433388
 20
739.1954837993
 10
700.9646180563
 20
739.3005965904
 10
701.3103995018
 20
739.3787084773
 10
701.6855809384
 20
739.4268094257
 10
702.0757678442
 20
739.4430367902
  0
LINE
  5
E0
330
1F
100
AcDbEntity
  8
0
  6
Continuous
 62
     7
370
    15
100
AcDbLine
 10
700.0757637911
 20
733.5263817266
 30
0.0
 11
700.0757637911
 21
738.597813125
 31
0.0
  0
LWPOLYLINE
  5
E1
330
1F
100
AcDbEntity
  8
0
  6
Continuous
 62
     7
370
    15
100
AcDbPolyline
 90
        9
 70
   128
 43
0.0
 10
698.075759738
 20
732.6811580614
 10
698.4659466439
 20
732.6973854259
 10
698.8411280804
 20
732.7454863742
 10
699.1869095259
 20
732.8235982612
 10
699.4899842434
 20
732.9287110523
 10
699.7386995249
 20
733.0568014339
 10
699.9235186272
 20
733.2029371217
 10
700.0373336964
 20
733.3614854768
 10
700.0757637911
 20
733.5263817266
  0
LINE
  5
E2
330
1F
100
AcDbEntity
  8
0
  6
Continuous
 62
     7
370
    15
100
AcDbLine
 10
347.0757636719
 20
732.6811580614
 30
0.0
 11
698.075759738
 21
732.6811580614
 31
0.0
  0
LINE
  5
E3
330
1F
100
AcDbEntity
  8
0
  6
Continuous
 62
     7
370
    15
100
AcDbLine
 10
722.5757572346
 20
748.3316986516
 30
0.0
 11
722.5757572346
 21
740.2882753566
 31
0.0
  0
LINE
  5
E4
330
1F
100
AcDbEntity
  8
0
  6
Continuous
 62
     7
370
    15
100
AcDbLine
 10
722.5757572346
 20
804.4199525073
 30
0.0
 11
722.5757572346
 21
802.1699516729
 31
0.0
  0
LINE
  5
E5
330
1F
100
AcDbEntity
  8
0
  6
Continuous
 62
     7
370
    15
100
AcDbLine
 10
322.5757661753
 20
804.4199525073
 30
0.0
 11
322.5757661753
 21
802.1699516729
 31
0.0
  0
LINE
  5
E6
330
1F
100
AcDbEntity
  8
0
  6
Continuous
 62
     7
370
    15
100
AcDbLine
 10
722.5757572346
 20
820.1699434474
 30
0.0
 11
322.5757661753
 21
820.1699434474
 31
0.0
  0
LINE
  5
E7
330
1F
100
AcDbEntity
  8
0
  6
Continuous
 62
     7
370
    15
100
AcDbLine
 10
722.5757572346
 20
820.1699434474
 30
0.0
 11
722.5757572346
 21
815.919953461
 31
0.0
  0
LINE
  5
E8
330
1F
100
AcDbEntity
  8
0
  6
Continuous
 62
     7
370
    15
100
AcDbLine
 10
322.5757661753
 20
820.1699434474
 30
0.0
 11
322.5757661753
 21
815.919953461
 31
0.0
  0
LINE
  5
E9
330
1F
100
AcDbEntity
  8
0
  6
Continuous
 62
     7
370
    15
100
AcDbLine
 10
722.5757572346
 20
815.919953461
 30
0.0
 11
722.5757572346
 21
804.4199525073
 31
0.0
  0
LINE
  5
EA
330
1F
100
AcDbEntity
  8
0
  6
Continuous
 62
     7
370
    15
100
AcDbLine
 10
322.5757661753
 20
815.919953461
 30
0.0
 11
322.5757661753
 21
804.4199525073
 31
0.0
  0
LINE
  5
EB
330
1F
100
AcDbEntity
  8
0
  6
Continuous
 62
     7
370
    15
100
AcDbLine
 10
688.0757692747
 20
459.2699511603
 30
0.0
 11
631.0757655196
 21
459.2699511603
 31
0.0
  0
LINE
  5
EC
330
1F
100
AcDbEntity
  8
0
  6
Continuous
 62
     7
370
    15
100
AcDbLine
 10
686.0757652216
 20
453.2699539021
 30
0.0
 11
633.0757621222
 21
453.2699539021
 31
0.0
  0
LINE
  5
ED
330
1F
100
AcDbEntity
  8
0
  6
Continuous
 62
     7
370
    15
100
AcDbLine
 10
412.0757612877
 20
453.2699539021
 30
0.0
 11
359.0757581883
 21
453.2699539021
 31
0.0
  0
LINE
  5
EE
330
1F
100
AcDbEntity
  8
0
  6
Continuous
 62
     7
370
    15
100
AcDbLine
 10
414.0757653408
 20
459.2699511603
 30
0.0
 11
357.0757690363
 21
459.2699511603
 31
0.0
  0
LINE
  5
EF
330
1F
100
AcDbEntity
  8
0
  6
Continuous
 62
     7
370
    15
100
AcDbLine
 10
350.5757633143
 20
551.2699508734
 30
0.0
 11
350.5757633143
 21
551.9699506156
 31
0.0
  0
LINE
  5
F0
330
1F
100
AcDbEntity
  8
0
  6
Continuous
 62
     7
370
    15
100
AcDbLine
 10
420.5757561617
 20
551.2699508734
 30
0.0
 11
420.5757561617
 21
551.9699506156
 31
0.0
  0
LINE
  5
F1
330
1F
100
AcDbEntity
  8
0
  6
Continuous
 62
     7
370
    15
100
AcDbLine
 10
350.5757633143
 20
551.2699508734
 30
0.0
 11
420.5757561617
 21
551.2699508734
 31
0.0
  0
LINE
  5
F2
330
1F
100
AcDbEntity
  8
0
  6
Continuous
 62
     7
370
    15
100
AcDbLine
 10
416.5354106121
 20
488.2699503258
 30
0.0
 11
354.6161088639
 21
488.2699503258
 31
0.0
  0
LINE
  5
F3
330
1F
100
AcDbEntity
  8
0
  6
Continuous
 62
     7
370
    15
100
AcDbLine
 10
624.5757672482
 20
551.2699508734
 30
0.0
 11
624.5757672482
 21
552.1699507416
 31
0.0
  0
LINE
  5
F4
330
1F
100
AcDbEntity
  8
0
  6
Continuous
 62
     7
370
    15
100
AcDbLine
 10
694.5757600956
 20
551.2699508734
 30
0.0
 11
694.5757600956
 21
552.1699507416
 31
0.0
  0
LINE
  5
F5
330
1F
100
AcDbEntity
  8
0
  6
Continuous
 62
     7
370
    15
100
AcDbLine
 10
624.5757672482
 20
551.2699508734
 30
0.0
 11
694.5757600956
 21
551.2699508734
 31
0.0
  0
LINE
  5
F6
330
1F
100
AcDbEntity
  8
0
  6
Continuous
 62
     7
370
    15
100
AcDbLine
 10
690.535414546
 20
488.2699503258
 30
0.0
 11
628.6161127978
 21
488.2699503258
 31
0.0
  0
SPLINE
  5
F7
330
1F
100
AcDbEntity
  8
0
  6
Continuous
 62
     7
370
    15
100
AcDbSpline
210
0.0
220
0.0
230
1.0
 70
     8
 71
     3
 72
    13
 73
     9
 74
     0
 42
0.00000001
 43
0.00000001
 12
1.0
 22
0.0
 32
0.0
 13
1.0
 23
0.0
 33
0.0
 40
0.0
 40
0.0
 40
0.0
 40
0.0
 40
0.0075720095956588
 40
0.2722935162937664
 40
0.4815375332348915
 40
0.6613726276725777
 40
0.8304561370068535
 40
1.0
 40
1.0
 40
1.0
 40
1.0
 10
459.2424515180878
 20
541.6699508831202
 30
0.0
 10
459.2426650328788
 20
541.6699475732677
 30
0.0
 10
459.2503431390029
 20
541.6698285492006
 30
0.0
 10
459.2643915760998
 20
541.6582485541072
 30
0.0
 10
459.281720250056
 20
541.6155257691547
 30
0.0
 10
459.2938836215415
 20
541.5598630239616
 30
0.0
 10
459.3019917148093
 20
541.4937146173531
 30
0.0
 10
459.3030623751241
 20
541.4445607311782
 30
0.0
 10
459.3035984330467
 20
541.4199503764808
 30
0.0
  0
LINE
  5
F8
330
1F
100
AcDbEntity
  8
0
  6
Continuous
 62
     7
370
    15
100
AcDbLine
 10
459.2424515181
 20
541.6699508831
 30
0.0
 11
466.7456257634
 21
541.6699508831
 31
0.0
  0
SPLINE
  5
F9
330
1F
100
AcDbEntity
  8
0
  6
Continuous
 62
     7
370
    15
100
AcDbSpline
210
0.0
220
0.0
230
1.0
 70
     8
 71
     3
 72
    13
 73
     9
 74
     0
 42
0.00000001
 43
0.00000001
 12
1.0
 22
0.0
 32
0.0
 13
1.0
 23
0.0
 33
0.0
 40
0.0
 40
0.0
 40
0.0
 40
0.0
 40
0.1695436925999848
 40
0.3386270320037588
 40
0.5184648970330487
 40
0.7277067573637543
 40
0.9924279980142815
 40
1.0
 40
1.0
 40
1.0
 40
1.0
 10
459.3035984330467
 20
540.7199515655934
 30
0.0
 10
459.3030623816467
 20
540.6953411730193
 30
0.0
 10
459.3019917343592
 20
540.6461872111939
 30
0.0
 10
459.2938834953691
 20
540.5800390062274
 30
0.0
 10
459.2817204967652
 20
540.5243738311378
 30
0.0
 10
459.2643914143411
 20
540.481654216893
 30
0.0
 10
459.250343139577
 20
540.4700733880856
 30
0.0
 10
459.2426650328944
 20
540.4699543686769
 30
0.0
 10
459.2424515180878
 20
540.4699510589539
 30
0.0
  0
LINE
  5
FA
330
1F
100
AcDbEntity
  8
0
  6
Continuous
 62
     7
370
    15
100
AcDbLine
 10
467.0683849149
 20
540.469951059
 30
0.0
 11
459.2424515181
 21
540.469951059
 31
0.0
  0
LINE
  5
FB
330
1F
100
AcDbEntity
  8
0
  6
Continuous
 62
     7
370
    15
100
AcDbLine
 10
459.303598433
 20
541.4199503765
 30
0.0
 11
459.303598433
 21
540.7199515656
 31
0.0
  0
SPLINE
  5
FC
330
1F
100
AcDbEntity
  8
0
  6
Continuous
 62
     7
370
    15
100
AcDbSpline
210
0.0
220
0.0
230
1.0
 70
     8
 71
     3
 72
    12
 73
     8
 74
     0
 42
0.00000001
 43
0.00000001
 12
1.0
 22
0.0
 32
0.0
 13
1.0
 23
0.0
 33
0.0
 40
0.0
 40
0.0
 40
0.0
 40
0.0
 40
0.2289467865653478
 40
0.4594240672097519
 40
0.6825356936405832
 40
0.8947168119109239
 40
1.0
 40
1.0
 40
1.0
 40
1.0
 10
459.0199622803024
 20
540.4699510589539
 30
0.0
 10
458.9039153269019
 20
540.4872854037532
 30
0.0
 10
458.6710456539166
 20
540.5220699722965
 30
0.0
 10
458.3621559728369
 20
540.7959384133416
 30
0.0
 10
458.1392842005746
 20
541.1929782455882
 30
0.0
 10
458.0390356196129
 20
541.5938537497267
 30
0.0
 10
458.0305073518462
 20
541.8387383734275
 30
0.0
 10
458.0276790552429
 20
541.9199513897597
 30
0.0
  0
SPLINE
  5
FD
330
1F
100
AcDbEntity
  8
0
  6
Continuous
 62
     7
370
    15
100
AcDbSpline
210
0.0
220
0.0
230
1.0
 70
     8
 71
     3
 72
    12
 73
     8
 74
     0
 42
0.00000001
 43
0.00000001
 12
1.0
 22
0.0
 32
0.0
 13
1.0
 23
0.0
 33
0.0
 40
0.0
 40
0.0
 40
0.0
 40
0.0
 40
0.2028210325904069
 40
0.4049474685342426
 40
0.6098325966947873
 40
0.8227001745096199
 40
1.0
 40
1.0
 40
1.0
 40
1.0
 10
453.6053198867134
 20
541.9199513897597
 30
0.0
 10
453.6165360458219
 20
541.7628108567354
 30
0.0
 10
453.6389299523101
 20
541.44906794635
 30
0.0
 10
453.8129987456166
 20
541.0286652280633
 30
0.0
 10
454.0720411955818
 20
540.7015892283706
 30
0.0
 10
454.3840420706273
 20
540.5033855086572
 30
0.0
 10
454.6054032412122
 20
540.4803973398965
 30
0.0
 10
454.705994158297
 20
540.4699510589539
 30
0.0
  0
LINE
  5
FE
330
1F
100
AcDbEntity
  8
0
  6
Continuous
 62
     7
370
    15
100
AcDbLine
 10
459.0199622803
 20
540.469951059
 30
0.0
 11
454.7059941583
 21
540.469951059
 31
0.0
  0
LINE
  5
FF
330
1F
100
AcDbEntity
  8
0
  6
Continuous
 62
     7
370
    15
100
AcDbLine
 10
453.8251865201
 20
547.2699506834
 30
0.0
 11
458.1391546421
 21
547.2699506834
 31
0.0
  0
LINE
  5
100
330
1F
100
AcDbEntity
  8
0
  6
Continuous
 62
     7
370
    15
100
AcDbLine
 10
458.1391546421
 20
547.2699506834
 30
0.0
 11
458.6513522559
 21
547.2699506834
 31
0.0
  0
LINE
  5
101
330
1F
100
AcDbEntity
  8
0
  6
Continuous
 62
     7
370
    15
100
AcDbLine
 10
459.0199622803
 20
541.6699508831
 30
0.0
 11
459.2424515181
 21
541.6699508831
 31
0.0
  0
LINE
  5
102
330
1F
100
AcDbEntity
  8
0
  6
Continuous
 62
     7
370
    15
100
AcDbLine
 10
459.2424515181
 20
540.469951059
 30
0.0
 11
459.0199622803
 21
540.469951059
 31
0.0
  0
LINE
  5
103
330
1F
100
AcDbEntity
  8
0
  6
Continuous
 62
     7
370
    15
100
AcDbLine
 10
453.5751897388
 20
541.9199513898
 30
0.0
 11
453.6053198867
 21
541.9199513898
 31
0.0
  0
LINE
  5
104
330
1F
100
AcDbEntity
  8
0
  6
Continuous
 62
     7
370
    15
100
AcDbLine
 10
454.7059941583
 20
540.469951059
 30
0.0
 11
454.1257652932
 21
540.469951059
 31
0.0
  0
LINE
  5
105
330
1F
100
AcDbEntity
  8
0
  6
Continuous
 62
     7
370
    15
100
AcDbLine
 10
470.8141345077
 20
547.2699506834
 30
0.0
 11
471.326339572
 21
547.2699506834
 31
0.0
  0
LINE
  5
106
330
1F
100
AcDbEntity
  8
0
  6
Continuous
 62
     7
370
    15
100
AcDbLine
 10
468.077081769
 20
547.2699506834
 30
0.0
 11
470.8141345077
 21
547.2699506834
 31
0.0
  0
SPLINE
  5
107
330
1F
100
AcDbEntity
  8
0
  6
Continuous
 62
     7
370
    15
100
AcDbSpline
210
0.0
220
0.0
230
1.0
 70
     8
 71
     3
 72
    13
 73
     9
 74
     0
 42
0.00000001
 43
0.00000001
 12
1.0
 22
0.0
 32
0.0
 13
1.0
 23
0.0
 33
0.0
 40
0.0
 40
0.0
 40
0.0
 40
0.0
 40
0.0075314742905535
 40
0.2722602997317525
 40
0.4815312133206824
 40
0.6613421404237602
 40
0.8304644855930682
 40
1.0
 40
1.0
 40
1.0
 40
1.0
 10
466.669085948973
 20
541.6699508831202
 30
0.0
 10
466.6689791857827
 20
541.6699542102106
 30
0.0
 10
466.6651197318359
 20
541.6700744834282
 30
0.0
 10
466.6580963666583
 20
541.6816583473719
 30
0.0
 10
466.6492377100257
 20
541.7243650301384
 30
0.0
 10
466.6429514218523
 20
541.7800543989065
 30
0.0
 10
466.6387331906986
 20
541.8461741229693
 30
0.0
 10
466.638171537318
 20
541.8953389734685
 30
0.0
 10
466.6378903680138
 20
541.9199513897597
 30
0.0
  0
LINE
  5
108
330
1F
100
AcDbEntity
  8
0
  6
Continuous
 62
     7
370
    15
100
AcDbLine
 10
466.669085949
 20
541.6699508831
 30
0.0
 11
459.2424515181
 21
541.6699508831
 31
0.0
  0
SPLINE
  5
109
330
1F
100
AcDbEntity
  8
0
  6
Continuous
 62
     7
370
    15
100
AcDbSpline
210
0.0
220
0.0
230
1.0
 70
     8
 71
     3
 72
    13
 73
     9
 74
     0
 42
0.00000001
 43
0.00000001
 12
1.0
 22
0.0
 32
0.0
 13
1.0
 23
0.0
 33
0.0
 40
0.0
 40
0.0
 40
0.0
 40
0.0
 40
0.1695336723262891
 40
0.3386562902327481
 40
0.5184689831939868
 40
0.727739261204454
 40
0.9924685135637253
 40
1.0
 40
1.0
 40
1.0
 40
1.0
 10
466.6378903680138
 20
542.6199511319696
 30
0.0
 10
466.6381715405408
 20
542.6445632450716
 30
0.0
 10
466.638733203859
 20
542.6937277962994
 30
0.0
 10
466.6429514541657
 20
542.7598471467193
 30
0.0
 10
466.6492376467468
 20
542.8155377313062
 30
0.0
 10
466.658096407814
 20
542.8582428284933
 30
0.0
 10
466.6651197316889
 20
542.8698271093597
 30
0.0
 10
466.6689791857788
 20
542.8699473802601
 30
0.0
 10
466.6690859489731
 20
542.8699507072865
 30
0.0
  0
LINE
  5
10A
330
1F
100
AcDbEntity
  8
0
  6
Continuous
 62
     7
370
    15
100
AcDbLine
 10
458.9013564878
 20
542.8699507073
 30
0.0
 11
466.669085949
 21
542.8699507073
 31
0.0
  0
LINE
  5
10B
330
1F
100
AcDbEntity
  8
0
  6
Continuous
 62
     7
370
    15
100
AcDbLine
 10
466.637890368
 20
541.9199513898
 30
0.0
 11
466.637890368
 21
542.619951132
 31
0.0
  0
SPLINE
  5
10C
330
1F
100
AcDbEntity
  8
0
  6
Continuous
 62
     7
370
    15
100
AcDbSpline
210
0.0
220
0.0
230
1.0
 70
     8
 71
     3
 72
    12
 73
     8
 74
     0
 42
0.00000001
 43
0.00000001
 12
1.0
 22
0.0
 32
0.0
 13
1.0
 23
0.0
 33
0.0
 40
0.0
 40
0.0
 40
0.0
 40
0.0
 40
0.2289469302310658
 40
0.4594229566430613
 40
0.6825341691251761
 40
0.8947174208231906
 40
1.0
 40
1.0
 40
1.0
 40
1.0
 10
466.9134798937133
 20
542.8699507072865
 30
0.0
 10
467.0423576737394
 20
542.8526164966851
 30
0.0
 10
467.3009739857617
 20
542.8178323033457
 30
0.0
 10
467.6435956621672
 20
542.5439633140353
 30
0.0
 10
467.8906450804607
 20
542.1469195120814
 30
0.0
 10
468.001739431822
 20
541.7460516393486
 30
0.0
 10
468.0111854528772
 20
541.5011636494611
 30
0.0
 10
468.0143180780701
 20
541.4199503764808
 30
0.0
  0
SPLINE
  5
10D
330
1F
100
AcDbEntity
  8
0
  6
Continuous
 62
     7
370
    15
100
AcDbSpline
210
0.0
220
0.0
230
1.0
 70
     8
 71
     3
 72
    12
 73
     8
 74
     0
 42
0.00000001
 43
0.00000001
 12
1.0
 22
0.0
 32
0.0
 13
1.0
 23
0.0
 33
0.0
 40
0.0
 40
0.0
 40
0.0
 40
0.0
 40
0.2028209452354943
 40
0.4049472303594226
 40
0.6098288941454062
 40
0.8226912605545654
 40
1.0
 40
1.0
 40
1.0
 40
1.0
 10
471.9868633442215
 20
541.4199503764808
 30
0.0
 10
471.9746402713422
 20
541.577091274598
 30
0.0
 10
471.9502359895104
 20
541.8908348645165
 30
0.0
 10
471.7605919033976
 20
542.3112297422155
 30
0.0
 10
471.4784576185588
 20
542.6383126612892
 30
0.0
 10
471.1388128214126
 20
542.8365207555911
 30
0.0
 10
470.8980657090872
 20
542.8595055388035
 30
0.0
 10
470.7886609726242
 20
542.8699507072865
 30
0.0
  0
LINE
  5
10E
330
1F
100
AcDbEntity
  8
0
  6
Continuous
 62
     7
370
    15
100
AcDbLine
 10
466.9134798937
 20
542.8699507073
 30
0.0
 11
470.7886609726
 21
542.8699507073
 31
0.0
  0
LINE
  5
10F
330
1F
100
AcDbEntity
  8
0
  6
Continuous
 62
     7
370
    15
100
AcDbLine
 10
471.7562008195
 20
536.0699510828
 30
0.0
 11
467.8810197406
 21
536.0699510828
 31
0.0
  0
LINE
  5
110
330
1F
100
AcDbEntity
  8
0
  6
Continuous
 62
     7
370
    15
100
AcDbLine
 10
467.8810197406
 20
536.0699510828
 30
0.0
 11
467.3183816963
 21
536.0699510828
 31
0.0
  0
LINE
  5
111
330
1F
100
AcDbEntity
  8
0
  6
Continuous
 62
     7
370
    15
100
AcDbLine
 10
466.9134798937
 20
541.6699508831
 30
0.0
 11
466.669085949
 21
541.6699508831
 31
0.0
  0
LINE
  5
112
330
1F
100
AcDbEntity
  8
0
  6
Continuous
 62
     7
370
    15
100
AcDbLine
 10
466.669085949
 20
542.8699507073
 30
0.0
 11
466.9134798937
 21
542.8699507073
 31
0.0
  0
LINE
  5
113
330
1F
100
AcDbEntity
  8
0
  6
Continuous
 62
     7
370
    15
100
AcDbLine
 10
472.0062050515
 20
541.4199503765
 30
0.0
 11
471.9868633442
 21
541.4199503765
 31
0.0
  0
LINE
  5
114
330
1F
100
AcDbEntity
  8
0
  6
Continuous
 62
     7
370
    15
100
AcDbLine
 10
470.7886609726
 20
542.8699507073
 30
0.0
 11
471.025760799
 21
542.8699507073
 31
0.0
  0
SPLINE
  5
115
330
1F
100
AcDbEntity
  8
0
  6
Continuous
 62
     7
370
    15
100
AcDbSpline
210
0.0
220
0.0
230
1.0
 70
     8
 71
     3
 72
    10
 73
     6
 74
     0
 42
0.00000001
 43
0.00000001
 12
1.0
 22
0.0
 32
0.0
 13
1.0
 23
0.0
 33
0.0
 40
0.0
 40
0.0
 40
0.0
 40
0.0
 40
0.3816851525326881
 40
0.7620630364776394
 40
1.0
 40
1.0
 40
1.0
 40
1.0
 10
453.1646627478889
 20
541.4199503764808
 30
0.0
 10
453.1775194032637
 20
541.5762014291765
 30
0.0
 10
453.2031886800717
 20
541.8881683759654
 30
0.0
 10
453.3601549317024
 20
542.2661181193124
 30
0.0
 10
453.5154354370765
 20
542.4288504942946
 30
0.0
 10
453.5751897387794
 20
542.4914723888337
 30
0.0
  0
LINE
  5
116
330
1F
100
AcDbEntity
  8
0
  6
Continuous
 62
     7
370
    15
100
AcDbLine
 10
453.9579633169
 20
536.0699510828
 30
0.0
 11
453.3953252726
 21
536.0699510828
 31
0.0
  0
LINE
  5
117
330
1F
100
AcDbEntity
  8
0
  6
Continuous
 62
     7
370
    15
100
AcDbLine
 10
457.2590548091
 20
536.0699510828
 30
0.0
 11
453.9579633169
 21
536.0699510828
 31
0.0
  0
LINE
  5
118
330
1F
100
AcDbEntity
  8
0
  6
Continuous
 62
     7
370
    15
100
AcDbLine
 10
468.2480129891
 20
551.9699506156
 30
0.0
 11
468.2480129891
 21
548.7665329755
 31
0.0
  0
SPLINE
  5
119
330
1F
100
AcDbEntity
  8
0
  6
Continuous
 62
     7
370
    15
100
AcDbSpline
210
0.0
220
0.0
230
1.0
 70
     8
 71
     3
 72
     9
 73
     5
 74
     0
 42
0.00000001
 43
0.00000001
 12
1.0
 22
0.0
 32
0.0
 13
1.0
 23
0.0
 33
0.0
 40
0.0
 40
0.0
 40
0.0
 40
0.0
 40
0.070197351028496
 40
1.0
 40
1.0
 40
1.0
 40
1.0
 10
466.3638058595947
 20
548.3199507624208
 30
0.0
 10
466.4084732698553
 20
548.3203968186002
 30
0.0
 10
467.0447851763047
 20
548.3267511350086
 30
0.0
 10
467.6682830315956
 20
548.5546406762996
 30
0.0
 10
468.2480129890732
 20
548.766532975465
 30
0.0
  0
LINE
  5
11A
330
1F
100
AcDbEntity
  8
0
  6
Continuous
 62
     7
370
    15
100
AcDbLine
 10
464.4795987301
 20
548.7665329755
 30
0.0
 11
466.3638058596
 21
548.3199507624
 31
0.0
  0
LINE
  5
11B
330
1F
100
AcDbEntity
  8
0
  6
Continuous
 62
     7
370
    15
100
AcDbLine
 10
464.4795987301
 20
551.9699506156
 30
0.0
 11
464.4795987301
 21
548.7665329755
 31
0.0
  0
SPLINE
  5
11C
330
1F
100
AcDbEntity
  8
0
  6
Continuous
 62
     7
370
    15
100
AcDbSpline
210
0.0
220
0.0
230
1.0
 70
     8
 71
     3
 72
     9
 73
     5
 74
     0
 42
0.00000001
 43
0.00000001
 12
1.0
 22
0.0
 32
0.0
 13
1.0
 23
0.0
 33
0.0
 40
0.0
 40
0.0
 40
0.0
 40
0.0
 40
0.268634548415234
 40
1.0
 40
1.0
 40
1.0
 40
1.0
 10
461.6434681706718
 20
548.3199507624208
 30
0.0
 10
461.9013529991604
 20
548.3265798274513
 30
0.0
 10
462.8613368508653
 20
548.351256716815
 30
0.0
 10
463.7960106239671
 20
548.5911114847786
 30
0.0
 10
464.4795987301163
 20
548.766532975465
 30
0.0
  0
LINE
  5
11D
330
1F
100
AcDbEntity
  8
0
  6
Continuous
 62
     7
370
    15
100
AcDbLine
 10
466.3638058596
 20
548.3199507624
 30
0.0
 11
461.6434681707
 21
548.3199507624
 31
0.0
  0
SPLINE
  5
11E
330
1F
100
AcDbEntity
  8
0
  6
Continuous
 62
     7
370
    15
100
AcDbSpline
210
0.0
220
0.0
230
1.0
 70
     8
 71
     3
 72
     9
 73
     5
 74
     0
 42
0.00000001
 43
0.00000001
 12
1.0
 22
0.0
 32
0.0
 13
1.0
 23
0.0
 33
0.0
 40
0.0
 40
0.0
 40
0.0
 40
0.0
 40
0.2575509644781602
 40
1.0
 40
1.0
 40
1.0
 40
1.0
 10
458.807345061808
 20
548.766532975465
 30
0.0
 10
459.0454420210628
 20
548.6991176510471
 30
0.0
 10
459.9699074360429
 20
548.4373623726138
 30
0.0
 10
460.9303721041689
 20
548.3699792768679
 30
0.0
 10
461.6434681706718
 20
548.3199507624208
 30
0.0
  0
LINE
  5
11F
330
1F
100
AcDbEntity
  8
0
  6
Continuous
 62
     7
370
    15
100
AcDbLine
 10
458.8073450618
 20
551.9699506156
 30
0.0
 11
458.8073450618
 21
548.7665329755
 31
0.0
  0
SPLINE
  5
120
330
1F
100
AcDbEntity
  8
0
  6
Continuous
 62
     7
370
    15
100
AcDbSpline
210
0.0
220
0.0
230
1.0
 70
     8
 71
     3
 72
     9
 73
     5
 74
     0
 42
0.00000001
 43
0.00000001
 12
1.0
 22
0.0
 32
0.0
 13
1.0
 23
0.0
 33
0.0
 40
0.0
 40
0.0
 40
0.0
 40
0.0
 40
0.0702064954408191
 40
1.0
 40
1.0
 40
1.0
 40
1.0
 10
457.8554290824226
 20
548.3199507624208
 30
0.0
 10
457.8779949877029
 20
548.3203967162267
 30
0.0
 10
458.1994168894615
 20
548.3267487468065
 30
0.0
 10
458.5144392848163
 20
548.554640605505
 30
0.0
 10
458.807345061808
 20
548.766532975465
 30
0.0
  0
LINE
  5
121
330
1F
100
AcDbEntity
  8
0
  6
Continuous
 62
     7
370
    15
100
AcDbLine
 10
461.6434681707
 20
548.3199507624
 30
0.0
 11
457.8554290824
 21
548.3199507624
 31
0.0
  0
LINE
  5
122
330
1F
100
AcDbEntity
  8
0
  6
Continuous
 62
     7
370
    15
100
AcDbLine
 10
456.903513103
 20
548.7665329755
 30
0.0
 11
457.8554290824
 21
548.3199507624
 31
0.0
  0
LINE
  5
123
330
1F
100
AcDbEntity
  8
0
  6
Continuous
 62
     7
370
    15
100
AcDbLine
 10
456.903513103
 20
551.9699506156
 30
0.0
 11
456.903513103
 21
548.7665329755
 31
0.0
  0
LINE
  5
124
330
1F
100
AcDbEntity
  8
0
  6
Continuous
 62
     7
370
    15
100
AcDbLine
 10
468.2480129891
 20
548.7665329755
 30
0.0
 11
467.8729805641
 21
548.5905875147
 31
0.0
  0
LINE
  5
125
330
1F
100
AcDbEntity
  8
0
  6
Continuous
 62
     7
370
    15
100
AcDbLine
 10
467.575762003
 20
548.3199507624
 30
0.0
 11
466.3638058596
 21
548.3199507624
 31
0.0
  0
LINE
  5
126
330
1F
100
AcDbEntity
  8
0
  6
Continuous
 62
     7
370
    15
100
AcDbLine
 10
457.8554290824
 20
548.3199507624
 30
0.0
 11
457.5757640891
 21
548.3199507624
 31
0.0
  0
LINE
  5
127
330
1F
100
AcDbEntity
  8
0
  6
Continuous
 62
     7
370
    15
100
AcDbLine
 10
457.0744443231
 20
547.6233689741
 30
0.0
 11
459.208327859
 21
548.0699511871
 31
0.0
  0
SPLINE
  5
128
330
1F
100
AcDbEntity
  8
0
  6
Continuous
 62
     7
370
    15
100
AcDbSpline
210
0.0
220
0.0
230
1.0
 70
     8
 71
     3
 72
     9
 73
     5
 74
     0
 42
0.00000001
 43
0.00000001
 12
1.0
 22
0.0
 32
0.0
 13
1.0
 23
0.0
 33
0.0
 40
0.0
 40
0.0
 40
0.0
 40
0.0
 40
0.0701989315536947
 40
1.0
 40
1.0
 40
1.0
 40
1.0
 10
459.2083278589539
 20
548.0699511871039
 30
0.0
 10
459.2589137648843
 20
548.0695048264578
 30
0.0
 10
459.9795216831379
 20
548.063146315919
 30
0.0
 10
460.6856513117089
 20
547.8352589191039
 30
0.0
 10
461.3422113948158
 20
547.6233689740598
 30
0.0
  0
LINE
  5
129
330
1F
100
AcDbEntity
  8
0
  6
Continuous
 62
     7
370
    15
100
AcDbLine
 10
461.3422113948
 20
547.6233689741
 30
0.0
 11
461.3422113948
 21
543.3165329203
 31
0.0
  0
SPLINE
  5
12A
330
1F
100
AcDbEntity
  8
0
  6
Continuous
 62
     7
370
    15
100
AcDbSpline
210
0.0
220
0.0
230
1.0
 70
     8
 71
     3
 72
     9
 73
     5
 74
     0
 42
0.00000001
 43
0.00000001
 12
1.0
 22
0.0
 32
0.0
 13
1.0
 23
0.0
 33
0.0
 40
0.0
 40
0.0
 40
0.0
 40
0.0
 40
0.0701989243911107
 40
0.9999999999999999
 40
0.9999999999999999
 40
0.9999999999999999
 40
0.9999999999999999
 10
459.2083278589539
 20
542.8699507072865
 30
0.0
 10
459.2589137650741
 20
542.8703967458529
 30
0.0
 10
459.9795217595557
 20
542.8767506689411
 30
0.0
 10
460.685651345907
 20
543.1046406089707
 30
0.0
 10
461.3422113948158
 20
543.3165329203307
 30
0.0
  0
LINE
  5
12B
330
1F
100
AcDbEntity
  8
0
  6
Continuous
 62
     7
370
    15
100
AcDbLine
 10
458.9013564878
 20
542.9341952011
 30
0.0
 11
459.208327859
 21
542.8699507073
 31
0.0
  0
LINE
  5
12C
330
1F
100
AcDbEntity
  8
0
  6
Continuous
 62
     7
370
    15
100
AcDbLine
 10
457.0744443231
 20
547.6233689741
 30
0.0
 11
457.0744443231
 21
547.2699506834
 31
0.0
  0
SPLINE
  5
12D
330
1F
100
AcDbEntity
  8
0
  6
Continuous
 62
     7
370
    15
100
AcDbSpline
210
0.0
220
0.0
230
1.0
 70
     8
 71
     3
 72
     9
 73
     5
 74
     0
 42
0.00000001
 43
0.00000001
 12
1.0
 22
0.0
 32
0.0
 13
1.0
 23
0.0
 33
0.0
 40
0.0
 40
0.0
 40
0.0
 40
0.0
 40
0.257552623483366
 40
1.0
 40
1.0
 40
1.0
 40
1.0
 10
461.3422113948158
 20
543.3165329203307
 30
0.0
 10
461.5731349924384
 20
543.2491176014607
 30
0.0
 10
462.4697424293944
 20
542.9873640306445
 30
0.0
 10
463.4012677866097
 20
542.9199798875476
 30
0.0
 10
464.0928763442329
 20
542.8699507072865
 30
0.0
  0
SPLINE
  5
12E
330
1F
100
AcDbEntity
  8
0
  6
Continuous
 62
     7
370
    15
100
AcDbSpline
210
0.0
220
0.0
230
1.0
 70
     8
 71
     3
 72
     9
 73
     5
 74
     0
 42
0.00000001
 43
0.00000001
 12
1.0
 22
0.0
 32
0.0
 13
1.0
 23
0.0
 33
0.0
 40
0.0
 40
0.0
 40
0.0
 40
0.0
 40
0.2575525544090121
 40
1.0
 40
1.0
 40
1.0
 40
1.0
 10
461.3422113948158
 20
547.6233689740598
 30
0.0
 10
461.5731350037025
 20
547.6907839288742
 30
0.0
 10
462.4697427248589
 20
547.9525361563731
 30
0.0
 10
463.4012678755778
 20
548.0199212766693
 30
0.0
 10
464.0928763442329
 20
548.0699511871039
 30
0.0
  0
LINE
  5
12F
330
1F
100
AcDbEntity
  8
0
  6
Continuous
 62
     7
370
    15
100
AcDbLine
 10
459.208327859
 20
548.0699511871
 30
0.0
 11
464.0928763442
 21
548.0699511871
 31
0.0
  0
SPLINE
  5
130
330
1F
100
AcDbEntity
  8
0
  6
Continuous
 62
     7
370
    15
100
AcDbSpline
210
0.0
220
0.0
230
1.0
 70
     8
 71
     3
 72
     9
 73
     5
 74
     0
 42
0.00000001
 43
0.00000001
 12
1.0
 22
0.0
 32
0.0
 13
1.0
 23
0.0
 33
0.0
 40
0.0
 40
0.0
 40
0.0
 40
0.0
 40
0.2686339411092052
 40
1.0
 40
1.0
 40
1.0
 40
1.0
 10
464.0928763442329
 20
548.0699511871039
 30
0.0
 10
464.3429864160137
 20
548.0633220894708
 30
0.0
 10
465.2740306122462
 20
548.0386450229553
 30
0.0
 10
466.1805421051588
 20
547.7987904602745
 30
0.0
 10
466.8435338430694
 20
547.6233689740598
 30
0.0
  0
LINE
  5
131
330
1F
100
AcDbEntity
  8
0
  6
Continuous
 62
     7
370
    15
100
AcDbLine
 10
466.8435338431
 20
547.6233689741
 30
0.0
 11
466.8435338431
 21
543.3165329203
 31
0.0
  0
SPLINE
  5
132
330
1F
100
AcDbEntity
  8
0
  6
Continuous
 62
     7
370
    15
100
AcDbSpline
210
0.0
220
0.0
230
1.0
 70
     8
 71
     3
 72
     9
 73
     5
 74
     0
 42
0.00000001
 43
0.00000001
 12
1.0
 22
0.0
 32
0.0
 13
1.0
 23
0.0
 33
0.0
 40
0.0
 40
0.0
 40
0.0
 40
0.0
 40
0.2686339411092052
 40
1.0
 40
1.0
 40
1.0
 40
1.0
 10
464.0928763442329
 20
542.8699507072865
 30
0.0
 10
464.3429864160137
 20
542.8765798049195
 30
0.0
 10
465.2740306122462
 20
542.9012568714351
 30
0.0
 10
466.1805421051588
 20
543.1411114341158
 30
0.0
 10
466.8435338430694
 20
543.3165329203307
 30
0.0
  0
LINE
  5
133
330
1F
100
AcDbEntity
  8
0
  6
Continuous
 62
     7
370
    15
100
AcDbLine
 10
466.8435338431
 20
543.3165329203
 30
0.0
 11
467.460307806
 21
542.8699507073
 31
0.0
  0
LINE
  5
134
330
1F
100
AcDbEntity
  8
0
  6
Continuous
 62
     7
370
    15
100
AcDbLine
 10
466.8435338431
 20
547.6233689741
 30
0.0
 11
467.460307806
 21
548.0699511871
 31
0.0
  0
LINE
  5
135
330
1F
100
AcDbEntity
  8
0
  6
Continuous
 62
     7
370
    15
100
AcDbLine
 10
464.0928763442
 20
548.0699511871
 30
0.0
 11
467.460307806
 21
548.0699511871
 31
0.0
  0
LINE
  5
136
330
1F
100
AcDbEntity
  8
0
  6
Continuous
 62
     7
370
    15
100
AcDbLine
 10
457.4581566744
 20
547.9208306104
 30
0.0
 11
457.0744443231
 21
547.6233689741
 31
0.0
  0
LINE
  5
137
330
1F
100
AcDbEntity
  8
0
  6
Continuous
 62
     7
370
    15
100
AcDbLine
 10
457.5757640891
 20
548.0699511871
 30
0.0
 11
459.208327859
 21
548.0699511871
 31
0.0
  0
SPLINE
  5
138
330
1F
100
AcDbEntity
  8
0
  6
Continuous
 62
     7
370
    15
100
AcDbSpline
210
0.0
220
0.0
230
1.0
 70
     8
 71
     3
 72
     9
 73
     5
 74
     0
 42
0.00000001
 43
0.00000001
 12
1.0
 22
0.0
 32
0.0
 13
1.0
 23
0.0
 33
0.0
 40
0.0
 40
0.0
 40
0.0
 40
0.0
 40
0.0702052636963823
 40
1.0
 40
1.0
 40
1.0
 40
1.0
 10
467.460307806044
 20
548.0699511871039
 30
0.0
 10
467.4749276540162
 20
548.0695048973464
 30
0.0
 10
467.6831719821836
 20
548.063147970046
 30
0.0
 10
467.8872920263648
 20
547.835258968323
 30
0.0
 10
468.0770817690185
 20
547.6233689740598
 30
0.0
  0
LINE
  5
139
330
1F
100
AcDbEntity
  8
0
  6
Continuous
 62
     7
370
    15
100
AcDbLine
 10
468.077081769
 20
547.6233689741
 30
0.0
 11
468.077081769
 21
543.3165329203
 31
0.0
  0
LINE
  5
13A
330
1F
100
AcDbEntity
  8
0
  6
Continuous
 62
     7
370
    15
100
AcDbLine
 10
467.6933694177
 20
543.019071284
 30
0.0
 11
468.077081769
 21
543.3165329203
 31
0.0
  0
LINE
  5
13B
330
1F
100
AcDbEntity
  8
0
  6
Continuous
 62
     7
370
    15
100
AcDbLine
 10
467.460307806
 20
548.0699511871
 30
0.0
 11
467.575762003
 21
548.0699511871
 31
0.0
  0
LINE
  5
13C
330
1F
100
AcDbEntity
  8
0
  6
Continuous
 62
     7
370
    15
100
AcDbLine
 10
457.9681861692
 20
540.0233688459
 30
0.0
 11
460.626538425
 21
540.469951059
 31
0.0
  0
SPLINE
  5
13D
330
1F
100
AcDbEntity
  8
0
  6
Continuous
 62
     7
370
    15
100
AcDbSpline
210
0.0
220
0.0
230
1.0
 70
     8
 71
     3
 72
     9
 73
     5
 74
     0
 42
0.00000001
 43
0.00000001
 12
1.0
 22
0.0
 32
0.0
 13
1.0
 23
0.0
 33
0.0
 40
0.0
 40
0.0
 40
0.0
 40
0.0
 40
0.0701999832210281
 40
1.0
 40
1.0
 40
1.0
 40
1.0
 10
460.6265384249977
 20
540.4699510589539
 30
0.0
 10
460.6895577228905
 20
540.4695047100807
 30
0.0
 10
461.5872687336533
 20
540.4631464625049
 30
0.0
 10
462.4669567492018
 20
540.235258799135
 30
0.0
 10
463.2848906808189
 20
540.0233688459098
 30
0.0
  0
LINE
  5
13E
330
1F
100
AcDbEntity
  8
0
  6
Continuous
 62
     7
370
    15
100
AcDbLine
 10
463.2848906808
 20
540.0233688459
 30
0.0
 11
463.2848906808
 21
535.7165327922
 31
0.0
  0
SPLINE
  5
13F
330
1F
100
AcDbEntity
  8
0
  6
Continuous
 62
     7
370
    15
100
AcDbSpline
210
0.0
220
0.0
230
1.0
 70
     8
 71
     3
 72
     9
 73
     5
 74
     0
 42
0.00000001
 43
0.00000001
 12
1.0
 22
0.0
 32
0.0
 13
1.0
 23
0.0
 33
0.0
 40
0.0
 40
0.0
 40
0.0
 40
0.0
 40
0.0701999832210281
 40
1.0
 40
1.0
 40
1.0
 40
1.0
 10
460.6265384249977
 20
535.2699505791365
 30
0.0
 10
460.6895577228905
 20
535.2703969280096
 30
0.0
 10
461.5872687336533
 20
535.2767551755853
 30
0.0
 10
462.4669567492018
 20
535.5046428389555
 30
0.0
 10
463.2848906808189
 20
535.7165327921807
 30
0.0
  0
LINE
  5
140
330
1F
100
AcDbEntity
  8
0
  6
Continuous
 62
     7
370
    15
100
AcDbLine
 10
457.9681861692
 20
535.7165327922
 30
0.0
 11
460.626538425
 21
535.2699505791
 31
0.0
  0
LINE
  5
141
330
1F
100
AcDbEntity
  8
0
  6
Continuous
 62
     7
370
    15
100
AcDbLine
 10
457.9681861692
 20
540.0233688459
 30
0.0
 11
457.9681861692
 21
535.7165327922
 31
0.0
  0
SPLINE
  5
142
330
1F
100
AcDbEntity
  8
0
  6
Continuous
 62
     7
370
    15
100
AcDbSpline
210
0.0
220
0.0
230
1.0
 70
     8
 71
     3
 72
     9
 73
     5
 74
     0
 42
0.00000001
 43
0.00000001
 12
1.0
 22
0.0
 32
0.0
 13
1.0
 23
0.0
 33
0.0
 40
0.0
 40
0.0
 40
0.0
 40
0.0
 40
0.2575543375376427
 40
1.0
 40
1.0
 40
1.0
 40
1.0
 10
463.2848906808189
 20
535.7165327921807
 30
0.0
 10
463.4782964716841
 20
535.6491174790434
 30
0.0
 10
464.2292284603058
 20
535.3873656724854
 30
0.0
 10
465.0094242653137
 20
535.319980447294
 30
0.0
 10
465.5886772566132
 20
535.2699505791365
 30
0.0
  0
LINE
  5
143
330
1F
100
AcDbEntity
  8
0
  6
Continuous
 62
     7
370
    15
100
AcDbLine
 10
465.5886772566
 20
535.2699505791
 30
0.0
 11
460.626538425
 21
535.2699505791
 31
0.0
  0
SPLINE
  5
144
330
1F
100
AcDbEntity
  8
0
  6
Continuous
 62
     7
370
    15
100
AcDbSpline
210
0.0
220
0.0
230
1.0
 70
     8
 71
     3
 72
     9
 73
     5
 74
     0
 42
0.00000001
 43
0.00000001
 12
1.0
 22
0.0
 32
0.0
 13
1.0
 23
0.0
 33
0.0
 40
0.0
 40
0.0
 40
0.0
 40
0.0
 40
0.2575543375376427
 40
1.0
 40
1.0
 40
1.0
 40
1.0
 10
463.2848906808189
 20
540.0233688459098
 30
0.0
 10
463.4782964716841
 20
540.090784159047
 30
0.0
 10
464.2292284603058
 20
540.3525359656048
 30
0.0
 10
465.0094242653137
 20
540.4199211907965
 30
0.0
 10
465.5886772566132
 20
540.4699510589539
 30
0.0
  0
SPLINE
  5
145
330
1F
100
AcDbEntity
  8
0
  6
Continuous
 62
     7
370
    15
100
AcDbSpline
210
0.0
220
0.0
230
1.0
 70
     8
 71
     3
 72
     9
 73
     5
 74
     0
 42
0.00000001
 43
0.00000001
 12
1.0
 22
0.0
 32
0.0
 13
1.0
 23
0.0
 33
0.0
 40
0.0
 40
0.0
 40
0.0
 40
0.0
 40
0.4193734926868523
 40
1.0
 40
1.0
 40
1.0
 40
1.0
 10
465.5886772566131
 20
540.4699510589539
 30
0.0
 10
465.7984350400768
 20
540.4662270596694
 30
0.0
 10
466.2986044287516
 20
540.4573471486847
 30
0.0
 10
466.78561415723
 20
540.3106273241799
 30
0.0
 10
467.068384914904
 20
540.2254379049241
 30
0.0
  0
LINE
  5
146
330
1F
100
AcDbEntity
  8
0
  6
Continuous
 62
     7
370
    15
100
AcDbLine
 10
467.892471283
 20
536.0699510828
 30
0.0
 11
467.892471283
 21
535.7165327922
 31
0.0
  0
SPLINE
  5
147
330
1F
100
AcDbEntity
  8
0
  6
Continuous
 62
     7
370
    15
100
AcDbSpline
210
0.0
220
0.0
230
1.0
 70
     8
 71
     3
 72
     9
 73
     5
 74
     0
 42
0.00000001
 43
0.00000001
 12
1.0
 22
0.0
 32
0.0
 13
1.0
 23
0.0
 33
0.0
 40
0.0
 40
0.0
 40
0.0
 40
0.0
 40
0.26863763839315
 40
1.0
 40
1.0
 40
1.0
 40
1.0
 10
465.5886772566132
 20
535.2699505791365
 30
0.0
 10
465.7981577834947
 20
535.2765791108278
 30
0.0
 10
466.5779462306183
 20
535.301253731
 30
0.0
 10
467.3371894032315
 20
535.5411105457198
 30
0.0
 10
467.8924712829879
 20
535.7165327921807
 30
0.0
  0
SPLINE
  5
148
330
1F
100
AcDbEntity
  8
0
  6
Continuous
 62
     7
370
    15
100
AcDbSpline
210
0.0
220
0.0
230
1.0
 70
     8
 71
     3
 72
     9
 73
     5
 74
     0
 42
0.00000001
 43
0.00000001
 12
1.0
 22
0.0
 32
0.0
 13
1.0
 23
0.0
 33
0.0
 40
0.0
 40
0.0
 40
0.0
 40
0.0
 40
0.0701978776236775
 40
1.0
 40
1.0
 40
1.0
 40
1.0
 10
457.6136204891495
 20
535.2699505791365
 30
0.0
 10
457.622026231158
 20
535.2703969515807
 30
0.0
 10
457.7417697660508
 20
535.2767557256532
 30
0.0
 10
457.8590959936988
 20
535.5046428553377
 30
0.0
 10
457.9681861691765
 20
535.7165327921807
 30
0.0
  0
LINE
  5
149
330
1F
100
AcDbEntity
  8
0
  6
Continuous
 62
     7
370
    15
100
AcDbLine
 10
460.626538425
 20
535.2699505791
 30
0.0
 11
457.6136204891
 21
535.2699505791
 31
0.0
  0
SPLINE
  5
14A
330
1F
100
AcDbEntity
  8
0
  6
Continuous
 62
     7
370
    15
100
AcDbSpline
210
0.0
220
0.0
230
1.0
 70
     8
 71
     3
 72
     9
 73
     5
 74
     0
 42
0.00000001
 43
0.00000001
 12
1.0
 22
0.0
 32
0.0
 13
1.0
 23
0.0
 33
0.0
 40
0.0
 40
0.0
 40
0.0
 40
0.0
 40
0.0701978776236775
 40
1.0
 40
1.0
 40
1.0
 40
1.0
 10
457.6136204891495
 20
540.4699510589539
 30
0.0
 10
457.622026231158
 20
540.4695046865097
 30
0.0
 10
457.7417697660508
 20
540.4631459124372
 30
0.0
 10
457.8590959936988
 20
540.2352587827526
 30
0.0
 10
457.9681861691765
 20
540.0233688459098
 30
0.0
  0
LINE
  5
14B
330
1F
100
AcDbEntity
  8
0
  6
Continuous
 62
     7
370
    15
100
AcDbLine
 10
467.892471283
 20
535.7165327922
 30
0.0
 11
467.537905603
 21
535.2699505791
 31
0.0
  0
LINE
  5
14C
330
1F
100
AcDbEntity
  8
0
  6
Continuous
 62
     7
370
    15
100
AcDbLine
 10
465.5886772566
 20
535.2699505791
 30
0.0
 11
467.5756129914
 21
535.2699505791
 31
0.0
  0
LINE
  5
14D
330
1F
100
AcDbEntity
  8
0
  6
Continuous
 62
     7
370
    15
100
AcDbLine
 10
457.2590548091
 20
540.0233688459
 30
0.0
 11
457.6136204891
 21
540.469951059
 31
0.0
  0
LINE
  5
14E
330
1F
100
AcDbEntity
  8
0
  6
Continuous
 62
     7
370
    15
100
AcDbLine
 10
457.2590548091
 20
535.7165327922
 30
0.0
 11
457.6136204891
 21
535.2699505791
 31
0.0
  0
LINE
  5
14F
330
1F
100
AcDbEntity
  8
0
  6
Continuous
 62
     7
370
    15
100
AcDbLine
 10
457.2590548091
 20
540.0233688459
 30
0.0
 11
457.2590548091
 21
535.7165327922
 31
0.0
  0
ENDSEC
  0
SECTION
  2
OBJECTS
  0
DICTIONARY
  5
C
330
0
100
AcDbDictionary
281
     1
  3
ACAD_GROUP
350
D
  3
ACAD_LAYOUT
350
1A
  3
ACAD_MLINESTYLE
350
17
  3
ACAD_PLOTSETTINGS
350
19
  3
ACAD_PLOTSTYLENAME
350
E
  0
DICTIONARY
  5
D
102
{ACAD_REACTORS
330
C
102
}
330
C
100
AcDbDictionary
281
     1
  0
DICTIONARY
  5
1A
102
{ACAD_REACTORS
330
C
102
}
330
C
100
AcDbDictionary
281
     1
  3
Layout1
350
1E
  3
Layout2
350
26
  3
Model
350
22
  0
DICTIONARY
  5
17
102
{ACAD_REACTORS
330
C
102
}
330
C
100
AcDbDictionary
281
     1
  3
Standard
350
18
  0
DICTIONARY
  5
19
102
{ACAD_REACTORS
330
C
102
}
330
C
100
AcDbDictionary
281
     1
  0
ACDBDICTIONARYWDFLT
  5
E
102
{ACAD_REACTORS
330
C
102
}
330
C
100
AcDbDictionary
281
     1
  3
Normal
350
F
100
AcDbDictionaryWithDefault
340
F
  0
LAYOUT
  5
1E
102
{ACAD_REACTORS
330
1A
102
}
330
1A
100
AcDbPlotSettings
  1

  2
none_device
  4

  6

 40
0.0
 41
0.0
 42
0.0
 43
0.0
 44
0.0
 45
0.0
 46
0.0
 47
0.0
 48
0.0
 49
0.0
140
0.0
141
0.0
142
1.0
143
1.0
 70
   688
 72
     0
 73
     0
 74
     5
  7

 75
    16
147
1.0
148
0.0
149
0.0
100
AcDbLayout
  1
Layout1
 70
     1
 71
     1
 10
0.0
 20
0.0
 11
420.0
 21
297.0
 12
0.0
 22
0.0
 32
0.0
 14
1.0000000000E+20
 24
1.0000000000E+20
 34
1.0000000000E+20
 15
-1.0000000000E+20
 25
-1.0000000000E+20
 35
-1.0000000000E+20
146
0.0
 13
0.0
 23
0.0
 33
0.0
 16
1.0
 26
0.0
 36
0.0
 17
0.0
 27
1.0
 37
0.0
 76
     0
330
1B
  0
LAYOUT
  5
26
102
{ACAD_REACTORS
330
1A
102
}
330
1A
100
AcDbPlotSettings
  1

  2
none_device
  4

  6

 40
0.0
 41
0.0
 42
0.0
 43
0.0
 44
0.0
 45
0.0
 46
0.0
 47
0.0
 48
0.0
 49
0.0
140
0.0
141
0.0
142
1.0
143
1.0
 70
   688
 72
     0
 73
     0
 74
     5
  7

 75
    16
147
1.0
148
0.0
149
0.0
100
AcDbLayout
  1
Layout2
 70
     1
 71
     2
 10
0.0
 20
0.0
 11
0.0
 21
0.0
 12
0.0
 22
0.0
 32
0.0
 14
0.0
 24
0.0
 34
0.0
 15
0.0
 25
0.0
 35
0.0
146
0.0
 13
0.0
 23
0.0
 33
0.0
 16
1.0
 26
0.0
 36
0.0
 17
0.0
 27
1.0
 37
0.0
 76
     0
330
23
  0
LAYOUT
  5
22
102
{ACAD_REACTORS
330
1A
102
}
330
1A
100
AcDbPlotSettings
  1

  2
none_device
  4

  6

 40
0.0
 41
0.0
 42
0.0
 43
0.0
 44
0.0
 45
0.0
 46
0.0
 47
0.0
 48
0.0
 49
0.0
140
0.0
141
0.0
142
1.0
143
1.0
 70
  1712
 72
     0
 73
     0
 74
     0
  7

 75
     0
147
1.0
148
0.0
149
0.0
100
AcDbLayout
  1
Model
 70
     1
 71
     0
 10
0.0
 20
0.0
 11
1100.0
 21
1100.0
 12
0.0
 22
0.0
 32
0.0
 14
0.0
 24
0.0
 34
0.0
 15
1100.0
 25
1100.0
 35
0.0
146
0.0
 13
0.0
 23
0.0
 33
0.0
 16
1.0
 26
0.0
 36
0.0
 17
0.0
 27
1.0
 37
0.0
 76
     0
330
1F
331
29
  0
MLINESTYLE
  5
18
102
{ACAD_REACTORS
330
17
102
}
330
17
100
AcDbMlineStyle
  2
Standard
 70
     0
  3

 62
   256
 51
90.0
 52
90.0
 71
     2
 49
0.5
 62
   256
  6
BYLAYER
 49
-0.5
 62
   256
  6
BYLAYER
  0
ACDBPLACEHOLDER
  5
F
102
{ACAD_REACTORS
330
E
102
}
330
E
  0
ENDSEC
  0
EOF
