  0
SECTION
  2
HEADER
  9
$ACADVER
  1
AC1015
  9
$ACADMAINTVER
 70
     6
  9
$DWGCODEPAGE
  3
ANSI_1252
  9
$INSBASE
 10
0.0
 20
0.0
 30
0.0
  9
$EXTMIN
 10
0.0
 20
0.0
 30
0.0
  9
$EXTMAX
 10
1000.0
 20
1000.0
 30
0.0
  9
$LIMMIN
 10
0.0
 20
0.0
  9
$LIMMAX
 10
1000.0
 20
1000.0
  9
$ORTHOMODE
 70
     0
  9
$REGENMODE
 70
     1
  9
$FILLMODE
 70
     1
  9
$QTEXTMODE
 70
     0
  9
$MIRRTEXT
 70
     1
  9
$LTSCALE
 40
1.0
  9
$ATTMODE
 70
     1
  9
$TEXTSIZE
 40
3.5
  9
$TRACEWID
 40
1.0
  9
$TEXTSTYLE
  7
Standard
  9
$CLAYER
  8
0
  9
$CELTYPE
  6
ByLayer
  9
$CECOLOR
 62
   256
  9
$CELTSCALE
 40
1.0
  9
$DISPSILH
 70
     0
  9
$DIMSCALE
 40
1.0
  9
$DIMASZ
 40
3.302
  9
$DIMEXO
 40
1.0
  9
$DIMDLI
 40
3.75
  9
$DIMRND
 40
0.0
  9
$DIMDLE
 40
0.0
  9
$DIMEXE
 40
1.0
  9
$DIMTP
 40
0.0
  9
$DIMTM
 40
0.0
  9
$DIMTXT
 40
3.5
  9
$DIMCEN
 40
2.5
  9
$DIMTSZ
 40
0.0
  9
$DIMTOL
 70
     0
  9
$DIMLIM
 70
     0
  9
$DIMTIH
 70
     1
  9
$DIMTOH
 70
     1
  9
$DIMSE1
 70
     0
  9
$DIMSE2
 70
     0
  9
$DIMTAD
 70
     1
  9
$DIMZIN
 70
     0
  9
$DIMBLK
  1

  9
$DIMASO
 70
     1
  9
$DIMSHO
 70
     1
  9
$DIMPOST
  1

  9
$DIMAPOST
  1

  9
$DIMALT
 70
     0
  9
$DIMALTD
 70
     3
  9
$DIMALTF
 40
0.0393700787
  9
$DIMLFAC
 40
1.0
  9
$DIMTOFL
 70
     1
  9
$DIMTVP
 40
0.0
  9
$DIMTIX
 70
     0
  9
$DIMSOXD
 70
     0
  9
$DIMSAH
 70
     0
  9
$DIMBLK1
  1

  9
$DIMBLK2
  1

  9
$DIMSTYLE
  2
ISO-25
  9
$DIMCLRD
 70
     0
  9
$DIMCLRE
 70
     0
  9
$DIMCLRT
 70
     0
  9
$DIMTFAC
 40
1.0
  9
$DIMGAP
 40
1.524
  9
$DIMJUST
 70
     0
  9
$DIMSD1
 70
     0
  9
$DIMSD2
 70
     0
  9
$DIMTOLJ
 70
     0
  9
$DIMTZIN
 70
     0
  9
$DIMALTZ
 70
     0
  9
$DIMALTTZ
 70
     0
  9
$DIMUPT
 70
     0
  9
$DIMDEC
 70
     3
  9
$DIMTDEC
 70
     3
  9
$DIMALTU
 70
     2
  9
$DIMALTTD
 70
     3
  9
$DIMTXSTY
  7
Standard
  9
$DIMAUNIT
 70
     0
  9
$DIMADEC
 70
     2
  9
$DIMALTRND
 40
0.0
  9
$DIMAZIN
 70
     0
  9
$DIMDSEP
 70
    44
  9
$DIMATFIT
 70
     3
  9
$DIMFRAC
 70
     0
  9
$DIMLDRBLK
  1

  9
$DIMLUNIT
 70
     2
  9
$DIMLWD
 70
    -2
  9
$DIMLWE
 70
    -2
  9
$DIMTMOVE
 70
     0
  9
$LUNITS
 70
     2
  9
$LUPREC
 70
     8
  9
$SKETCHINC
 40
1.0
  9
$FILLETRAD
 40
10.0
  9
$AUNITS
 70
     0
  9
$AUPREC
 70
     8
  9
$MENU
  1
.
  9
$ELEVATION
 40
0.0
  9
$PELEVATION
 40
0.0
  9
$THICKNESS
 40
0.0
  9
$LIMCHECK
 70
     0
  9
$CHAMFERA
 40
10.0
  9
$CHAMFERB
 40
10.0
  9
$CHAMFERC
 40
20.0
  9
$CHAMFERD
 40
0.0
  9
$SKPOLY
 70
     0
  9
$TDCREATE
 40
2457053.626442245
  9
$TDUCREATE
 40
2457053.626442245
  9
$TDUPDATE
 40
2457053.62644279
  9
$TDUUPDATE
 40
2457053.62644279
  9
$TDINDWG
 40
0.0000000116
  9
$TDUSRTIMER
 40
0.0000000116
  9
$USRTIMER
 70
     1
  9
$ANGBASE
 50
0.0
  9
$ANGDIR
 70
     0
  9
$PDMODE
 70
     0
  9
$PDSIZE
 40
-1.0
  9
$PLINEWID
 40
0.0
  9
$SPLFRAME
 70
     0
  9
$SPLINETYPE
 70
     6
  9
$SPLINESEGS
 70
     8
  9
$HANDSEED
  5
1F2
  9
$SURFTAB1
 70
     6
  9
$SURFTAB2
 70
     6
  9
$SURFTYPE
 70
     6
  9
$SURFU
 70
     6
  9
$SURFV
 70
     6
  9
$UCSBASE
  2

  9
$UCSNAME
  2

  9
$UCSORG
 10
0.0
 20
0.0
 30
0.0
  9
$UCSXDIR
 10
1.0
 20
0.0
 30
0.0
  9
$UCSYDIR
 10
0.0
 20
1.0
 30
0.0
  9
$UCSORTHOREF
  2

  9
$UCSORTHOVIEW
 70
     0
  9
$UCSORGTOP
 10
0.0
 20
0.0
 30
0.0
  9
$UCSORGBOTTOM
 10
0.0
 20
0.0
 30
0.0
  9
$UCSORGLEFT
 10
0.0
 20
0.0
 30
0.0
  9
$UCSORGRIGHT
 10
0.0
 20
0.0
 30
0.0
  9
$UCSORGFRONT
 10
0.0
 20
0.0
 30
0.0
  9
$UCSORGBACK
 10
0.0
 20
0.0
 30
0.0
  9
$PUCSBASE
  2

  9
$PUCSNAME
  2

  9
$PUCSORG
 10
0.0
 20
0.0
 30
0.0
  9
$PUCSXDIR
 10
1.0
 20
0.0
 30
0.0
  9
$PUCSYDIR
 10
0.0
 20
1.0
 30
0.0
  9
$PUCSORTHOREF
  2

  9
$PUCSORTHOVIEW
 70
     0
  9
$PUCSORGTOP
 10
0.0
 20
0.0
 30
0.0
  9
$PUCSORGBOTTOM
 10
0.0
 20
0.0
 30
0.0
  9
$PUCSORGLEFT
 10
0.0
 20
0.0
 30
0.0
  9
$PUCSORGRIGHT
 10
0.0
 20
0.0
 30
0.0
  9
$PUCSORGFRONT
 10
0.0
 20
0.0
 30
0.0
  9
$PUCSORGBACK
 10
0.0
 20
0.0
 30
0.0
  9
$USERI1
 70
     0
  9
$USERI2
 70
     0
  9
$USERI3
 70
     0
  9
$USERI4
 70
     0
  9
$USERI5
 70
     0
  9
$USERR1
 40
0.0
  9
$USERR2
 40
0.0
  9
$USERR3
 40
0.0
  9
$USERR4
 40
0.0
  9
$USERR5
 40
0.0
  9
$WORLDVIEW
 70
     1
  9
$SHADEDGE
 70
     3
  9
$SHADEDIF
 70
    70
  9
$TILEMODE
 70
     1
  9
$MAXACTVP
 70
    64
  9
$PINSBASE
 10
0.0
 20
0.0
 30
0.0
  9
$PLIMCHECK
 70
     0
  9
$PEXTMIN
 10
1.0000000000E+20
 20
1.0000000000E+20
 30
1.0000000000E+20
  9
$PEXTMAX
 10
-1.0000000000E+20
 20
-1.0000000000E+20
 30
-1.0000000000E+20
  9
$PLIMMIN
 10
0.0
 20
0.0
  9
$PLIMMAX
 10
420.0
 20
297.0
  9
$UNITMODE
 70
     0
  9
$VISRETAIN
 70
     1
  9
$PLINEGEN
 70
     0
  9
$PSLTSCALE
 70
     1
  9
$TREEDEPTH
 70
  3020
  9
$CMLSTYLE
  2
Standard
  9
$CMLJUST
 70
     0
  9
$CMLSCALE
 40
20.0
  9
$PROXYGRAPHICS
 70
     1
  9
$MEASUREMENT
 70
     1
  9
$CELWEIGHT
370
    -1
  9
$ENDCAPS
280
     0
  9
$JOINSTYLE
280
     0
  9
$LWDISPLAY
290
     1
  9
$INSUNITS
 70
     4
  9
$HYPERLINKBASE
  1

  9
$STYLESHEET
  1

  9
$XEDIT
290
     1
  9
$CEPSNTYPE
380
     0
  9
$PSTYLEMODE
290
     1
  9
$FINGERPRINTGUID
  2
{707E776E-DF90-416A-BE64-579B7D0AA519}
  9
$VERSIONGUID
  2
{FAEB1C32-E019-11D5-929B-00C0DF256EC4}
  9
$EXTNAMES
290
     1
  9
$PSVPSCALE
 40
0.0
  9
$OLESTARTUP
290
     0
  0
ENDSEC
  0
SECTION
  2
CLASSES
  0
CLASS
  1
ACDBDICTIONARYWDFLT
  2
AcDbDictionaryWithDefault
  3
ObjectDBX Classes
 90
        0
280
     0
281
     0
  0
CLASS
  1
VISUALSTYLE
  2
AcDbVisualStyle
  3
ObjectDBX Classes
 90
     4095
280
     0
281
     0
  0
CLASS
  1
MATERIAL
  2
AcDbMaterial
  3
ObjectDBX Classes
 90
     1153
280
     0
281
     0
  0
CLASS
  1
ACDBPLACEHOLDER
  2
AcDbPlaceHolder
  3
ObjectDBX Classes
 90
        0
280
     0
281
     0
  0
CLASS
  1
LAYOUT
  2
AcDbLayout
  3
ObjectDBX Classes
 90
        0
280
     0
281
     0
  0
ENDSEC
  0
SECTION
  2
TABLES
  0
TABLE
  2
VPORT
  5
8
330
0
100
AcDbSymbolTable
 70
     1
  0
VPORT
  5
29
330
8
100
AcDbSymbolTableRecord
100
AcDbViewportTableRecord
  2
*Active
 70
     0
 10
0.0
 20
0.0
 11
1.0
 21
1.0
 12
500.0
 22
500.0
 13
0.0
 23
0.0
 14
10.0
 24
10.0
 15
10.0
 25
10.0
 16
0.0
 26
0.0
 36
1.0
 17
0.0
 27
0.0
 37
0.0
 40
1000.0
 41
1.0
 42
50.0
 43
0.0
 44
0.0
 50
0.0
 51
0.0
 71
     0
 72
  2000
 73
     1
 74
     3
 75
     0
 76
     0
 77
     0
 78
     0
281
     0
 65
     1
110
0.0
120
0.0
130
0.0
111
1.0
121
0.0
131
0.0
112
0.0
122
1.0
132
0.0
 79
     0
146
0.0
  0
ENDTAB
  0
TABLE
  2
LTYPE
  5
5
330
0
100
AcDbSymbolTable
 70
     6
  0
LTYPE
  5
14
330
5
100
AcDbSymbolTableRecord
100
AcDbLinetypeTableRecord
  2
ByBlock
 70
     0
  3

 72
    65
 73
     0
 40
0.0
  0
LTYPE
  5
15
330
5
100
AcDbSymbolTableRecord
100
AcDbLinetypeTableRecord
  2
ByLayer
 70
     0
  3

 72
    65
 73
     0
 40
0.0
  0
LTYPE
  5
16
330
5
100
AcDbSymbolTableRecord
100
AcDbLinetypeTableRecord
  2
Continuous
 70
     0
  3
Solid line
 72
    65
 73
     0
 40
0.0
  0
LTYPE
  5
3F
330
5
100
AcDbSymbolTableRecord
100
AcDbLinetypeTableRecord
  2
HIDDEN
 70
     0
  3
Hidden __ __ __ __ __ __ __ __ __ __ __ __ __ __
 72
    65
 73
     2
 40
1.905
 49
1.27
 74
     0
 49
-0.635
 74
     0
  0
LTYPE
  5
40
330
5
100
AcDbSymbolTableRecord
100
AcDbLinetypeTableRecord
  2
PHANTOM
 70
     0
  3
Phantom ______  __  __  ______  __  __  ______
 72
    65
 73
     6
 40
12.7
 49
6.35
 74
     0
 49
-1.27
 74
     0
 49
1.27
 74
     0
 49
-1.27
 74
     0
 49
1.27
 74
     0
 49
-1.27
 74
     0
  0
LTYPE
  5
41
330
5
100
AcDbSymbolTableRecord
100
AcDbLinetypeTableRecord
  2
CENTER
 70
     0
  3
Center ____ _ ____ _ ____ _ ____ _ ____ _ ____
 72
    65
 73
     4
 40
10.16
 49
6.35
 74
     0
 49
-1.27
 74
     0
 49
1.27
 74
     0
 49
-1.27
 74
     0
  0
LTYPE
  5
42
330
5
100
AcDbSymbolTableRecord
100
AcDbLinetypeTableRecord
  2
CENTERX2
 70
     0
  3
Center (2x) ________  __  ________  __  _____
 72
    65
 73
     4
 40
20.32
 49
12.7
 74
     0
 49
-2.54
 74
     0
 49
2.54
 74
     0
 49
-2.54
 74
     0
  0
LTYPE
  5
43
330
5
100
AcDbSymbolTableRecord
100
AcDbLinetypeTableRecord
  2
DOT2
 70
     0
  3
Dot (.5x) ........................................
 72
    65
 73
     2
 40
0.635
 49
0.0
 74
     0
 49
-0.635
 74
     0
  0
ENDTAB
  0
TABLE
  2
LAYER
  5
2
330
0
100
AcDbSymbolTable
 70
     1
  0
LAYER
  5
10
330
2
100
AcDbSymbolTableRecord
100
AcDbLayerTableRecord
  2
0
 70
     0
 62
     7
  6
Continuous
370
    -3
390
F
  0
ENDTAB
  0
TABLE
  2
STYLE
  5
3
330
0
100
AcDbSymbolTable
 70
     1
  0
STYLE
  5
11
330
3
100
AcDbSymbolTableRecord
100
AcDbTextStyleTableRecord
  2
Standard
 70
     0
 40
0.0
 41
1.0
 50
0.0
 71
     0
 42
3.5
  3
txt
  4

  0
ENDTAB
  0
TABLE
  2
VIEW
  5
6
330
0
100
AcDbSymbolTable
 70
     0
  0
ENDTAB
  0
TABLE
  2
UCS
  5
7
330
0
100
AcDbSymbolTable
 70
     0
  0
ENDTAB
  0
TABLE
  2
APPID
  5
9
330
0
100
AcDbSymbolTable
 70
     1
  0
APPID
  5
12
330
9
100
AcDbSymbolTableRecord
100
AcDbRegAppTableRecord
  2
ACAD
 70
     0
  0
ENDTAB
  0
TABLE
  2
DIMSTYLE
  5
A
330
0
100
AcDbSymbolTable
 70
     1
100
AcDbDimStyleTable
  0
DIMSTYLE
105
27
330
A
100
AcDbSymbolTableRecord
100
AcDbDimStyleTableRecord
  2
ISO-25
 70
     0
 41
2.5
 42
0.625
 43
3.75
 44
1.25
 73
     0
 74
     0
 77
     1
 78
     8
140
2.5
141
2.5
143
0.0393700787
147
0.625
171
     3
172
     1
178
     0
271
     2
272
     2
274
     3
278
    44
283
     0
284
     8
340
11
  0
ENDTAB
  0
TABLE
  2
BLOCK_RECORD
  5
1
330
0
100
AcDbSymbolTable
 70
     1
  0
BLOCK_RECORD
  5
1F
330
1
100
AcDbSymbolTableRecord
100
AcDbBlockTableRecord
  2
*Model_Space
340
22
  0
BLOCK_RECORD
  5
1B
330
1
100
AcDbSymbolTableRecord
100
AcDbBlockTableRecord
  2
*Paper_Space
340
1E
  0
BLOCK_RECORD
  5
23
330
1
100
AcDbSymbolTableRecord
100
AcDbBlockTableRecord
  2
*Paper_Space0
340
26
  0
ENDTAB
  0
ENDSEC
  0
SECTION
  2
BLOCKS
  0
BLOCK
  5
20
330
1F
100
AcDbEntity
  8
0
100
AcDbBlockBegin
  2
*Model_Space
 70
     0
 10
0.0
 20
0.0
 30
0.0
  3
*Model_Space
  1

  0
ENDBLK
  5
21
330
1F
100
AcDbEntity
  8
0
100
AcDbBlockEnd
  0
BLOCK
  5
1C
330
1B
100
AcDbEntity
 67
     1
  8
0
100
AcDbBlockBegin
  2
*Paper_Space
 70
     0
 10
0.0
 20
0.0
 30
0.0
  3
*Paper_Space
  1

  0
ENDBLK
  5
1D
330
1B
100
AcDbEntity
 67
     1
  8
0
100
AcDbBlockEnd
  0
BLOCK
  5
24
330
23
100
AcDbEntity
  8
0
100
AcDbBlockBegin
  2
*Paper_Space0
 70
     0
 10
0.0
 20
0.0
 30
0.0
  3
*Paper_Space0
  1

  0
ENDBLK
  5
25
330
23
100
AcDbEntity
  8
0
100
AcDbBlockEnd
  0
ENDSEC
  0
SECTION
  2
ENTITIES
  0
LINE
  5
44
330
1F
100
AcDbEntity
  8
0
  6
Continuous
 62
     7
100
AcDbLine
 10
209.920567638
 20
695.5912114014
 30
0.0
 11
209.920567638
 21
749.7912114014
 31
0.0
  0
LINE
  5
45
330
1F
100
AcDbEntity
  8
0
  6
Continuous
 62
     7
100
AcDbLine
 10
209.920567638
 20
749.7912114014
 30
0.0
 11
209.920567638
 21
875.0429475699
 31
0.0
  0
LINE
  5
46
330
1F
100
AcDbEntity
  8
0
  6
Continuous
 62
     7
370
    15
100
AcDbLine
 10
302.4501650444
 20
47.091204933
 30
0.0
 11
302.4501650444
 21
51.0912130392
 31
0.0
  0
LINE
  5
47
330
1F
100
AcDbEntity
  8
0
  6
Continuous
 62
     7
370
    15
100
AcDbLine
 10
245.4501687399
 20
51.0912130392
 30
0.0
 11
245.4501687399
 21
47.091204933
 31
0.0
  0
ARC
  5
48
330
1F
100
AcDbEntity
  8
0
  6
Continuous
 62
     7
370
    15
100
AcDbCircle
 10
300.4501633961
 20
47.0912114014
 30
0.0
 40
2.0
100
AcDbArc
 50
270.0
 51
0.0
  0
ARC
  5
49
330
1F
100
AcDbEntity
  8
0
  6
Continuous
 62
     7
370
    15
100
AcDbCircle
 10
247.4501633961
 20
47.0912114014
 30
0.0
 40
2.0
100
AcDbArc
 50
180.0
 51
270.0
  0
LINE
  5
4A
330
1F
100
AcDbEntity
  8
0
  6
Continuous
 62
     7
370
    15
100
AcDbLine
 10
776.6501604429
 20
47.091204933
 30
0.0
 11
776.6501604429
 21
51.0912130392
 31
0.0
  0
LINE
  5
4B
330
1F
100
AcDbEntity
  8
0
  6
Continuous
 62
     7
370
    15
100
AcDbLine
 10
719.6501641384
 20
51.0912130392
 30
0.0
 11
719.6501641384
 21
47.091204933
 31
0.0
  0
ARC
  5
4C
330
1F
100
AcDbEntity
  8
0
  6
Continuous
 62
     7
370
    15
100
AcDbCircle
 10
774.6501633961
 20
47.0912114014
 30
0.0
 40
2.0
100
AcDbArc
 50
270.0
 51
0.0
  0
ARC
  5
4D
330
1F
100
AcDbEntity
  8
0
  6
Continuous
 62
     7
370
    15
100
AcDbCircle
 10
721.6501633961
 20
47.0912114014
 30
0.0
 40
2.0
100
AcDbArc
 50
180.0
 51
270.0
  0
LINE
  5
4E
330
1F
100
AcDbEntity
  8
0
  6
Continuous
 62
     7
370
    15
100
AcDbLine
 10
302.2501616588
 20
51.0912130392
 30
0.0
 11
302.2501616588
 21
119.0912092842
 31
0.0
  0
LINE
  5
4F
330
1F
100
AcDbEntity
  8
0
  6
Continuous
 62
     7
370
    15
100
AcDbLine
 10
245.6501721254
 20
119.0912092842
 30
0.0
 11
245.6501721254
 21
51.0912130392
 31
0.0
  0
LINE
  5
50
330
1F
100
AcDbEntity
  8
0
  6
Continuous
 62
     7
370
    15
100
AcDbLine
 10
776.4501570574
 20
51.0912130392
 30
0.0
 11
776.4501570574
 21
119.0912092842
 31
0.0
  0
LINE
  5
51
330
1F
100
AcDbEntity
  8
0
  6
Continuous
 62
     7
370
    15
100
AcDbLine
 10
719.8501675239
 20
119.0912092842
 30
0.0
 11
719.8501675239
 21
51.0912130392
 31
0.0
  0
ARC
  5
52
330
1F
100
AcDbEntity
  8
0
  6
Continuous
 62
     7
370
    15
100
AcDbCircle
 10
781.5501633961
 20
211.5912114014
 30
0.0
 40
1.5
100
AcDbArc
 50
90.0
 51
180.0
  0
ARC
  5
53
330
1F
100
AcDbEntity
  8
0
  6
Continuous
 62
     7
370
    15
100
AcDbCircle
 10
714.7501633961
 20
211.5912114014
 30
0.0
 40
1.500000000000114
100
AcDbArc
 50
0.0
 51
90.0
  0
LINE
  5
54
330
1F
100
AcDbEntity
  8
0
  6
Continuous
 62
     7
370
    15
100
AcDbLine
 10
780.0501583925
 20
125.1237804807
 30
0.0
 11
780.0501583925
 21
211.5912104762
 31
0.0
  0
LINE
  5
55
330
1F
100
AcDbEntity
  8
0
  6
Continuous
 62
     7
370
    15
100
AcDbLine
 10
716.2501661888
 20
211.5912104762
 30
0.0
 11
716.2501661888
 21
125.1237804807
 31
0.0
  0
ARC
  5
56
330
1F
100
AcDbEntity
  8
0
  6
Continuous
 62
     7
370
    15
100
AcDbCircle
 10
775.3501633961
 20
125.1237773471
 30
0.0
 40
4.700000000000045
100
AcDbArc
 50
350.5402980318
 51
0.0
  0
ARC
  5
57
330
1F
100
AcDbEntity
  8
0
  6
Continuous
 62
     7
370
    15
100
AcDbCircle
 10
720.9501633961
 20
125.1237773471
 30
0.0
 40
4.700000000000014
100
AcDbArc
 50
180.0
 51
189.4597019682
  0
LINE
  5
58
330
1F
100
AcDbEntity
  8
0
  6
Continuous
 62
     7
370
    15
100
AcDbLine
 10
716.3140772692
 20
124.351311735
 30
0.0
 11
717.1905188671
 21
119.0912092842
 31
0.0
  0
LINE
  5
59
330
1F
100
AcDbEntity
  8
0
  6
Continuous
 62
     7
370
    15
100
AcDbLine
 10
779.1098057142
 20
119.0912092842
 30
0.0
 11
779.9862622133
 21
124.351311735
 31
0.0
  0
ARC
  5
5A
330
1F
100
AcDbEntity
  8
0
  6
Continuous
 62
     7
370
    15
100
AcDbCircle
 10
307.3501633961
 20
211.5912114014
 30
0.0
 40
1.5
100
AcDbArc
 50
90.0
 51
180.0
  0
ARC
  5
5B
330
1F
100
AcDbEntity
  8
0
  6
Continuous
 62
     7
370
    15
100
AcDbCircle
 10
240.5501633961
 20
211.5912114014
 30
0.0
 40
1.5
100
AcDbArc
 50
0.0
 51
90.0
  0
LINE
  5
5C
330
1F
100
AcDbEntity
  8
0
  6
Continuous
 62
     7
370
    15
100
AcDbLine
 10
305.850162994
 20
125.1237804807
 30
0.0
 11
305.850162994
 21
211.5912104762
 31
0.0
  0
LINE
  5
5D
330
1F
100
AcDbEntity
  8
0
  6
Continuous
 62
     7
370
    15
100
AcDbLine
 10
242.0501707903
 20
211.5912104762
 30
0.0
 11
242.0501707903
 21
125.1237804807
 31
0.0
  0
ARC
  5
5E
330
1F
100
AcDbEntity
  8
0
  6
Continuous
 62
     7
370
    15
100
AcDbCircle
 10
301.1501633961
 20
125.1237773471
 30
0.0
 40
4.700000000000014
100
AcDbArc
 50
350.5402980318
 51
0.0
  0
ARC
  5
5F
330
1F
100
AcDbEntity
  8
0
  6
Continuous
 62
     7
370
    15
100
AcDbCircle
 10
246.7501633961
 20
125.1237773471
 30
0.0
 40
4.700000000000014
100
AcDbArc
 50
180.0
 51
189.4597019682
  0
LINE
  5
60
330
1F
100
AcDbEntity
  8
0
  6
Continuous
 62
     7
370
    15
100
AcDbLine
 10
242.1140669695
 20
124.351311735
 30
0.0
 11
242.9905234686
 21
119.0912092842
 31
0.0
  0
LINE
  5
61
330
1F
100
AcDbEntity
  8
0
  6
Continuous
 62
     7
370
    15
100
AcDbLine
 10
304.9098103157
 20
119.0912092842
 30
0.0
 11
305.7862519136
 21
124.351311735
 31
0.0
  0
SPLINE
  5
62
330
1F
100
AcDbEntity
  8
0
  6
Continuous
 62
     7
370
    15
100
AcDbSpline
210
0.0
220
0.0
230
1.0
 70
     8
 71
     3
 72
    13
 73
     9
 74
     0
 42
0.00000001
 43
0.00000001
 12
1.0
 22
0.0
 32
0.0
 13
1.0
 23
0.0
 33
0.0
 40
0.0
 40
0.0
 40
0.0
 40
0.0
 40
0.0761310245943391
 40
0.2250805631051597
 40
0.4231639745449125
 40
0.6447788250489184
 40
0.9049972393635677
 40
1.0
 40
1.0
 40
1.0
 40
1.0
 10
353.2806931844563
 20
203.2566035903371
 30
0.0
 10
353.2804737279892
 20
203.2569734629567
 30
0.0
 10
353.2798249072827
 20
203.2580669874159
 30
0.0
 10
353.2899139828365
 20
203.2359500470254
 30
0.0
 10
353.3042427326563
 20
203.1851151575545
 30
0.0
 10
353.3189269275442
 20
203.0989293769507
 30
0.0
 10
353.327094880888
 20
203.0113856829647
 30
0.0
 10
353.3260724462463
 20
202.9560379799661
 30
0.0
 10
353.32579899939
 20
202.9412354148305
 30
0.0
  0
LINE
  5
63
330
1F
100
AcDbEntity
  8
0
  6
Continuous
 62
     7
370
    15
100
AcDbLine
 10
353.3268867842
 20
202.9412130631
 30
0.0
 11
353.3268867842
 21
197.8412124134
 31
0.0
  0
ARC
  5
64
330
1F
100
AcDbEntity
  8
0
  6
Continuous
 62
     7
370
    15
100
AcDbCircle
 10
353.5768883292
 20
197.8412114014
 30
0.0
 40
0.2499999999999716
100
AcDbArc
 50
180.0
 51
270.0
  0
ARC
  5
65
330
1F
100
AcDbEntity
  8
0
  6
Continuous
 62
     7
370
    15
100
AcDbCircle
 10
359.5371565874
 20
197.8412114014
 30
0.0
 40
0.25
100
AcDbArc
 50
270.0
 51
0.0
  0
LINE
  5
66
330
1F
100
AcDbEntity
  8
0
  6
Continuous
 62
     7
370
    15
100
AcDbLine
 10
359.7871511093
 20
197.8412124134
 30
0.0
 11
359.7871511093
 21
202.9412130631
 31
0.0
  0
ARC
  5
67
330
1F
100
AcDbEntity
  8
0
  6
Continuous
 62
     7
370
    15
100
AcDbCircle
 10
362.4001633961
 20
203.4412114014
 30
0.0
 40
0.2500000000000568
100
AcDbArc
 50
270.0
 51
0.0
  0
ARC
  5
68
330
1F
100
AcDbEntity
  8
0
  6
Continuous
 62
     7
370
    15
100
AcDbCircle
 10
362.4001633961
 20
204.1412114014
 30
0.0
 40
0.2500000000000568
100
AcDbArc
 50
0.0
 51
90.0
  0
LINE
  5
69
330
1F
100
AcDbEntity
  8
0
  6
Continuous
 62
     7
370
    15
100
AcDbLine
 10
362.6501708141
 20
203.4412103511
 30
0.0
 11
362.6501708141
 21
204.1412110246
 31
0.0
  0
LINE
  5
6A
330
1F
100
AcDbEntity
  8
0
  6
Continuous
 62
     7
370
    15
100
AcDbLine
 10
348.1131641975
 20
201.9912118829
 30
0.0
 11
348.1131641975
 21
197.8412124134
 31
0.0
  0
ARC
  5
6B
330
1F
100
AcDbEntity
  8
0
  6
Continuous
 62
     7
370
    15
100
AcDbCircle
 10
348.3631702047
 20
197.8412114014
 30
0.0
 40
0.2500000000000108
100
AcDbArc
 50
180.0
 51
226.1616147494
  0
ARC
  5
6C
330
1F
100
AcDbEntity
  8
0
  6
Continuous
 62
     7
370
    15
100
AcDbCircle
 10
345.2001633961
 20
203.4412114014
 30
0.0
 40
1.449999999999989
100
AcDbArc
 50
180.0
 51
270.0
  0
ARC
  5
6D
330
1F
100
AcDbEntity
  8
0
  6
Continuous
 62
     7
370
    15
100
AcDbCircle
 10
344.0001633961
 20
208.5412114014
 30
0.0
 40
0.2500000000000853
100
AcDbArc
 50
90.0
 51
180.0
  0
LINE
  5
6E
330
1F
100
AcDbEntity
  8
0
  6
Continuous
 62
     7
370
    15
100
AcDbLine
 10
343.7501638046
 20
208.5412110008
 30
0.0
 11
343.7501638046
 21
203.4412103511
 31
0.0
  0
SPLINE
  5
6F
330
1F
100
AcDbEntity
  8
0
  6
Continuous
 62
     7
370
    15
100
AcDbSpline
210
0.0
220
0.0
230
1.0
 70
     8
 71
     3
 72
    12
 73
     8
 74
     0
 42
0.00000001
 43
0.00000001
 12
1.0
 22
0.0
 32
0.0
 13
1.0
 23
0.0
 33
0.0
 40
0.0
 40
0.0
 40
0.0
 40
0.0
 40
0.1499428495259625
 40
0.4430237803818733
 40
0.6707104503815309
 40
0.8669365584150851
 40
1.0
 40
1.0
 40
1.0
 40
1.0
 10
346.5982674470753
 20
203.1962203598894
 30
0.0
 10
346.5787717499599
 20
203.1956084796193
 30
0.0
 10
346.5211694203753
 20
203.1938006074114
 30
0.0
 10
346.438493107053
 20
203.2346732314178
 30
0.0
 10
346.3713080969428
 20
203.3041166149992
 30
0.0
 10
346.3370219273976
 20
203.3762310444102
 30
0.0
 10
346.3362566487789
 20
203.4228783425162
 30
0.0
 10
346.3359474054188
 20
203.4417281664289
 30
0.0
  0
LINE
  5
70
330
1F
100
AcDbEntity
  8
0
  6
Continuous
 62
     7
370
    15
100
AcDbLine
 10
346.3334291092
 20
203.4412103511
 30
0.0
 11
346.3334291092
 21
208.5412110008
 31
0.0
  0
ARC
  5
71
330
1F
100
AcDbEntity
  8
0
  6
Continuous
 62
     7
370
    15
100
AcDbCircle
 10
346.0834300268
 20
208.5412114014
 30
0.0
 40
0.2500000000000568
100
AcDbArc
 50
0.0
 51
90.0
  0
LINE
  5
72
330
1F
100
AcDbEntity
  8
0
  6
Continuous
 62
     7
370
    15
100
AcDbLine
 10
362.8976045957
 20
208.5412110008
 30
0.0
 11
362.8976045957
 21
203.4412103511
 31
0.0
  0
ARC
  5
73
330
1F
100
AcDbEntity
  8
0
  6
Continuous
 62
     7
370
    15
100
AcDbCircle
 10
363.1476044349
 20
208.5412114014
 30
0.0
 40
0.2500000000000284
100
AcDbArc
 50
90.0
 51
180.0
  0
ARC
  5
74
330
1F
100
AcDbEntity
  8
0
  6
Continuous
 62
     7
370
    15
100
AcDbCircle
 10
362.7001633961
 20
203.4412114014
 30
0.0
 40
1.449999999999989
100
AcDbArc
 50
270.0
 51
0.0
  0
ARC
  5
75
330
1F
100
AcDbEntity
  8
0
  6
Continuous
 62
     7
370
    15
100
AcDbCircle
 10
363.9001633961
 20
208.5412114014
 30
0.0
 40
0.2500000000000853
100
AcDbArc
 50
0.0
 51
90.0
  0
LINE
  5
76
330
1F
100
AcDbEntity
  8
0
  6
Continuous
 62
     7
370
    15
100
AcDbLine
 10
364.1501664034
 20
203.4412103511
 30
0.0
 11
364.1501664034
 21
208.5412110008
 31
0.0
  0
LINE
  5
77
330
1F
100
AcDbEntity
  8
0
  6
Continuous
 62
     7
370
    15
100
AcDbLine
 10
361.5669010988
 20
208.5412110008
 30
0.0
 11
361.5669010988
 21
204.3912115312
 31
0.0
  0
ARC
  5
78
330
1F
100
AcDbEntity
  8
0
  6
Continuous
 62
     7
370
    15
100
AcDbCircle
 10
361.8168967653
 20
208.5412114014
 30
0.0
 40
0.2500000000000284
100
AcDbArc
 50
90.0
 51
180.0
  0
LINE
  5
79
330
1F
100
AcDbEntity
  8
0
  6
Continuous
 62
     7
370
    15
100
AcDbLine
 10
348.3607022873
 20
197.131537161
 30
0.0
 11
348.9501624218
 21
196.7912095405
 31
0.0
  0
LINE
  5
7A
330
1F
100
AcDbEntity
  8
0
  6
Continuous
 62
     7
370
    15
100
AcDbLine
 10
348.9501624218
 20
201.9912118829
 30
0.0
 11
348.3607022873
 21
201.6508879877
 31
0.0
  0
LINE
  5
7B
330
1F
100
AcDbEntity
  8
0
  6
Continuous
 62
     7
370
    15
100
AcDbLine
 10
358.9501677862
 20
196.7912095405
 30
0.0
 11
359.5396279207
 21
197.131537161
 31
0.0
  0
LINE
  5
7C
330
1F
100
AcDbEntity
  8
0
  6
Continuous
 62
     7
370
    15
100
AcDbLine
 10
348.7623332849
 20
209.9496538556
 30
0.0
 11
348.9501624218
 21
209.8412106551
 31
0.0
  0
LINE
  5
7D
330
1F
100
AcDbEntity
  8
0
  6
Continuous
 62
     7
370
    15
100
AcDbLine
 10
358.9501677862
 20
209.8412106551
 30
0.0
 11
359.1379969231
 21
209.9496538556
 31
0.0
  0
LINE
  5
7E
330
1F
100
AcDbEntity
  8
0
  6
Continuous
 62
     7
370
    15
100
AcDbLine
 10
358.9501677862
 20
204.3912115312
 30
0.0
 11
359.1600804439
 21
204.5124064005
 31
0.0
  0
LINE
  5
7F
330
1F
100
AcDbEntity
  8
0
  6
Continuous
 62
     7
370
    15
100
AcDbLine
 10
359.1600804439
 20
209.4700190044
 30
0.0
 11
358.9501677862
 21
209.5912101484
 31
0.0
  0
LINE
  5
80
330
1F
100
AcDbEntity
  8
0
  6
Continuous
 62
     7
370
    15
100
AcDbLine
 10
348.740249764
 20
204.5124064005
 30
0.0
 11
348.9501624218
 21
204.3912115312
 31
0.0
  0
LINE
  5
81
330
1F
100
AcDbEntity
  8
0
  6
Continuous
 62
     7
370
    15
100
AcDbLine
 10
348.9501624218
 20
209.5912101484
 30
0.0
 11
348.740249764
 21
209.4700190044
 31
0.0
  0
LINE
  5
82
330
1F
100
AcDbEntity
  8
0
  6
Continuous
 62
     7
370
    15
100
AcDbLine
 10
350.9501664749
 20
209.8412106551
 30
0.0
 11
350.9501664749
 21
209.5912101484
 31
0.0
  0
LINE
  5
83
330
1F
100
AcDbEntity
  8
0
  6
Continuous
 62
     7
370
    15
100
AcDbLine
 10
356.9501637331
 20
209.5912101484
 30
0.0
 11
356.9501637331
 21
209.8412106551
 31
0.0
  0
LINE
  5
84
330
1F
100
AcDbEntity
  8
0
  6
Continuous
 62
     7
370
    15
100
AcDbLine
 10
230.4501532427
 20
962.7912233389
 30
0.0
 11
230.4501532427
 21
972.2911904372
 31
0.0
  0
LINE
  5
85
330
1F
100
AcDbEntity
  8
0
  6
Continuous
 62
     7
370
    15
100
AcDbLine
 10
211.4501594416
 20
972.2911904372
 30
0.0
 11
211.4501594416
 21
962.7912233389
 31
0.0
  0
ARC
  5
86
330
1F
100
AcDbEntity
  8
0
  6
Continuous
 62
     7
370
    15
100
AcDbCircle
 10
213.4501633961
 20
972.2912114014
 30
0.0
 40
2.0
100
AcDbArc
 50
90.0
 51
180.0
  0
ARC
  5
87
330
1F
100
AcDbEntity
  8
0
  6
Continuous
 62
     7
370
    15
100
AcDbCircle
 10
228.4501633961
 20
972.2912114014
 30
0.0
 40
2.0
100
AcDbArc
 50
0.0
 51
90.0
  0
LINE
  5
88
330
1F
100
AcDbEntity
  8
0
  6
Continuous
 62
     7
370
    15
100
AcDbLine
 10
810.4501663557
 20
962.7912233389
 30
0.0
 11
810.4501663557
 21
972.2911904372
 31
0.0
  0
LINE
  5
89
330
1F
100
AcDbEntity
  8
0
  6
Continuous
 62
     7
370
    15
100
AcDbLine
 10
791.4501725546
 20
972.2911904372
 30
0.0
 11
791.4501725546
 21
962.7912233389
 31
0.0
  0
ARC
  5
8A
330
1F
100
AcDbEntity
  8
0
  6
Continuous
 62
     7
370
    15
100
AcDbCircle
 10
793.4501633961
 20
972.2912114014
 30
0.0
 40
2.0
100
AcDbArc
 50
90.0
 51
180.0
  0
ARC
  5
8B
330
1F
100
AcDbEntity
  8
0
  6
Continuous
 62
     7
370
    15
100
AcDbCircle
 10
808.4501633961
 20
972.2912114014
 30
0.0
 40
2.0
100
AcDbArc
 50
0.0
 51
90.0
  0
LINE
  5
8C
330
1F
100
AcDbEntity
  8
0
  6
Continuous
 62
     7
370
    15
100
AcDbLine
 10
241.6501640192
 20
244.7912113547
 30
0.0
 11
780.2501617781
 21
244.7912113547
 31
0.0
  0
LINE
  5
8D
330
1F
100
AcDbEntity
  8
0
  6
Continuous
 62
     7
370
    15
100
AcDbLine
 10
780.4501651636
 20
214.7912106282
 30
0.0
 11
241.4501606336
 21
214.7912106282
 31
0.0
  0
LINE
  5
8E
330
1F
100
AcDbEntity
  8
0
  6
Continuous
 62
     7
370
    15
100
AcDbLine
 10
780.4501651636
 20
244.7912113547
 30
0.0
 11
780.4501651636
 21
214.7912106282
 31
0.0
  0
LINE
  5
8F
330
1F
100
AcDbEntity
  8
0
  6
Continuous
 62
     7
370
    15
100
AcDbLine
 10
780.2501617781
 20
244.7912113547
 30
0.0
 11
780.4501651636
 21
244.7912113547
 31
0.0
  0
ARC
  5
90
330
1F
100
AcDbEntity
  8
0
  6
Continuous
 62
     7
370
    15
100
AcDbCircle
 10
808.4501633961
 20
691.8912114014
 30
0.0
 40
2.000000000000114
100
AcDbArc
 50
360.0
 51
90.0
  0
LINE
  5
91
330
1F
100
AcDbEntity
  8
0
  6
Continuous
 62
     7
370
    15
100
AcDbLine
 10
810.4501663557
 20
217.0912123091
 30
0.0
 11
810.4501663557
 21
691.8912122763
 31
0.0
  0
ARC
  5
92
330
1F
100
AcDbEntity
  8
0
  6
Continuous
 62
     7
370
    15
100
AcDbCircle
 10
808.1501633961
 20
217.0912114014
 30
0.0
 40
2.300000000000068
100
AcDbArc
 50
270.0
 51
0.0
  0
LINE
  5
93
330
1F
100
AcDbEntity
  8
0
  6
Continuous
 62
     7
370
    15
100
AcDbLine
 10
780.4501651636
 20
214.7912106282
 30
0.0
 11
808.1501721254
 21
214.7912106282
 31
0.0
  0
CIRCLE
  5
94
330
1F
100
AcDbEntity
  8
0
  6
Continuous
 62
     7
370
    15
100
AcDbCircle
 10
800.6501633961
 20
659.7912114014
 30
0.0
 40
3.200000000000045
  0
CIRCLE
  5
95
330
1F
100
AcDbEntity
  8
0
  6
Continuous
 62
     7
370
    15
100
AcDbCircle
 10
800.6501633961
 20
259.7912114014
 30
0.0
 40
3.199999999999932
  0
CIRCLE
  5
96
330
1F
100
AcDbEntity
  8
0
  6
Continuous
 62
     7
370
    15
100
AcDbCircle
 10
784.9501633961
 20
222.7912114014
 30
0.0
 40
3.200000000000045
  0
LINE
  5
97
330
1F
100
AcDbEntity
  8
0
  6
Continuous
 62
     7
370
    15
100
AcDbLine
 10
808.4501623026
 20
693.8912163294
 30
0.0
 11
780.2501617781
 21
693.8912163294
 31
0.0
  0
LINE
  5
98
330
1F
100
AcDbEntity
  8
0
  6
Continuous
 62
     7
370
    15
100
AcDbLine
 10
777.9501675478
 20
693.8912163294
 30
0.0
 11
780.2501617781
 21
693.8912163294
 31
0.0
  0
SPLINE
  5
99
330
1F
100
AcDbEntity
  8
0
  6
Continuous
 62
     7
370
    15
100
AcDbSpline
210
0.0
220
0.0
230
1.0
 70
     8
 71
     3
 72
    12
 73
     8
 74
     0
 42
0.00000001
 43
0.00000001
 12
1.0
 22
0.0
 32
0.0
 13
1.0
 23
0.0
 33
0.0
 40
0.0
 40
0.0
 40
0.0
 40
0.0
 40
0.219893531627532
 40
0.439817971612778
 40
0.6597486762714926
 40
0.8796664019567311
 40
1.0
 40
1.0
 40
1.0
 40
1.0
 10
780.2501617780538
 20
244.7912113546706
 30
0.0
 10
779.9853182600158
 20
244.8498729110243
 30
0.0
 10
779.4555939973872
 20
244.9672042692326
 30
0.0
 10
778.7539846587143
 20
245.1432275025373
 30
0.0
 10
778.2329809121949
 20
245.3191556791084
 30
0.0
 10
777.9814056352515
 20
245.4688346225657
 30
0.0
 10
777.9583288906396
 20
245.5592389238202
 30
0.0
 10
777.9501675477834
 20
245.5912113926686
 30
0.0
  0
LINE
  5
9A
330
1F
100
AcDbEntity
  8
0
  6
Continuous
 62
     7
370
    15
100
AcDbLine
 10
777.9501675478
 20
245.5912113927
 30
0.0
 11
777.9501675478
 21
693.8912163294
 31
0.0
  0
LINE
  5
9B
330
1F
100
AcDbEntity
  8
0
  6
Continuous
 62
     7
370
    15
100
AcDbLine
 10
779.3803511968
 20
694.7912166632
 30
0.0
 11
779.0214418283
 21
694.2786167181
 31
0.0
  0
LINE
  5
9C
330
1F
100
AcDbEntity
  8
0
  6
Continuous
 62
     7
370
    15
100
AcDbLine
 10
778.4037290922
 20
694.7912166632
 30
0.0
 11
778.3661185613
 21
694.7374830759
 31
0.0
  0
ARC
  5
9D
330
1F
100
AcDbEntity
  8
0
  6
Continuous
 62
     7
370
    15
100
AcDbCircle
 10
780.2501633961
 20
693.4182632181
 30
0.0
 40
2.299999999999981
100
AcDbArc
 50
145.0
 51
168.1336396604
  0
ARC
  5
9E
330
1F
100
AcDbEntity
  8
0
  6
Continuous
 62
     7
370
    15
100
AcDbCircle
 10
780.2501633961
 20
693.4182632181
 30
0.0
 40
1.500000000000096
100
AcDbArc
 50
145.0
 51
161.6211476572
  0
LINE
  5
9F
330
1F
100
AcDbEntity
  8
0
  6
Continuous
 62
     7
370
    15
100
AcDbLine
 10
213.4501634947
 20
693.8912163294
 30
0.0
 11
241.6501640192
 21
693.8912163294
 31
0.0
  0
LINE
  5
A0
330
1F
100
AcDbEntity
  8
0
  6
Continuous
 62
     7
370
    15
100
AcDbLine
 10
241.6501640192
 20
244.7912113547
 30
0.0
 11
241.4501606336
 21
244.7912113547
 31
0.0
  0
LINE
  5
A1
330
1F
100
AcDbEntity
  8
0
  6
Continuous
 62
     7
370
    15
100
AcDbLine
 10
241.4501606336
 20
244.7912113547
 30
0.0
 11
241.4501606336
 21
214.7912106282
 31
0.0
  0
LINE
  5
A2
330
1F
100
AcDbEntity
  8
0
  6
Continuous
 62
     7
370
    15
100
AcDbLine
 10
211.4501594416
 20
217.0912123091
 30
0.0
 11
211.4501594416
 21
691.8912122763
 31
0.0
  0
CIRCLE
  5
A3
330
1F
100
AcDbEntity
  8
0
  6
Continuous
 62
     7
370
    15
100
AcDbCircle
 10
236.9501633961
 20
222.7912114014
 30
0.0
 40
3.19999999999996
  0
ARC
  5
A4
330
1F
100
AcDbEntity
  8
0
  6
Continuous
 62
     7
370
    15
100
AcDbCircle
 10
213.4501633961
 20
691.8912114014
 30
0.0
 40
2.0
100
AcDbArc
 50
90.0
 51
180.0
  0
CIRCLE
  5
A5
330
1F
100
AcDbEntity
  8
0
  6
Continuous
 62
     7
370
    15
100
AcDbCircle
 10
221.2501633961
 20
659.7912114014
 30
0.0
 40
3.199999999999989
  0
CIRCLE
  5
A6
330
1F
100
AcDbEntity
  8
0
  6
Continuous
 62
     7
370
    15
100
AcDbCircle
 10
221.2501633961
 20
259.7912114014
 30
0.0
 40
3.199999999999989
  0
ARC
  5
A7
330
1F
100
AcDbEntity
  8
0
  6
Continuous
 62
     7
370
    15
100
AcDbCircle
 10
213.7501633961
 20
217.0912114014
 30
0.0
 40
2.300000000000011
100
AcDbArc
 50
180.0
 51
270.0
  0
LINE
  5
A8
330
1F
100
AcDbEntity
  8
0
  6
Continuous
 62
     7
370
    15
100
AcDbLine
 10
241.4501606336
 20
214.7912106282
 30
0.0
 11
213.7501536718
 21
214.7912106282
 31
0.0
  0
SPLINE
  5
A9
330
1F
100
AcDbEntity
  8
0
  6
Continuous
 62
     7
370
    15
100
AcDbSpline
210
0.0
220
0.0
230
1.0
 70
     8
 71
     3
 72
    12
 73
     8
 74
     0
 42
0.00000001
 43
0.00000001
 12
1.0
 22
0.0
 32
0.0
 13
1.0
 23
0.0
 33
0.0
 40
0.0
 40
0.0
 40
0.0
 40
0.0
 40
0.2199012123648917
 40
0.4398186960812642
 40
0.6597492894412536
 40
0.8796743174870303
 40
0.9999999999999999
 40
0.9999999999999999
 40
0.9999999999999999
 40
0.9999999999999999
 10
243.9501582494587
 20
245.5912113926686
 30
0.0
 10
243.9234729409634
 20
245.5325509477618
 30
0.0
 10
243.8701003494224
 20
245.4152257174324
 30
0.0
 10
243.4545896472832
 20
245.2391917957813
 30
0.0
 10
242.8456194222137
 20
245.0632627721564
 30
0.0
 10
242.2027693312637
 20
244.913596351377
 30
0.0
 10
241.7945322767369
 20
244.8231844615853
 30
0.0
 10
241.6501640191883
 20
244.7912113546706
 30
0.0
  0
LINE
  5
AA
330
1F
100
AcDbEntity
  8
0
  6
Continuous
 62
     7
370
    15
100
AcDbLine
 10
241.6501640192
 20
693.8912163294
 30
0.0
 11
243.9501582495
 21
693.8912163294
 31
0.0
  0
LINE
  5
AB
330
1F
100
AcDbEntity
  8
0
  6
Continuous
 62
     7
370
    15
100
AcDbLine
 10
243.9501582495
 20
693.8912163294
 30
0.0
 11
243.9501582495
 21
245.5912113927
 31
0.0
  0
LINE
  5
AC
330
1F
100
AcDbEntity
  8
0
  6
Continuous
 62
     7
370
    15
100
AcDbLine
 10
231.8501769415
 20
882.0472548521
 30
0.0
 11
231.8501769415
 21
875.3810713805
 31
0.0
  0
LINE
  5
AD
330
1F
100
AcDbEntity
  8
0
  6
Continuous
 62
     7
370
    15
100
AcDbLine
 10
243.5342072359
 20
694.7374830759
 30
0.0
 11
243.496596705
 21
694.7912166632
 31
0.0
  0
LINE
  5
AE
330
1F
100
AcDbEntity
  8
0
  6
Continuous
 62
     7
370
    15
100
AcDbLine
 10
242.8788839689
 20
694.2786167181
 30
0.0
 11
242.5199746004
 21
694.7912166632
 31
0.0
  0
ARC
  5
AF
330
1F
100
AcDbEntity
  8
0
  6
Continuous
 62
     7
370
    15
100
AcDbCircle
 10
241.6501633961
 20
693.4182632181
 30
0.0
 40
2.300000000000171
100
AcDbArc
 50
11.8663603396
 51
35.0
  0
ARC
  5
B0
330
1F
100
AcDbEntity
  8
0
  6
Continuous
 62
     7
370
    15
100
AcDbCircle
 10
241.6501633961
 20
693.4182632181
 30
0.0
 40
1.500000000000185
100
AcDbArc
 50
18.3788523428
 51
35.0
  0
CIRCLE
  5
B1
330
1F
100
AcDbEntity
  8
0
  6
Continuous
 62
     7
370
    15
100
AcDbCircle
 10
784.9501633961
 20
222.7912114014
 30
0.0
 40
2.100000000000023
  0
CIRCLE
  5
B2
330
1F
100
AcDbEntity
  8
0
  6
Continuous
 62
     7
370
    15
100
AcDbCircle
 10
236.9501633961
 20
222.7912114014
 30
0.0
 40
2.099999999999966
  0
LINE
  5
B3
330
1F
100
AcDbEntity
  8
0
  6
Continuous
 62
     7
370
    15
100
AcDbLine
 10
810.9501599184
 20
944.7912166632
 30
0.0
 11
210.9501658789
 21
944.7912166632
 31
0.0
  0
LINE
  5
B4
330
1F
100
AcDbEntity
  8
0
  6
Continuous
 62
     7
370
    15
100
AcDbLine
 10
810.9501599184
 20
944.7912166632
 30
0.0
 11
810.9501599184
 21
927.7197907484
 31
0.0
  0
LINE
  5
B5
330
1F
100
AcDbEntity
  8
0
  6
Continuous
 62
     7
370
    15
100
AcDbLine
 10
210.9501658789
 20
944.7912166632
 30
0.0
 11
210.9501658789
 21
927.7197907484
 31
0.0
  0
LINE
  5
B6
330
1F
100
AcDbEntity
  8
0
  6
Continuous
 62
     7
370
    15
100
AcDbLine
 10
810.9501599184
 20
927.7197907484
 30
0.0
 11
810.9501599184
 21
896.7572639502
 31
0.0
  0
LINE
  5
B7
330
1F
100
AcDbEntity
  8
0
  6
Continuous
 62
     7
370
    15
100
AcDbLine
 10
210.9501658789
 20
927.7197907484
 30
0.0
 11
210.9501658789
 21
896.7572639502
 31
0.0
  0
LINE
  5
B8
330
1F
100
AcDbEntity
  8
0
  6
Continuous
 62
     7
370
    15
100
AcDbLine
 10
810.9501599184
 20
896.7572639502
 30
0.0
 11
810.9501599184
 21
890.952963642
 31
0.0
  0
LINE
  5
B9
330
1F
100
AcDbEntity
  8
0
  6
Continuous
 62
     7
370
    15
100
AcDbLine
 10
210.9501658789
 20
896.7572639502
 30
0.0
 11
210.9501658789
 21
890.952963642
 31
0.0
  0
LWPOLYLINE
  5
BA
330
1F
100
AcDbEntity
  8
0
  6
Continuous
 62
     7
370
    15
100
AcDbPolyline
 90
        9
 70
   128
 43
0.0
 10
233.4501742235
 20
876.1476467169
 10
233.4885894171
 20
875.9827802695
 10
233.6024044863
 20
875.8241723097
 10
233.7872384897
 20
875.6780813254
 10
234.03593887
 20
875.5499909438
 10
234.3390284887
 20
875.4448483504
 10
234.6847950331
 20
875.3667662657
 10
235.0599764696
 20
875.3186653174
 10
235.4501782766
 20
875.3023932494
  0
LINE
  5
BB
330
1F
100
AcDbEntity
  8
0
  6
Continuous
 62
     7
370
    15
100
AcDbLine
 10
233.4501742235
 20
881.219048313
 30
0.0
 11
233.4501742235
 21
876.1476467169
 31
0.0
  0
LWPOLYLINE
  5
BC
330
1F
100
AcDbEntity
  8
0
  6
Continuous
 62
     7
370
    15
100
AcDbPolyline
 90
        9
 70
   128
 43
0.0
 10
231.4501701704
 20
882.0643017805
 10
231.8403421751
 20
882.0480893172
 10
232.2155236116
 20
881.9999883688
 10
232.561290156
 20
881.9218466795
 10
232.8643797747
 20
881.8167636908
 10
233.1131099573
 20
881.6886733092
 10
233.2979141584
 20
881.5425227202
 10
233.4117292276
 20
881.3839743651
 10
233.4501742235
 20
881.219048313
  0
LINE
  5
BD
330
1F
100
AcDbEntity
  8
0
  6
Continuous
 62
     7
370
    15
100
AcDbLine
 10
231.4501701704
 20
882.0643017805
 30
0.0
 11
212.950169932
 21
882.0643017805
 31
0.0
  0
LWPOLYLINE
  5
BE
330
1F
100
AcDbEntity
  8
0
  6
Continuous
 62
     7
370
    15
100
AcDbPolyline
 90
        9
 70
   128
 43
0.0
 10
210.9501658789
 20
882.9095552481
 10
210.9885810724
 20
882.744629196
 10
211.1023961416
 20
882.5860808409
 10
211.2872301451
 20
882.4399302519
 10
211.5359603277
 20
882.3118398703
 10
211.8390201441
 20
882.2067568816
 10
212.1847866884
 20
882.1286151923
 10
212.5599681249
 20
882.0805738486
 10
212.950169932
 20
882.0643017805
  0
LINE
  5
BF
330
1F
100
AcDbEntity
  8
0
  6
Continuous
 62
     7
370
    15
100
AcDbLine
 10
210.9501658789
 20
890.952963642
 30
0.0
 11
210.9501658789
 21
882.9095552481
 31
0.0
  0
LINE
  5
C0
330
1F
100
AcDbEntity
  8
0
  6
Continuous
 62
     7
370
    15
100
AcDbLine
 10
810.9501599184
 20
890.952963642
 30
0.0
 11
810.9501599184
 21
882.9095552481
 31
0.0
  0
LWPOLYLINE
  5
C1
330
1F
100
AcDbEntity
  8
0
  6
Continuous
 62
     7
370
    15
100
AcDbPolyline
 90
        9
 70
   128
 43
0.0
 10
808.9501558653
 20
882.0643017805
 10
809.3403576723
 20
882.0805738486
 10
809.7155391088
 20
882.1286151923
 10
810.0613056532
 20
882.2067568816
 10
810.3643654695
 20
882.3118398703
 10
810.6130956522
 20
882.4399302519
 10
810.7979296556
 20
882.5860808409
 10
810.9117447248
 20
882.744629196
 10
810.9501599184
 20
882.9095552481
  0
LINE
  5
C2
330
1F
100
AcDbEntity
  8
0
  6
Continuous
 62
     7
370
    15
100
AcDbLine
 10
808.9501558653
 20
882.0643017805
 30
0.0
 11
790.4501556269
 21
882.0643017805
 31
0.0
  0
LWPOLYLINE
  5
C3
330
1F
100
AcDbEntity
  8
0
  6
Continuous
 62
     7
370
    15
100
AcDbPolyline
 90
        9
 70
   128
 43
0.0
 10
788.4501515737
 20
881.219048313
 10
788.4885965696
 20
881.3839743651
 10
788.6024116388
 20
881.5425227202
 10
788.7872158399
 20
881.6886733092
 10
789.0359460226
 20
881.8167636908
 10
789.3390356413
 20
881.9218466795
 10
789.6848021856
 20
881.9999883688
 10
790.0599836222
 20
882.0480893172
 10
790.4501556269
 20
882.0643017805
  0
LINE
  5
C4
330
1F
100
AcDbEntity
  8
0
  6
Continuous
 62
     7
370
    15
100
AcDbLine
 10
788.4501515737
 20
876.1476467169
 30
0.0
 11
788.4501515737
 21
881.219048313
 31
0.0
  0
LWPOLYLINE
  5
C5
330
1F
100
AcDbEntity
  8
0
  6
Continuous
 62
     7
370
    15
100
AcDbPolyline
 90
        9
 70
   128
 43
0.0
 10
786.4501773229
 20
875.3023932494
 10
786.8403493276
 20
875.3186653174
 10
787.2155307642
 20
875.3667662657
 10
787.5612973085
 20
875.4448483504
 10
787.8643869272
 20
875.5499909438
 10
788.1131171099
 20
875.6780813254
 10
788.297921311
 20
875.8241723097
 10
788.4117363802
 20
875.9827802695
 10
788.4501515737
 20
876.1476467169
  0
LINE
  5
C6
330
1F
100
AcDbEntity
  8
0
  6
Continuous
 62
     7
370
    15
100
AcDbLine
 10
235.4501782766
 20
875.3023932494
 30
0.0
 11
786.4501773229
 21
875.3023932494
 31
0.0
  0
LINE
  5
C7
330
1F
100
AcDbEntity
  8
0
  6
Continuous
 62
     7
370
    15
100
AcDbLine
 10
810.9501599184
 20
947.0412323988
 30
0.0
 11
810.9501599184
 21
944.7912166632
 31
0.0
  0
LINE
  5
C8
330
1F
100
AcDbEntity
  8
0
  6
Continuous
 62
     7
370
    15
100
AcDbLine
 10
210.9501658789
 20
947.0412323988
 30
0.0
 11
210.9501658789
 21
944.7912166632
 31
0.0
  0
LINE
  5
C9
330
1F
100
AcDbEntity
  8
0
  6
Continuous
 62
     7
370
    15
100
AcDbLine
 10
810.9501599184
 20
958.5412333525
 30
0.0
 11
810.9501599184
 21
947.0412323988
 31
0.0
  0
LINE
  5
CA
330
1F
100
AcDbEntity
  8
0
  6
Continuous
 62
     7
370
    15
100
AcDbLine
 10
210.9501658789
 20
958.5412333525
 30
0.0
 11
210.9501658789
 21
947.0412323988
 31
0.0
  0
LINE
  5
CB
330
1F
100
AcDbEntity
  8
0
  6
Continuous
 62
     7
370
    15
100
AcDbLine
 10
810.9501599184
 20
962.7912233389
 30
0.0
 11
210.9501658789
 21
962.7912233389
 31
0.0
  0
LINE
  5
CC
330
1F
100
AcDbEntity
  8
0
  6
Continuous
 62
     7
370
    15
100
AcDbLine
 10
210.9501658789
 20
962.7912233389
 30
0.0
 11
210.9501658789
 21
958.5412333525
 31
0.0
  0
LINE
  5
CD
330
1F
100
AcDbEntity
  8
0
  6
Continuous
 62
     7
370
    15
100
AcDbLine
 10
810.9501599184
 20
962.7912233389
 30
0.0
 11
810.9501599184
 21
958.5412333525
 31
0.0
  0
LINE
  5
CE
330
1F
100
AcDbEntity
  8
0
  6
Continuous
 62
     7
370
    15
100
AcDbLine
 10
809.9205790869
 20
745.2269385374
 30
0.0
 11
809.9205790869
 21
754.3555090941
 31
0.0
  0
LINE
  5
CF
330
1F
100
AcDbEntity
  8
0
  6
Continuous
 62
     7
370
    15
100
AcDbLine
 10
209.920555245
 20
745.2269385374
 30
0.0
 11
209.920555245
 21
754.3555090941
 31
0.0
  0
LINE
  5
D0
330
1F
100
AcDbEntity
  8
0
  6
Continuous
 62
     7
370
    15
100
AcDbLine
 10
209.920555245
 20
701.0269353903
 30
0.0
 11
209.920555245
 21
745.2269385374
 31
0.0
  0
LINE
  5
D1
330
1F
100
AcDbEntity
  8
0
  6
Continuous
 62
     7
370
    15
100
AcDbLine
 10
809.9205790869
 20
701.0269353903
 30
0.0
 11
809.9205790869
 21
745.2269385374
 31
0.0
  0
LINE
  5
D2
330
1F
100
AcDbEntity
  8
0
  6
Continuous
 62
     7
370
    15
100
AcDbLine
 10
231.4205764643
 20
873.8856504477
 30
0.0
 11
231.820553433
 21
873.8856504477
 31
0.0
  0
LINE
  5
D3
330
1F
100
AcDbEntity
  8
0
  6
Continuous
 62
     7
370
    15
100
AcDbLine
 10
231.820553433
 20
873.8856504477
 30
0.0
 11
231.820553433
 21
875.3810713805
 31
0.0
  0
LINE
  5
D4
330
1F
100
AcDbEntity
  8
0
  6
Continuous
 62
     7
370
    15
100
AcDbLine
 10
788.0205808988
 20
875.3810713805
 30
0.0
 11
787.2925399652
 21
875.3810713805
 31
0.0
  0
LINE
  5
D5
330
1F
100
AcDbEntity
  8
0
  6
Continuous
 62
     7
370
    15
100
AcDbLine
 10
234.607785832
 20
875.3810713805
 30
0.0
 11
231.820553433
 21
875.3810713805
 31
0.0
  0
LINE
  5
D6
330
1F
100
AcDbEntity
  8
0
  6
Continuous
 62
     7
370
    15
100
AcDbLine
 10
788.0205808988
 20
875.3810713805
 30
0.0
 11
788.0205808988
 21
873.8856504477
 31
0.0
  0
LINE
  5
D7
330
1F
100
AcDbEntity
  8
0
  6
Continuous
 62
     7
370
    15
100
AcDbLine
 10
788.0205808988
 20
873.8856504477
 30
0.0
 11
788.4205578676
 21
873.8856504477
 31
0.0
  0
LINE
  5
D8
330
1F
100
AcDbEntity
  8
0
  6
Continuous
 62
     7
370
    15
100
AcDbLine
 10
788.4205578676
 20
873.8856504477
 30
0.0
 11
788.4205578676
 21
874.2481658972
 31
0.0
  0
LINE
  5
D9
330
1F
100
AcDbEntity
  8
0
  6
Continuous
 62
     7
370
    15
100
AcDbLine
 10
231.4205764643
 20
874.2481658972
 30
0.0
 11
231.4205764643
 21
873.8856504477
 31
0.0
  0
LINE
  5
DA
330
1F
100
AcDbEntity
  8
0
  6
Continuous
 62
     7
370
    15
100
AcDbLine
 10
809.9205790869
 20
754.3555090941
 30
0.0
 11
809.9205790869
 21
874.2481658972
 31
0.0
  0
LINE
  5
DB
330
1F
100
AcDbEntity
  8
0
  6
Continuous
 62
     7
370
    15
100
AcDbLine
 10
209.920555245
 20
754.3555090941
 30
0.0
 11
209.920555245
 21
874.2481658972
 31
0.0
  0
LINE
  5
DC
330
1F
100
AcDbEntity
  8
0
  6
Continuous
 62
     7
370
    15
100
AcDbLine
 10
809.9205790869
 20
694.7912166632
 30
0.0
 11
809.9205790869
 21
701.0269353903
 31
0.0
  0
LINE
  5
DD
330
1F
100
AcDbEntity
  8
0
  6
Continuous
 62
     7
370
    15
100
AcDbLine
 10
809.9205790869
 20
694.7912166632
 30
0.0
 11
209.920555245
 21
694.7912166632
 31
0.0
  0
LINE
  5
DE
330
1F
100
AcDbEntity
  8
0
  6
Continuous
 62
     7
370
    15
100
AcDbLine
 10
209.920555245
 20
694.7912166632
 30
0.0
 11
209.920555245
 21
701.0269353903
 31
0.0
  0
ARC
  5
DF
330
1F
100
AcDbEntity
  8
0
  6
Continuous
 62
     7
370
    15
100
AcDbCircle
 10
809.4149827812
 20
881.7649045193
 30
0.0
 40
0.5071712605146914
100
AcDbArc
 50
4.5165499906
 51
47.1386150173
  0
LINE
  5
E0
330
1F
100
AcDbEntity
  8
0
  6
Continuous
 62
     7
370
    15
100
AcDbLine
 10
809.9205790869
 20
881.8048427618
 30
0.0
 11
809.9205790869
 21
875.9092877425
 31
0.0
  0
LINE
  5
E1
330
1F
100
AcDbEntity
  8
0
  6
Continuous
 62
     7
370
    15
100
AcDbLine
 10
788.4205578676
 20
875.9092877425
 30
0.0
 11
788.4205578676
 21
876.0028074301
 31
0.0
  0
LWPOLYLINE
  5
E2
330
1F
100
AcDbEntity
  8
0
  6
Continuous
 62
     7
370
    15
100
AcDbPolyline
 90
       18
 70
   128
 43
0.0
 10
798.9205716959
 20
881.2765667952
 10
799.913972508
 20
881.198067478
 10
800.7732330671
 20
880.9732387579
 10
801.3822733274
 20
880.6324193991
 10
801.6588388792
 20
880.2216241873
 10
801.5655874124
 20
879.7963450468
 10
801.1151253095
 20
879.4139812506
 10
800.3682493082
 20
879.1262696303
 10
799.425870072
 20
878.971953205
 10
798.4152435175
 20
878.971953205
 10
797.4728940836
 20
879.1262696303
 10
796.7260180822
 20
879.4139812506
 10
796.2755559793
 20
879.7963450468
 10
796.1823045126
 20
880.2216241873
 10
796.4588700643
 20
880.6324193991
 10
797.0679103247
 20
880.9732387579
 10
797.9271410814
 20
881.198067478
 10
798.9205716959
 20
881.2765667952
  0
LINE
  5
E3
330
1F
100
AcDbEntity
  8
0
  6
Continuous
 62
     7
370
    15
100
AcDbLine
 10
809.9205790869
 20
882.1704576529
 30
0.0
 11
809.9205790869
 21
881.8048427618
 31
0.0
  0
LWPOLYLINE
  5
E4
330
1F
100
AcDbEntity
  8
0
  6
Continuous
 62
     7
370
    15
100
AcDbPolyline
 90
        8
 70
   128
 43
0.0
 10
211.1911176554
 20
882.5073431052
 10
211.1552058569
 20
882.5012038268
 10
210.8094393125
 20
882.4231217421
 10
210.5063496939
 20
882.3179791487
 10
210.2576195112
 20
882.1898887671
 10
210.0728153101
 20
882.0437977827
 10
209.9590002409
 20
881.885189823
 10
209.920555245
 20
881.7203233756
  0
LINE
  5
E5
330
1F
100
AcDbEntity
  8
0
  6
Continuous
 62
     7
370
    15
100
AcDbLine
 10
209.920555245
 20
881.7203233756
 30
0.0
 11
209.920555245
 21
882.4453542746
 31
0.0
  0
LWPOLYLINE
  5
E6
330
1F
100
AcDbEntity
  8
0
  6
Continuous
 62
     7
370
    15
100
AcDbPolyline
 90
        7
 70
   128
 43
0.0
 10
209.920555245
 20
882.4453542746
 10
209.9590002409
 20
882.6102803267
 10
210.0728153101
 20
882.7688286818
 10
210.2576195112
 20
882.9149792708
 10
210.5063496939
 20
883.0430100478
 10
210.8094393125
 20
883.1481526411
 10
210.9501658789
 20
883.1844518698
  0
LINE
  5
E7
330
1F
100
AcDbEntity
  8
0
  6
Continuous
 62
     7
370
    15
100
AcDbLine
 10
231.4205764643
 20
882.0643017805
 30
0.0
 11
231.4205764643
 21
881.7203233756
 31
0.0
  0
ARC
  5
E8
330
1F
100
AcDbEntity
  8
0
  6
Continuous
 62
     7
370
    15
100
AcDbCircle
 10
230.906554826
 20
881.6771748423
 30
0.0
 40
0.5158294684929222
100
AcDbArc
 50
4.7983320038
 51
48.6331907082
  0
LINE
  5
E9
330
1F
100
AcDbEntity
  8
0
  6
Continuous
 62
     7
370
    15
100
AcDbLine
 10
231.4205764643
 20
881.7203233756
 30
0.0
 11
231.4205764643
 21
875.9092877425
 31
0.0
  0
LINE
  5
EA
330
1F
100
AcDbEntity
  8
0
  6
Continuous
 62
     7
370
    15
100
AcDbLine
 10
209.920555245
 20
875.9092877425
 30
0.0
 11
209.920555245
 21
881.7203233756
 31
0.0
  0
LWPOLYLINE
  5
EB
330
1F
100
AcDbEntity
  8
0
  6
Continuous
 62
     7
370
    15
100
AcDbPolyline
 90
       18
 70
   128
 43
0.0
 10
220.920562636
 20
878.9521644629
 10
219.9271618238
 20
879.0306637801
 10
219.0679012647
 20
879.2554925002
 10
218.4588610044
 20
879.596311859
 10
218.1822954527
 20
880.0071070708
 10
218.2755469194
 20
880.4324458159
 10
218.7260090223
 20
880.8147500075
 10
219.4728850237
 20
881.1024616278
 10
220.4152642599
 20
881.2567780531
 10
221.4258908144
 20
881.2567780531
 10
222.3682700506
 20
881.1024616278
 10
223.1151162496
 20
880.8147500075
 10
223.5655783525
 20
880.4324458159
 10
223.6588298193
 20
880.0071070708
 10
223.3822642675
 20
879.596311859
 10
222.7732240072
 20
879.2554925002
 10
221.9139932505
 20
879.0306637801
 10
220.920562636
 20
878.9521644629
  0
ARC
  5
EC
330
1F
100
AcDbEntity
  8
0
  6
Continuous
 62
     7
370
    15
100
AcDbCircle
 10
798.9205716959
 20
883.8427080912
 30
0.0
 40
4.260905020867837
100
AcDbArc
 50
232.1785429081
 51
307.8214570919
  0
ARC
  5
ED
330
1F
100
AcDbEntity
  8
0
  6
Continuous
 62
     7
370
    15
100
AcDbCircle
 10
220.5127609509
 20
883.0129175781
 30
0.0
 40
3.360557233214229
100
AcDbArc
 50
228.9938142225
 51
276.9699880735
  0
ARC
  5
EE
330
1F
100
AcDbEntity
  8
0
  6
Continuous
 62
     7
370
    15
100
AcDbCircle
 10
221.3283753331
 20
883.0128816002
 30
0.0
 40
3.360522857494618
100
AcDbArc
 50
263.0297511262
 51
311.0064465778
  0
LINE
  5
EF
330
1F
100
AcDbEntity
  8
0
  6
Continuous
 62
     7
370
    15
100
AcDbLine
 10
809.9205790869
 20
874.2481658972
 30
0.0
 11
809.9205790869
 21
875.9092877425
 31
0.0
  0
LINE
  5
F0
330
1F
100
AcDbEntity
  8
0
  6
Continuous
 62
     7
370
    15
100
AcDbLine
 10
788.4205578676
 20
875.9092877425
 30
0.0
 11
788.4205578676
 21
874.2481658972
 31
0.0
  0
LINE
  5
F1
330
1F
100
AcDbEntity
  8
0
  6
Continuous
 62
     7
370
    15
100
AcDbLine
 10
231.4205764643
 20
874.2481658972
 30
0.0
 11
231.4205764643
 21
875.9092877425
 31
0.0
  0
LINE
  5
F2
330
1F
100
AcDbEntity
  8
0
  6
Continuous
 62
     7
370
    15
100
AcDbLine
 10
209.920555245
 20
875.9092877425
 30
0.0
 11
209.920555245
 21
874.2481658972
 31
0.0
  0
LINE
  5
F3
330
1F
100
AcDbEntity
  8
0
  6
Continuous
 62
     7
370
    15
100
AcDbLine
 10
302.4501650444
 20
51.0912130392
 30
0.0
 11
245.4501687399
 21
51.0912130392
 31
0.0
  0
LINE
  5
F4
330
1F
100
AcDbEntity
  8
0
  6
Continuous
 62
     7
370
    15
100
AcDbLine
 10
300.4501609913
 20
45.0912157811
 30
0.0
 11
247.450172793
 21
45.0912157811
 31
0.0
  0
LINE
  5
F5
330
1F
100
AcDbEntity
  8
0
  6
Continuous
 62
     7
370
    15
100
AcDbLine
 10
776.6501604429
 20
51.0912130392
 30
0.0
 11
719.6501641384
 21
51.0912130392
 31
0.0
  0
LINE
  5
F6
330
1F
100
AcDbEntity
  8
0
  6
Continuous
 62
     7
370
    15
100
AcDbLine
 10
774.6501563898
 20
45.0912157811
 30
0.0
 11
721.6501681915
 21
45.0912157811
 31
0.0
  0
LINE
  5
F7
330
1F
100
AcDbEntity
  8
0
  6
Continuous
 62
     7
370
    15
100
AcDbLine
 10
783.150166165
 20
213.0912116534
 30
0.0
 11
783.150166165
 21
214.7912106282
 31
0.0
  0
LINE
  5
F8
330
1F
100
AcDbEntity
  8
0
  6
Continuous
 62
     7
370
    15
100
AcDbLine
 10
713.1501584164
 20
213.0912116534
 30
0.0
 11
783.150166165
 21
213.0912116534
 31
0.0
  0
LINE
  5
F9
330
1F
100
AcDbEntity
  8
0
  6
Continuous
 62
     7
370
    15
100
AcDbLine
 10
713.1501584164
 20
213.0912116534
 30
0.0
 11
713.1501584164
 21
214.7912106282
 31
0.0
  0
LINE
  5
FA
330
1F
100
AcDbEntity
  8
0
  6
Continuous
 62
     7
370
    15
100
AcDbLine
 10
779.1098057142
 20
119.0912092842
 30
0.0
 11
717.1905188671
 21
119.0912092842
 31
0.0
  0
LINE
  5
FB
330
1F
100
AcDbEntity
  8
0
  6
Continuous
 62
     7
370
    15
100
AcDbLine
 10
238.9501630178
 20
213.0912116534
 30
0.0
 11
308.9501707664
 21
213.0912116534
 31
0.0
  0
LINE
  5
FC
330
1F
100
AcDbEntity
  8
0
  6
Continuous
 62
     7
370
    15
100
AcDbLine
 10
308.9501707664
 20
213.0912116534
 30
0.0
 11
308.9501707664
 21
214.7912106282
 31
0.0
  0
LINE
  5
FD
330
1F
100
AcDbEntity
  8
0
  6
Continuous
 62
     7
370
    15
100
AcDbLine
 10
238.9501630178
 20
213.0912116534
 30
0.0
 11
238.9501630178
 21
214.7912106282
 31
0.0
  0
LINE
  5
FE
330
1F
100
AcDbEntity
  8
0
  6
Continuous
 62
     7
370
    15
100
AcDbLine
 10
304.9098103157
 20
119.0912092842
 30
0.0
 11
242.9905234686
 21
119.0912092842
 31
0.0
  0
LINE
  5
FF
330
1F
100
AcDbEntity
  8
0
  6
Continuous
 62
     7
370
    15
100
AcDbLine
 10
214.393019568
 20
693.8912163294
 30
0.0
 11
213.7501536718
 21
694.6412215746
 31
0.0
  0
LINE
  5
100
330
1F
100
AcDbEntity
  8
0
  6
Continuous
 62
     7
370
    15
100
AcDbLine
 10
213.584601771
 20
694.7912166632
 30
0.0
 11
213.7501536718
 21
694.6412215746
 31
0.0
  0
LINE
  5
101
330
1F
100
AcDbEntity
  8
0
  6
Continuous
 62
     7
370
    15
100
AcDbLine
 10
211.4501594416
 20
691.8912122763
 30
0.0
 11
211.4501594416
 21
694.7912166632
 31
0.0
  0
LINE
  5
102
330
1F
100
AcDbEntity
  8
0
  6
Continuous
 62
     7
370
    15
100
AcDbLine
 10
213.6445640436
 20
694.7912166632
 30
0.0
 11
213.7501536718
 21
694.6412215746
 31
0.0
  0
LINE
  5
103
330
1F
100
AcDbEntity
  8
0
  6
Continuous
 62
     7
370
    15
100
AcDbLine
 10
810.4501663557
 20
753.0453990019
 30
0.0
 11
810.4501663557
 21
746.5370486296
 31
0.0
  0
LINE
  5
104
330
1F
100
AcDbEntity
  8
0
  6
Continuous
 62
     7
370
    15
100
AcDbLine
 10
810.4501663557
 20
746.5370486296
 30
0.0
 11
810.4501663557
 21
702.3370454825
 31
0.0
  0
SPLINE
  5
105
330
1F
100
AcDbEntity
  8
0
  6
Continuous
 62
     7
370
    15
100
AcDbSpline
210
0.0
220
0.0
230
1.0
 70
     8
 71
     3
 72
    10
 73
     6
 74
     0
 42
0.00000001
 43
0.00000001
 12
1.0
 22
0.0
 32
0.0
 13
1.0
 23
0.0
 33
0.0
 40
0.0
 40
0.0
 40
0.0
 40
0.0
 40
0.0136854957792313
 40
0.6892703254720128
 40
1.0
 40
1.0
 40
1.0
 40
1.0
 10
809.9465667119832
 20
876.2842009581007
 30
0.0
 10
809.9520211593574
 20
876.2881038052918
 30
0.0
 10
810.2267345331043
 20
876.4846707983429
 30
0.0
 10
810.3990644138898
 20
876.6740527056743
 30
0.0
 10
810.4379239895447
 20
876.8757219041269
 30
0.0
 10
810.4501663556905
 20
876.9392560041822
 30
0.0
  0
LINE
  5
106
330
1F
100
AcDbEntity
  8
0
  6
Continuous
 62
     7
370
    15
100
AcDbLine
 10
810.4501663557
 20
876.9392560042
 30
0.0
 11
810.4501663557
 21
753.0453990019
 31
0.0
  0
SPLINE
  5
107
330
1F
100
AcDbEntity
  8
0
  6
Continuous
 62
     7
370
    15
100
AcDbSpline
210
0.0
220
0.0
230
1.0
 70
     8
 71
     3
 72
     9
 73
     5
 74
     0
 42
0.00000001
 43
0.00000001
 12
1.0
 22
0.0
 32
0.0
 13
1.0
 23
0.0
 33
0.0
 40
0.0
 40
0.0
 40
0.0
 40
0.0
 40
0.6220510346020603
 40
0.9999999999999999
 40
0.9999999999999999
 40
0.9999999999999999
 40
0.9999999999999999
 10
810.4501663556905
 20
876.9392560041822
 30
0.0
 10
810.4158898762421
 20
876.747579050892
 30
0.0
 10
810.3607875172048
 20
876.4394420289627
 30
0.0
 10
809.9689104453702
 20
876.2803240464709
 30
0.0
 10
809.8208009115071
 20
876.2201855696119
 30
0.0
  0
LINE
  5
108
330
1F
100
AcDbEntity
  8
0
  6
Continuous
 62
     7
370
    15
100
AcDbLine
 10
810.4501663557
 20
882.3504636801
 30
0.0
 11
810.4501663557
 21
876.9392560042
 31
0.0
  0
ARC
  5
109
330
1F
100
AcDbEntity
  8
0
  6
Continuous
 62
     7
370
    15
100
AcDbCircle
 10
808.1501633961
 20
697.8912114014
 30
0.0
 40
2.299999999999998
100
AcDbArc
 50
320.330634307
 51
360.0
  0
LINE
  5
10A
330
1F
100
AcDbEntity
  8
0
  6
Continuous
 62
     7
370
    15
100
AcDbLine
 10
810.4501663557
 20
702.3370454825
 30
0.0
 11
810.4501663557
 21
697.8912244357
 31
0.0
  0
LINE
  5
10B
330
1F
100
AcDbEntity
  8
0
  6
Continuous
 62
     7
370
    15
100
AcDbLine
 10
808.1501721254
 20
694.6412215746
 30
0.0
 11
808.3112238756
 21
694.7912166632
 31
0.0
  0
LINE
  5
10C
330
1F
100
AcDbEntity
  8
0
  6
Continuous
 62
     7
370
    15
100
AcDbLine
 10
810.4501663557
 20
697.8912244357
 30
0.0
 11
810.4501663557
 21
691.8912122763
 31
0.0
  0
LINE
  5
10D
330
1F
100
AcDbEntity
  8
0
  6
Continuous
 62
     7
370
    15
100
AcDbLine
 10
808.1501721254
 20
694.6412215746
 30
0.0
 11
808.2529901377
 21
694.7912166632
 31
0.0
  0
LINE
  5
10E
330
1F
100
AcDbEntity
  8
0
  6
Continuous
 62
     7
370
    15
100
AcDbLine
 10
807.5073062292
 20
693.8912163294
 30
0.0
 11
808.1501721254
 21
694.6412215746
 31
0.0
  0
SPLINE
  5
10F
330
1F
100
AcDbEntity
  8
0
  6
Continuous
 62
     7
370
    15
100
AcDbSpline
210
0.0
220
0.0
230
1.0
 70
     8
 71
     3
 72
    12
 73
     8
 74
     0
 42
0.00000001
 43
0.00000001
 12
1.0
 22
0.0
 32
0.0
 13
1.0
 23
0.0
 33
0.0
 40
0.0
 40
0.0
 40
0.0
 40
0.0
 40
0.2028208380618729
 40
0.4049500730576103
 40
0.6098287457565532
 40
0.8226957467051685
 40
1.0
 40
1.0
 40
1.0
 40
1.0
 10
359.6775381675571
 20
202.9412130630888
 30
0.0
 10
359.6724685133235
 20
203.098353800475
 30
0.0
 10
359.6623464919772
 20
203.4120994377229
 30
0.0
 10
359.5836490713718
 20
203.832485271676
 30
0.0
 10
359.465926308279
 20
204.1595831188108
 30
0.0
 10
359.3233754571549
 20
204.3577771971767
 30
0.0
 10
359.2212541485906
 20
204.3807651779559
 30
0.0
 10
359.1748474946827
 20
204.3912115312494
 30
0.0
  0
LINE
  5
110
330
1F
100
AcDbEntity
  8
0
  6
Continuous
 62
     7
370
    15
100
AcDbLine
 10
353.4252642504
 20
204.3912115312
 30
0.0
 11
359.1748474947
 21
204.3912115312
 31
0.0
  0
LINE
  5
111
330
1F
100
AcDbEntity
  8
0
  6
Continuous
 62
     7
370
    15
100
AcDbLine
 10
359.5371543279
 20
197.5912119068
 30
0.0
 11
353.7875710836
 21
197.5912119068
 31
0.0
  0
ARC
  5
112
330
1F
100
AcDbEntity
  8
0
  6
Continuous
 62
     7
370
    15
100
AcDbCircle
 10
353.792907489
 20
197.8361093081
 30
0.0
 40
0.2449555355930342
100
AcDbArc
 50
178.8062831584
 51
268.7517012228
  0
SPLINE
  5
113
330
1F
100
AcDbEntity
  8
0
  6
Continuous
 62
     7
370
    15
100
AcDbSpline
210
0.0
220
0.0
230
1.0
 70
     8
 71
     3
 72
    13
 73
     9
 74
     0
 42
0.00000001
 43
0.00000001
 12
1.0
 22
0.0
 32
0.0
 13
1.0
 23
0.0
 33
0.0
 40
0.0
 40
0.0
 40
0.0
 40
0.0
 40
0.1695414903204159
 40
0.3386762173476963
 40
0.5185072341398672
 40
0.7277107048816333
 40
0.9924933131924627
 40
1.0
 40
1.0
 40
1.0
 40
1.0
 10
353.1429617515415
 20
203.4412103510774
 30
0.0
 10
353.1446024568332
 20
203.4165985730355
 30
0.0
 10
353.147879931043
 20
203.367434065435
 30
0.0
 10
353.1728054026456
 20
203.3013135760451
 30
0.0
 10
353.2103653689554
 20
203.2456364249774
 30
0.0
 10
353.2644716154653
 20
203.2029062796352
 30
0.0
 10
353.3083790186017
 20
203.1913343297036
 30
0.0
 10
353.3330608695047
 20
203.1912131842711
 30
0.0
 10
353.3337413183064
 20
203.1912098444379
 30
0.0
  0
LINE
  5
114
330
1F
100
AcDbEntity
  8
0
  6
Continuous
 62
     7
370
    15
100
AcDbLine
 10
353.3337413183
 20
203.1912098444
 30
0.0
 11
346.9127266517
 21
203.1912098444
 31
0.0
  0
LINE
  5
115
330
1F
100
AcDbEntity
  8
0
  6
Continuous
 62
     7
370
    15
100
AcDbLine
 10
346.6005771271
 20
203.1912098444
 30
0.0
 11
346.4220910183
 21
203.1912098444
 31
0.0
  0
SPLINE
  5
116
330
1F
100
AcDbEntity
  8
0
  6
Continuous
 62
     7
370
    15
100
AcDbSpline
210
0.0
220
0.0
230
1.0
 70
     8
 71
     3
 72
    13
 73
     9
 74
     0
 42
0.00000001
 43
0.00000001
 12
1.0
 22
0.0
 32
0.0
 13
1.0
 23
0.0
 33
0.0
 40
0.0
 40
0.0
 40
0.0
 40
0.0
 40
0.0075066683336628
 40
0.2722871923668359
 40
0.4814940419007954
 40
0.6613246161307903
 40
0.8304589269193475
 40
1.0
 40
1.0
 40
1.0
 40
1.0
 10
353.3337413183063
 20
204.3912115312494
 30
0.0
 10
353.3330608696485
 20
204.3912081905
 30
0.0
 10
353.3083791538262
 20
204.3910870124732
 30
0.0
 10
353.2644705330827
 20
204.3795213991099
 30
0.0
 10
353.210365966791
 20
204.3367841216435
 30
0.0
 10
353.172805324452
 20
204.2811080831133
 30
0.0
 10
353.147879950143
 20
204.2149872410098
 30
0.0
 10
353.144602463205
 20
204.1658227795525
 30
0.0
 10
353.1429617515415
 20
204.1412110246099
 30
0.0
  0
LINE
  5
117
330
1F
100
AcDbEntity
  8
0
  6
Continuous
 62
     7
370
    15
100
AcDbLine
 10
346.3334291092
 20
204.3912115312
 30
0.0
 11
353.3337413183
 21
204.3912115312
 31
0.0
  0
LINE
  5
118
330
1F
100
AcDbEntity
  8
0
  6
Continuous
 62
     7
370
    15
100
AcDbLine
 10
353.1429617515
 20
203.4412103511
 30
0.0
 11
353.1429617515
 21
204.1412110246
 31
0.0
  0
LINE
  5
119
330
1F
100
AcDbEntity
  8
0
  6
Continuous
 62
     7
370
    15
100
AcDbLine
 10
353.7875710836
 20
197.5912119068
 30
0.0
 11
353.5768835655
 21
197.5912119068
 31
0.0
  0
LINE
  5
11A
330
1F
100
AcDbEntity
  8
0
  6
Continuous
 62
     7
370
    15
100
AcDbLine
 10
353.3337413183
 20
204.3912115312
 30
0.0
 11
353.4252642504
 21
204.3912115312
 31
0.0
  0
LINE
  5
11B
330
1F
100
AcDbEntity
  8
0
  6
Continuous
 62
     7
370
    15
100
AcDbLine
 10
359.7871511093
 20
202.9412130631
 30
0.0
 11
359.6775381676
 21
202.9412130631
 31
0.0
  0
LINE
  5
11C
330
1F
100
AcDbEntity
  8
0
  6
Continuous
 62
     7
370
    15
100
AcDbLine
 10
362.3183070532
 20
203.1912098444
 30
0.0
 11
359.7518800608
 21
203.1912098444
 31
0.0
  0
LINE
  5
11D
330
1F
100
AcDbEntity
  8
0
  6
Continuous
 62
     7
370
    15
100
AcDbLine
 10
359.0833245626
 20
204.3912115312
 30
0.0
 11
362.4001591316
 21
204.3912115312
 31
0.0
  0
LINE
  5
11E
330
1F
100
AcDbEntity
  8
0
  6
Continuous
 62
     7
370
    15
100
AcDbLine
 10
362.3183070532
 20
201.9912118829
 30
0.0
 11
359.7871511093
 21
201.9912118829
 31
0.0
  0
LINE
  5
11F
330
1F
100
AcDbEntity
  8
0
  6
Continuous
 62
     7
370
    15
100
AcDbLine
 10
353.3268867842
 20
201.9912118829
 30
0.0
 11
346.9127266517
 21
201.9912118829
 31
0.0
  0
SPLINE
  5
120
330
1F
100
AcDbEntity
  8
0
  6
Continuous
 62
     7
370
    15
100
AcDbSpline
210
0.0
220
0.0
230
1.0
 70
     8
 71
     3
 72
    13
 73
     9
 74
     0
 42
0.00000001
 43
0.00000001
 12
1.0
 22
0.0
 32
0.0
 13
1.0
 23
0.0
 33
0.0
 40
0.0
 40
0.0
 40
0.0
 40
0.0
 40
0.0075592617816111
 40
0.2722472827063449
 40
0.4815185423588629
 40
0.661330433488571
 40
0.8304610665721438
 40
1.0
 40
1.0
 40
1.0
 40
1.0
 10
346.912726651749
 20
201.9912118829168
 30
0.0
 10
346.9123193290588
 20
201.9912151974241
 30
0.0
 10
346.8976495770677
 20
201.9913345696119
 30
0.0
 10
346.871870601342
 20
202.0029191637458
 30
0.0
 10
346.840488229492
 20
202.0456271114153
 30
0.0
 10
346.8188464292786
 20
202.1013146991817
 30
0.0
 10
346.8045805466749
 20
202.1674315962152
 30
0.0
 10
346.8027192679853
 20
202.2165990330067
 30
0.0
 10
346.8017875066608
 20
202.2412123895563
 30
0.0
  0
SPLINE
  5
121
330
1F
100
AcDbEntity
  8
0
  6
Continuous
 62
     7
370
    15
100
AcDbSpline
210
0.0
220
0.0
230
1.0
 70
     8
 71
     3
 72
    13
 73
     9
 74
     0
 42
0.00000001
 43
0.00000001
 12
1.0
 22
0.0
 32
0.0
 13
1.0
 23
0.0
 33
0.0
 40
0.0
 40
0.0
 40
0.0
 40
0.0
 40
0.0075905074675777
 40
0.2723067950173055
 40
0.4815387285355314
 40
0.6613684369162904
 40
0.8304592744679142
 40
1.0
 40
1.0
 40
1.0
 40
1.0
 10
362.3183070531696
 20
201.9912118829168
 30
0.0
 10
362.3191116345091
 20
201.9912151851835
 30
0.0
 10
362.3479757080656
 20
201.9913336528453
 30
0.0
 10
362.399573552699
 20
202.0029096800218
 30
0.0
 10
362.4623343219246
 20
202.0456387444705
 30
0.0
 10
362.5057945962119
 20
202.1013002304359
 30
0.0
 10
362.5344784926788
 20
202.1674431679543
 30
0.0
 10
362.538251586557
 20
202.2166008795773
 30
0.0
 10
362.5401406398624
 20
202.2412123895563
 30
0.0
  0
SPLINE
  5
122
330
1F
100
AcDbEntity
  8
0
  6
Continuous
 62
     7
370
    15
100
AcDbSpline
210
0.0
220
0.0
230
1.0
 70
     8
 71
     3
 72
    13
 73
     9
 74
     0
 42
0.00000001
 43
0.00000001
 12
1.0
 22
0.0
 32
0.0
 13
1.0
 23
0.0
 33
0.0
 40
0.0
 40
0.0
 40
0.0
 40
0.0
 40
0.1695313277782186
 40
0.3386628153325703
 40
0.5184815184190391
 40
0.7277499429325294
 40
0.9924407342349789
 40
1.0
 40
1.0
 40
1.0
 40
1.0
 10
346.8017875066608
 20
202.9412130630888
 30
0.0
 10
346.8027193105016
 20
202.9658252714029
 30
0.0
 10
346.8045807205203
 20
203.0149916400526
 30
0.0
 10
346.8188468801765
 20
203.081106056913
 30
0.0
 10
346.8404873231865
 20
203.136802702033
 30
0.0
 10
346.8718713608785
 20
203.1794842910184
 30
0.0
 10
346.8976494304857
 20
203.1911339027508
 30
0.0
 10
346.9123193289287
 20
203.1912077928144
 30
0.0
 10
346.912726651749
 20
203.1912098444379
 30
0.0
  0
LINE
  5
123
330
1F
100
AcDbEntity
  8
0
  6
Continuous
 62
     7
370
    15
100
AcDbLine
 10
359.7744851223
 20
203.1912098444
 30
0.0
 11
362.3183070532
 21
203.1912098444
 31
0.0
  0
SPLINE
  5
124
330
1F
100
AcDbEntity
  8
0
  6
Continuous
 62
     7
370
    15
100
AcDbSpline
210
0.0
220
0.0
230
1.0
 70
     8
 71
     3
 72
    13
 73
     9
 74
     0
 42
0.00000001
 43
0.00000001
 12
1.0
 22
0.0
 32
0.0
 13
1.0
 23
0.0
 33
0.0
 40
0.0
 40
0.0
 40
0.0
 40
0.0
 40
0.1695331207442796
 40
0.3386248127130206
 40
0.5184613322830456
 40
0.7276904301975201
 40
0.9924094882412496
 40
1.0
 40
1.0
 40
1.0
 40
1.0
 10
362.5401406398624
 20
202.9412130630888
 30
0.0
 10
362.5382515009312
 20
202.9658234247017
 30
0.0
 10
362.5344781419913
 20
203.0149800676949
 30
0.0
 10
362.5057936918055
 20
203.0811205292468
 30
0.0
 10
362.4623361376255
 20
203.1367910557153
 30
0.0
 10
362.3995720338455
 20
203.1794938434765
 30
0.0
 10
362.3479759955525
 20
203.1911346454029
 30
0.0
 10
362.3191116347717
 20
203.1912078051418
 30
0.0
 10
362.3183070531696
 20
203.1912098444379
 30
0.0
  0
LINE
  5
125
330
1F
100
AcDbEntity
  8
0
  6
Continuous
 62
     7
370
    15
100
AcDbLine
 10
346.8017875067
 20
202.9412130631
 30
0.0
 11
346.8017875067
 21
202.2412123896
 31
0.0
  0
LINE
  5
126
330
1F
100
AcDbEntity
  8
0
  6
Continuous
 62
     7
370
    15
100
AcDbLine
 10
362.5401406399
 20
202.9412130631
 30
0.0
 11
362.5401406399
 21
202.2412123896
 31
0.0
  0
SPLINE
  5
127
330
1F
100
AcDbEntity
  8
0
  6
Continuous
 62
     7
370
    15
100
AcDbSpline
210
0.0
220
0.0
230
1.0
 70
     8
 71
     3
 72
    12
 73
     8
 74
     0
 42
0.00000001
 43
0.00000001
 12
1.0
 22
0.0
 32
0.0
 13
1.0
 23
0.0
 33
0.0
 40
0.0
 40
0.0
 40
0.0
 40
0.0
 40
0.2289418616241319
 40
0.4594220316742872
 40
0.6825373479483575
 40
0.8947182479116581
 40
1.0
 40
1.0
 40
1.0
 40
1.0
 10
346.6005771270603
 20
201.9912118829168
 30
0.0
 10
346.4300849088398
 20
202.0085463425148
 30
0.0
 10
346.0879548993958
 20
202.0433317355834
 30
0.0
 10
345.636513502547
 20
202.3171976656419
 30
0.0
 10
345.3115471671615
 20
202.7142371880845
 30
0.0
 10
345.165638339073
 20
203.1151158996501
 30
0.0
 10
345.1532185548039
 20
203.3599986428766
 30
0.0
 10
345.1490997186512
 20
203.4412103510774
 30
0.0
  0
LINE
  5
128
330
1F
100
AcDbEntity
  8
0
  6
Continuous
 62
     7
370
    15
100
AcDbLine
 10
346.6005771271
 20
201.9912118829
 30
0.0
 11
345.2001659981
 21
201.9912118829
 31
0.0
  0
LINE
  5
129
330
1F
100
AcDbEntity
  8
0
  6
Continuous
 62
     7
370
    15
100
AcDbLine
 10
345.3648238293
 20
208.7912115074
 30
0.0
 11
346.0834323278
 21
208.7912115074
 31
0.0
  0
LINE
  5
12A
330
1F
100
AcDbEntity
  8
0
  6
Continuous
 62
     7
370
    15
100
AcDbLine
 10
344.000160586
 20
208.7912115074
 30
0.0
 11
345.3648238293
 21
208.7912115074
 31
0.0
  0
LINE
  5
12B
330
1F
100
AcDbEntity
  8
0
  6
Continuous
 62
     7
370
    15
100
AcDbLine
 10
346.9127266517
 20
201.9912118829
 30
0.0
 11
346.6005771271
 21
201.9912118829
 31
0.0
  0
LINE
  5
12C
330
1F
100
AcDbEntity
  8
0
  6
Continuous
 62
     7
370
    15
100
AcDbLine
 10
346.6005771271
 20
203.1912098444
 30
0.0
 11
346.9127266517
 21
203.1912098444
 31
0.0
  0
LINE
  5
12D
330
1F
100
AcDbEntity
  8
0
  6
Continuous
 62
     7
370
    15
100
AcDbLine
 10
362.3183070532
 20
203.1912098444
 30
0.0
 11
362.6304565779
 21
203.1912098444
 31
0.0
  0
LINE
  5
12E
330
1F
100
AcDbEntity
  8
0
  6
Continuous
 62
     7
370
    15
100
AcDbLine
 10
362.6304565779
 20
201.9912118829
 30
0.0
 11
362.3183070532
 21
201.9912118829
 31
0.0
  0
SPLINE
  5
12F
330
1F
100
AcDbEntity
  8
0
  6
Continuous
 62
     7
370
    15
100
AcDbSpline
210
0.0
220
0.0
230
1.0
 70
     8
 71
     3
 72
    12
 73
     8
 74
     0
 42
0.00000001
 43
0.00000001
 12
1.0
 22
0.0
 32
0.0
 13
1.0
 23
0.0
 33
0.0
 40
0.0
 40
0.0
 40
0.0
 40
0.0
 40
0.1857301096545395
 40
0.3769440612188293
 40
0.5812208597589271
 40
0.8052958055549353
 40
1.0
 40
1.0
 40
1.0
 40
1.0
 10
362.8990202060551
 20
203.4412103510774
 30
0.0
 10
362.8962292047834
 20
203.4141023111557
 30
0.0
 10
362.8905647955166
 20
203.3590858430194
 30
0.0
 10
362.8474672500512
 20
203.2866587378094
 30
0.0
 10
362.7843158389533
 20
203.2307036754723
 30
0.0
 10
362.7086340457528
 20
203.1969603930744
 30
0.0
 10
362.6552681416769
 20
203.1930349240719
 30
0.0
 10
362.6304565778584
 20
203.1912098444379
 30
0.0
  0
LINE
  5
130
330
1F
100
AcDbEntity
  8
0
  6
Continuous
 62
     7
370
    15
100
AcDbLine
 10
362.7001642099
 20
201.9912118829
 30
0.0
 11
362.6304565779
 21
201.9912118829
 31
0.0
  0
LINE
  5
131
330
1F
100
AcDbEntity
  8
0
  6
Continuous
 62
     7
370
    15
100
AcDbLine
 10
363.1476013771
 20
208.7912115074
 30
0.0
 11
363.8662098757
 21
208.7912115074
 31
0.0
  0
LINE
  5
132
330
1F
100
AcDbEntity
  8
0
  6
Continuous
 62
     7
370
    15
100
AcDbLine
 10
361.8168978802
 20
208.7912115074
 30
0.0
 11
363.1476013771
 21
208.7912115074
 31
0.0
  0
LINE
  5
133
330
1F
100
AcDbEntity
  8
0
  6
Continuous
 62
     7
370
    15
100
AcDbLine
 10
363.8662098757
 20
208.7912115074
 30
0.0
 11
363.900169622
 21
208.7912115074
 31
0.0
  0
LINE
  5
134
330
1F
100
AcDbEntity
  8
0
  6
Continuous
 62
     7
370
    15
100
AcDbLine
 10
348.1900094858
 20
201.5446278072
 30
0.0
 11
349.7999756447
 21
201.9912118829
 31
0.0
  0
SPLINE
  5
135
330
1F
100
AcDbEntity
  8
0
  6
Continuous
 62
     7
370
    15
100
AcDbSpline
210
0.0
220
0.0
230
1.0
 70
     8
 71
     3
 72
     9
 73
     5
 74
     0
 42
0.00000001
 43
0.00000001
 12
1.0
 22
0.0
 32
0.0
 13
1.0
 23
0.0
 33
0.0
 40
0.0
 40
0.0
 40
0.0
 40
0.0
 40
0.0702011557619102
 40
1.0
 40
1.0
 40
1.0
 40
1.0
 10
349.799975644669
 20
201.9912118829168
 30
0.0
 10
349.8381456202642
 20
201.9907661931359
 30
0.0
 10
350.3818685145804
 20
201.9844174403825
 30
0.0
 10
350.9146122216182
 20
201.7565234117027
 30
0.0
 10
351.409956704697
 20
201.5446278072275
 30
0.0
  0
LINE
  5
136
330
1F
100
AcDbEntity
  8
0
  6
Continuous
 62
     7
370
    15
100
AcDbLine
 10
351.4099567047
 20
201.5446278072
 30
0.0
 11
351.4099567047
 21
197.2377936161
 31
0.0
  0
SPLINE
  5
137
330
1F
100
AcDbEntity
  8
0
  6
Continuous
 62
     7
370
    15
100
AcDbSpline
210
0.0
220
0.0
230
1.0
 70
     8
 71
     3
 72
     9
 73
     5
 74
     0
 42
0.00000001
 43
0.00000001
 12
1.0
 22
0.0
 32
0.0
 13
1.0
 23
0.0
 33
0.0
 40
0.0
 40
0.0
 40
0.0
 40
0.0
 40
0.0702011844148108
 40
1.0
 40
1.0
 40
1.0
 40
1.0
 10
349.799975644669
 20
196.7912095404542
 30
0.0
 10
349.8381456196916
 20
196.7916565185554
 30
0.0
 10
350.3818682839289
 20
196.7980236205466
 30
0.0
 10
350.9146121183977
 20
197.0259074766488
 30
0.0
 10
351.409956704697
 20
197.2377936161436
 30
0.0
  0
LINE
  5
138
330
1F
100
AcDbEntity
  8
0
  6
Continuous
 62
     7
370
    15
100
AcDbLine
 10
348.1900094858
 20
197.2377936161
 30
0.0
 11
349.7999756447
 21
196.7912095405
 31
0.0
  0
LINE
  5
139
330
1F
100
AcDbEntity
  8
0
  6
Continuous
 62
     7
370
    15
100
AcDbLine
 10
348.1900094858
 20
201.5446278072
 30
0.0
 11
348.1900094858
 21
197.2377936161
 31
0.0
  0
LINE
  5
13A
330
1F
100
AcDbEntity
  8
0
  6
Continuous
 62
     7
370
    15
100
AcDbLine
 10
353.3268867842
 20
201.9206176318
 30
0.0
 11
351.4099567047
 21
201.5446278072
 31
0.0
  0
SPLINE
  5
13B
330
1F
100
AcDbEntity
  8
0
  6
Continuous
 62
     7
370
    15
100
AcDbSpline
210
0.0
220
0.0
230
1.0
 70
     8
 71
     3
 72
     9
 73
     5
 74
     0
 42
0.00000001
 43
0.00000001
 12
1.0
 22
0.0
 32
0.0
 13
1.0
 23
0.0
 33
0.0
 40
0.0
 40
0.0
 40
0.0
 40
0.0
 40
0.2686353962068176
 40
1.0
 40
1.0
 40
1.0
 40
1.0
 10
354.2900233379215
 20
196.7912095404542
 30
0.0
 10
354.0281430802953
 20
196.7978388967945
 30
0.0
 10
353.053289202794
 20
196.8225167926855
 30
0.0
 10
352.1041347066835
 20
197.0623720043193
 30
0.0
 10
351.409956704697
 20
197.2377936161436
 30
0.0
  0
LINE
  5
13C
330
1F
100
AcDbEntity
  8
0
  6
Continuous
 62
     7
370
    15
100
AcDbLine
 10
354.2900233379
 20
196.7912095405
 30
0.0
 11
349.7999756447
 21
196.7912095405
 31
0.0
  0
LINE
  5
13D
330
1F
100
AcDbEntity
  8
0
  6
Continuous
 62
     7
370
    15
100
AcDbLine
 10
357.1701048723
 20
197.5912119068
 30
0.0
 11
357.1701048723
 21
197.2377936161
 31
0.0
  0
SPLINE
  5
13E
330
1F
100
AcDbEntity
  8
0
  6
Continuous
 62
     7
370
    15
100
AcDbSpline
210
0.0
220
0.0
230
1.0
 70
     8
 71
     3
 72
     9
 73
     5
 74
     0
 42
0.00000001
 43
0.00000001
 12
1.0
 22
0.0
 32
0.0
 13
1.0
 23
0.0
 33
0.0
 40
0.0
 40
0.0
 40
0.0
 40
0.0
 40
0.2575512177408448
 40
1.0
 40
1.0
 40
1.0
 40
1.0
 10
357.1701048723072
 20
197.2377936161436
 30
0.0
 10
356.9283173162343
 20
197.1703783203084
 30
0.0
 10
355.9895232457043
 20
196.9086234102503
 30
0.0
 10
355.0141718178252
 20
196.8412390079129
 30
0.0
 10
354.2900233379215
 20
196.7912095404542
 30
0.0
  0
LINE
  5
13F
330
1F
100
AcDbEntity
  8
0
  6
Continuous
 62
     7
370
    15
100
AcDbLine
 10
357.1701048723
 20
197.2377936161
 30
0.0
 11
358.4402053467
 21
196.7912095405
 31
0.0
  0
LINE
  5
140
330
1F
100
AcDbEntity
  8
0
  6
Continuous
 62
     7
370
    15
100
AcDbLine
 10
358.4402053467
 20
196.7912095405
 30
0.0
 11
354.2900233379
 21
196.7912095405
 31
0.0
  0
LINE
  5
141
330
1F
100
AcDbEntity
  8
0
  6
Continuous
 62
     7
370
    15
100
AcDbLine
 10
359.710305821
 20
197.6608860112
 30
0.0
 11
359.710305821
 21
197.2377936161
 31
0.0
  0
SPLINE
  5
142
330
1F
100
AcDbEntity
  8
0
  6
Continuous
 62
     7
370
    15
100
AcDbSpline
210
0.0
220
0.0
230
1.0
 70
     8
 71
     3
 72
     9
 73
     5
 74
     0
 42
0.00000001
 43
0.00000001
 12
1.0
 22
0.0
 32
0.0
 13
1.0
 23
0.0
 33
0.0
 40
0.0
 40
0.0
 40
0.0
 40
0.0
 40
0.0701989906040535
 40
1.0
 40
1.0
 40
1.0
 40
1.0
 10
358.4402053466648
 20
196.7912095404542
 30
0.0
 10
358.4703148984425
 20
196.7916565431136
 30
0.0
 10
358.8992320597658
 20
196.7980241939241
 30
0.0
 10
359.3195208653513
 20
197.025907493849
 30
0.0
 10
359.7103058210224
 20
197.2377936161436
 30
0.0
  0
LINE
  5
143
330
1F
100
AcDbEntity
  8
0
  6
Continuous
 62
     7
370
    15
100
AcDbLine
 10
348.3806251398
 20
197.1660370744
 30
0.0
 11
348.1900094858
 21
197.2377936161
 31
0.0
  0
LINE
  5
144
330
1F
100
AcDbEntity
  8
0
  6
Continuous
 62
     7
370
    15
100
AcDbLine
 10
349.7999756447
 20
196.7912095405
 30
0.0
 11
348.9501624218
 21
196.7912095405
 31
0.0
  0
LINE
  5
145
330
1F
100
AcDbEntity
  8
0
  6
Continuous
 62
     7
370
    15
100
AcDbLine
 10
348.3806251398
 20
201.616384349
 30
0.0
 11
348.1900094858
 21
201.5446278072
 31
0.0
  0
LINE
  5
146
330
1F
100
AcDbEntity
  8
0
  6
Continuous
 62
     7
370
    15
100
AcDbLine
 10
358.9501677862
 20
196.7912095405
 30
0.0
 11
358.4402053467
 21
196.7912095405
 31
0.0
  0
LINE
  5
147
330
1F
100
AcDbEntity
  8
0
  6
Continuous
 62
     7
370
    15
100
AcDbLine
 10
352.5628297439
 20
214.5946289218
 30
0.0
 11
353.7837414852
 21
214.7912106282
 31
0.0
  0
LINE
  5
148
330
1F
100
AcDbEntity
  8
0
  6
Continuous
 62
     7
370
    15
100
AcDbLine
 10
356.9696693531
 20
214.7912106282
 30
0.0
 11
358.1099956146
 21
214.5946289218
 31
0.0
  0
LINE
  5
149
330
1F
100
AcDbEntity
  8
0
  6
Continuous
 62
     7
370
    15
100
AcDbLine
 10
358.1099956146
 20
214.5946289218
 30
0.0
 11
358.1099956146
 21
210.2877947308
 31
0.0
  0
SPLINE
  5
14A
330
1F
100
AcDbEntity
  8
0
  6
Continuous
 62
     7
370
    15
100
AcDbSpline
210
0.0
220
0.0
230
1.0
 70
     8
 71
     3
 72
     9
 73
     5
 74
     0
 42
0.00000001
 43
0.00000001
 12
1.0
 22
0.0
 32
0.0
 13
1.0
 23
0.0
 33
0.0
 40
0.0
 40
0.0
 40
0.0
 40
0.0
 40
0.0702002798182934
 40
1.0
 40
1.0
 40
1.0
 40
1.0
 10
355.3364126792759
 20
209.8412106550611
 30
0.0
 10
355.4021626086877
 20
209.8416576432887
 30
0.0
 10
356.3387675564461
 20
209.8480249715776
 30
0.0
 10
357.2565975465947
 20
210.0759085983466
 30
0.0
 10
358.1099956146091
 20
210.2877947307504
 30
0.0
  0
LINE
  5
14B
330
1F
100
AcDbEntity
  8
0
  6
Continuous
 62
     7
370
    15
100
AcDbLine
 10
352.5628297439
 20
210.2877947308
 30
0.0
 11
355.3364126793
 21
209.8412106551
 31
0.0
  0
LINE
  5
14C
330
1F
100
AcDbEntity
  8
0
  6
Continuous
 62
     7
370
    15
100
AcDbLine
 10
352.5628297439
 20
214.5946289218
 30
0.0
 11
352.5628297439
 21
210.2877947308
 31
0.0
  0
SPLINE
  5
14D
330
1F
100
AcDbEntity
  8
0
  6
Continuous
 62
     7
370
    15
100
AcDbSpline
210
0.0
220
0.0
230
1.0
 70
     8
 71
     3
 72
     9
 73
     5
 74
     0
 42
0.00000001
 43
0.00000001
 12
1.0
 22
0.0
 32
0.0
 13
1.0
 23
0.0
 33
0.0
 40
0.0
 40
0.0
 40
0.0
 40
0.0
 40
0.925043120321411
 40
1.0
 40
1.0
 40
1.0
 40
1.0
 10
352.5628297439426
 20
214.5946289218343
 30
0.0
 10
352.389733882283
 20
214.6731855746326
 30
0.0
 10
352.2026119440112
 20
214.7581077269869
 30
0.0
 10
352.0081378538322
 20
214.7889023587325
 30
0.0
 10
351.9935606828541
 20
214.791210628239
 30
0.0
  0
SPLINE
  5
14E
330
1F
100
AcDbEntity
  8
0
  6
Continuous
 62
     7
370
    15
100
AcDbSpline
210
0.0
220
0.0
230
1.0
 70
     8
 71
     3
 72
     9
 73
     5
 74
     0
 42
0.00000001
 43
0.00000001
 12
1.0
 22
0.0
 32
0.0
 13
1.0
 23
0.0
 33
0.0
 40
0.0
 40
0.0
 40
0.0
 40
0.0
 40
0.2575510343043753
 40
1.0
 40
1.0
 40
1.0
 40
1.0
 10
352.5628297439426
 20
210.2877947307504
 30
0.0
 10
352.3882211015439
 20
210.2203794343018
 30
0.0
 10
351.7102636517891
 20
209.9586243354312
 30
0.0
 10
351.0058798146678
 20
209.8912400489002
 30
0.0
 10
350.4829107633442
 20
209.8412106550611
 30
0.0
  0
LINE
  5
14F
330
1F
100
AcDbEntity
  8
0
  6
Continuous
 62
     7
370
    15
100
AcDbLine
 10
355.3364126793
 20
209.8412106551
 30
0.0
 11
350.4829107633
 21
209.8412106551
 31
0.0
  0
LINE
  5
150
330
1F
100
AcDbEntity
  8
0
  6
Continuous
 62
     7
370
    15
100
AcDbLine
 10
358.1099956146
 20
214.5946289218
 30
0.0
 11
358.4153502098
 21
214.7912106282
 31
0.0
  0
LINE
  5
151
330
1F
100
AcDbEntity
  8
0
  6
Continuous
 62
     7
370
    15
100
AcDbLine
 10
358.1099956146
 20
210.2877947308
 30
0.0
 11
358.8036595693
 21
209.8412106551
 31
0.0
  0
LINE
  5
152
330
1F
100
AcDbEntity
  8
0
  6
Continuous
 62
     7
370
    15
100
AcDbLine
 10
358.8036595693
 20
209.8412106551
 30
0.0
 11
355.3364126793
 21
209.8412106551
 31
0.0
  0
SPLINE
  5
153
330
1F
100
AcDbEntity
  8
0
  6
Continuous
 62
     7
370
    15
100
AcDbSpline
210
0.0
220
0.0
230
1.0
 70
     8
 71
     3
 72
     9
 73
     5
 74
     0
 42
0.00000001
 43
0.00000001
 12
1.0
 22
0.0
 32
0.0
 13
1.0
 23
0.0
 33
0.0
 40
0.0
 40
0.0
 40
0.0
 40
0.0
 40
0.2686340341728556
 40
1.0
 40
1.0
 40
1.0
 40
1.0
 10
350.4829107633441
 20
209.8412106550611
 30
0.0
 10
350.2937913452823
 20
209.8478400845208
 30
0.0
 10
349.5897874068229
 20
209.8725183777242
 30
0.0
 10
348.9043196042315
 20
210.1123731289569
 30
0.0
 10
348.4029917827457
 20
210.2877947307504
 30
0.0
  0
LINE
  5
154
330
1F
100
AcDbEntity
  8
0
  6
Continuous
 62
     7
370
    15
100
AcDbLine
 10
348.4029917827
 20
214.5946289218
 30
0.0
 11
348.4029917827
 21
210.2877947308
 31
0.0
  0
LINE
  5
155
330
1F
100
AcDbEntity
  8
0
  6
Continuous
 62
     7
370
    15
100
AcDbLine
 10
349.1268007866
 20
214.7912106282
 30
0.0
 11
348.4029917827
 21
214.5946289218
 31
0.0
  0
LINE
  5
156
330
1F
100
AcDbEntity
  8
0
  6
Continuous
 62
     7
370
    15
100
AcDbLine
 10
359.1006397119
 20
214.8680670924
 30
0.0
 11
359.4973235241
 21
214.5946289218
 31
0.0
  0
LINE
  5
157
330
1F
100
AcDbEntity
  8
0
  6
Continuous
 62
     7
370
    15
100
AcDbLine
 10
359.4973235241
 20
214.5946289218
 30
0.0
 11
359.4973235241
 21
210.2877947308
 31
0.0
  0
SPLINE
  5
158
330
1F
100
AcDbEntity
  8
0
  6
Continuous
 62
     7
370
    15
100
AcDbSpline
210
0.0
220
0.0
230
1.0
 70
     8
 71
     3
 72
     9
 73
     5
 74
     0
 42
0.00000001
 43
0.00000001
 12
1.0
 22
0.0
 32
0.0
 13
1.0
 23
0.0
 33
0.0
 40
0.0
 40
0.0
 40
0.0
 40
0.0
 40
0.0702027099438927
 40
1.0
 40
1.0
 40
1.0
 40
1.0
 10
358.8036595693439
 20
209.8412106550611
 30
0.0
 10
358.8201032370375
 20
209.8416576160843
 30
0.0
 10
359.0543344754993
 20
209.8480243364513
 30
0.0
 10
359.2838865900463
 20
210.0759085793017
 30
0.0
 10
359.4973235240787
 20
210.2877947307504
 30
0.0
  0
LINE
  5
159
330
1F
100
AcDbEntity
  8
0
  6
Continuous
 62
     7
370
    15
100
AcDbLine
 10
348.799690496
 20
214.8680670924
 30
0.0
 11
348.4029917827
 21
214.5946289218
 31
0.0
  0
LINE
  5
15A
330
1F
100
AcDbEntity
  8
0
  6
Continuous
 62
     7
370
    15
100
AcDbLine
 10
348.799690496
 20
210.0143546976
 30
0.0
 11
348.4029917827
 21
210.2877947308
 31
0.0
  0
LINE
  5
15B
330
1F
100
AcDbEntity
  8
0
  6
Continuous
 62
     7
370
    15
100
AcDbLine
 10
350.4829107633
 20
209.8412106551
 30
0.0
 11
348.9501624218
 21
209.8412106551
 31
0.0
  0
LINE
  5
15C
330
1F
100
AcDbEntity
  8
0
  6
Continuous
 62
     7
370
    15
100
AcDbLine
 10
358.9501677862
 20
209.8412106551
 30
0.0
 11
358.8036595693
 21
209.8412106551
 31
0.0
  0
LINE
  5
15D
330
1F
100
AcDbEntity
  8
0
  6
Continuous
 62
     7
370
    15
100
AcDbLine
 10
355.396285545
 20
209.144629798
 30
0.0
 11
357.4550597778
 21
209.5912101484
 31
0.0
  0
SPLINE
  5
15E
330
1F
100
AcDbEntity
  8
0
  6
Continuous
 62
     7
370
    15
100
AcDbSpline
210
0.0
220
0.0
230
1.0
 70
     8
 71
     3
 72
     9
 73
     5
 74
     0
 42
0.00000001
 43
0.00000001
 12
1.0
 22
0.0
 32
0.0
 13
1.0
 23
0.0
 33
0.0
 40
0.0
 40
0.0
 40
0.0
 40
0.0
 40
0.0701959962530283
 40
1.0
 40
1.0
 40
1.0
 40
1.0
 10
357.4550597778172
 20
209.5912101484216
 30
0.0
 10
357.5038641957981
 20
209.5907643975906
 30
0.0
 10
358.1991234781802
 20
209.5844143084857
 30
0.0
 10
358.880389829555
 20
209.3565235436157
 30
0.0
 10
359.5138340106815
 20
209.1446297980226
 30
0.0
  0
LINE
  5
15F
330
1F
100
AcDbEntity
  8
0
  6
Continuous
 62
     7
370
    15
100
AcDbLine
 10
359.5138340107
 20
209.144629798
 30
0.0
 11
359.5138340107
 21
204.8377918816
 31
0.0
  0
SPLINE
  5
160
330
1F
100
AcDbEntity
  8
0
  6
Continuous
 62
     7
370
    15
100
AcDbSpline
210
0.0
220
0.0
230
1.0
 70
     8
 71
     3
 72
     9
 73
     5
 74
     0
 42
0.00000001
 43
0.00000001
 12
1.0
 22
0.0
 32
0.0
 13
1.0
 23
0.0
 33
0.0
 40
0.0
 40
0.0
 40
0.0
 40
0.0
 40
0.0701959962530283
 40
1.0
 40
1.0
 40
1.0
 40
1.0
 10
357.4550597778172
 20
204.3912115312494
 30
0.0
 10
357.5038641957981
 20
204.3916572820804
 30
0.0
 10
358.1991234781802
 20
204.3980073711852
 30
0.0
 10
358.880389829555
 20
204.6258981360553
 30
0.0
 10
359.5138340106815
 20
204.8377918816484
 30
0.0
  0
LINE
  5
161
330
1F
100
AcDbEntity
  8
0
  6
Continuous
 62
     7
370
    15
100
AcDbLine
 10
355.396285545
 20
204.8377918816
 30
0.0
 11
357.4550597778
 21
204.3912115312
 31
0.0
  0
LINE
  5
162
330
1F
100
AcDbEntity
  8
0
  6
Continuous
 62
     7
370
    15
100
AcDbLine
 10
355.396285545
 20
209.144629798
 30
0.0
 11
355.396285545
 21
204.8377918816
 31
0.0
  0
SPLINE
  5
163
330
1F
100
AcDbEntity
  8
0
  6
Continuous
 62
     7
370
    15
100
AcDbSpline
210
0.0
220
0.0
230
1.0
 70
     8
 71
     3
 72
     9
 73
     5
 74
     0
 42
0.00000001
 43
0.00000001
 12
1.0
 22
0.0
 32
0.0
 13
1.0
 23
0.0
 33
0.0
 40
0.0
 40
0.0
 40
0.0
 40
0.0
 40
0.2575518390695679
 40
1.0
 40
1.0
 40
1.0
 40
1.0
 10
355.3962855449528
 20
209.1446297980226
 30
0.0
 10
355.1627456038785
 20
209.2120451472516
 30
0.0
 10
354.2559769241518
 20
209.4737996331545
 30
0.0
 10
353.313894631754
 20
209.5411821343386
 30
0.0
 10
352.6144473663181
 20
209.5912101484216
 30
0.0
  0
LINE
  5
164
330
1F
100
AcDbEntity
  8
0
  6
Continuous
 62
     7
370
    15
100
AcDbLine
 10
352.6144473663
 20
209.5912101484
 30
0.0
 11
357.4550597778
 21
209.5912101484
 31
0.0
  0
SPLINE
  5
165
330
1F
100
AcDbEntity
  8
0
  6
Continuous
 62
     7
370
    15
100
AcDbSpline
210
0.0
220
0.0
230
1.0
 70
     8
 71
     3
 72
     9
 73
     5
 74
     0
 42
0.00000001
 43
0.00000001
 12
1.0
 22
0.0
 32
0.0
 13
1.0
 23
0.0
 33
0.0
 40
0.0
 40
0.0
 40
0.0
 40
0.0
 40
0.2575518390695679
 40
1.0
 40
1.0
 40
1.0
 40
1.0
 10
355.3962855449528
 20
204.8377918816484
 30
0.0
 10
355.1627456038785
 20
204.7703765324194
 30
0.0
 10
354.2559769241518
 20
204.5086220465165
 30
0.0
 10
353.313894631754
 20
204.4412395453325
 30
0.0
 10
352.6144473663181
 20
204.3912115312494
 30
0.0
  0
SPLINE
  5
166
330
1F
100
AcDbEntity
  8
0
  6
Continuous
 62
     7
370
    15
100
AcDbSpline
210
0.0
220
0.0
230
1.0
 70
     8
 71
     3
 72
     9
 73
     5
 74
     0
 42
0.00000001
 43
0.00000001
 12
1.0
 22
0.0
 32
0.0
 13
1.0
 23
0.0
 33
0.0
 40
0.0
 40
0.0
 40
0.0
 40
0.0
 40
0.2686352870142506
 40
1.0
 40
1.0
 40
1.0
 40
1.0
 10
352.6144473663181
 20
204.3912115312494
 30
0.0
 10
352.361499107634
 20
204.3978409547149
 30
0.0
 10
351.4198943709833
 20
204.422519110512
 30
0.0
 10
350.503111690018
 20
204.6623719664826
 30
0.0
 10
349.8326091876835
 20
204.8377918816484
 30
0.0
  0
LINE
  5
167
330
1F
100
AcDbEntity
  8
0
  6
Continuous
 62
     7
370
    15
100
AcDbLine
 10
349.8326091877
 20
209.144629798
 30
0.0
 11
349.8326091877
 21
204.8377918816
 31
0.0
  0
SPLINE
  5
168
330
1F
100
AcDbEntity
  8
0
  6
Continuous
 62
     7
370
    15
100
AcDbSpline
210
0.0
220
0.0
230
1.0
 70
     8
 71
     3
 72
     9
 73
     5
 74
     0
 42
0.00000001
 43
0.00000001
 12
1.0
 22
0.0
 32
0.0
 13
1.0
 23
0.0
 33
0.0
 40
0.0
 40
0.0
 40
0.0
 40
0.0
 40
0.2686351794501388
 40
1.0
 40
1.0
 40
1.0
 40
1.0
 10
352.6144473663181
 20
209.5912101484216
 30
0.0
 10
352.361499089643
 20
209.5845821889991
 30
0.0
 10
351.4198939089927
 20
209.5599094732509
 30
0.0
 10
350.5031115518202
 20
209.3200526445229
 30
0.0
 10
349.8326091876835
 20
209.1446297980226
 30
0.0
  0
SPLINE
  5
169
330
1F
100
AcDbEntity
  8
0
  6
Continuous
 62
     7
370
    15
100
AcDbSpline
210
0.0
220
0.0
230
1.0
 70
     8
 71
     3
 72
     9
 73
     5
 74
     0
 42
0.00000001
 43
0.00000001
 12
1.0
 22
0.0
 32
0.0
 13
1.0
 23
0.0
 33
0.0
 40
0.0
 40
0.0
 40
0.0
 40
0.0
 40
0.0702001073882365
 40
1.0
 40
1.0
 40
1.0
 40
1.0
 10
349.1095452419132
 20
204.3912115312494
 30
0.0
 10
349.1266845998974
 20
204.3916572360579
 30
0.0
 10
349.3708346250449
 20
204.3980062976904
 30
0.0
 10
349.6101208662798
 20
204.6258981043185
 30
0.0
 10
349.8326091876835
 20
204.8377918816484
 30
0.0
  0
SPLINE
  5
16A
330
1F
100
AcDbEntity
  8
0
  6
Continuous
 62
     7
370
    15
100
AcDbSpline
210
0.0
220
0.0
230
1.0
 70
     8
 71
     3
 72
     9
 73
     5
 74
     0
 42
0.00000001
 43
0.00000001
 12
1.0
 22
0.0
 32
0.0
 13
1.0
 23
0.0
 33
0.0
 40
0.0
 40
0.0
 40
0.0
 40
0.0
 40
0.0702001073882365
 40
1.0
 40
1.0
 40
1.0
 40
1.0
 10
349.1095452419132
 20
209.5912101484216
 30
0.0
 10
349.1266845998974
 20
209.5907644436132
 30
0.0
 10
349.3708346250449
 20
209.5844153819806
 30
0.0
 10
349.6101208662798
 20
209.3565235753525
 30
0.0
 10
349.8326091876835
 20
209.1446297980226
 30
0.0
  0
LINE
  5
16B
330
1F
100
AcDbEntity
  8
0
  6
Continuous
 62
     7
370
    15
100
AcDbLine
 10
352.6144473663
 20
209.5912101484
 30
0.0
 11
349.1095452419
 21
209.5912101484
 31
0.0
  0
LINE
  5
16C
330
1F
100
AcDbEntity
  8
0
  6
Continuous
 62
     7
370
    15
100
AcDbLine
 10
348.3864812961
 20
209.144629798
 30
0.0
 11
349.1095452419
 21
209.5912101484
 31
0.0
  0
LINE
  5
16D
330
1F
100
AcDbEntity
  8
0
  6
Continuous
 62
     7
370
    15
100
AcDbLine
 10
348.3864812961
 20
204.8377918816
 30
0.0
 11
348.7857430092
 21
204.5912037409
 31
0.0
  0
LINE
  5
16E
330
1F
100
AcDbEntity
  8
0
  6
Continuous
 62
     7
370
    15
100
AcDbLine
 10
348.3864812961
 20
209.144629798
 30
0.0
 11
348.3864812961
 21
204.8377918816
 31
0.0
  0
LINE
  5
16F
330
1F
100
AcDbEntity
  8
0
  6
Continuous
 62
     7
370
    15
100
AcDbLine
 10
359.5138340107
 20
204.8377918816
 30
0.0
 11
359.1145871988
 21
204.5912037409
 31
0.0
  0
LINE
  5
170
330
1F
100
AcDbEntity
  8
0
  6
Continuous
 62
     7
370
    15
100
AcDbLine
 10
359.5138340107
 20
209.144629798
 30
0.0
 11
359.1145871988
 21
209.391221664
 31
0.0
  0
LINE
  5
171
330
1F
100
AcDbEntity
  8
0
  6
Continuous
 62
     7
370
    15
100
AcDbLine
 10
357.4550597778
 20
209.5912101484
 30
0.0
 11
358.9501677862
 21
209.5912101484
 31
0.0
  0
LINE
  5
172
330
1F
100
AcDbEntity
  8
0
  6
Continuous
 62
     7
370
    15
100
AcDbLine
 10
348.9501624218
 20
209.5912101484
 30
0.0
 11
349.1095452419
 21
209.5912101484
 31
0.0
  0
LINE
  5
173
330
1F
100
AcDbEntity
  8
0
  6
Continuous
 62
     7
370
    15
100
AcDbLine
 10
221.9501732698
 20
879.7801921881
 30
0.0
 11
222.7766512743
 21
879.9818347014
 31
0.0
  0
LINE
  5
174
330
1F
100
AcDbEntity
  8
0
  6
Continuous
 62
     7
370
    15
100
AcDbLine
 10
219.1001771799
 20
880.9854577101
 30
0.0
 11
219.1001771799
 21
880.4755995787
 31
0.0
  0
LINE
  5
175
330
1F
100
AcDbEntity
  8
0
  6
Continuous
 62
     7
370
    15
100
AcDbLine
 10
219.1001771799
 20
880.4755995787
 30
0.0
 11
221.9501732698
 21
879.7801921881
 31
0.0
  0
LINE
  5
176
330
1F
100
AcDbEntity
  8
0
  6
Continuous
 62
     7
370
    15
100
AcDbLine
 10
221.9501732698
 20
881.1920474089
 30
0.0
 11
221.9501732698
 21
879.7801921881
 31
0.0
  0
LINE
  5
177
330
1F
100
AcDbEntity
  8
0
  6
Continuous
 62
     7
370
    15
100
AcDbLine
 10
799.9501525274
 20
879.7801921881
 30
0.0
 11
800.7766603342
 21
879.9818347014
 31
0.0
  0
LINE
  5
178
330
1F
100
AcDbEntity
  8
0
  6
Continuous
 62
     7
370
    15
100
AcDbLine
 10
797.1001564375
 20
880.9854577101
 30
0.0
 11
797.1001564375
 21
880.4755995787
 31
0.0
  0
LINE
  5
179
330
1F
100
AcDbEntity
  8
0
  6
Continuous
 62
     7
370
    15
100
AcDbLine
 10
797.1001564375
 20
880.4755995787
 30
0.0
 11
799.9501525274
 21
879.7801921881
 31
0.0
  0
LINE
  5
17A
330
1F
100
AcDbEntity
  8
0
  6
Continuous
 62
     7
370
    15
100
AcDbLine
 10
799.9501525274
 20
881.1920474089
 30
0.0
 11
799.9501525274
 21
879.7801921881
 31
0.0
  0
LINE
  5
17B
330
1F
100
AcDbEntity
  8
0
  6
Continuous
 62
     7
370
    15
100
AcDbLine
 10
220.9501563421
 20
974.2912242926
 30
0.0
 11
228.4501491896
 21
974.2912242926
 31
0.0
  0
LINE
  5
17C
330
1F
100
AcDbEntity
  8
0
  6
Continuous
 62
     7
370
    15
100
AcDbLine
 10
213.4501634947
 20
974.2912242926
 30
0.0
 11
220.9501563421
 21
974.2912242926
 31
0.0
  0
LINE
  5
17D
330
1F
100
AcDbEntity
  8
0
  6
Continuous
 62
     7
370
    15
100
AcDbLine
 10
800.9501694551
 20
974.2912242926
 30
0.0
 11
808.4501623026
 21
974.2912242926
 31
0.0
  0
LINE
  5
17E
330
1F
100
AcDbEntity
  8
0
  6
Continuous
 62
     7
370
    15
100
AcDbLine
 10
793.4501766077
 20
974.2912242926
 30
0.0
 11
800.9501694551
 21
974.2912242926
 31
0.0
  0
LINE
  5
17F
330
1F
100
AcDbEntity
  8
0
  6
Continuous
 62
     8
370
    15
100
AcDbLine
 10
241.4501606336
 20
242.49121142
 30
0.0
 11
780.4501651636
 21
242.49121142
 31
0.0
  0
LINE
  5
180
330
1F
100
AcDbEntity
  8
0
  6
Continuous
 62
     8
370
    15
100
AcDbLine
 10
777.9501675478
 20
246.2912116005
 30
0.0
 11
243.9501582495
 21
246.2912116005
 31
0.0
  0
LINE
  5
181
330
1F
100
AcDbEntity
  8
0
  6
Continuous
 62
     8
370
    15
100
AcDbLine
 10
780.2501617781
 20
693.8912163294
 30
0.0
 11
780.2501617781
 21
244.7912113547
 31
0.0
  0
LINE
  5
182
330
1F
100
AcDbEntity
  8
0
  6
Continuous
 62
     8
370
    15
100
AcDbLine
 10
779.0214418283
 20
694.2786167181
 30
0.0
 11
778.3661185613
 21
694.7374830759
 31
0.0
  0
LINE
  5
183
330
1F
100
AcDbEntity
  8
0
  6
Continuous
 62
     8
370
    15
100
AcDbLine
 10
241.6501640192
 20
693.8912163294
 30
0.0
 11
241.6501640192
 21
244.7912113547
 31
0.0
  0
LINE
  5
184
330
1F
100
AcDbEntity
  8
0
  6
Continuous
 62
     8
370
    15
100
AcDbLine
 10
242.8788839689
 20
694.2786167181
 30
0.0
 11
243.5342072359
 21
694.7374830759
 31
0.0
  0
LINE
  5
185
330
1F
100
AcDbEntity
  8
0
  6
Continuous
 62
     8
370
    15
100
AcDbLine
 10
810.9501599184
 20
927.7197907484
 30
0.0
 11
210.9501658789
 21
927.7197907484
 31
0.0
  0
LINE
  5
186
330
1F
100
AcDbEntity
  8
0
  6
Continuous
 62
     8
370
    15
100
AcDbLine
 10
810.9501599184
 20
896.7572639502
 30
0.0
 11
210.9501658789
 21
896.7572639502
 31
0.0
  0
LINE
  5
187
330
1F
100
AcDbEntity
  8
0
  6
Continuous
 62
     8
370
    15
100
AcDbLine
 10
810.9501599184
 20
890.952963642
 30
0.0
 11
210.9501658789
 21
890.952963642
 31
0.0
  0
LINE
  5
188
330
1F
100
AcDbEntity
  8
0
  6
Continuous
 62
     8
370
    15
100
AcDbLine
 10
810.9501599184
 20
947.0412323988
 30
0.0
 11
210.9501658789
 21
947.0412323988
 31
0.0
  0
LINE
  5
189
330
1F
100
AcDbEntity
  8
0
  6
Continuous
 62
     8
370
    15
100
AcDbLine
 10
810.9501599184
 20
958.5412333525
 30
0.0
 11
210.9501658789
 21
958.5412333525
 31
0.0
  0
LINE
  5
18A
330
1F
100
AcDbEntity
  8
0
  6
Continuous
 62
     8
370
    15
100
AcDbLine
 10
809.9205790869
 20
754.3555090941
 30
0.0
 11
209.920555245
 21
754.3555090941
 31
0.0
  0
LINE
  5
18B
330
1F
100
AcDbEntity
  8
0
  6
Continuous
 62
     8
370
    15
100
AcDbLine
 10
809.9205790869
 20
745.2269385374
 30
0.0
 11
209.920555245
 21
745.2269385374
 31
0.0
  0
LINE
  5
18C
330
1F
100
AcDbEntity
  8
0
  6
Continuous
 62
     8
370
    15
100
AcDbLine
 10
809.9205790869
 20
701.0269353903
 30
0.0
 11
209.920555245
 21
701.0269353903
 31
0.0
  0
LINE
  5
18D
330
1F
100
AcDbEntity
  8
0
  6
Continuous
 62
     8
370
    15
100
AcDbLine
 10
788.4205578676
 20
874.2481658972
 30
0.0
 11
809.9205790869
 21
874.2481658972
 31
0.0
  0
LINE
  5
18E
330
1F
100
AcDbEntity
  8
0
  6
Continuous
 62
     8
370
    15
100
AcDbLine
 10
209.920555245
 20
874.2481658972
 30
0.0
 11
231.4205764643
 21
874.2481658972
 31
0.0
  0
LINE
  5
18F
330
1F
100
AcDbEntity
  8
0
  6
Continuous
 62
     8
370
    15
100
AcDbLine
 10
809.9205790869
 20
875.9092877425
 30
0.0
 11
788.4205578676
 21
875.9092877425
 31
0.0
  0
LINE
  5
190
330
1F
100
AcDbEntity
  8
0
  6
Continuous
 62
     8
370
    15
100
AcDbLine
 10
231.4205764643
 20
875.9092877425
 30
0.0
 11
209.920555245
 21
875.9092877425
 31
0.0
  0
LINE
  5
191
330
1F
100
AcDbEntity
  8
0
  6
Continuous
 62
     8
370
    15
100
AcDbLine
 10
302.4501650444
 20
47.091204933
 30
0.0
 11
245.4501687399
 21
47.091204933
 31
0.0
  0
LINE
  5
192
330
1F
100
AcDbEntity
  8
0
  6
Continuous
 62
     8
370
    15
100
AcDbLine
 10
776.6501604429
 20
47.091204933
 30
0.0
 11
719.6501641384
 21
47.091204933
 31
0.0
  0
LINE
  5
193
330
1F
100
AcDbEntity
  8
0
  6
Continuous
 62
     8
370
    15
100
AcDbLine
 10
780.0501583925
 20
211.5912104762
 30
0.0
 11
716.2501661888
 21
211.5912104762
 31
0.0
  0
LINE
  5
194
330
1F
100
AcDbEntity
  8
0
  6
Continuous
 62
     8
370
    15
100
AcDbLine
 10
780.0501583925
 20
125.1237804807
 30
0.0
 11
716.2501661888
 21
125.1237804807
 31
0.0
  0
LINE
  5
195
330
1F
100
AcDbEntity
  8
0
  6
Continuous
 62
     8
370
    15
100
AcDbLine
 10
779.9862622133
 20
124.351311735
 30
0.0
 11
716.3140772692
 21
124.351311735
 31
0.0
  0
LINE
  5
196
330
1F
100
AcDbEntity
  8
0
  6
Continuous
 62
     8
370
    15
100
AcDbLine
 10
305.850162994
 20
211.5912104762
 30
0.0
 11
242.0501707903
 21
211.5912104762
 31
0.0
  0
LINE
  5
197
330
1F
100
AcDbEntity
  8
0
  6
Continuous
 62
     8
370
    15
100
AcDbLine
 10
305.850162994
 20
125.1237804807
 30
0.0
 11
242.0501707903
 21
125.1237804807
 31
0.0
  0
LINE
  5
198
330
1F
100
AcDbEntity
  8
0
  6
Continuous
 62
     8
370
    15
100
AcDbLine
 10
305.7862519136
 20
124.351311735
 30
0.0
 11
242.1140669695
 21
124.351311735
 31
0.0
  0
LINE
  5
199
330
1F
100
AcDbEntity
  8
0
  6
Continuous
 62
     8
370
    15
100
AcDbLine
 10
213.7501536718
 20
693.8912163294
 30
0.0
 11
213.7501536718
 21
694.6412215746
 31
0.0
  0
ARC
  5
19A
330
1F
100
AcDbEntity
  8
0
  6
Continuous
 62
     8
370
    15
100
AcDbCircle
 10
809.6343943941
 20
752.8853777354
 30
0.0
 40
0.8313186507428943
100
AcDbArc
 50
11.0981854759
 51
69.8637419145
  0
ARC
  5
19B
330
1F
100
AcDbEntity
  8
0
  6
Continuous
 62
     8
370
    15
100
AcDbCircle
 10
809.6344676268
 20
746.6970073915
 30
0.0
 40
0.8312347573123937
100
AcDbArc
 50
290.1330019673
 51
348.9050706423
  0
ARC
  5
19C
330
1F
100
AcDbEntity
  8
0
  6
Continuous
 62
     8
370
    15
100
AcDbCircle
 10
809.6344524277
 20
702.4970172169
 30
0.0
 40
0.8312521687498455
100
AcDbArc
 50
290.1336778123
 51
348.9043947973
  0
LINE
  5
19D
330
1F
100
AcDbEntity
  8
0
  6
Continuous
 62
     8
370
    15
100
AcDbLine
 10
808.1501721254
 20
693.8912163294
 30
0.0
 11
808.1501721254
 21
694.6412215746
 31
0.0
  0
LINE
  5
19E
330
1F
100
AcDbEntity
  8
0
  6
Continuous
 62
     8
370
    15
100
AcDbLine
 10
359.6775381676
 20
202.9412130631
 30
0.0
 11
353.7834881655
 21
202.9412130631
 31
0.0
  0
SPLINE
  5
19F
330
1F
100
AcDbEntity
  8
0
  6
Continuous
 62
     8
370
    15
100
AcDbSpline
210
0.0
220
0.0
230
1.0
 70
     8
 71
     3
 72
    12
 73
     8
 74
     0
 42
0.00000001
 43
0.00000001
 12
1.0
 22
0.0
 32
0.0
 13
1.0
 23
0.0
 33
0.0
 40
0.0
 40
0.0
 40
0.0
 40
0.0
 40
0.2289385085360941
 40
0.4594223255051983
 40
0.6825337280650633
 40
0.8947180232877312
 40
1.0
 40
1.0
 40
1.0
 40
1.0
 10
353.425264250359
 20
204.3912115312494
 30
0.0
 10
353.4665333002811
 20
204.3738758028052
 30
0.0
 10
353.5493499614355
 20
204.3390873317565
 30
0.0
 10
353.6611919111344
 20
204.0652344373742
 30
0.0
 10
353.7425110595327
 20
203.6681756752813
 30
0.0
 10
353.7793306850086
 20
203.2673110329378
 30
0.0
 10
353.7824527791236
 20
203.0224250822454
 30
0.0
 10
353.783488165459
 20
202.9412130630888
 30
0.0
  0
LINE
  5
1A0
330
1F
100
AcDbEntity
  8
0
  6
Continuous
 62
     8
370
    15
100
AcDbLine
 10
359.6775381676
 20
197.8412124134
 30
0.0
 11
359.6775381676
 21
202.9412130631
 31
0.0
  0
LINE
  5
1A1
330
1F
100
AcDbEntity
  8
0
  6
Continuous
 62
     8
370
    15
100
AcDbLine
 10
353.7834881655
 20
197.8412124134
 30
0.0
 11
359.6775381676
 21
197.8412124134
 31
0.0
  0
LINE
  5
1A2
330
1F
100
AcDbEntity
  8
0
  6
Continuous
 62
     8
370
    15
100
AcDbLine
 10
353.7834881655
 20
202.9412130631
 30
0.0
 11
353.7834881655
 21
197.8412124134
 31
0.0
  0
ARC
  5
1A3
330
1F
100
AcDbEntity
  8
0
  6
Continuous
 62
     8
370
    15
100
AcDbCircle
 10
357.6312586133
 20
197.7790192198
 30
0.0
 40
3.848273042854926
100
AcDbArc
 50
179.0739839389
 51
182.7973177402
  0
LWPOLYLINE
  5
1A4
330
1F
100
AcDbEntity
  8
0
  6
Continuous
 62
     8
370
    15
100
AcDbPolyline
 90
        9
 70
   128
 43
0.0
 10
359.5371543279
 20
197.5912119068
 10
359.5645426622
 20
197.596013806
 10
359.5908730141
 20
197.6102406896
 10
359.6151470056
 20
197.63334494
 10
359.6364109627
 20
197.6644362129
 10
359.6538751236
 20
197.7023186899
 10
359.666854035
 20
197.745539508
 10
359.6748410574
 20
197.7924371875
 10
359.6775381676
 20
197.8412124134
  0
LINE
  5
1A5
330
1F
100
AcDbEntity
  8
0
  6
Continuous
 62
     8
370
    15
100
AcDbLine
 10
353.7834881655
 20
202.9412130631
 30
0.0
 11
353.5480051151
 21
202.9412130631
 31
0.0
  0
SPLINE
  5
1A6
330
1F
100
AcDbEntity
  8
0
  6
Continuous
 62
     8
370
    15
100
AcDbSpline
210
0.0
220
0.0
230
1.0
 70
     8
 71
     3
 72
    12
 73
     8
 74
     0
 42
0.00000001
 43
0.00000001
 12
1.0
 22
0.0
 32
0.0
 13
1.0
 23
0.0
 33
0.0
 40
0.0
 40
0.0
 40
0.0
 40
0.0
 40
0.1044184593044198
 40
0.3151729755006014
 40
0.5377474207903987
 40
0.7690309530155551
 40
1.0
 40
1.0
 40
1.0
 40
1.0
 10
353.5480051151127
 20
202.9412130630888
 30
0.0
 10
353.5469835942166
 20
203.0084316806677
 30
0.0
 10
353.5439002717609
 20
203.2113219727917
 30
0.0
 10
353.5075223219785
 20
203.5436773773516
 30
0.0
 10
353.426436491068
 20
203.8723230371998
 30
0.0
 10
353.3138110638426
 20
204.0983804389278
 30
0.0
 10
353.2283831693999
 20
204.1269406395224
 30
0.0
 10
353.1856982818455
 20
204.1412110246099
 30
0.0
  0
ARC
  5
1A7
330
1F
100
AcDbEntity
  8
0
  6
Continuous
 62
     8
370
    15
100
AcDbCircle
 10
353.4306006557
 20
204.1463141299
 30
0.0
 40
0.2449555355930342
100
AcDbArc
 50
91.2482987772
 51
181.1937168416
  0
LINE
  5
1A8
330
1F
100
AcDbEntity
  8
0
  6
Continuous
 62
     8
370
    15
100
AcDbLine
 10
353.7834881655
 20
197.8412124134
 30
0.0
 11
353.5480051151
 21
197.8412124134
 31
0.0
  0
LINE
  5
1A9
330
1F
100
AcDbEntity
  8
0
  6
Continuous
 62
     8
370
    15
100
AcDbLine
 10
353.5480051151
 20
197.8412124134
 30
0.0
 11
353.5480051151
 21
202.9412130631
 31
0.0
  0
LINE
  5
1AA
330
1F
100
AcDbEntity
  8
0
  6
Continuous
 62
     8
370
    15
100
AcDbLine
 10
346.3334291092
 20
203.4412103511
 30
0.0
 11
353.1429617515
 21
203.4412103511
 31
0.0
  0
LINE
  5
1AB
330
1F
100
AcDbEntity
  8
0
  6
Continuous
 62
     8
370
    15
100
AcDbLine
 10
353.1429617515
 20
204.1412110246
 30
0.0
 11
346.3334291092
 21
204.1412110246
 31
0.0
  0
LINE
  5
1AC
330
1F
100
AcDbEntity
  8
0
  6
Continuous
 62
     8
370
    15
100
AcDbLine
 10
353.1856982818
 20
204.1412110246
 30
0.0
 11
353.1429617515
 21
204.1412110246
 31
0.0
  0
LINE
  5
1AD
330
1F
100
AcDbEntity
  8
0
  6
Continuous
 62
     8
370
    15
100
AcDbLine
 10
353.337317597
 20
197.8412124134
 30
0.0
 11
353.5480051151
 21
197.8412124134
 31
0.0
  0
LINE
  5
1AE
330
1F
100
AcDbEntity
  8
0
  6
Continuous
 62
     8
370
    15
100
AcDbLine
 10
353.337317597
 20
202.9412130631
 30
0.0
 11
353.337317597
 21
197.8412124134
 31
0.0
  0
SPLINE
  5
1AF
330
1F
100
AcDbEntity
  8
0
  6
Continuous
 62
     8
370
    15
100
AcDbSpline
210
0.0
220
0.0
230
1.0
 70
     8
 71
     3
 72
    12
 73
     8
 74
     0
 42
0.00000001
 43
0.00000001
 12
1.0
 22
0.0
 32
0.0
 13
1.0
 23
0.0
 33
0.0
 40
0.0
 40
0.0
 40
0.0
 40
0.0
 40
0.1009199011953182
 40
0.3119667317420893
 40
0.5359624035211396
 40
0.7681133608779942
 40
1.0
 40
1.0
 40
1.0
 40
1.0
 10
353.3373175969929
 20
202.9412130630888
 30
0.0
 10
353.3369137417574
 20
202.9683328518405
 30
0.0
 10
353.3356653319151
 20
203.052166384793
 30
0.0
 10
353.3206302302183
 20
203.1906440139009
 30
0.0
 10
353.2866189039545
 20
203.3283605313756
 30
0.0
 10
353.2393752581274
 20
203.4231630730569
 30
0.0
 10
353.203583811608
 20
203.4351968765763
 30
0.0
 10
353.1856982818455
 20
203.4412103510774
 30
0.0
  0
LINE
  5
1B0
330
1F
100
AcDbEntity
  8
0
  6
Continuous
 62
     8
370
    15
100
AcDbLine
 10
353.1429617515
 20
203.4412103511
 30
0.0
 11
353.1856982818
 21
203.4412103511
 31
0.0
  0
ARC
  5
1B1
330
1F
100
AcDbEntity
  8
0
  6
Continuous
 62
     8
370
    15
100
AcDbCircle
 10
353.5822199709
 20
197.8361093081
 30
0.0
 40
0.2449555355930342
100
AcDbArc
 50
178.8062831584
 51
268.7517012228
  0
ARC
  5
1B2
330
1F
100
AcDbEntity
  8
0
  6
Continuous
 62
     8
370
    15
100
AcDbCircle
 10
353.439827364
 20
203.4399116543
 30
0.0
 40
0.2541324005492953
100
AcDbArc
 50
179.7071991984
 51
228.9085425218
  0
LINE
  5
1B3
330
1F
100
AcDbEntity
  8
0
  6
Continuous
 62
     8
370
    15
100
AcDbLine
 10
353.3269165865
 20
202.9412130631
 30
0.0
 11
353.337317597
 21
202.9412130631
 31
0.0
  0
LINE
  5
1B4
330
1F
100
AcDbEntity
  8
0
  6
Continuous
 62
     8
370
    15
100
AcDbLine
 10
353.3268867842
 20
197.8412124134
 30
0.0
 11
353.337317597
 21
197.8412124134
 31
0.0
  0
LINE
  5
1B5
330
1F
100
AcDbEntity
  8
0
  6
Continuous
 62
     8
370
    15
100
AcDbLine
 10
359.7871511093
 20
197.8412124134
 30
0.0
 11
359.6775381676
 21
197.8412124134
 31
0.0
  0
LINE
  5
1B6
330
1F
100
AcDbEntity
  8
0
  6
Continuous
 62
     8
370
    15
100
AcDbLine
 10
359.7000091186
 20
203.4412103511
 30
0.0
 11
362.6501708141
 21
203.4412103511
 31
0.0
  0
LINE
  5
1B7
330
1F
100
AcDbEntity
  8
0
  6
Continuous
 62
     8
370
    15
100
AcDbLine
 10
362.6501708141
 20
204.1412110246
 30
0.0
 11
359.3716769329
 21
204.1412110246
 31
0.0
  0
LINE
  5
1B8
330
1F
100
AcDbEntity
  8
0
  6
Continuous
 62
     8
370
    15
100
AcDbLine
 10
348.3342974296
 20
201.5989462651
 30
0.0
 11
348.3342974296
 21
201.9912118829
 31
0.0
  0
LINE
  5
1B9
330
1F
100
AcDbEntity
  8
0
  6
Continuous
 62
     8
370
    15
100
AcDbLine
 10
348.1236099115
 20
197.8412124134
 30
0.0
 11
348.1900094858
 21
197.8412124134
 31
0.0
  0
LINE
  5
1BA
330
1F
100
AcDbEntity
  8
0
  6
Continuous
 62
     8
370
    15
100
AcDbLine
 10
348.1236099115
 20
201.9912118829
 30
0.0
 11
348.1236099115
 21
197.8412124134
 31
0.0
  0
LINE
  5
1BB
330
1F
100
AcDbEntity
  8
0
  6
Continuous
 62
     8
370
    15
100
AcDbLine
 10
348.719164621
 20
201.9912118829
 30
0.0
 11
348.719164621
 21
201.8578427649
 31
0.0
  0
ARC
  5
1BC
330
1F
100
AcDbEntity
  8
0
  6
Continuous
 62
     8
370
    15
100
AcDbCircle
 10
348.3793317314
 20
197.8403500647
 30
0.0
 40
0.2557232738637535
100
AcDbArc
 50
179.8067871065
 51
222.2395879245
  0
LINE
  5
1BD
330
1F
100
AcDbEntity
  8
0
  6
Continuous
 62
     8
370
    15
100
AcDbLine
 10
348.1236099115
 20
197.8412124134
 30
0.0
 11
348.1131641975
 21
197.8412124134
 31
0.0
  0
LINE
  5
1BE
330
1F
100
AcDbEntity
  8
0
  6
Continuous
 62
     8
370
    15
100
AcDbLine
 10
346.8017875067
 20
202.2412123896
 30
0.0
 11
353.3268867842
 21
202.2412123896
 31
0.0
  0
LINE
  5
1BF
330
1F
100
AcDbEntity
  8
0
  6
Continuous
 62
     8
370
    15
100
AcDbLine
 10
359.7871511093
 20
202.2412123896
 30
0.0
 11
362.5401406399
 21
202.2412123896
 31
0.0
  0
LINE
  5
1C0
330
1F
100
AcDbEntity
  8
0
  6
Continuous
 62
     8
370
    15
100
AcDbLine
 10
362.5401406399
 20
202.9412130631
 30
0.0
 11
359.7871511093
 21
202.9412130631
 31
0.0
  0
LINE
  5
1C1
330
1F
100
AcDbEntity
  8
0
  6
Continuous
 62
     8
370
    15
100
AcDbLine
 10
353.3232061973
 20
202.9412130631
 30
0.0
 11
346.8017875067
 21
202.9412130631
 31
0.0
  0
LINE
  5
1C2
330
1F
100
AcDbEntity
  8
0
  6
Continuous
 62
     8
370
    15
100
AcDbLine
 10
343.7501638046
 20
203.4412103511
 30
0.0
 11
345.1490997187
 21
203.4412103511
 31
0.0
  0
LINE
  5
1C3
330
1F
100
AcDbEntity
  8
0
  6
Continuous
 62
     8
370
    15
100
AcDbLine
 10
345.1490997187
 20
203.4412103511
 30
0.0
 11
345.4202710501
 21
203.4412103511
 31
0.0
  0
SPLINE
  5
1C4
330
1F
100
AcDbEntity
  8
0
  6
Continuous
 62
     8
370
    15
100
AcDbSpline
210
0.0
220
0.0
230
1.0
 70
     8
 71
     3
 72
    12
 73
     8
 74
     0
 42
0.00000001
 43
0.00000001
 12
1.0
 22
0.0
 32
0.0
 13
1.0
 23
0.0
 33
0.0
 40
0.0
 40
0.0
 40
0.0
 40
0.0
 40
0.104421106980628
 40
0.3151717471994179
 40
0.5377488983496161
 40
0.769030006494175
 40
0.9999999999999999
 40
0.9999999999999999
 40
0.9999999999999999
 40
0.9999999999999999
 10
345.4202710500568
 20
203.4412103510774
 30
0.0
 10
345.4237615612321
 20
203.3739907285915
 30
0.0
 10
345.4342968882128
 20
203.1711033385075
 30
0.0
 10
345.5584148279792
 20
202.8387388238989
 30
0.0
 10
345.8348596695964
 20
202.5101068330173
 30
0.0
 10
346.2191302215153
 20
202.2840349992159
 30
0.0
 10
346.510458331147
 20
202.2554801865753
 30
0.0
 10
346.6560243478626
 20
202.2412123895563
 30
0.0
  0
ARC
  5
1C5
330
1F
100
AcDbEntity
  8
0
  6
Continuous
 62
     8
370
    15
100
AcDbCircle
 10
346.3326680648
 20
202.1817800437
 30
0.0
 40
0.3287727019623243
100
AcDbArc
 50
324.5751263505
 51
10.414631855
  0
LINE
  5
1C6
330
1F
100
AcDbEntity
  8
0
  6
Continuous
 62
     8
370
    15
100
AcDbLine
 10
345.1490997187
 20
203.4412103511
 30
0.0
 11
345.1490997187
 21
208.5412110008
 31
0.0
  0
LINE
  5
1C7
330
1F
100
AcDbEntity
  8
0
  6
Continuous
 62
     8
370
    15
100
AcDbLine
 10
345.1490997187
 20
208.5412110008
 30
0.0
 11
345.4202710501
 21
208.5412110008
 31
0.0
  0
LINE
  5
1C8
330
1F
100
AcDbEntity
  8
0
  6
Continuous
 62
     8
370
    15
100
AcDbLine
 10
345.4202710501
 20
208.5412110008
 30
0.0
 11
345.4202710501
 21
203.4412103511
 31
0.0
  0
ARC
  5
1C9
330
1F
100
AcDbEntity
  8
0
  6
Continuous
 62
     8
370
    15
100
AcDbCircle
 10
345.0967790754
 20
208.6006132518
 30
0.0
 40
0.3289007222794429
100
AcDbArc
 50
349.5947974581
 51
35.4154443363
  0
ARC
  5
1CA
330
1F
100
AcDbEntity
  8
0
  6
Continuous
 62
     8
370
    15
100
AcDbCircle
 10
345.3833205915
 20
208.5571769009
 30
0.0
 40
0.2347644079995914
100
AcDbArc
 50
94.5189386245
 51
183.8995916443
  0
LINE
  5
1CB
330
1F
100
AcDbEntity
  8
0
  6
Continuous
 62
     8
370
    15
100
AcDbLine
 10
346.6560243479
 20
202.2412123896
 30
0.0
 11
346.8017875067
 21
202.2412123896
 31
0.0
  0
LINE
  5
1CC
330
1F
100
AcDbEntity
  8
0
  6
Continuous
 62
     8
370
    15
100
AcDbLine
 10
346.1388795486
 20
208.5412110008
 30
0.0
 11
345.4202710501
 21
208.5412110008
 31
0.0
  0
LINE
  5
1CD
330
1F
100
AcDbEntity
  8
0
  6
Continuous
 62
     8
370
    15
100
AcDbLine
 10
346.1388795486
 20
203.4412103511
 30
0.0
 11
346.1388795486
 21
208.5412110008
 31
0.0
  0
SPLINE
  5
1CE
330
1F
100
AcDbEntity
  8
0
  6
Continuous
 62
     8
370
    15
100
AcDbSpline
210
0.0
220
0.0
230
1.0
 70
     8
 71
     3
 72
    12
 73
     8
 74
     0
 42
0.00000001
 43
0.00000001
 12
1.0
 22
0.0
 32
0.0
 13
1.0
 23
0.0
 33
0.0
 40
0.0
 40
0.0
 40
0.0
 40
0.0
 40
0.1009186027506117
 40
0.3119724227109176
 40
0.5359579431630832
 40
0.7681175691207291
 40
1.0
 40
1.0
 40
1.0
 40
1.0
 10
346.1388795486301
 20
203.4412103510774
 30
0.0
 10
346.1402552879003
 20
203.4140902731385
 30
0.0
 10
346.1445081481405
 20
203.3302532382598
 30
0.0
 10
346.195855952836
 20
203.1917878598355
 30
0.0
 10
346.3117763232559
 20
203.0540569522278
 30
0.0
 10
346.472927064201
 20
202.9592574364272
 30
0.0
 10
346.5950162299242
 20
202.9472254584381
 30
0.0
 10
346.6560243478626
 20
202.9412130630888
 30
0.0
  0
LINE
  5
1CF
330
1F
100
AcDbEntity
  8
0
  6
Continuous
 62
     8
370
    15
100
AcDbLine
 10
346.8017875067
 20
202.9412130631
 30
0.0
 11
346.6560243479
 21
202.9412130631
 31
0.0
  0
ARC
  5
1D0
330
1F
100
AcDbEntity
  8
0
  6
Continuous
 62
     8
370
    15
100
AcDbCircle
 10
345.8155232655
 20
208.6006433466
 30
0.0
 40
0.3287727019623243
100
AcDbArc
 50
349.585368145
 51
35.4248736495
  0
LINE
  5
1D1
330
1F
100
AcDbEntity
  8
0
  6
Continuous
 62
     8
370
    15
100
AcDbLine
 10
345.1490997187
 20
208.5412110008
 30
0.0
 11
343.7501638046
 21
208.5412110008
 31
0.0
  0
ARC
  5
1D2
330
1F
100
AcDbEntity
  8
0
  6
Continuous
 62
     8
370
    15
100
AcDbCircle
 10
346.3326770911
 20
203.0006445712
 30
0.0
 40
0.3287636729122894
100
AcDbArc
 50
349.5852273715
 51
35.425375386
  0
LINE
  5
1D3
330
1F
100
AcDbEntity
  8
0
  6
Continuous
 62
     8
370
    15
100
AcDbLine
 10
346.3334291092
 20
203.4412103511
 30
0.0
 11
346.1388795486
 21
203.4412103511
 31
0.0
  0
LINE
  5
1D4
330
1F
100
AcDbEntity
  8
0
  6
Continuous
 62
     8
370
    15
100
AcDbLine
 10
346.3334291092
 20
208.5412110008
 30
0.0
 11
346.1388795486
 21
208.5412110008
 31
0.0
  0
LINE
  5
1D5
330
1F
100
AcDbEntity
  8
0
  6
Continuous
 62
     8
370
    15
100
AcDbLine
 10
362.6859037987
 20
202.9412130631
 30
0.0
 11
362.5401406399
 21
202.9412130631
 31
0.0
  0
ARC
  5
1D6
330
1F
100
AcDbEntity
  8
0
  6
Continuous
 62
     8
370
    15
100
AcDbCircle
 10
362.3625565419
 20
203.0006445712
 30
0.0
 40
0.3287636729122894
100
AcDbArc
 50
349.5852273715
 51
35.425375386
  0
LINE
  5
1D7
330
1F
100
AcDbEntity
  8
0
  6
Continuous
 62
     8
370
    15
100
AcDbLine
 10
362.5401406399
 20
202.2412123896
 30
0.0
 11
362.6859037987
 21
202.2412123896
 31
0.0
  0
ARC
  5
1D8
330
1F
100
AcDbEntity
  8
0
  6
Continuous
 62
     8
370
    15
100
AcDbCircle
 10
362.3625475156
 20
202.1817800437
 30
0.0
 40
0.3287727019623243
100
AcDbArc
 50
324.5751263505
 51
10.414631855
  0
LINE
  5
1D9
330
1F
100
AcDbEntity
  8
0
  6
Continuous
 62
     8
370
    15
100
AcDbLine
 10
363.2030485979
 20
208.5412110008
 30
0.0
 11
363.2030485979
 21
203.4412103511
 31
0.0
  0
LINE
  5
1DA
330
1F
100
AcDbEntity
  8
0
  6
Continuous
 62
     8
370
    15
100
AcDbLine
 10
363.9216570965
 20
208.5412110008
 30
0.0
 11
363.2030485979
 21
208.5412110008
 31
0.0
  0
LINE
  5
1DB
330
1F
100
AcDbEntity
  8
0
  6
Continuous
 62
     8
370
    15
100
AcDbLine
 10
363.9216570965
 20
203.4412103511
 30
0.0
 11
363.9216570965
 21
208.5412110008
 31
0.0
  0
SPLINE
  5
1DC
330
1F
100
AcDbEntity
  8
0
  6
Continuous
 62
     8
370
    15
100
AcDbSpline
210
0.0
220
0.0
230
1.0
 70
     8
 71
     3
 72
    12
 73
     8
 74
     0
 42
0.00000001
 43
0.00000001
 12
1.0
 22
0.0
 32
0.0
 13
1.0
 23
0.0
 33
0.0
 40
0.0
 40
0.0
 40
0.0
 40
0.0
 40
0.1789593637220995
 40
0.3928999672617721
 40
0.5977012489170207
 40
0.7987837361264766
 40
1.0
 40
1.0
 40
1.0
 40
1.0
 10
362.6859037986607
 20
202.2412123895563
 30
0.0
 10
362.7984852893618
 20
202.2498237691517
 30
0.0
 10
363.0456546080875
 20
202.2687297972621
 30
0.0
 10
363.3958051924998
 20
202.4322734355062
 30
0.0
 10
363.6873474608115
 20
202.7028283598005
 30
0.0
 10
363.8836877557966
 20
203.0509757529038
 30
0.0
 10
363.9089978441165
 20
203.3111033182237
 30
0.0
 10
363.9216570964664
 20
203.4412103510774
 30
0.0
  0
SPLINE
  5
1DD
330
1F
100
AcDbEntity
  8
0
  6
Continuous
 62
     8
370
    15
100
AcDbSpline
210
0.0
220
0.0
230
1.0
 70
     8
 71
     3
 72
    12
 73
     8
 74
     0
 42
0.00000001
 43
0.00000001
 12
1.0
 22
0.0
 32
0.0
 13
1.0
 23
0.0
 33
0.0
 40
0.0
 40
0.0
 40
0.0
 40
0.0
 40
0.1818530643171446
 40
0.3965025390893499
 40
0.6005913782330187
 40
0.8002128494183474
 40
1.0
 40
1.0
 40
1.0
 40
1.0
 10
362.6859037986607
 20
202.9412130630888
 30
0.0
 10
362.7336689939436
 20
202.9449306529529
 30
0.0
 10
362.837813630059
 20
202.9530362838696
 30
0.0
 10
362.9844685147729
 20
203.0221890153874
 30
0.0
 10
363.1057005835031
 20
203.1350237372717
 30
0.0
 10
363.1872484844013
 20
203.279456027422
 30
0.0
 10
363.1977804371366
 20
203.3872773346766
 30
0.0
 10
363.2030485978931
 20
203.4412103510774
 30
0.0
  0
LINE
  5
1DE
330
1F
100
AcDbEntity
  8
0
  6
Continuous
 62
     8
370
    15
100
AcDbLine
 10
363.9216570965
 20
203.4412103511
 30
0.0
 11
364.1153572908
 21
203.4412103511
 31
0.0
  0
SPLINE
  5
1DF
330
1F
100
AcDbEntity
  8
0
  6
Continuous
 62
     8
370
    15
100
AcDbSpline
210
0.0
220
0.0
230
1.0
 70
     8
 71
     3
 72
    12
 73
     8
 74
     0
 42
0.00000001
 43
0.00000001
 12
1.0
 22
0.0
 32
0.0
 13
1.0
 23
0.0
 33
0.0
 40
0.0
 40
0.0
 40
0.0
 40
0.0
 40
0.2028205656935194
 40
0.4049473032038745
 40
0.6098316747376447
 40
0.8226983294777862
 40
1.0
 40
1.0
 40
1.0
 40
1.0
 10
364.1153572908252
 20
203.4412103510774
 30
0.0
 10
364.1001538800183
 20
203.2840703574313
 30
0.0
 10
364.0697990677008
 20
202.9703279298087
 30
0.0
 10
363.8340703817445
 20
202.5499280675784
 30
0.0
 10
363.4838782019659
 20
202.2228467609505
 30
0.0
 10
363.0630174921325
 20
202.0246461039837
 30
0.0
 10
362.7656069351868
 20
202.0016581501941
 30
0.0
 10
362.6304565778584
 20
201.9912118829168
 30
0.0
  0
LINE
  5
1E0
330
1F
100
AcDbEntity
  8
0
  6
Continuous
 62
     8
370
    15
100
AcDbLine
 10
363.2030485979
 20
203.4412103511
 30
0.0
 11
362.8976045957
 21
203.4412103511
 31
0.0
  0
LINE
  5
1E1
330
1F
100
AcDbEntity
  8
0
  6
Continuous
 62
     8
370
    15
100
AcDbLine
 10
363.2030485979
 20
208.5412110008
 30
0.0
 11
362.8976045957
 21
208.5412110008
 31
0.0
  0
ARC
  5
1E2
330
1F
100
AcDbEntity
  8
0
  6
Continuous
 62
     8
370
    15
100
AcDbCircle
 10
362.8796923148
 20
208.6006433466
 30
0.0
 40
0.3287727019623243
100
AcDbArc
 50
349.585368145
 51
35.4248736495
  0
LINE
  5
1E3
330
1F
100
AcDbEntity
  8
0
  6
Continuous
 62
     8
370
    15
100
AcDbLine
 10
364.1153572908
 20
203.4412103511
 30
0.0
 11
364.1501664034
 21
203.4412103511
 31
0.0
  0
ARC
  5
1E4
330
1F
100
AcDbEntity
  8
0
  6
Continuous
 62
     8
370
    15
100
AcDbCircle
 10
363.5983008134
 20
208.6006433466
 30
0.0
 40
0.3287727019623243
100
AcDbArc
 50
349.585368145
 51
35.4248736495
  0
LINE
  5
1E5
330
1F
100
AcDbEntity
  8
0
  6
Continuous
 62
     8
370
    15
100
AcDbLine
 10
362.6501708141
 20
203.4412103511
 30
0.0
 11
362.8976045957
 21
203.4412103511
 31
0.0
  0
LINE
  5
1E6
330
1F
100
AcDbEntity
  8
0
  6
Continuous
 62
     8
370
    15
100
AcDbLine
 10
363.9216570965
 20
208.5412110008
 30
0.0
 11
364.1153572908
 21
208.5412110008
 31
0.0
  0
LINE
  5
1E7
330
1F
100
AcDbEntity
  8
0
  6
Continuous
 62
     8
370
    15
100
AcDbLine
 10
364.1153572908
 20
208.5412110008
 30
0.0
 11
364.1153572908
 21
203.4412103511
 31
0.0
  0
ARC
  5
1E8
330
1F
100
AcDbEntity
  8
0
  6
Continuous
 62
     8
370
    15
100
AcDbCircle
 10
363.8658000814
 20
208.5416542409
 30
0.0
 40
0.2495576029975588
100
AcDbArc
 50
359.8982367193
 51
89.9059155509
  0
LINE
  5
1E9
330
1F
100
AcDbEntity
  8
0
  6
Continuous
 62
     8
370
    15
100
AcDbLine
 10
362.8976045957
 20
208.5412110008
 30
0.0
 11
361.6042881122
 21
208.5412110008
 31
0.0
  0
ARC
  5
1EA
330
1F
100
AcDbEntity
  8
0
  6
Continuous
 62
     8
370
    15
100
AcDbCircle
 10
361.8372348023
 20
208.5585103323
 30
0.0
 40
0.2335881574438764
100
AcDbArc
 50
94.9946749258
 51
184.2471630475
  0
LINE
  5
1EB
330
1F
100
AcDbEntity
  8
0
  6
Continuous
 62
     8
370
    15
100
AcDbLine
 10
361.6042881122
 20
208.5412110008
 30
0.0
 11
361.6042881122
 21
204.3912115312
 31
0.0
  0
LINE
  5
1EC
330
1F
100
AcDbEntity
  8
0
  6
Continuous
 62
     8
370
    15
100
AcDbLine
 10
364.1501664034
 20
208.5412110008
 30
0.0
 11
364.1153572908
 21
208.5412110008
 31
0.0
  0
LINE
  5
1ED
330
1F
100
AcDbEntity
  8
0
  6
Continuous
 62
     8
370
    15
100
AcDbLine
 10
361.6042881122
 20
208.5412110008
 30
0.0
 11
361.5669010988
 21
208.5412110008
 31
0.0
  0
LINE
  5
1EE
330
1F
100
AcDbEntity
  8
0
  6
Continuous
 62
     8
370
    15
100
AcDbLine
 10
220.9501563421
 20
972.2911904372
 30
0.0
 11
211.4501594416
 21
972.2911904372
 31
0.0
  0
LINE
  5
1EF
330
1F
100
AcDbEntity
  8
0
  6
Continuous
 62
     8
370
    15
100
AcDbLine
 10
230.4501532427
 20
972.2911904372
 30
0.0
 11
220.9501563421
 21
972.2911904372
 31
0.0
  0
LINE
  5
1F0
330
1F
100
AcDbEntity
  8
0
  6
Continuous
 62
     8
370
    15
100
AcDbLine
 10
800.9501694551
 20
972.2911904372
 30
0.0
 11
791.4501725546
 21
972.2911904372
 31
0.0
  0
LINE
  5
1F1
330
1F
100
AcDbEntity
  8
0
  6
Continuous
 62
     8
370
    15
100
AcDbLine
 10
810.4501663557
 20
972.2911904372
 30
0.0
 11
800.9501694551
 21
972.2911904372
 31
0.0
  0
ENDSEC
  0
SECTION
  2
OBJECTS
  0
DICTIONARY
  5
C
330
0
100
AcDbDictionary
281
     1
  3
ACAD_GROUP
350
D
  3
ACAD_LAYOUT
350
1A
  3
ACAD_MLINESTYLE
350
17
  3
ACAD_PLOTSETTINGS
350
19
  3
ACAD_PLOTSTYLENAME
350
E
  0
DICTIONARY
  5
D
102
{ACAD_REACTORS
330
C
102
}
330
C
100
AcDbDictionary
281
     1
  0
DICTIONARY
  5
1A
102
{ACAD_REACTORS
330
C
102
}
330
C
100
AcDbDictionary
281
     1
  3
Layout1
350
1E
  3
Layout2
350
26
  3
Model
350
22
  0
DICTIONARY
  5
17
102
{ACAD_REACTORS
330
C
102
}
330
C
100
AcDbDictionary
281
     1
  3
Standard
350
18
  0
DICTIONARY
  5
19
102
{ACAD_REACTORS
330
C
102
}
330
C
100
AcDbDictionary
281
     1
  0
ACDBDICTIONARYWDFLT
  5
E
102
{ACAD_REACTORS
330
C
102
}
330
C
100
AcDbDictionary
281
     1
  3
Normal
350
F
100
AcDbDictionaryWithDefault
340
F
  0
LAYOUT
  5
1E
102
{ACAD_REACTORS
330
1A
102
}
330
1A
100
AcDbPlotSettings
  1

  2
none_device
  4

  6

 40
0.0
 41
0.0
 42
0.0
 43
0.0
 44
0.0
 45
0.0
 46
0.0
 47
0.0
 48
0.0
 49
0.0
140
0.0
141
0.0
142
1.0
143
1.0
 70
   688
 72
     0
 73
     0
 74
     5
  7

 75
    16
147
1.0
148
0.0
149
0.0
100
AcDbLayout
  1
Layout1
 70
     1
 71
     1
 10
0.0
 20
0.0
 11
420.0
 21
297.0
 12
0.0
 22
0.0
 32
0.0
 14
1.0000000000E+20
 24
1.0000000000E+20
 34
1.0000000000E+20
 15
-1.0000000000E+20
 25
-1.0000000000E+20
 35
-1.0000000000E+20
146
0.0
 13
0.0
 23
0.0
 33
0.0
 16
1.0
 26
0.0
 36
0.0
 17
0.0
 27
1.0
 37
0.0
 76
     0
330
1B
  0
LAYOUT
  5
26
102
{ACAD_REACTORS
330
1A
102
}
330
1A
100
AcDbPlotSettings
  1

  2
none_device
  4

  6

 40
0.0
 41
0.0
 42
0.0
 43
0.0
 44
0.0
 45
0.0
 46
0.0
 47
0.0
 48
0.0
 49
0.0
140
0.0
141
0.0
142
1.0
143
1.0
 70
   688
 72
     0
 73
     0
 74
     5
  7

 75
    16
147
1.0
148
0.0
149
0.0
100
AcDbLayout
  1
Layout2
 70
     1
 71
     2
 10
0.0
 20
0.0
 11
0.0
 21
0.0
 12
0.0
 22
0.0
 32
0.0
 14
0.0
 24
0.0
 34
0.0
 15
0.0
 25
0.0
 35
0.0
146
0.0
 13
0.0
 23
0.0
 33
0.0
 16
1.0
 26
0.0
 36
0.0
 17
0.0
 27
1.0
 37
0.0
 76
     0
330
23
  0
LAYOUT
  5
22
102
{ACAD_REACTORS
330
1A
102
}
330
1A
100
AcDbPlotSettings
  1

  2
none_device
  4

  6

 40
0.0
 41
0.0
 42
0.0
 43
0.0
 44
0.0
 45
0.0
 46
0.0
 47
0.0
 48
0.0
 49
0.0
140
0.0
141
0.0
142
1.0
143
1.0
 70
  1712
 72
     0
 73
     0
 74
     0
  7

 75
     0
147
1.0
148
0.0
149
0.0
100
AcDbLayout
  1
Model
 70
     1
 71
     0
 10
0.0
 20
0.0
 11
1000.0
 21
1000.0
 12
0.0
 22
0.0
 32
0.0
 14
0.0
 24
0.0
 34
0.0
 15
1000.0
 25
1000.0
 35
0.0
146
0.0
 13
0.0
 23
0.0
 33
0.0
 16
1.0
 26
0.0
 36
0.0
 17
0.0
 27
1.0
 37
0.0
 76
     0
330
1F
331
29
  0
MLINESTYLE
  5
18
102
{ACAD_REACTORS
330
17
102
}
330
17
100
AcDbMlineStyle
  2
Standard
 70
     0
  3

 62
   256
 51
90.0
 52
90.0
 71
     2
 49
0.5
 62
   256
  6
BYLAYER
 49
-0.5
 62
   256
  6
BYLAYER
  0
ACDBPLACEHOLDER
  5
F
102
{ACAD_REACTORS
330
E
102
}
330
E
  0
ENDSEC
  0
EOF
