  0
SECTION
  2
HEADER
  9
$ACADVER
  1
AC1015
  9
$ACADMAINTVER
 70
     6
  9
$DWGCODEPAGE
  3
ANSI_1252
  9
$INSBASE
 10
0.0
 20
0.0
 30
0.0
  9
$EXTMIN
 10
0.0
 20
0.0
 30
0.0
  9
$EXTMAX
 10
1200.0
 20
1200.0
 30
0.0
  9
$LIMMIN
 10
0.0
 20
0.0
  9
$LIMMAX
 10
1200.0
 20
1200.0
  9
$ORTHOMODE
 70
     0
  9
$REGENMODE
 70
     1
  9
$FILLMODE
 70
     1
  9
$QTEXTMODE
 70
     0
  9
$MIRRTEXT
 70
     1
  9
$LTSCALE
 40
1.0
  9
$ATTMODE
 70
     1
  9
$TEXTSIZE
 40
3.5
  9
$TRACEWID
 40
1.0
  9
$TEXTSTYLE
  7
Standard
  9
$CLAYER
  8
0
  9
$CELTYPE
  6
ByLayer
  9
$CECOLOR
 62
   256
  9
$CELTSCALE
 40
1.0
  9
$DISPSILH
 70
     0
  9
$DIMSCALE
 40
1.0
  9
$DIMASZ
 40
3.302
  9
$DIMEXO
 40
1.0
  9
$DIMDLI
 40
3.75
  9
$DIMRND
 40
0.0
  9
$DIMDLE
 40
0.0
  9
$DIMEXE
 40
1.0
  9
$DIMTP
 40
0.0
  9
$DIMTM
 40
0.0
  9
$DIMTXT
 40
3.5
  9
$DIMCEN
 40
2.5
  9
$DIMTSZ
 40
0.0
  9
$DIMTOL
 70
     0
  9
$DIMLIM
 70
     0
  9
$DIMTIH
 70
     1
  9
$DIMTOH
 70
     1
  9
$DIMSE1
 70
     0
  9
$DIMSE2
 70
     0
  9
$DIMTAD
 70
     1
  9
$DIMZIN
 70
     0
  9
$DIMBLK
  1

  9
$DIMASO
 70
     1
  9
$DIMSHO
 70
     1
  9
$DIMPOST
  1

  9
$DIMAPOST
  1

  9
$DIMALT
 70
     0
  9
$DIMALTD
 70
     3
  9
$DIMALTF
 40
0.0393700787
  9
$DIMLFAC
 40
1.0
  9
$DIMTOFL
 70
     1
  9
$DIMTVP
 40
0.0
  9
$DIMTIX
 70
     0
  9
$DIMSOXD
 70
     0
  9
$DIMSAH
 70
     0
  9
$DIMBLK1
  1

  9
$DIMBLK2
  1

  9
$DIMSTYLE
  2
ISO-25
  9
$DIMCLRD
 70
     0
  9
$DIMCLRE
 70
     0
  9
$DIMCLRT
 70
     0
  9
$DIMTFAC
 40
1.0
  9
$DIMGAP
 40
1.524
  9
$DIMJUST
 70
     0
  9
$DIMSD1
 70
     0
  9
$DIMSD2
 70
     0
  9
$DIMTOLJ
 70
     0
  9
$DIMTZIN
 70
     0
  9
$DIMALTZ
 70
     0
  9
$DIMALTTZ
 70
     0
  9
$DIMUPT
 70
     0
  9
$DIMDEC
 70
     1
  9
$DIMTDEC
 70
     1
  9
$DIMALTU
 70
     2
  9
$DIMALTTD
 70
     3
  9
$DIMTXSTY
  7
Standard
  9
$DIMAUNIT
 70
     0
  9
$DIMADEC
 70
     1
  9
$DIMALTRND
 40
0.0
  9
$DIMAZIN
 70
     0
  9
$DIMDSEP
 70
    44
  9
$DIMATFIT
 70
     3
  9
$DIMFRAC
 70
     0
  9
$DIMLDRBLK
  1

  9
$DIMLUNIT
 70
     2
  9
$DIMLWD
 70
    -2
  9
$DIMLWE
 70
    -2
  9
$DIMTMOVE
 70
     0
  9
$LUNITS
 70
     2
  9
$LUPREC
 70
     1
  9
$SKETCHINC
 40
1.0
  9
$FILLETRAD
 40
10.0
  9
$AUNITS
 70
     0
  9
$AUPREC
 70
     1
  9
$MENU
  1
.
  9
$ELEVATION
 40
0.0
  9
$PELEVATION
 40
0.0
  9
$THICKNESS
 40
0.0
  9
$LIMCHECK
 70
     0
  9
$CHAMFERA
 40
10.0
  9
$CHAMFERB
 40
10.0
  9
$CHAMFERC
 40
20.0
  9
$CHAMFERD
 40
0.0
  9
$SKPOLY
 70
     0
  9
$TDCREATE
 40
2457074.555757789
  9
$TDUCREATE
 40
2457074.555757789
  9
$TDUPDATE
 40
2457074.555759595
  9
$TDUUPDATE
 40
2457074.555759595
  9
$TDINDWG
 40
0.0000000116
  9
$TDUSRTIMER
 40
0.0000000116
  9
$USRTIMER
 70
     1
  9
$ANGBASE
 50
0.0
  9
$ANGDIR
 70
     0
  9
$PDMODE
 70
     0
  9
$PDSIZE
 40
-1.0
  9
$PLINEWID
 40
0.0
  9
$SPLFRAME
 70
     0
  9
$SPLINETYPE
 70
     6
  9
$SPLINESEGS
 70
     8
  9
$HANDSEED
  5
2C9
  9
$SURFTAB1
 70
     6
  9
$SURFTAB2
 70
     6
  9
$SURFTYPE
 70
     6
  9
$SURFU
 70
     6
  9
$SURFV
 70
     6
  9
$UCSBASE
  2

  9
$UCSNAME
  2

  9
$UCSORG
 10
0.0
 20
0.0
 30
0.0
  9
$UCSXDIR
 10
1.0
 20
0.0
 30
0.0
  9
$UCSYDIR
 10
0.0
 20
1.0
 30
0.0
  9
$UCSORTHOREF
  2

  9
$UCSORTHOVIEW
 70
     0
  9
$UCSORGTOP
 10
0.0
 20
0.0
 30
0.0
  9
$UCSORGBOTTOM
 10
0.0
 20
0.0
 30
0.0
  9
$UCSORGLEFT
 10
0.0
 20
0.0
 30
0.0
  9
$UCSORGRIGHT
 10
0.0
 20
0.0
 30
0.0
  9
$UCSORGFRONT
 10
0.0
 20
0.0
 30
0.0
  9
$UCSORGBACK
 10
0.0
 20
0.0
 30
0.0
  9
$PUCSBASE
  2

  9
$PUCSNAME
  2

  9
$PUCSORG
 10
0.0
 20
0.0
 30
0.0
  9
$PUCSXDIR
 10
1.0
 20
0.0
 30
0.0
  9
$PUCSYDIR
 10
0.0
 20
1.0
 30
0.0
  9
$PUCSORTHOREF
  2

  9
$PUCSORTHOVIEW
 70
     0
  9
$PUCSORGTOP
 10
0.0
 20
0.0
 30
0.0
  9
$PUCSORGBOTTOM
 10
0.0
 20
0.0
 30
0.0
  9
$PUCSORGLEFT
 10
0.0
 20
0.0
 30
0.0
  9
$PUCSORGRIGHT
 10
0.0
 20
0.0
 30
0.0
  9
$PUCSORGFRONT
 10
0.0
 20
0.0
 30
0.0
  9
$PUCSORGBACK
 10
0.0
 20
0.0
 30
0.0
  9
$USERI1
 70
     0
  9
$USERI2
 70
     0
  9
$USERI3
 70
     0
  9
$USERI4
 70
     0
  9
$USERI5
 70
     0
  9
$USERR1
 40
0.0
  9
$USERR2
 40
0.0
  9
$USERR3
 40
0.0
  9
$USERR4
 40
0.0
  9
$USERR5
 40
0.0
  9
$WORLDVIEW
 70
     1
  9
$SHADEDGE
 70
     3
  9
$SHADEDIF
 70
    70
  9
$TILEMODE
 70
     1
  9
$MAXACTVP
 70
    64
  9
$PINSBASE
 10
0.0
 20
0.0
 30
0.0
  9
$PLIMCHECK
 70
     0
  9
$PEXTMIN
 10
1.0000000000E+20
 20
1.0000000000E+20
 30
1.0000000000E+20
  9
$PEXTMAX
 10
-1.0000000000E+20
 20
-1.0000000000E+20
 30
-1.0000000000E+20
  9
$PLIMMIN
 10
0.0
 20
0.0
  9
$PLIMMAX
 10
420.0
 20
297.0
  9
$UNITMODE
 70
     0
  9
$VISRETAIN
 70
     1
  9
$PLINEGEN
 70
     0
  9
$PSLTSCALE
 70
     1
  9
$TREEDEPTH
 70
  3020
  9
$CMLSTYLE
  2
Standard
  9
$CMLJUST
 70
     0
  9
$CMLSCALE
 40
20.0
  9
$PROXYGRAPHICS
 70
     1
  9
$MEASUREMENT
 70
     1
  9
$CELWEIGHT
370
    -1
  9
$ENDCAPS
280
     0
  9
$JOINSTYLE
280
     0
  9
$LWDISPLAY
290
     1
  9
$INSUNITS
 70
     4
  9
$HYPERLINKBASE
  1

  9
$STYLESHEET
  1

  9
$XEDIT
290
     1
  9
$CEPSNTYPE
380
     0
  9
$PSTYLEMODE
290
     1
  9
$FINGERPRINTGUID
  2
{61D01C53-69E3-4721-8DCE-B55EE724FB35}
  9
$VERSIONGUID
  2
{FAEB1C32-E019-11D5-929B-00C0DF256EC4}
  9
$EXTNAMES
290
     1
  9
$PSVPSCALE
 40
0.0
  9
$OLESTARTUP
290
     0
  0
ENDSEC
  0
SECTION
  2
CLASSES
  0
CLASS
  1
ACDBDICTIONARYWDFLT
  2
AcDbDictionaryWithDefault
  3
ObjectDBX Classes
 90
        0
280
     0
281
     0
  0
CLASS
  1
VISUALSTYLE
  2
AcDbVisualStyle
  3
ObjectDBX Classes
 90
     4095
280
     0
281
     0
  0
CLASS
  1
MATERIAL
  2
AcDbMaterial
  3
ObjectDBX Classes
 90
     1153
280
     0
281
     0
  0
CLASS
  1
ACDBPLACEHOLDER
  2
AcDbPlaceHolder
  3
ObjectDBX Classes
 90
        0
280
     0
281
     0
  0
CLASS
  1
LAYOUT
  2
AcDbLayout
  3
ObjectDBX Classes
 90
        0
280
     0
281
     0
  0
ENDSEC
  0
SECTION
  2
TABLES
  0
TABLE
  2
VPORT
  5
8
330
0
100
AcDbSymbolTable
 70
     1
  0
VPORT
  5
29
330
8
100
AcDbSymbolTableRecord
100
AcDbViewportTableRecord
  2
*Active
 70
     0
 10
0.0
 20
0.0
 11
1.0
 21
1.0
 12
600.0
 22
600.0
 13
0.0
 23
0.0
 14
10.0
 24
10.0
 15
10.0
 25
10.0
 16
0.0
 26
0.0
 36
1.0
 17
0.0
 27
0.0
 37
0.0
 40
1200.0
 41
1.0
 42
50.0
 43
0.0
 44
0.0
 50
0.0
 51
0.0
 71
     0
 72
  2000
 73
     1
 74
     3
 75
     0
 76
     0
 77
     0
 78
     0
281
     0
 65
     1
110
0.0
120
0.0
130
0.0
111
1.0
121
0.0
131
0.0
112
0.0
122
1.0
132
0.0
 79
     0
146
0.0
  0
ENDTAB
  0
TABLE
  2
LTYPE
  5
5
330
0
100
AcDbSymbolTable
 70
     6
  0
LTYPE
  5
14
330
5
100
AcDbSymbolTableRecord
100
AcDbLinetypeTableRecord
  2
ByBlock
 70
     0
  3

 72
    65
 73
     0
 40
0.0
  0
LTYPE
  5
15
330
5
100
AcDbSymbolTableRecord
100
AcDbLinetypeTableRecord
  2
ByLayer
 70
     0
  3

 72
    65
 73
     0
 40
0.0
  0
LTYPE
  5
16
330
5
100
AcDbSymbolTableRecord
100
AcDbLinetypeTableRecord
  2
Continuous
 70
     0
  3
Solid line
 72
    65
 73
     0
 40
0.0
  0
LTYPE
  5
3F
330
5
100
AcDbSymbolTableRecord
100
AcDbLinetypeTableRecord
  2
HIDDEN
 70
     0
  3
Hidden __ __ __ __ __ __ __ __ __ __ __ __ __ __
 72
    65
 73
     2
 40
1.905
 49
1.27
 74
     0
 49
-0.635
 74
     0
  0
LTYPE
  5
40
330
5
100
AcDbSymbolTableRecord
100
AcDbLinetypeTableRecord
  2
PHANTOM
 70
     0
  3
Phantom ______  __  __  ______  __  __  ______
 72
    65
 73
     6
 40
12.7
 49
6.35
 74
     0
 49
-1.27
 74
     0
 49
1.27
 74
     0
 49
-1.27
 74
     0
 49
1.27
 74
     0
 49
-1.27
 74
     0
  0
LTYPE
  5
41
330
5
100
AcDbSymbolTableRecord
100
AcDbLinetypeTableRecord
  2
CENTER
 70
     0
  3
Center ____ _ ____ _ ____ _ ____ _ ____ _ ____
 72
    65
 73
     4
 40
10.16
 49
6.35
 74
     0
 49
-1.27
 74
     0
 49
1.27
 74
     0
 49
-1.27
 74
     0
  0
LTYPE
  5
42
330
5
100
AcDbSymbolTableRecord
100
AcDbLinetypeTableRecord
  2
CENTERX2
 70
     0
  3
Center (2x) ________  __  ________  __  _____
 72
    65
 73
     4
 40
20.32
 49
12.7
 74
     0
 49
-2.54
 74
     0
 49
2.54
 74
     0
 49
-2.54
 74
     0
  0
LTYPE
  5
43
330
5
100
AcDbSymbolTableRecord
100
AcDbLinetypeTableRecord
  2
DOT2
 70
     0
  3
Dot (.5x) ........................................
 72
    65
 73
     2
 40
0.635
 49
0.0
 74
     0
 49
-0.635
 74
     0
  0
ENDTAB
  0
TABLE
  2
LAYER
  5
2
330
0
100
AcDbSymbolTable
 70
     1
  0
LAYER
  5
10
330
2
100
AcDbSymbolTableRecord
100
AcDbLayerTableRecord
  2
0
 70
     0
 62
     7
  6
Continuous
370
    -3
390
F
  0
ENDTAB
  0
TABLE
  2
STYLE
  5
3
330
0
100
AcDbSymbolTable
 70
     1
  0
STYLE
  5
11
330
3
100
AcDbSymbolTableRecord
100
AcDbTextStyleTableRecord
  2
Standard
 70
     0
 40
0.0
 41
1.0
 50
0.0
 71
     0
 42
3.5
  3
txt
  4

  0
ENDTAB
  0
TABLE
  2
VIEW
  5
6
330
0
100
AcDbSymbolTable
 70
     0
  0
ENDTAB
  0
TABLE
  2
UCS
  5
7
330
0
100
AcDbSymbolTable
 70
     0
  0
ENDTAB
  0
TABLE
  2
APPID
  5
9
330
0
100
AcDbSymbolTable
 70
     1
  0
APPID
  5
12
330
9
100
AcDbSymbolTableRecord
100
AcDbRegAppTableRecord
  2
ACAD
 70
     0
  0
ENDTAB
  0
TABLE
  2
DIMSTYLE
  5
A
330
0
100
AcDbSymbolTable
 70
     1
100
AcDbDimStyleTable
  0
DIMSTYLE
105
27
330
A
100
AcDbSymbolTableRecord
100
AcDbDimStyleTableRecord
  2
ISO-25
 70
     0
 41
2.5
 42
0.625
 43
3.75
 44
1.25
 73
     0
 74
     0
 77
     1
 78
     8
140
2.5
141
2.5
143
0.0393700787
147
0.625
171
     3
172
     1
178
     0
271
     2
272
     2
274
     3
278
    44
283
     0
284
     8
340
11
  0
ENDTAB
  0
TABLE
  2
BLOCK_RECORD
  5
1
330
0
100
AcDbSymbolTable
 70
     1
  0
BLOCK_RECORD
  5
1F
330
1
100
AcDbSymbolTableRecord
100
AcDbBlockTableRecord
  2
*Model_Space
340
22
  0
BLOCK_RECORD
  5
1B
330
1
100
AcDbSymbolTableRecord
100
AcDbBlockTableRecord
  2
*Paper_Space
340
1E
  0
BLOCK_RECORD
  5
23
330
1
100
AcDbSymbolTableRecord
100
AcDbBlockTableRecord
  2
*Paper_Space0
340
26
  0
ENDTAB
  0
ENDSEC
  0
SECTION
  2
BLOCKS
  0
BLOCK
  5
20
330
1F
100
AcDbEntity
  8
0
100
AcDbBlockBegin
  2
*Model_Space
 70
     0
 10
0.0
 20
0.0
 30
0.0
  3
*Model_Space
  1

  0
ENDBLK
  5
21
330
1F
100
AcDbEntity
  8
0
100
AcDbBlockEnd
  0
BLOCK
  5
1C
330
1B
100
AcDbEntity
 67
     1
  8
0
100
AcDbBlockBegin
  2
*Paper_Space
 70
     0
 10
0.0
 20
0.0
 30
0.0
  3
*Paper_Space
  1

  0
ENDBLK
  5
1D
330
1B
100
AcDbEntity
 67
     1
  8
0
100
AcDbBlockEnd
  0
BLOCK
  5
24
330
23
100
AcDbEntity
  8
0
100
AcDbBlockBegin
  2
*Paper_Space0
 70
     0
 10
0.0
 20
0.0
 30
0.0
  3
*Paper_Space0
  1

  0
ENDBLK
  5
25
330
23
100
AcDbEntity
  8
0
100
AcDbBlockEnd
  0
ENDSEC
  0
SECTION
  2
ENTITIES
  0
LINE
  5
44
330
1F
100
AcDbEntity
  8
0
  6
Continuous
 62
     7
370
    15
100
AcDbLine
 10
74.0840584264
 20
532.0655256406
 30
0.0
 11
74.0840584264
 21
529.6655256406
 31
0.0
  0
LINE
  5
45
330
1F
100
AcDbEntity
  8
0
  6
Continuous
 62
     7
370
    15
100
AcDbLine
 10
103.7840584264
 20
529.6655256406
 30
0.0
 11
103.7840584264
 21
532.0655256406
 31
0.0
  0
ARC
  5
46
330
1F
100
AcDbEntity
  8
0
  6
Continuous
 62
     7
370
    15
100
AcDbCircle
 10
79.0840584264
 20
516.5655256406
 30
0.0
 40
5.0
100
AcDbArc
 50
180.0
 51
270.0
  0
ARC
  5
47
330
1F
100
AcDbEntity
  8
0
  6
Continuous
 62
     7
370
    15
100
AcDbCircle
 10
98.7840584264
 20
516.5655256406
 30
0.0
 40
5.000000000000114
100
AcDbArc
 50
270.0
 51
0.0
  0
LINE
  5
48
330
1F
100
AcDbEntity
  8
0
  6
Continuous
 62
     7
370
    15
100
AcDbLine
 10
74.0840584264
 20
525.7655256406
 30
0.0
 11
74.0840584264
 21
516.5655256406
 31
0.0
  0
LINE
  5
49
330
1F
100
AcDbEntity
  8
0
  6
Continuous
 62
     7
370
    15
100
AcDbLine
 10
103.7840584264
 20
516.5655256406
 30
0.0
 11
103.7840584264
 21
525.7655256406
 31
0.0
  0
LINE
  5
4A
330
1F
100
AcDbEntity
  8
0
  6
Continuous
 62
     7
370
    15
100
AcDbLine
 10
102.9340584264
 20
532.0655256406
 30
0.0
 11
102.9340584264
 21
537.5655256406
 31
0.0
  0
LINE
  5
4B
330
1F
100
AcDbEntity
  8
0
  6
Continuous
 62
     7
370
    15
100
AcDbLine
 10
74.9340584264
 20
537.5655256406
 30
0.0
 11
74.9340584264
 21
532.0655256406
 31
0.0
  0
LINE
  5
4C
330
1F
100
AcDbEntity
  8
0
  6
Continuous
 62
     7
370
    15
100
AcDbLine
 10
101.9340584264
 20
537.5655256406
 30
0.0
 11
101.9340584264
 21
539.5655256406
 31
0.0
  0
LINE
  5
4D
330
1F
100
AcDbEntity
  8
0
  6
Continuous
 62
     7
370
    15
100
AcDbLine
 10
75.9340584264
 20
539.5655256406
 30
0.0
 11
75.9340584264
 21
537.5655256406
 31
0.0
  0
LINE
  5
4E
330
1F
100
AcDbEntity
  8
0
  6
Continuous
 62
     7
370
    15
100
AcDbLine
 10
72.1840584264
 20
529.6655256406
 30
0.0
 11
72.1840584264
 21
525.7655256406
 31
0.0
  0
LINE
  5
4F
330
1F
100
AcDbEntity
  8
0
  6
Continuous
 62
     7
370
    15
100
AcDbLine
 10
105.6840584264
 20
525.7655256406
 30
0.0
 11
105.6840584264
 21
529.6655256406
 31
0.0
  0
ARC
  5
50
330
1F
100
AcDbEntity
  8
0
  6
Continuous
 62
     7
370
    15
100
AcDbCircle
 10
915.7538749396
 20
686.0933443759
 30
0.0
 40
2.000000000000075
100
AcDbArc
 50
205.0
 51
292.0
  0
ARC
  5
51
330
1F
100
AcDbEntity
  8
0
  6
Continuous
 62
     7
370
    15
100
AcDbCircle
 10
935.9532774787
 20
642.7755858405
 30
0.0
 40
1.999999999999889
100
AcDbArc
 50
118.0
 51
205.0
  0
LINE
  5
52
330
1F
100
AcDbEntity
  8
0
  6
Continuous
 62
     7
370
    15
100
AcDbLine
 10
935.0143343531
 20
644.5414810263
 30
0.0
 11
935.1068809983
 21
644.5906889503
 31
0.0
  0
LINE
  5
53
330
1F
100
AcDbEntity
  8
0
  6
Continuous
 62
     7
370
    15
100
AcDbLine
 10
916.60027142
 20
684.2782412661
 30
0.0
 11
916.5030881264
 21
684.2389766668
 31
0.0
  0
LINE
  5
54
330
1F
100
AcDbEntity
  8
0
  6
Continuous
 62
     7
370
    15
100
AcDbLine
 10
946.979608713
 20
602.5661311187
 30
0.0
 11
947.4216883643
 21
602.8011890388
 31
0.0
  0
LINE
  5
55
330
1F
100
AcDbEntity
  8
0
  6
Continuous
 62
     7
370
    15
100
AcDbLine
 10
942.2254591217
 20
610.868476552
 30
0.0
 11
942.2043911944
 21
610.8582010373
 31
0.0
  0
LINE
  5
56
330
1F
100
AcDbEntity
  8
0
  6
Continuous
 62
     7
370
    15
100
AcDbLine
 10
944.3455964773
 20
606.26637149
 30
0.0
 11
944.3670101808
 21
606.275905485
 31
0.0
  0
LINE
  5
57
330
1F
100
AcDbEntity
  8
0
  6
Continuous
 62
     7
370
    15
100
AcDbLine
 10
900.8088694711
 20
699.6866396816
 30
0.0
 11
900.7878015438
 21
699.6763641669
 31
0.0
  0
LINE
  5
58
330
1F
100
AcDbEntity
  8
0
  6
Continuous
 62
     7
370
    15
100
AcDbLine
 10
902.9290068267
 20
695.0845346196
 30
0.0
 11
902.9504205302
 21
695.0940686146
 31
0.0
  0
LINE
  5
59
330
1F
100
AcDbEntity
  8
0
  6
Continuous
 62
     7
370
    15
100
AcDbLine
 10
939.5886697157
 20
634.9794620295
 30
0.0
 11
946.9612745391
 21
642.8308757951
 31
0.0
  0
LINE
  5
5A
330
1F
100
AcDbEntity
  8
0
  6
Continuous
 62
     7
370
    15
100
AcDbLine
 10
922.8720336199
 20
694.4904196562
 30
0.0
 11
912.1184827026
 21
693.8894681869
 31
0.0
  0
LINE
  5
5B
330
1F
100
AcDbEntity
  8
0
  6
Continuous
 62
     7
370
    15
100
AcDbLine
 10
946.9612745391
 20
642.8308757951
 30
0.0
 11
960.8616106345
 21
658.9503444701
 31
0.0
  0
LINE
  5
5C
330
1F
100
AcDbEntity
  8
0
  6
Continuous
 62
     7
370
    15
100
AcDbLine
 10
940.0176910358
 20
694.7215294551
 30
0.0
 11
922.8720336199
 21
694.4904196562
 31
0.0
  0
ARC
  5
5D
330
1F
100
AcDbEntity
  8
0
  6
Continuous
 62
     7
370
    15
100
AcDbCircle
 10
960.1042992506
 20
659.6033984248
 30
0.0
 40
1.000000000000064
100
AcDbArc
 50
319.227745318
 51
25.0
  0
LINE
  5
5E
330
1F
100
AcDbEntity
  8
0
  6
Continuous
 62
     7
370
    15
100
AcDbLine
 10
928.7264700777
 20
639.8171519766
 30
0.0
 11
928.7052292623
 21
639.8072472217
 31
0.0
  0
LINE
  5
5F
330
1F
100
AcDbEntity
  8
0
  6
Continuous
 62
     7
370
    15
100
AcDbLine
 10
932.0650444432
 20
632.6021003148
 30
0.0
 11
932.0862852586
 21
632.6120050697
 31
0.0
  0
LINE
  5
60
330
1F
100
AcDbEntity
  8
0
  6
Continuous
 62
     7
370
    15
100
AcDbLine
 10
921.5736559977
 20
655.1564112722
 30
0.0
 11
921.5524151824
 21
655.1465065173
 31
0.0
  0
LINE
  5
61
330
1F
100
AcDbEntity
  8
0
  6
Continuous
 62
     7
370
    15
100
AcDbLine
 10
923.2428882293
 20
651.5212753692
 30
0.0
 11
923.2641290447
 21
651.5311801241
 31
0.0
  0
LINE
  5
62
330
1F
100
AcDbEntity
  8
0
  6
Continuous
 62
     7
370
    15
100
AcDbLine
 10
938.4783864674
 20
618.9040997907
 30
0.0
 11
938.457145652
 21
618.8941950359
 31
0.0
  0
LINE
  5
63
330
1F
100
AcDbEntity
  8
0
  6
Continuous
 62
     7
370
    15
100
AcDbLine
 10
940.147618699
 20
615.2689638877
 30
0.0
 11
940.1688595143
 21
615.2788686426
 31
0.0
  0
LINE
  5
64
330
1F
100
AcDbEntity
  8
0
  6
Continuous
 62
     7
370
    15
100
AcDbLine
 10
95.4457287068
 20
809.9655256406
 30
0.0
 11
95.4457287068
 21
819.4655256406
 31
0.0
  0
LINE
  5
65
330
1F
100
AcDbEntity
  8
0
  6
Continuous
 62
     7
370
    15
100
AcDbLine
 10
76.4457287068
 20
819.4655256406
 30
0.0
 11
76.4457287068
 21
809.9655256406
 31
0.0
  0
ARC
  5
66
330
1F
100
AcDbEntity
  8
0
  6
Continuous
 62
     7
370
    15
100
AcDbCircle
 10
78.4457287068
 20
819.4655256406
 30
0.0
 40
2.0
100
AcDbArc
 50
90.0
 51
180.0
  0
ARC
  5
67
330
1F
100
AcDbEntity
  8
0
  6
Continuous
 62
     7
370
    15
100
AcDbCircle
 10
93.4457287068
 20
819.4655256406
 30
0.0
 40
2.0
100
AcDbArc
 50
0.0
 51
90.0
  0
ARC
  5
68
330
1F
100
AcDbEntity
  8
0
  6
Continuous
 62
     7
370
    15
100
AcDbCircle
 10
214.9340584264
 20
445.0655256406
 30
0.0
 40
2.0
100
AcDbArc
 50
270.0
 51
0.0
  0
ARC
  5
69
330
1F
100
AcDbEntity
  8
0
  6
Continuous
 62
     7
370
    15
100
AcDbCircle
 10
161.9340584264
 20
445.0655256406
 30
0.0
 40
2.0
100
AcDbArc
 50
180.0
 51
270.0
  0
LINE
  5
6A
330
1F
100
AcDbEntity
  8
0
  6
Continuous
 62
     7
370
    15
100
AcDbLine
 10
216.9340584264
 20
445.0655256406
 30
0.0
 11
216.9340584264
 21
449.0655256406
 31
0.0
  0
LINE
  5
6B
330
1F
100
AcDbEntity
  8
0
  6
Continuous
 62
     7
370
    15
100
AcDbLine
 10
159.9340584264
 20
449.0655256406
 30
0.0
 11
159.9340584264
 21
445.0655256406
 31
0.0
  0
LINE
  5
6C
330
1F
100
AcDbEntity
  8
0
  6
Continuous
 62
     7
370
    15
100
AcDbLine
 10
795.9340584264
 20
445.0655256406
 30
0.0
 11
795.9340584264
 21
449.0655256406
 31
0.0
  0
LINE
  5
6D
330
1F
100
AcDbEntity
  8
0
  6
Continuous
 62
     7
370
    15
100
AcDbLine
 10
738.9340584264
 20
449.0655256406
 30
0.0
 11
738.9340584264
 21
445.0655256406
 31
0.0
  0
ARC
  5
6E
330
1F
100
AcDbEntity
  8
0
  6
Continuous
 62
     7
370
    15
100
AcDbCircle
 10
793.9340584264
 20
445.0655256406
 30
0.0
 40
2.0
100
AcDbArc
 50
270.0
 51
0.0
  0
ARC
  5
6F
330
1F
100
AcDbEntity
  8
0
  6
Continuous
 62
     7
370
    15
100
AcDbCircle
 10
740.9340584264
 20
445.0655256406
 30
0.0
 40
2.0
100
AcDbArc
 50
180.0
 51
270.0
  0
LINE
  5
70
330
1F
100
AcDbEntity
  8
0
  6
Continuous
 62
     7
370
    15
100
AcDbLine
 10
795.7340584264
 20
449.0655256406
 30
0.0
 11
795.7340584264
 21
478.0655256406
 31
0.0
  0
LINE
  5
71
330
1F
100
AcDbEntity
  8
0
  6
Continuous
 62
     7
370
    15
100
AcDbLine
 10
739.1340584264
 20
478.0655256406
 30
0.0
 11
739.1340584264
 21
449.0655256406
 31
0.0
  0
LINE
  5
72
330
1F
100
AcDbEntity
  8
0
  6
Continuous
 62
     7
370
    15
100
AcDbLine
 10
216.7340584264
 20
449.0655256406
 30
0.0
 11
216.7340584264
 21
478.0655256406
 31
0.0
  0
LINE
  5
73
330
1F
100
AcDbEntity
  8
0
  6
Continuous
 62
     7
370
    15
100
AcDbLine
 10
160.1340584264
 20
478.0655256406
 30
0.0
 11
160.1340584264
 21
449.0655256406
 31
0.0
  0
ARC
  5
74
330
1F
100
AcDbEntity
  8
0
  6
Continuous
 62
     7
370
    15
100
AcDbCircle
 10
800.8340584264
 20
539.5655256406
 30
0.0
 40
1.500000000000114
100
AcDbArc
 50
90.0
 51
180.0
  0
ARC
  5
75
330
1F
100
AcDbEntity
  8
0
  6
Continuous
 62
     7
370
    15
100
AcDbCircle
 10
734.0340584264
 20
539.5655256406
 30
0.0
 40
1.5
100
AcDbArc
 50
0.0
 51
90.0
  0
LINE
  5
76
330
1F
100
AcDbEntity
  8
0
  6
Continuous
 62
     7
370
    15
100
AcDbLine
 10
799.3340584264
 20
484.0980915863
 30
0.0
 11
799.3340584264
 21
539.5655256406
 31
0.0
  0
LINE
  5
77
330
1F
100
AcDbEntity
  8
0
  6
Continuous
 62
     7
370
    15
100
AcDbLine
 10
735.5340584264
 20
539.5655256406
 30
0.0
 11
735.5340584264
 21
484.0980915863
 31
0.0
  0
ARC
  5
78
330
1F
100
AcDbEntity
  8
0
  6
Continuous
 62
     7
370
    15
100
AcDbCircle
 10
794.6340584264
 20
484.0980915863
 30
0.0
 40
4.70000000000001
100
AcDbArc
 50
350.5402980318
 51
0.0
  0
ARC
  5
79
330
1F
100
AcDbEntity
  8
0
  6
Continuous
 62
     7
370
    15
100
AcDbCircle
 10
740.2340584264
 20
484.0980915863
 30
0.0
 40
4.699999999999932
100
AcDbArc
 50
180.0
 51
189.4597019682
  0
LINE
  5
7A
330
1F
100
AcDbEntity
  8
0
  6
Continuous
 62
     7
370
    15
100
AcDbLine
 10
735.5979716534
 20
483.3256283618
 30
0.0
 11
736.4744082061
 21
478.0655256406
 31
0.0
  0
LINE
  5
7B
330
1F
100
AcDbEntity
  8
0
  6
Continuous
 62
     7
370
    15
100
AcDbLine
 10
798.3937086468
 20
478.0655256406
 30
0.0
 11
799.2701451994
 21
483.3256283618
 31
0.0
  0
ARC
  5
7C
330
1F
100
AcDbEntity
  8
0
  6
Continuous
 62
     7
370
    15
100
AcDbCircle
 10
221.8340584264
 20
539.5655256406
 30
0.0
 40
1.5
100
AcDbArc
 50
90.0
 51
180.0
  0
ARC
  5
7D
330
1F
100
AcDbEntity
  8
0
  6
Continuous
 62
     7
370
    15
100
AcDbCircle
 10
155.0340584264
 20
539.5655256406
 30
0.0
 40
1.5
100
AcDbArc
 50
0.0
 51
90.0
  0
LINE
  5
7E
330
1F
100
AcDbEntity
  8
0
  6
Continuous
 62
     7
370
    15
100
AcDbLine
 10
220.3340584264
 20
484.0980915863
 30
0.0
 11
220.3340584264
 21
539.5655256406
 31
0.0
  0
LINE
  5
7F
330
1F
100
AcDbEntity
  8
0
  6
Continuous
 62
     7
370
    15
100
AcDbLine
 10
156.5340584264
 20
539.5655256406
 30
0.0
 11
156.5340584264
 21
484.0980915863
 31
0.0
  0
ARC
  5
80
330
1F
100
AcDbEntity
  8
0
  6
Continuous
 62
     7
370
    15
100
AcDbCircle
 10
215.6340584264
 20
484.0980915863
 30
0.0
 40
4.700000000000045
100
AcDbArc
 50
350.5402980318
 51
0.0
  0
ARC
  5
81
330
1F
100
AcDbEntity
  8
0
  6
Continuous
 62
     7
370
    15
100
AcDbCircle
 10
161.2340584264
 20
484.0980915863
 30
0.0
 40
4.700000000000045
100
AcDbArc
 50
180.0
 51
189.4597019682
  0
LINE
  5
82
330
1F
100
AcDbEntity
  8
0
  6
Continuous
 62
     7
370
    15
100
AcDbLine
 10
156.5979716534
 20
483.3256283618
 30
0.0
 11
157.4744082061
 21
478.0655256406
 31
0.0
  0
LINE
  5
83
330
1F
100
AcDbEntity
  8
0
  6
Continuous
 62
     7
370
    15
100
AcDbLine
 10
219.3937086468
 20
478.0655256406
 30
0.0
 11
220.2701451994
 21
483.3256283618
 31
0.0
  0
LINE
  5
84
330
1F
100
AcDbEntity
  8
0
  6
Continuous
 62
     7
370
    15
100
AcDbLine
 10
818.4340584264
 20
540.0738032995
 30
0.0
 11
825.8069626849
 21
540.0738032995
 31
0.0
  0
LINE
  5
85
330
1F
100
AcDbEntity
  8
0
  6
Continuous
 62
     7
370
    15
100
AcDbLine
 10
825.8069626849
 20
540.0738032995
 30
0.0
 11
825.8069626849
 21
539.5655256406
 31
0.0
  0
LINE
  5
86
330
1F
100
AcDbEntity
  8
0
  6
Continuous
 62
     7
370
    15
100
AcDbLine
 10
820.8069626849
 20
534.6238032995
 30
0.0
 11
820.8069626849
 21
536.7072479818
 31
0.0
  0
LINE
  5
87
330
1F
100
AcDbEntity
  8
0
  6
Continuous
 62
     7
370
    15
100
AcDbLine
 10
820.9445052837
 20
533.6238032995
 30
0.0
 11
818.7236115692
 21
533.6238032995
 31
0.0
  0
LINE
  5
88
330
1F
100
AcDbEntity
  8
0
  6
Continuous
 62
     7
370
    15
100
AcDbLine
 10
821.6551945842
 20
534.6238032995
 30
0.0
 11
818.4340584264
 21
534.6238032995
 31
0.0
  0
LINE
  5
89
330
1F
100
AcDbEntity
  8
0
  6
Continuous
 62
     7
370
    15
100
AcDbLine
 10
618.4340584264
 20
537.4155256406
 30
0.0
 11
617.4340584264
 21
537.4155256406
 31
0.0
  0
LINE
  5
8A
330
1F
100
AcDbEntity
  8
0
  6
Continuous
 62
     7
370
    15
100
AcDbLine
 10
618.4340584264
 20
532.9155256406
 30
0.0
 11
617.4340584264
 21
532.9155256406
 31
0.0
  0
LINE
  5
8B
330
1F
100
AcDbEntity
  8
0
  6
Continuous
 62
     7
370
    15
100
AcDbLine
 10
617.4340584264
 20
537.4155256406
 30
0.0
 11
617.4340584264
 21
532.9155256406
 31
0.0
  0
LINE
  5
8C
330
1F
100
AcDbEntity
  8
0
  6
Continuous
 62
     7
370
    15
100
AcDbLine
 10
834.9769516452
 20
539.5655256406
 30
0.0
 11
818.4340584264
 21
539.5655256406
 31
0.0
  0
SPLINE
  5
8D
330
1F
100
AcDbEntity
  8
0
  6
Continuous
 62
     7
370
    15
100
AcDbSpline
210
0.0
220
0.0
230
1.0
 70
     8
 71
     3
 72
    12
 73
     8
 74
     0
 42
0.00000001
 43
0.00000001
 12
1.0
 22
0.0
 32
0.0
 13
1.0
 23
0.0
 33
0.0
 40
0.0
 40
0.0
 40
0.0
 40
0.0
 40
0.1928947997656661
 40
0.412221439880539
 40
0.6315552886405272
 40
0.850889008376669
 40
1.0
 40
1.0
 40
1.0
 40
1.0
 10
834.9769516452241
 20
539.5655256406053
 30
0.0
 10
835.022381495839
 20
539.5462719385779
 30
0.0
 10
835.119466323718
 20
539.5051262530412
 30
0.0
 10
835.2684834093809
 20
539.1616264851033
 30
0.0
 10
835.4236065376494
 20
538.615529314994
 30
0.0
 10
835.5623803706452
 20
537.9965942771465
 30
0.0
 10
835.6490022277263
 20
537.5829351002955
 30
0.0
 10
835.6840584264107
 20
537.4155256406052
 30
0.0
  0
ARC
  5
8E
330
1F
100
AcDbEntity
  8
0
  6
Continuous
 62
     7
370
    15
100
AcDbCircle
 10
819.8340584264
 20
535.1655256406
 30
0.0
 40
1.900000000000221
100
AcDbArc
 50
90.0
 51
137.4631016371
  0
ARC
  5
8F
330
1F
100
AcDbEntity
  8
0
  6
Continuous
 62
     7
370
    15
100
AcDbCircle
 10
819.8340584264
 20
535.1655256406
 30
0.0
 40
1.900000000000091
100
AcDbArc
 50
222.5368983629
 51
90.0
  0
LINE
  5
90
330
1F
100
AcDbEntity
  8
0
  6
Continuous
 62
     7
370
    15
100
AcDbLine
 10
835.6840584264
 20
537.4155256406
 30
0.0
 11
835.6840584264
 21
532.9155256406
 31
0.0
  0
SPLINE
  5
91
330
1F
100
AcDbEntity
  8
0
  6
Continuous
 62
     7
370
    15
100
AcDbSpline
210
0.0
220
0.0
230
1.0
 70
     8
 71
     3
 72
    12
 73
     8
 74
     0
 42
0.00000001
 43
0.00000001
 12
1.0
 22
0.0
 32
0.0
 13
1.0
 23
0.0
 33
0.0
 40
0.0
 40
0.0
 40
0.0
 40
0.0
 40
0.1928947997656738
 40
0.4122214398805664
 40
0.6315552886405487
 40
0.8508890083766864
 40
1.0
 40
1.0
 40
1.0
 40
1.0
 10
835.6840584264107
 20
532.9155256406053
 30
0.0
 10
835.6386285757959
 20
532.6985873801794
 30
0.0
 10
835.5415437479169
 20
532.2349844101326
 30
0.0
 10
835.3925266622539
 20
531.5918546016169
 30
0.0
 10
835.2374035339853
 20
531.0818587865765
 30
0.0
 10
835.0986297009897
 20
530.8058299474397
 30
0.0
 10
835.0120078439085
 20
530.7771375601034
 30
0.0
 10
834.9769516452241
 20
530.7655256406053
 30
0.0
  0
LINE
  5
92
330
1F
100
AcDbEntity
  8
0
  6
Continuous
 62
     7
370
    15
100
AcDbLine
 10
818.4340584264
 20
530.7655256406
 30
0.0
 11
834.9769516452
 21
530.7655256406
 31
0.0
  0
LINE
  5
93
330
1F
100
AcDbEntity
  8
0
  6
Continuous
 62
     7
370
    15
100
AcDbLine
 10
837.8340584264
 20
537.4155256406
 30
0.0
 11
837.8340584264
 21
532.9155256406
 31
0.0
  0
LINE
  5
94
330
1F
100
AcDbEntity
  8
0
  6
Continuous
 62
     7
370
    15
100
AcDbLine
 10
837.8340584264
 20
532.9155256406
 30
0.0
 11
835.6840584264
 21
532.9155256406
 31
0.0
  0
LINE
  5
95
330
1F
100
AcDbEntity
  8
0
  6
Continuous
 62
     7
370
    15
100
AcDbLine
 10
837.8340584264
 20
537.4155256406
 30
0.0
 11
835.6840584264
 21
537.4155256406
 31
0.0
  0
SPLINE
  5
96
330
1F
100
AcDbEntity
  8
0
  6
Continuous
 62
     7
370
    15
100
AcDbSpline
210
0.0
220
0.0
230
1.0
 70
     8
 71
     3
 72
    11
 73
     7
 74
     0
 42
0.00000001
 43
0.00000001
 12
1.0
 22
0.0
 32
0.0
 13
1.0
 23
0.0
 33
0.0
 40
0.0
 40
0.0
 40
0.0
 40
0.0
 40
0.3014812195983738
 40
0.6442735760153113
 40
0.9870771990455784
 40
1.0
 40
1.0
 40
1.0
 40
1.0
 10
617.4340584264105
 20
532.915525640605
 30
0.0
 10
617.4527411962639
 20
532.6974124383545
 30
0.0
 10
617.4926667841974
 20
532.2312985856331
 30
0.0
 10
617.8462814025655
 20
531.6089844910626
 30
0.0
 10
618.1904408851518
 20
531.2074986194873
 30
0.0
 10
618.4255185440987
 20
531.1079894324722
 30
0.0
 10
618.4340584264088
 20
531.10437447072
 30
0.0
  0
SPLINE
  5
97
330
1F
100
AcDbEntity
  8
0
  6
Continuous
 62
     7
370
    15
100
AcDbSpline
210
0.0
220
0.0
230
1.0
 70
     8
 71
     3
 72
     9
 73
     5
 74
     0
 42
0.00000001
 43
0.00000001
 12
1.0
 22
0.0
 32
0.0
 13
1.0
 23
0.0
 33
0.0
 40
0.0
 40
0.0
 40
0.0
 40
0.0
 40
0.5068333999490513
 40
1.0
 40
1.0
 40
1.0
 40
1.0
 10
618.0840584264105
 20
532.915525640605
 30
0.0
 10
618.1001547622203
 20
532.737642056333
 30
0.0
 10
618.1319133949612
 20
532.3866715317191
 30
0.0
 10
618.3342652500303
 20
532.0984144792701
 30
0.0
 10
618.4340584264088
 20
531.9562557287732
 30
0.0
  0
SPLINE
  5
98
330
1F
100
AcDbEntity
  8
0
  6
Continuous
 62
     7
370
    15
100
AcDbSpline
210
0.0
220
0.0
230
1.0
 70
     8
 71
     3
 72
    11
 73
     7
 74
     0
 42
0.00000001
 43
0.00000001
 12
1.0
 22
0.0
 32
0.0
 13
1.0
 23
0.0
 33
0.0
 40
0.0
 40
0.0
 40
0.0
 40
0.0
 40
0.0771835069076796
 40
0.4215391994461852
 40
0.765894689416351
 40
1.0
 40
1.0
 40
1.0
 40
1.0
 10
618.4340584264088
 20
539.2058931099779
 30
0.0
 10
618.3842019079079
 20
539.1819807371088
 30
0.0
 10
618.111909578394
 20
539.051382855256
 30
0.0
 10
617.7570629682249
 20
538.603067145938
 30
0.0
 10
617.4733009047524
 20
537.998577773028
 30
0.0
 10
617.4453644265677
 20
537.5835065576977
 30
0.0
 10
617.4340584264105
 20
537.4155256406049
 30
0.0
  0
SPLINE
  5
99
330
1F
100
AcDbEntity
  8
0
  6
Continuous
 62
     7
370
    15
100
AcDbSpline
210
0.0
220
0.0
230
1.0
 70
     8
 71
     3
 72
    10
 73
     6
 74
     0
 42
0.00000001
 43
0.00000001
 12
1.0
 22
0.0
 32
0.0
 13
1.0
 23
0.0
 33
0.0
 40
0.0
 40
0.0
 40
0.0
 40
0.0
 40
0.2423069363833779
 40
0.7612179315879158
 40
1.0
 40
1.0
 40
1.0
 40
1.0
 10
618.4340584264088
 20
538.3421822572789
 30
0.0
 10
618.3787287114719
 20
538.2813373023934
 30
0.0
 10
618.2049079707695
 20
538.0901901920516
 30
0.0
 10
618.1024189163909
 20
537.7507828661028
 30
0.0
 10
618.0884580904197
 20
537.4958622302311
 30
0.0
 10
618.0840584264105
 20
537.4155256406049
 30
0.0
  0
SPLINE
  5
9A
330
1F
100
AcDbEntity
  8
0
  6
Continuous
 62
     7
370
    15
100
AcDbSpline
210
0.0
220
0.0
230
1.0
 70
     8
 71
     3
 72
    12
 73
     8
 74
     0
 42
0.00000001
 43
0.00000001
 12
1.0
 22
0.0
 32
0.0
 13
1.0
 23
0.0
 33
0.0
 40
0.0
 40
0.0
 40
0.0
 40
0.0
 40
0.1928947997657691
 40
0.412221439880773
 40
0.631555288640891
 40
0.8508890083771485
 40
1.0
 40
1.0
 40
1.0
 40
1.0
 10
835.684058426411
 20
530.7655256406053
 30
0.0
 10
835.9009966868367
 20
530.784779342633
 30
0.0
 10
836.3645996568836
 20
530.82592502817
 30
0.0
 10
837.0077294653993
 20
531.1694247961085
 30
0.0
 10
837.5177252804393
 20
531.7155219662181
 30
0.0
 10
837.7937541195757
 20
532.3344570040654
 30
0.0
 10
837.8224465069122
 20
532.7481161809159
 30
0.0
 10
837.8340584264101
 20
532.9155256406053
 30
0.0
  0
LINE
  5
9B
330
1F
100
AcDbEntity
  8
0
  6
Continuous
 62
     7
370
    15
100
AcDbLine
 10
835.6840584264
 20
530.7655256406
 30
0.0
 11
835.6840584264
 21
531.4155256406
 31
0.0
  0
SPLINE
  5
9C
330
1F
100
AcDbEntity
  8
0
  6
Continuous
 62
     7
370
    15
100
AcDbSpline
210
0.0
220
0.0
230
1.0
 70
     8
 71
     3
 72
    12
 73
     8
 74
     0
 42
0.00000001
 43
0.00000001
 12
1.0
 22
0.0
 32
0.0
 13
1.0
 23
0.0
 33
0.0
 40
0.0
 40
0.0
 40
0.0
 40
0.0
 40
0.2241743151501175
 40
0.4483910025873044
 40
0.6726078467290377
 40
0.8968244803950145
 40
1.0
 40
1.0
 40
1.0
 40
1.0
 10
835.6840584264107
 20
531.4155256406053
 30
0.0
 10
835.8601454107958
 20
531.4336182845702
 30
0.0
 10
836.2123526626307
 20
531.4698069922796
 30
0.0
 10
836.6763458472401
 20
531.7511403615596
 30
0.0
 10
837.0162266626411
 20
532.1619843805519
 30
0.0
 10
837.1675773393285
 20
532.578754980425
 30
0.0
 10
837.1801091175548
 20
532.834826391589
 30
0.0
 10
837.1840584264102
 20
532.9155256406053
 30
0.0
  0
SPLINE
  5
9D
330
1F
100
AcDbEntity
  8
0
  6
Continuous
 62
     7
370
    15
100
AcDbSpline
210
0.0
220
0.0
230
1.0
 70
     8
 71
     3
 72
    12
 73
     8
 74
     0
 42
0.00000001
 43
0.00000001
 12
1.0
 22
0.0
 32
0.0
 13
1.0
 23
0.0
 33
0.0
 40
0.0
 40
0.0
 40
0.0
 40
0.0
 40
0.1928947997657713
 40
0.4122214398807791
 40
0.6315552886408847
 40
0.8508890083771283
 40
1.0
 40
1.0
 40
1.0
 40
1.0
 10
837.8340584264101
 20
537.4155256406053
 30
0.0
 10
837.8148047243825
 20
537.6324639010312
 30
0.0
 10
837.7736590388457
 20
538.096066871078
 30
0.0
 10
837.4301592709074
 20
538.7391966795938
 30
0.0
 10
836.8840621007979
 20
539.2491924946341
 30
0.0
 10
836.2651270629509
 20
539.5252213337706
 30
0.0
 10
835.8514678861004
 20
539.5539137211073
 30
0.0
 10
835.684058426411
 20
539.5655256406053
 30
0.0
  0
SPLINE
  5
9E
330
1F
100
AcDbEntity
  8
0
  6
Continuous
 62
     7
370
    15
100
AcDbSpline
210
0.0
220
0.0
230
1.0
 70
     8
 71
     3
 72
    12
 73
     8
 74
     0
 42
0.00000001
 43
0.00000001
 12
1.0
 22
0.0
 32
0.0
 13
1.0
 23
0.0
 33
0.0
 40
0.0
 40
0.0
 40
0.0
 40
0.0
 40
0.2241743151501079
 40
0.4483910025873087
 40
0.6726078467290261
 40
0.8968244803950159
 40
1.0
 40
1.0
 40
1.0
 40
1.0
 10
837.1840584264102
 20
537.4155256406053
 30
0.0
 10
837.1659657824453
 20
537.5916126249904
 30
0.0
 10
837.129777074736
 20
537.9438198768253
 30
0.0
 10
836.8484437054562
 20
538.4078130614348
 30
0.0
 10
836.4375996864642
 20
538.7476938768359
 30
0.0
 10
836.020829086591
 20
538.8990445535236
 30
0.0
 10
835.7647576754271
 20
538.91157633175
 30
0.0
 10
835.6840584264107
 20
538.9155256406053
 30
0.0
  0
LINE
  5
9F
330
1F
100
AcDbEntity
  8
0
  6
Continuous
 62
     7
370
    15
100
AcDbLine
 10
835.6840584264
 20
539.5655256406
 30
0.0
 11
835.6840584264
 21
538.9155256406
 31
0.0
  0
LINE
  5
A0
330
1F
100
AcDbEntity
  8
0
  6
Continuous
 62
     7
370
    15
100
AcDbLine
 10
835.6840584264
 20
538.9155256406
 30
0.0
 11
835.3302625796
 21
538.9155256406
 31
0.0
  0
LINE
  5
A1
330
1F
100
AcDbEntity
  8
0
  6
Continuous
 62
     7
370
    15
100
AcDbLine
 10
835.6840584264
 20
539.5655256406
 30
0.0
 11
834.9769516452
 21
539.5655256406
 31
0.0
  0
LINE
  5
A2
330
1F
100
AcDbEntity
  8
0
  6
Continuous
 62
     7
370
    15
100
AcDbLine
 10
834.9769516452
 20
530.7655256406
 30
0.0
 11
835.6840584264
 21
530.7655256406
 31
0.0
  0
LINE
  5
A3
330
1F
100
AcDbEntity
  8
0
  6
Continuous
 62
     7
370
    15
100
AcDbLine
 10
835.3299398403
 20
531.4155256406
 30
0.0
 11
835.6840584264
 21
531.4155256406
 31
0.0
  0
LINE
  5
A4
330
1F
100
AcDbEntity
  8
0
  6
Continuous
 62
     7
370
    15
100
AcDbLine
 10
820.9445052837
 20
536.7072479818
 30
0.0
 11
818.7236115692
 21
536.7072479818
 31
0.0
  0
ARC
  5
A5
330
1F
100
AcDbEntity
  8
0
  6
Continuous
 62
     7
370
    15
100
AcDbCircle
 10
819.4340584264
 20
535.1655256406
 30
0.0
 40
1.899999999999997
100
AcDbArc
 50
343.4341563416
 51
43.7319985878
  0
LINE
  5
A6
330
1F
100
AcDbEntity
  8
0
  6
Continuous
 62
     7
370
    15
100
AcDbLine
 10
116.9533393107
 20
809.9655256406
 30
0.0
 11
114.0183772612
 21
843.512295373
 31
0.0
  0
LINE
  5
A7
330
1F
100
AcDbEntity
  8
0
  6
Continuous
 62
     7
370
    15
100
AcDbLine
 10
59.1065787537
 20
857.6112488991
 30
0.0
 11
54.9381181031
 21
809.9655256406
 31
0.0
  0
LINE
  5
A8
330
1F
100
AcDbEntity
  8
0
  6
Continuous
 62
     7
370
    15
100
AcDbLine
 10
114.0183772612
 20
843.512295373
 30
0.0
 11
59.1065787537
 21
857.6112488991
 31
0.0
  0
LINE
  5
A9
330
1F
100
AcDbEntity
  8
0
  6
Continuous
 62
     7
370
    15
100
AcDbLine
 10
52.9457287069
 20
809.9655256406
 30
0.0
 11
57.1141893575
 21
857.6112488991
 31
0.0
  0
ARC
  5
AA
330
1F
100
AcDbEntity
  8
0
  6
Continuous
 62
     7
370
    15
100
AcDbCircle
 10
58.1103840556
 20
851.8455462393
 30
0.0
 40
5.851130748659112
100
AcDbArc
 50
80.1972507075
 51
99.8027492925
  0
ARC
  5
AB
330
1F
100
AcDbEntity
  8
0
  6
Continuous
 62
     7
370
    15
100
AcDbCircle
 10
115.0145719593
 20
837.7465927132
 30
0.0
 40
5.851130748642531
100
AcDbArc
 50
80.1972507075
 51
99.8027492925
  0
LINE
  5
AC
330
1F
100
AcDbEntity
  8
0
  6
Continuous
 62
     7
370
    15
100
AcDbLine
 10
116.0107666574
 20
843.512295373
 30
0.0
 11
118.9457287069
 21
809.9655256406
 31
0.0
  0
ARC
  5
AD
330
1F
100
AcDbEntity
  8
0
  6
Continuous
 62
     7
370
    15
100
AcDbCircle
 10
79.0035227112
 20
852.9490297439
 30
0.0
 40
20.43586715309283
100
AcDbArc
 50
161.6752935119
 51
166.812465909
  0
LINE
  5
AE
330
1F
100
AcDbEntity
  8
0
  6
Continuous
 62
     7
370
    15
100
AcDbLine
 10
59.603958528
 20
859.3741037358
 30
0.0
 11
114.5157570355
 21
845.2751502098
 31
0.0
  0
ARC
  5
AF
330
1F
100
AcDbEntity
  8
0
  6
Continuous
 62
     7
370
    15
100
AcDbCircle
 10
133.9153212186
 20
838.8500762179
 30
0.0
 40
20.43586715295839
100
AcDbArc
 50
161.6752935119
 51
166.812465909
  0
ARC
  5
B0
330
1F
100
AcDbEntity
  8
0
  6
Continuous
 62
     7
370
    15
100
AcDbCircle
 10
114.0183772612
 20
843.3379838875
 30
0.0
 40
2.000000000000067
100
AcDbArc
 50
5.0
 51
75.6
  0
ARC
  5
B1
330
1F
100
AcDbEntity
  8
0
  6
Continuous
 62
     7
370
    15
100
AcDbCircle
 10
59.1065787537
 20
857.4369374136
 30
0.0
 40
2.000000000000039
100
AcDbArc
 50
75.6
 51
175.0
  0
LINE
  5
B2
330
1F
100
AcDbEntity
  8
0
  6
Continuous
 62
     7
370
    15
100
AcDbLine
 10
87.9747071526
 20
542.7655256406
 30
0.0
 11
87.9747071526
 21
539.5655256406
 31
0.0
  0
LINE
  5
B3
330
1F
100
AcDbEntity
  8
0
  6
Continuous
 62
     7
370
    15
100
AcDbLine
 10
75.0261078551
 20
539.5655256406
 30
0.0
 11
75.0261078551
 21
542.7655256406
 31
0.0
  0
LINE
  5
B4
330
1F
100
AcDbEntity
  8
0
  6
Continuous
 62
     7
370
    15
100
AcDbLine
 10
75.0261078551
 20
539.5655256406
 30
0.0
 11
87.9747071526
 21
539.5655256406
 31
0.0
  0
LINE
  5
B5
330
1F
100
AcDbEntity
  8
0
  6
Continuous
 62
     7
370
    15
100
AcDbLine
 10
90.0639286476
 20
539.5655256406
 30
0.0
 11
90.0639286476
 21
542.7655256406
 31
0.0
  0
LINE
  5
B6
330
1F
100
AcDbEntity
  8
0
  6
Continuous
 62
     7
370
    15
100
AcDbLine
 10
87.9747071526
 20
539.5655256406
 30
0.0
 11
90.0639286476
 21
539.5655256406
 31
0.0
  0
LINE
  5
B7
330
1F
100
AcDbEntity
  8
0
  6
Continuous
 62
     7
370
    15
100
AcDbLine
 10
102.9364962005
 20
542.7655256406
 30
0.0
 11
102.9364962005
 21
539.5655256406
 31
0.0
  0
LINE
  5
B8
330
1F
100
AcDbEntity
  8
0
  6
Continuous
 62
     7
370
    15
100
AcDbLine
 10
90.0639286476
 20
539.5655256406
 30
0.0
 11
102.9364962005
 21
539.5655256406
 31
0.0
  0
LINE
  5
B9
330
1F
100
AcDbEntity
  8
0
  6
Continuous
 62
     7
370
    15
100
AcDbLine
 10
79.7419837758
 20
525.7655256406
 30
0.0
 11
79.7419837758
 21
529.6655256406
 31
0.0
  0
LINE
  5
BA
330
1F
100
AcDbEntity
  8
0
  6
Continuous
 62
     7
370
    15
100
AcDbLine
 10
81.5566302965
 20
529.6655256406
 30
0.0
 11
81.5566302965
 21
525.7655256406
 31
0.0
  0
LINE
  5
BB
330
1F
100
AcDbEntity
  8
0
  6
Continuous
 62
     7
370
    15
100
AcDbLine
 10
79.7419837758
 20
529.6655256406
 30
0.0
 11
81.5566302965
 21
529.6655256406
 31
0.0
  0
LINE
  5
BC
330
1F
100
AcDbEntity
  8
0
  6
Continuous
 62
     7
370
    15
100
AcDbLine
 10
79.7419837758
 20
525.7655256406
 30
0.0
 11
81.5566302965
 21
525.7655256406
 31
0.0
  0
LINE
  5
BD
330
1F
100
AcDbEntity
  8
0
  6
Continuous
 62
     7
370
    15
100
AcDbLine
 10
96.4644879284
 20
525.7655256406
 30
0.0
 11
96.4644879284
 21
529.6655256406
 31
0.0
  0
LINE
  5
BE
330
1F
100
AcDbEntity
  8
0
  6
Continuous
 62
     7
370
    15
100
AcDbLine
 10
81.5566302965
 20
529.6655256406
 30
0.0
 11
96.4644879284
 21
529.6655256406
 31
0.0
  0
LINE
  5
BF
330
1F
100
AcDbEntity
  8
0
  6
Continuous
 62
     7
370
    15
100
AcDbLine
 10
81.5566302965
 20
525.7655256406
 30
0.0
 11
96.4644879284
 21
525.7655256406
 31
0.0
  0
LINE
  5
C0
330
1F
100
AcDbEntity
  8
0
  6
Continuous
 62
     7
370
    15
100
AcDbLine
 10
98.2684791853
 20
529.6655256406
 30
0.0
 11
98.2684791853
 21
525.7655256406
 31
0.0
  0
LINE
  5
C1
330
1F
100
AcDbEntity
  8
0
  6
Continuous
 62
     7
370
    15
100
AcDbLine
 10
96.4644879284
 20
529.6655256406
 30
0.0
 11
98.2684791853
 21
529.6655256406
 31
0.0
  0
LINE
  5
C2
330
1F
100
AcDbEntity
  8
0
  6
Continuous
 62
     7
370
    15
100
AcDbLine
 10
96.4644879284
 20
525.7655256406
 30
0.0
 11
98.2684791853
 21
525.7655256406
 31
0.0
  0
LINE
  5
C3
330
1F
100
AcDbEntity
  8
0
  6
Continuous
 62
     7
370
    15
100
AcDbLine
 10
89.0097941056
 20
532.0655256406
 30
0.0
 11
103.7840584264
 21
532.0655256406
 31
0.0
  0
LINE
  5
C4
330
1F
100
AcDbEntity
  8
0
  6
Continuous
 62
     7
370
    15
100
AcDbLine
 10
74.0840584264
 20
532.0655256406
 30
0.0
 11
89.0097941056
 21
532.0655256406
 31
0.0
  0
LINE
  5
C5
330
1F
100
AcDbEntity
  8
0
  6
Continuous
 62
     7
370
    15
100
AcDbLine
 10
88.9842938769
 20
511.5655256406
 30
0.0
 11
79.0840584264
 21
511.5655256406
 31
0.0
  0
LINE
  5
C6
330
1F
100
AcDbEntity
  8
0
  6
Continuous
 62
     7
370
    15
100
AcDbLine
 10
98.7840584264
 20
511.5655256406
 30
0.0
 11
88.9842938769
 21
511.5655256406
 31
0.0
  0
LINE
  5
C7
330
1F
100
AcDbEntity
  8
0
  6
Continuous
 62
     7
370
    15
100
AcDbLine
 10
89.0054590667
 20
537.5655256406
 30
0.0
 11
102.9340584264
 21
537.5655256406
 31
0.0
  0
LINE
  5
C8
330
1F
100
AcDbEntity
  8
0
  6
Continuous
 62
     7
370
    15
100
AcDbLine
 10
74.9340584264
 20
537.5655256406
 30
0.0
 11
89.0054590667
 21
537.5655256406
 31
0.0
  0
LINE
  5
C9
330
1F
100
AcDbEntity
  8
0
  6
Continuous
 62
     7
370
    15
100
AcDbLine
 10
72.2222095376
 20
529.6655256406
 30
0.0
 11
72.2222095376
 21
525.7655256406
 31
0.0
  0
LINE
  5
CA
330
1F
100
AcDbEntity
  8
0
  6
Continuous
 62
     7
370
    15
100
AcDbLine
 10
72.2222095376
 20
529.6655256406
 30
0.0
 11
79.7419837758
 21
529.6655256406
 31
0.0
  0
LINE
  5
CB
330
1F
100
AcDbEntity
  8
0
  6
Continuous
 62
     7
370
    15
100
AcDbLine
 10
72.2222095376
 20
525.7655256406
 30
0.0
 11
79.7419837758
 21
525.7655256406
 31
0.0
  0
LINE
  5
CC
330
1F
100
AcDbEntity
  8
0
  6
Continuous
 62
     7
370
    15
100
AcDbLine
 10
105.656562579
 20
525.7655256406
 30
0.0
 11
105.656562579
 21
529.6655256406
 31
0.0
  0
LINE
  5
CD
330
1F
100
AcDbEntity
  8
0
  6
Continuous
 62
     7
370
    15
100
AcDbLine
 10
98.2684791853
 20
529.6655256406
 30
0.0
 11
105.656562579
 21
529.6655256406
 31
0.0
  0
LINE
  5
CE
330
1F
100
AcDbEntity
  8
0
  6
Continuous
 62
     7
370
    15
100
AcDbLine
 10
98.2684791853
 20
525.7655256406
 30
0.0
 11
105.656562579
 21
525.7655256406
 31
0.0
  0
LINE
  5
CF
330
1F
100
AcDbEntity
  8
0
  6
Continuous
 62
     7
370
    15
100
AcDbLine
 10
73.9722693785
 20
542.7655256406
 30
0.0
 11
73.9722693785
 21
539.5655256406
 31
0.0
  0
LINE
  5
D0
330
1F
100
AcDbEntity
  8
0
  6
Continuous
 62
     7
370
    15
100
AcDbLine
 10
73.9722693785
 20
539.5655256406
 30
0.0
 11
75.0261078551
 21
539.5655256406
 31
0.0
  0
LINE
  5
D1
330
1F
100
AcDbEntity
  8
0
  6
Continuous
 62
     7
370
    15
100
AcDbLine
 10
103.9718792189
 20
539.5655256406
 30
0.0
 11
103.9718792189
 21
542.7655256406
 31
0.0
  0
LINE
  5
D2
330
1F
100
AcDbEntity
  8
0
  6
Continuous
 62
     7
370
    15
100
AcDbLine
 10
102.9364962005
 20
539.5655256406
 30
0.0
 11
103.9718792189
 21
539.5655256406
 31
0.0
  0
LINE
  5
D3
330
1F
100
AcDbEntity
  8
0
  6
Continuous
 62
     7
370
    15
100
AcDbLine
 10
73.8962376339
 20
539.5655256406
 30
0.0
 11
73.8962376339
 21
542.7655256406
 31
0.0
  0
LINE
  5
D4
330
1F
100
AcDbEntity
  8
0
  6
Continuous
 62
     7
370
    15
100
AcDbLine
 10
73.8962376339
 20
539.5655256406
 30
0.0
 11
73.9722693785
 21
539.5655256406
 31
0.0
  0
LINE
  5
D5
330
1F
100
AcDbEntity
  8
0
  6
Continuous
 62
     7
370
    15
100
AcDbLine
 10
72.1840584264
 20
529.6655256406
 30
0.0
 11
72.2222095376
 21
529.6655256406
 31
0.0
  0
LINE
  5
D6
330
1F
100
AcDbEntity
  8
0
  6
Continuous
 62
     7
370
    15
100
AcDbLine
 10
72.1840584264
 20
525.7655256406
 30
0.0
 11
72.2222095376
 21
525.7655256406
 31
0.0
  0
LINE
  5
D7
330
1F
100
AcDbEntity
  8
0
  6
Continuous
 62
     7
370
    15
100
AcDbLine
 10
105.656562579
 20
529.6655256406
 30
0.0
 11
105.6840584264
 21
529.6655256406
 31
0.0
  0
LINE
  5
D8
330
1F
100
AcDbEntity
  8
0
  6
Continuous
 62
     7
370
    15
100
AcDbLine
 10
105.656562579
 20
525.7655256406
 30
0.0
 11
105.6840584264
 21
525.7655256406
 31
0.0
  0
LINE
  5
D9
330
1F
100
AcDbEntity
  8
0
  6
Continuous
 62
     7
370
    15
100
AcDbLine
 10
818.4340584264
 20
541.5655256406
 30
0.0
 11
818.4340584264
 21
542.7655256406
 31
0.0
  0
LINE
  5
DA
330
1F
100
AcDbEntity
  8
0
  6
Continuous
 62
     7
370
    15
100
AcDbLine
 10
818.4340584264
 20
541.5655256406
 30
0.0
 11
813.4340584264
 21
541.5655256406
 31
0.0
  0
LINE
  5
DB
330
1F
100
AcDbEntity
  8
0
  6
Continuous
 62
     7
370
    15
100
AcDbLine
 10
813.4340584264
 20
541.5655256406
 30
0.0
 11
812.4340584264
 21
541.5655256406
 31
0.0
  0
LINE
  5
DC
330
1F
100
AcDbEntity
  8
0
  6
Continuous
 62
     7
370
    15
100
AcDbLine
 10
722.4340584264
 20
541.5655256406
 30
0.0
 11
233.4340584264
 21
541.5655256406
 31
0.0
  0
LINE
  5
DD
330
1F
100
AcDbEntity
  8
0
  6
Continuous
 62
     7
370
    15
100
AcDbLine
 10
615.9340584264
 20
533.5655256406
 30
0.0
 11
617.4340584264
 21
533.5655256406
 31
0.0
  0
LINE
  5
DE
330
1F
100
AcDbEntity
  8
0
  6
Continuous
 62
     7
370
    15
100
AcDbLine
 10
615.9340584264
 20
538.5655256406
 30
0.0
 11
615.9340584264
 21
533.5655256406
 31
0.0
  0
LINE
  5
DF
330
1F
100
AcDbEntity
  8
0
  6
Continuous
 62
     7
370
    15
100
AcDbLine
 10
615.9340584264
 20
538.5655256406
 30
0.0
 11
617.4340584264
 21
538.5655256406
 31
0.0
  0
LINE
  5
E0
330
1F
100
AcDbEntity
  8
0
  6
Continuous
 62
     7
370
    15
100
AcDbLine
 10
617.4340584264
 20
538.5655256406
 30
0.0
 11
617.4340584264
 21
537.395130701
 31
0.0
  0
LINE
  5
E1
330
1F
100
AcDbEntity
  8
0
  6
Continuous
 62
     7
370
    15
100
AcDbLine
 10
615.9340584264
 20
540.3155256406
 30
0.0
 11
615.9340584264
 21
538.5655256406
 31
0.0
  0
LINE
  5
E2
330
1F
100
AcDbEntity
  8
0
  6
Continuous
 62
     7
370
    15
100
AcDbLine
 10
617.4340584264
 20
540.3155256406
 30
0.0
 11
615.9340584264
 21
540.3155256406
 31
0.0
  0
LINE
  5
E3
330
1F
100
AcDbEntity
  8
0
  6
Continuous
 62
     7
370
    15
100
AcDbLine
 10
617.4340584264
 20
540.3155256406
 30
0.0
 11
617.4340584264
 21
538.5655256406
 31
0.0
  0
ARC
  5
E4
330
1F
100
AcDbEntity
  8
0
  6
Continuous
 62
     7
370
    15
100
AcDbCircle
 10
618.6840584264
 20
540.3155256406
 30
0.0
 40
1.249999999999957
100
AcDbArc
 50
101.5369590328
 51
180.0
  0
ARC
  5
E5
330
1F
100
AcDbEntity
  8
0
  6
Continuous
 62
     7
370
    15
100
AcDbCircle
 10
618.6840584264
 20
540.3155256406
 30
0.0
 40
2.749999999999982
100
AcDbArc
 50
152.9643082106
 51
180.0
  0
LINE
  5
E6
330
1F
100
AcDbEntity
  8
0
  6
Continuous
 62
     7
370
    15
100
AcDbLine
 10
302.4340584264
 20
541.0655256406
 30
0.0
 11
302.4340584264
 21
540.2655256406
 31
0.0
  0
LINE
  5
E7
330
1F
100
AcDbEntity
  8
0
  6
Continuous
 62
     7
370
    15
100
AcDbLine
 10
233.4340584264
 20
541.0655256406
 30
0.0
 11
302.4340584264
 21
541.0655256406
 31
0.0
  0
LINE
  5
E8
330
1F
100
AcDbEntity
  8
0
  6
Continuous
 62
     7
370
    15
100
AcDbLine
 10
220.5074085103
 20
540.2655256406
 30
0.0
 11
302.4340584264
 21
540.2655256406
 31
0.0
  0
LINE
  5
E9
330
1F
100
AcDbEntity
  8
0
  6
Continuous
 62
     7
370
    15
100
AcDbLine
 10
307.4340584264
 20
541.0655256406
 30
0.0
 11
307.4340584264
 21
540.2655256406
 31
0.0
  0
LINE
  5
EA
330
1F
100
AcDbEntity
  8
0
  6
Continuous
 62
     7
370
    15
100
AcDbLine
 10
302.4340584264
 20
541.0655256406
 30
0.0
 11
307.4340584264
 21
541.0655256406
 31
0.0
  0
LINE
  5
EB
330
1F
100
AcDbEntity
  8
0
  6
Continuous
 62
     7
370
    15
100
AcDbLine
 10
302.4340584264
 20
540.2655256406
 30
0.0
 11
307.4340584264
 21
540.2655256406
 31
0.0
  0
LINE
  5
EC
330
1F
100
AcDbEntity
  8
0
  6
Continuous
 62
     7
370
    15
100
AcDbLine
 10
818.4340584264
 20
540.7655256406
 30
0.0
 11
818.4340584264
 21
541.5655256406
 31
0.0
  0
LINE
  5
ED
330
1F
100
AcDbEntity
  8
0
  6
Continuous
 62
     7
370
    15
100
AcDbLine
 10
818.4340584264
 20
540.7655256406
 30
0.0
 11
813.4340584264
 21
540.7655256406
 31
0.0
  0
LINE
  5
EE
330
1F
100
AcDbEntity
  8
0
  6
Continuous
 62
     7
370
    15
100
AcDbLine
 10
813.4340584264
 20
540.7655256406
 30
0.0
 11
813.4340584264
 21
541.5655256406
 31
0.0
  0
LINE
  5
EF
330
1F
100
AcDbEntity
  8
0
  6
Continuous
 62
     7
370
    15
100
AcDbLine
 10
813.4340584264
 20
540.7655256406
 30
0.0
 11
799.9340584264
 21
540.7655256406
 31
0.0
  0
LINE
  5
F0
330
1F
100
AcDbEntity
  8
0
  6
Continuous
 62
     7
370
    15
100
AcDbLine
 10
734.9340584264
 20
540.7655256406
 30
0.0
 11
623.4340584264
 21
540.7655256406
 31
0.0
  0
LINE
  5
F1
330
1F
100
AcDbEntity
  8
0
  6
Continuous
 62
     7
370
    15
100
AcDbLine
 10
623.4340584264
 20
540.7655256406
 30
0.0
 11
623.4340584264
 21
541.5655256406
 31
0.0
  0
LINE
  5
F2
330
1F
100
AcDbEntity
  8
0
  6
Continuous
 62
     7
370
    15
100
AcDbLine
 10
618.4340584264
 20
540.7655256406
 30
0.0
 11
618.4340584264
 21
541.5655256406
 31
0.0
  0
LINE
  5
F3
330
1F
100
AcDbEntity
  8
0
  6
Continuous
 62
     7
370
    15
100
AcDbLine
 10
623.4340584264
 20
540.7655256406
 30
0.0
 11
618.4340584264
 21
540.7655256406
 31
0.0
  0
LINE
  5
F4
330
1F
100
AcDbEntity
  8
0
  6
Continuous
 62
     7
370
    15
100
AcDbLine
 10
818.4340584264
 20
539.5155256406
 30
0.0
 11
818.4340584264
 21
540.7655256406
 31
0.0
  0
LINE
  5
F5
330
1F
100
AcDbEntity
  8
0
  6
Continuous
 62
     7
370
    15
100
AcDbLine
 10
618.4340584264
 20
540.7655256406
 30
0.0
 11
618.4340584264
 21
539.5155256406
 31
0.0
  0
LINE
  5
F6
330
1F
100
AcDbEntity
  8
0
  6
Continuous
 62
     7
370
    15
100
AcDbLine
 10
818.4340584264
 20
539.5155256406
 30
0.0
 11
818.4340584264
 21
532.0155256406
 31
0.0
  0
LINE
  5
F7
330
1F
100
AcDbEntity
  8
0
  6
Continuous
 62
     7
370
    15
100
AcDbLine
 10
618.4340584264
 20
532.0155256406
 30
0.0
 11
618.4340584264
 21
539.5155256406
 31
0.0
  0
LINE
  5
F8
330
1F
100
AcDbEntity
  8
0
  6
Continuous
 62
     7
370
    15
100
AcDbLine
 10
818.4340584264
 20
532.0155256406
 30
0.0
 11
818.4340584264
 21
529.9655256406
 31
0.0
  0
LINE
  5
F9
330
1F
100
AcDbEntity
  8
0
  6
Continuous
 62
     7
370
    15
100
AcDbLine
 10
618.4340584264
 20
529.9655256406
 30
0.0
 11
735.5340584264
 21
529.9655256406
 31
0.0
  0
LINE
  5
FA
330
1F
100
AcDbEntity
  8
0
  6
Continuous
 62
     7
370
    15
100
AcDbLine
 10
799.3340584264
 20
529.9655256406
 30
0.0
 11
818.4340584264
 21
529.9655256406
 31
0.0
  0
LINE
  5
FB
330
1F
100
AcDbEntity
  8
0
  6
Continuous
 62
     7
370
    15
100
AcDbLine
 10
618.4340584264
 20
529.9655256406
 30
0.0
 11
618.4340584264
 21
532.0155256406
 31
0.0
  0
LINE
  5
FC
330
1F
100
AcDbEntity
  8
0
  6
Continuous
 62
     7
370
    15
100
AcDbLine
 10
925.1935671807
 20
741.9912293638
 30
0.0
 11
926.1655891827
 21
739.9067214536
 31
0.0
  0
LINE
  5
FD
330
1F
100
AcDbEntity
  8
0
  6
Continuous
 62
     7
370
    15
100
AcDbLine
 10
926.1655891827
 20
739.9067214536
 30
0.0
 11
890.7723032111
 21
723.4025611578
 31
0.0
  0
LINE
  5
FE
330
1F
100
AcDbEntity
  8
0
  6
Continuous
 62
     7
370
    15
100
AcDbLine
 10
886.8547809012
 20
724.1135597173
 30
0.0
 11
925.1935671807
 21
741.9912293638
 31
0.0
  0
SPLINE
  5
FF
330
1F
100
AcDbEntity
  8
0
  6
Continuous
 62
     7
370
    15
100
AcDbSpline
210
0.0
220
0.0
230
1.0
 70
     8
 71
     3
 72
    11
 73
     7
 74
     0
 42
0.00000001
 43
0.00000001
 12
1.0
 22
0.0
 32
0.0
 13
1.0
 23
0.0
 33
0.0
 40
0.0
 40
0.0
 40
0.0
 40
0.0
 40
0.2889759275645127
 40
0.5779517763250721
 40
0.8674414070450548
 40
1.0
 40
1.0
 40
1.0
 40
1.0
 10
890.772303211111
 20
723.4025611577638
 30
0.0
 10
890.4687753015554
 20
723.3122857734485
 30
0.0
 10
889.8617195652168
 20
723.1317350294362
 30
0.0
 10
888.7132015877852
 20
723.3711213941071
 30
0.0
 10
887.6786437900848
 20
723.7629016729304
 30
0.0
 10
887.0516953675927
 20
724.0297476623808
 30
0.0
 10
886.8547809012382
 20
724.1135597172906
 30
0.0
  0
LINE
  5
100
330
1F
100
AcDbEntity
  8
0
  6
Continuous
 62
     7
370
    15
100
AcDbLine
 10
890.3110121001
 20
722.1439116336
 30
0.0
 11
946.7119508049
 21
601.191708258
 31
0.0
  0
LINE
  5
101
330
1F
100
AcDbEntity
  8
0
  6
Continuous
 62
     7
370
    15
100
AcDbLine
 10
946.7119508049
 20
601.191708258
 30
0.0
 11
944.6274428947
 21
600.219686256
 31
0.0
  0
LINE
  5
102
330
1F
100
AcDbEntity
  8
0
  6
Continuous
 62
     7
370
    15
100
AcDbLine
 10
944.6274428947
 20
600.219686256
 30
0.0
 11
886.8547809012
 21
724.1135597173
 31
0.0
  0
SPLINE
  5
103
330
1F
100
AcDbEntity
  8
0
  6
Continuous
 62
     7
370
    15
100
AcDbSpline
210
0.0
220
0.0
230
1.0
 70
     8
 71
     3
 72
    11
 73
     7
 74
     0
 42
0.00000001
 43
0.00000001
 12
1.0
 22
0.0
 32
0.0
 13
1.0
 23
0.0
 33
0.0
 40
0.0
 40
0.0
 40
0.0
 40
0.0
 40
0.2888077077194141
 40
0.57761533621972
 40
0.8669345414323495
 40
0.9999999999999999
 40
0.9999999999999999
 40
0.9999999999999999
 40
0.9999999999999999
 10
886.8547809012384
 20
724.1135597172909
 30
0.0
 10
887.3024789260162
 20
723.9773509624346
 30
0.0
 10
888.1978748527695
 20
723.7049334900836
 30
0.0
 10
889.3450364418301
 20
723.204924162969
 30
0.0
 10
890.0199239905617
 20
722.6686734325402
 30
0.0
 10
890.2412780750113
 20
722.2696252964882
 30
0.0
 10
890.3110121001283
 20
722.1439116336409
 30
0.0
  0
LINE
  5
104
330
1F
100
AcDbEntity
  8
0
  6
Continuous
 62
     7
370
    15
100
AcDbLine
 10
944.6274428947
 20
593.7113650252
 30
0.0
 11
946.7119508049
 21
592.7393430232
 31
0.0
  0
ARC
  5
105
330
1F
100
AcDbEntity
  8
0
  6
Continuous
 62
     7
370
    15
100
AcDbCircle
 10
937.6488729345
 20
596.9655256406
 30
0.0
 40
7.699999999999647
100
AcDbArc
 50
335.0
 51
25.0
  0
ARC
  5
106
330
1F
100
AcDbEntity
  8
0
  6
Continuous
 62
     7
370
    15
100
AcDbCircle
 10
937.6488729345
 20
596.9655256406
 30
0.0
 40
9.999999999999721
100
AcDbArc
 50
335.0
 51
25.0
  0
SPLINE
  5
107
330
1F
100
AcDbEntity
  8
0
  6
Continuous
 62
     7
370
    15
100
AcDbSpline
210
0.0
220
0.0
230
1.0
 70
     8
 71
     3
 72
    12
 73
     8
 74
     0
 42
0.00000001
 43
0.00000001
 12
1.0
 22
0.0
 32
0.0
 13
1.0
 23
0.0
 33
0.0
 40
0.0
 40
0.0
 40
0.0
 40
0.0
 40
0.2096821001528918
 40
0.4420453733185795
 40
0.6744332966681221
 40
0.9068208701180672
 40
1.0
 40
1.0
 40
1.0
 40
1.0
 10
50.74572870684485
 20
787.6655256406142
 30
0.0
 10
50.64144349891725
 20
787.9178565985897
 30
0.0
 10
50.42159262163087
 20
788.4498129860766
 30
0.0
 10
50.08562449174708
 20
789.1711944158916
 30
0.0
 10
49.73871922333134
 20
789.714553349878
 30
0.0
 10
49.46034256109749
 20
789.9431751900213
 30
0.0
 10
49.29898209987643
 20
789.9605522286456
 30
0.0
 10
49.25279977465674
 20
789.9655256406141
 30
0.0
  0
SPLINE
  5
108
330
1F
100
AcDbEntity
  8
0
  6
Continuous
 62
     7
370
    15
100
AcDbSpline
210
0.0
220
0.0
230
1.0
 70
     8
 71
     3
 72
    11
 73
     7
 74
     0
 42
0.00000001
 43
0.00000001
 12
1.0
 22
0.0
 32
0.0
 13
1.0
 23
0.0
 33
0.0
 40
0.0
 40
0.0
 40
0.0
 40
0.0
 40
0.254321158472058
 40
0.5088664984541673
 40
0.7634130007196585
 40
1.0
 40
1.0
 40
1.0
 40
1.0
 10
50.74572870684485
 20
787.6655256406142
 30
0.0
 10
50.61914759905945
 20
787.8655008307534
 30
0.0
 10
50.36587380353191
 20
788.2656274871244
 30
0.0
 10
49.98592913404615
 20
788.76725124122
 30
0.0
 10
49.61470400237539
 20
789.1033164880789
 30
0.0
 10
49.37045735770623
 20
789.1453010121897
 30
0.0
 10
49.25279977465674
 20
789.1655256406142
 30
0.0
  0
LINE
  5
109
330
1F
100
AcDbEntity
  8
0
  6
Continuous
 62
     7
370
    15
100
AcDbLine
 10
49.2527997747
 20
789.9655256406
 30
0.0
 11
49.2527997747
 21
789.1655256406
 31
0.0
  0
ARC
  5
10A
330
1F
100
AcDbEntity
  8
0
  6
Continuous
 62
     7
370
    15
100
AcDbCircle
 10
921.9394065653
 20
748.969799324
 30
0.0
 40
7.700000000000155
100
AcDbArc
 50
295.0
 51
335.0
  0
LINE
  5
10B
330
1F
100
AcDbEntity
  8
0
  6
Continuous
 62
     7
370
    15
100
AcDbLine
 10
931.0024844357
 20
744.7436167066
 30
0.0
 11
928.9179765255
 21
745.7156387086
 31
0.0
  0
ARC
  5
10C
330
1F
100
AcDbEntity
  8
0
  6
Continuous
 62
     7
370
    15
100
AcDbCircle
 10
921.9394065653
 20
748.969799324
 30
0.0
 40
10.00000000000028
100
AcDbArc
 50
295.0
 51
335.0
  0
SPLINE
  5
10D
330
1F
100
AcDbEntity
  8
0
  6
Continuous
 62
     7
370
    15
100
AcDbSpline
210
0.0
220
0.0
230
1.0
 70
     8
 71
     3
 72
    12
 73
     8
 74
     0
 42
0.00000001
 43
0.00000001
 12
1.0
 22
0.0
 32
0.0
 13
1.0
 23
0.0
 33
0.0
 40
0.0
 40
0.0
 40
0.0
 40
0.0
 40
0.2096821001528698
 40
0.4420453733185927
 40
0.6744332966681262
 40
0.9068208701180613
 40
1.0
 40
1.0
 40
1.0
 40
1.0
 10
50.74572870684485
 20
545.0655256406137
 30
0.0
 10
50.49339774886958
 20
544.9612404326863
 30
0.0
 10
49.96144136138242
 20
544.7413895553995
 30
0.0
 10
49.2400599315676
 20
544.4054214255165
 30
0.0
 10
48.69670099758133
 20
544.0585161570998
 30
0.0
 10
48.46807915743783
 20
543.780139494867
 30
0.0
 10
48.45070211881347
 20
543.6187790336453
 30
0.0
 10
48.44572870684488
 20
543.5725967084256
 30
0.0
  0
SPLINE
  5
10E
330
1F
100
AcDbEntity
  8
0
  6
Continuous
 62
     7
370
    15
100
AcDbSpline
210
0.0
220
0.0
230
1.0
 70
     8
 71
     3
 72
    11
 73
     7
 74
     0
 42
0.00000001
 43
0.00000001
 12
1.0
 22
0.0
 32
0.0
 13
1.0
 23
0.0
 33
0.0
 40
0.0
 40
0.0
 40
0.0
 40
0.0
 40
0.2543211584721242
 40
0.508866498454242
 40
0.7634130007197216
 40
1.0
 40
1.0
 40
1.0
 40
1.0
 10
50.74572870684485
 20
545.0655256406137
 30
0.0
 10
50.5457535167056
 20
544.9389445328284
 30
0.0
 10
50.14562686033447
 20
544.6856707373007
 30
0.0
 10
49.64400310623868
 20
544.3057260678153
 30
0.0
 10
49.30793785938009
 20
543.9345009361442
 30
0.0
 10
49.26595333526945
 20
543.6902542914752
 30
0.0
 10
49.24572870684491
 20
543.5725967084256
 30
0.0
  0
LINE
  5
10F
330
1F
100
AcDbEntity
  8
0
  6
Continuous
 62
     7
370
    15
100
AcDbLine
 10
48.4457287068
 20
543.5725967084
 30
0.0
 11
49.2457287068
 21
543.5725967084
 31
0.0
  0
LINE
  5
110
330
1F
100
AcDbEntity
  8
0
  6
Continuous
 62
     7
370
    15
100
AcDbLine
 10
943.371521077
 20
776.7113650252
 30
0.0
 11
945.4560289872
 21
775.7393430232
 31
0.0
  0
LINE
  5
111
330
1F
100
AcDbEntity
  8
0
  6
Continuous
 62
     7
370
    15
100
AcDbLine
 10
931.0024844357
 20
744.7436167066
 30
0.0
 11
945.4560289872
 21
775.7393430232
 31
0.0
  0
LINE
  5
112
330
1F
100
AcDbEntity
  8
0
  6
Continuous
 62
     7
370
    15
100
AcDbLine
 10
928.9179765255
 20
745.7156387086
 30
0.0
 11
943.371521077
 21
776.7113650252
 31
0.0
  0
CIRCLE
  5
113
330
1F
100
AcDbEntity
  8
0
  6
Continuous
 62
     7
370
    15
100
AcDbCircle
 10
125.9929511168
 20
769.9655256406
 30
0.0
 40
6.347663105371566
  0
CIRCLE
  5
114
330
1F
100
AcDbEntity
  8
0
  6
Continuous
 62
     7
370
    15
100
AcDbCircle
 10
895.9929511168
 20
769.9655256406
 30
0.0
 40
6.347663105371566
  0
LINE
  5
115
330
1F
100
AcDbEntity
  8
0
  6
Continuous
 62
     7
370
    15
100
AcDbLine
 10
50.7457287068
 20
545.0655256406
 30
0.0
 11
917.0380744441
 21
545.0655256406
 31
0.0
  0
LINE
  5
116
330
1F
100
AcDbEntity
  8
0
  6
Continuous
 62
     7
370
    15
100
AcDbLine
 10
50.7457287068
 20
787.6655256406
 30
0.0
 11
50.7457287068
 21
545.0655256406
 31
0.0
  0
LINE
  5
117
330
1F
100
AcDbEntity
  8
0
  6
Continuous
 62
     7
370
    15
100
AcDbLine
 10
936.3929511168
 20
787.6655256406
 30
0.0
 11
50.7457287068
 21
787.6655256406
 31
0.0
  0
ARC
  5
118
330
1F
100
AcDbEntity
  8
0
  6
Continuous
 62
     7
370
    15
100
AcDbCircle
 10
936.3929511168
 20
779.9655256406
 30
0.0
 40
7.699999999999818
100
AcDbArc
 50
335.0
 51
90.0
  0
LINE
  5
119
330
1F
100
AcDbEntity
  8
0
  6
Continuous
 62
     7
370
    15
100
AcDbLine
 10
924.0166444043
 20
549.5113650252
 30
0.0
 11
944.6274428947
 21
593.7113650252
 31
0.0
  0
ARC
  5
11A
330
1F
100
AcDbEntity
  8
0
  6
Continuous
 62
     7
370
    15
100
AcDbCircle
 10
917.0380744441
 20
552.7655256406
 30
0.0
 40
7.699999999999932
100
AcDbArc
 50
270.0
 51
335.0
  0
CIRCLE
  5
11B
330
1F
100
AcDbEntity
  8
0
  6
Continuous
 62
     7
370
    15
100
AcDbCircle
 10
515.9929511168
 20
769.9655256406
 30
0.0
 40
6.347663105371566
  0
CIRCLE
  5
11C
330
1F
100
AcDbEntity
  8
0
  6
Continuous
 62
     7
370
    15
100
AcDbCircle
 10
895.9929511168
 20
769.9655256406
 30
0.0
 40
4.699999999999932
  0
LINE
  5
11D
330
1F
100
AcDbEntity
  8
0
  6
Continuous
 62
     7
370
    15
100
AcDbLine
 10
917.0380744441
 20
545.0655256406
 30
0.0
 11
917.0380744441
 21
542.7655256406
 31
0.0
  0
LINE
  5
11E
330
1F
100
AcDbEntity
  8
0
  6
Continuous
 62
     7
370
    15
100
AcDbLine
 10
856.4346365306
 20
542.7655256406
 30
0.0
 11
49.2527997747
 21
542.7655256406
 31
0.0
  0
SPLINE
  5
11F
330
1F
100
AcDbEntity
  8
0
  6
Continuous
 62
     7
370
    15
100
AcDbSpline
210
0.0
220
0.0
230
1.0
 70
     8
 71
     3
 72
    12
 73
     8
 74
     0
 42
0.00000001
 43
0.00000001
 12
1.0
 22
0.0
 32
0.0
 13
1.0
 23
0.0
 33
0.0
 40
0.0
 40
0.0
 40
0.0
 40
0.0
 40
0.2096821001528686
 40
0.4420453733186091
 40
0.674433296668134
 40
0.9068208701180641
 40
1.0
 40
1.0
 40
1.0
 40
1.0
 10
49.25279977465674
 20
542.7655256406138
 30
0.0
 10
49.35708498258445
 20
542.7898656107824
 30
0.0
 10
49.57693585987116
 20
542.8411783894692
 30
0.0
 10
49.91290398975362
 20
543.2621089763978
 30
0.0
 10
50.2598092581708
 20
543.9138984542935
 30
0.0
 10
50.53818592040344
 20
544.5633394933959
 30
0.0
 10
50.69954638162527
 20
544.9537794105023
 30
0.0
 10
50.74572870684485
 20
545.0655256406137
 30
0.0
  0
LINE
  5
120
330
1F
100
AcDbEntity
  8
0
  6
Continuous
 62
     7
370
    15
100
AcDbLine
 10
936.3929511168
 20
789.9655256406
 30
0.0
 11
936.3929511168
 21
787.6655256406
 31
0.0
  0
ARC
  5
121
330
1F
100
AcDbEntity
  8
0
  6
Continuous
 62
     7
370
    15
100
AcDbCircle
 10
936.3929511168
 20
779.9655256406
 30
0.0
 40
9.999999999999773
100
AcDbArc
 50
335.0
 51
90.0
  0
LINE
  5
122
330
1F
100
AcDbEntity
  8
0
  6
Continuous
 62
     7
370
    15
100
AcDbLine
 10
926.1011523145
 20
548.5393430232
 30
0.0
 11
946.7119508049
 21
592.7393430232
 31
0.0
  0
LINE
  5
123
330
1F
100
AcDbEntity
  8
0
  6
Continuous
 62
     7
370
    15
100
AcDbLine
 10
926.1011523145
 20
548.5393430232
 30
0.0
 11
924.0166444043
 21
549.5113650252
 31
0.0
  0
SPLINE
  5
124
330
1F
100
AcDbEntity
  8
0
  6
Continuous
 62
     7
370
    15
100
AcDbSpline
210
0.0
220
0.0
230
1.0
 70
     8
 71
     3
 72
    12
 73
     8
 74
     0
 42
0.00000001
 43
0.00000001
 12
1.0
 22
0.0
 32
0.0
 13
1.0
 23
0.0
 33
0.0
 40
0.0
 40
0.0
 40
0.0
 40
0.0
 40
0.2096821001528731
 40
0.4420453733186002
 40
0.6744332966681262
 40
0.9068208701180382
 40
1.0
 40
1.0
 40
1.0
 40
1.0
 10
48.44572870684488
 20
789.1584545728023
 30
0.0
 10
48.47006867701337
 20
789.0541693648747
 30
0.0
 10
48.52138145570023
 20
788.8343184875881
 30
0.0
 10
48.94231204262906
 20
788.498350357705
 30
0.0
 10
49.59410152052484
 20
788.1514450892882
 30
0.0
 10
50.24354255962687
 20
787.8730684270557
 30
0.0
 10
50.63398247673351
 20
787.7117079658337
 30
0.0
 10
50.74572870684485
 20
787.6655256406142
 30
0.0
  0
LINE
  5
125
330
1F
100
AcDbEntity
  8
0
  6
Continuous
 62
     7
370
    15
100
AcDbLine
 10
48.4457287068
 20
789.1584545728
 30
0.0
 11
49.2457287068
 21
789.1584545728
 31
0.0
  0
SPLINE
  5
126
330
1F
100
AcDbEntity
  8
0
  6
Continuous
 62
     7
370
    15
100
AcDbSpline
210
0.0
220
0.0
230
1.0
 70
     8
 71
     3
 72
    11
 73
     7
 74
     0
 42
0.00000001
 43
0.00000001
 12
1.0
 22
0.0
 32
0.0
 13
1.0
 23
0.0
 33
0.0
 40
0.0
 40
0.0
 40
0.0
 40
0.0
 40
0.2543211584721141
 40
0.5088664984542278
 40
0.7634130007196798
 40
0.9999999999999999
 40
0.9999999999999999
 40
0.9999999999999999
 40
0.9999999999999999
 10
49.24572870684479
 20
789.1584545728023
 30
0.0
 10
49.26908276886394
 20
789.0318734650169
 30
0.0
 10
49.31581147926972
 20
788.7785996694893
 30
0.0
 10
49.67469909546502
 20
788.3986550000038
 30
0.0
 10
50.17392207475441
 20
788.027429868333
 30
0.0
 10
50.55983039134976
 20
787.7831832236637
 30
0.0
 10
50.74572870684485
 20
787.6655256406142
 30
0.0
  0
LINE
  5
127
330
1F
100
AcDbEntity
  8
0
  6
Continuous
 62
     7
370
    15
100
AcDbLine
 10
49.2527997747
 20
789.9655256406
 30
0.0
 11
52.6957287069
 21
789.9655256406
 31
0.0
  0
LINE
  5
128
330
1F
100
AcDbEntity
  8
0
  6
Continuous
 62
     7
370
    15
100
AcDbLine
 10
63.4457287069
 20
789.9655256406
 30
0.0
 11
125.6957287069
 21
789.9655256406
 31
0.0
  0
LINE
  5
129
330
1F
100
AcDbEntity
  8
0
  6
Continuous
 62
     7
370
    15
100
AcDbLine
 10
157.2457287069
 20
789.9655256406
 30
0.0
 11
878.6457287069
 21
789.9655256406
 31
0.0
  0
CIRCLE
  5
12A
330
1F
100
AcDbEntity
  8
0
  6
Continuous
 62
     7
370
    15
100
AcDbCircle
 10
515.9929511168
 20
769.9655256406
 30
0.0
 40
4.699999999999932
  0
ARC
  5
12B
330
1F
100
AcDbEntity
  8
0
  6
Continuous
 62
     7
370
    15
100
AcDbCircle
 10
917.0380744441
 20
552.7655256406
 30
0.0
 40
9.999999999999929
100
AcDbArc
 50
270.0
 51
335.0
  0
LINE
  5
12C
330
1F
100
AcDbEntity
  8
0
  6
Continuous
 62
     7
370
    15
100
AcDbLine
 10
48.4457287068
 20
789.1584545728
 30
0.0
 11
48.4457287068
 21
543.5725967084
 31
0.0
  0
CIRCLE
  5
12D
330
1F
100
AcDbEntity
  8
0
  6
Continuous
 62
     7
370
    15
100
AcDbCircle
 10
125.9929511168
 20
769.9655256406
 30
0.0
 40
4.699999999999932
  0
LINE
  5
12E
330
1F
100
AcDbEntity
  8
0
  6
Continuous
 62
     7
370
    15
100
AcDbLine
 10
49.2527997747
 20
542.7655256406
 30
0.0
 11
49.2527997747
 21
543.5655256406
 31
0.0
  0
SPLINE
  5
12F
330
1F
100
AcDbEntity
  8
0
  6
Continuous
 62
     7
370
    15
100
AcDbSpline
210
0.0
220
0.0
230
1.0
 70
     8
 71
     3
 72
    11
 73
     7
 74
     0
 42
0.00000001
 43
0.00000001
 12
1.0
 22
0.0
 32
0.0
 13
1.0
 23
0.0
 33
0.0
 40
0.0
 40
0.0
 40
0.0
 40
0.0
 40
0.2543211584721197
 40
0.5088664984542413
 40
0.7634130007197366
 40
0.9999999999999999
 40
0.9999999999999999
 40
0.9999999999999999
 40
0.9999999999999999
 10
49.25279977465674
 20
543.5655256406138
 30
0.0
 10
49.37938088244215
 20
543.5888797026328
 30
0.0
 10
49.6326546779699
 20
543.6356084130387
 30
0.0
 10
50.01259934745511
 20
543.9944960292339
 30
0.0
 10
50.38382447912654
 20
544.4937190085234
 30
0.0
 10
50.62807112379536
 20
544.8796273251186
 30
0.0
 10
50.74572870684474
 20
545.0655256406137
 30
0.0
  0
CIRCLE
  5
130
330
1F
100
AcDbEntity
  8
0
  6
Continuous
 62
     7
370
    15
100
AcDbCircle
 10
895.9929511168
 20
769.9655256406
 30
0.0
 40
2.700000000000045
  0
CIRCLE
  5
131
330
1F
100
AcDbEntity
  8
0
  6
Continuous
 62
     7
370
    15
100
AcDbCircle
 10
125.9929511168
 20
769.9655256406
 30
0.0
 40
2.700000000000045
  0
CIRCLE
  5
132
330
1F
100
AcDbEntity
  8
0
  6
Continuous
 62
     7
370
    15
100
AcDbCircle
 10
515.9929511168
 20
769.9655256406
 30
0.0
 40
2.700000000000045
  0
LINE
  5
133
330
1F
100
AcDbEntity
  8
0
  6
Continuous
 62
     7
370
    15
100
AcDbLine
 10
858.4346365306
 20
542.7655256406
 30
0.0
 11
858.4346365306
 21
541.9655256406
 31
0.0
  0
LINE
  5
134
330
1F
100
AcDbEntity
  8
0
  6
Continuous
 62
     7
370
    15
100
AcDbLine
 10
858.4346365306
 20
541.9655256406
 30
0.0
 11
856.4346365306
 21
541.9655256406
 31
0.0
  0
LINE
  5
135
330
1F
100
AcDbEntity
  8
0
  6
Continuous
 62
     7
370
    15
100
AcDbLine
 10
856.4346365306
 20
541.9655256406
 30
0.0
 11
856.4346365306
 21
542.7655256406
 31
0.0
  0
LINE
  5
136
330
1F
100
AcDbEntity
  8
0
  6
Continuous
 62
     7
370
    15
100
AcDbLine
 10
856.4346365306
 20
542.7655256406
 30
0.0
 11
858.4346365306
 21
542.7655256406
 31
0.0
  0
LINE
  5
137
330
1F
100
AcDbEntity
  8
0
  6
Continuous
 62
     7
370
    15
100
AcDbLine
 10
947.462856513
 20
592.4012484138
 30
0.0
 11
946.7378102833
 21
592.7393430232
 31
0.0
  0
ARC
  5
138
330
1F
100
AcDbEntity
  8
0
  6
Continuous
 62
     7
370
    15
100
AcDbCircle
 10
937.674732413
 20
596.9655256406
 30
0.0
 40
10.00000000000008
100
AcDbArc
 50
335.0
 51
25.0
  0
LINE
  5
139
330
1F
100
AcDbEntity
  8
0
  6
Continuous
 62
     7
370
    15
100
AcDbLine
 10
946.7378102833
 20
601.191708258
 30
0.0
 11
947.462856513
 21
601.5298028674
 31
0.0
  0
ARC
  5
13A
330
1F
100
AcDbEntity
  8
0
  6
Continuous
 62
     7
370
    15
100
AcDbCircle
 10
937.674732413
 20
596.9655256406
 30
0.0
 40
10.80000000000006
100
AcDbArc
 50
335.0
 51
25.0
  0
LINE
  5
13B
330
1F
100
AcDbEntity
  8
0
  6
Continuous
 62
     7
370
    15
100
AcDbLine
 10
926.1270117929
 20
548.5393430232
 30
0.0
 11
926.8520580225
 21
548.2012484138
 31
0.0
  0
LINE
  5
13C
330
1F
100
AcDbEntity
  8
0
  6
Continuous
 62
     7
370
    15
100
AcDbLine
 10
926.8520580225
 20
548.2012484138
 30
0.0
 11
947.462856513
 21
592.4012484138
 31
0.0
  0
LINE
  5
13D
330
1F
100
AcDbEntity
  8
0
  6
Continuous
 62
     7
370
    15
100
AcDbLine
 10
926.1270117929
 20
548.5393430232
 30
0.0
 11
946.7378102833
 21
592.7393430232
 31
0.0
  0
LINE
  5
13E
330
1F
100
AcDbEntity
  8
0
  6
Continuous
 62
     7
370
    15
100
AcDbLine
 10
917.0639339225
 20
541.9655256406
 30
0.0
 11
917.0639339225
 21
542.7655256406
 31
0.0
  0
LINE
  5
13F
330
1F
100
AcDbEntity
  8
0
  6
Continuous
 62
     7
370
    15
100
AcDbLine
 10
858.4346365306
 20
541.9655256406
 30
0.0
 11
917.0639339225
 21
541.9655256406
 31
0.0
  0
LINE
  5
140
330
1F
100
AcDbEntity
  8
0
  6
Continuous
 62
     7
370
    15
100
AcDbLine
 10
858.4346365306
 20
542.7655256406
 30
0.0
 11
917.0639339225
 21
542.7655256406
 31
0.0
  0
LINE
  5
141
330
1F
100
AcDbEntity
  8
0
  6
Continuous
 62
     7
370
    15
100
AcDbLine
 10
891.5559868868
 20
721.4224716847
 30
0.0
 11
890.8309406572
 21
721.0843770753
 31
0.0
  0
ARC
  5
142
330
1F
100
AcDbEntity
  8
0
  6
Continuous
 62
     7
370
    15
100
AcDbCircle
 10
892.6888716206
 20
721.9507445118
 30
0.0
 40
2.050000000000112
100
AcDbArc
 50
115.0
 51
205.0
  0
LINE
  5
143
330
1F
100
AcDbEntity
  8
0
  6
Continuous
 62
     7
370
    15
100
AcDbLine
 10
891.8225041841
 20
723.8086754753
 30
0.0
 11
892.1605987934
 21
723.0836292456
 31
0.0
  0
ARC
  5
144
330
1F
100
AcDbEntity
  8
0
  6
Continuous
 62
     7
370
    15
100
AcDbCircle
 10
892.6888716206
 20
721.9507445118
 30
0.0
 40
1.250000000000032
100
AcDbArc
 50
115.0
 51
205.0
  0
LINE
  5
145
330
1F
100
AcDbEntity
  8
0
  6
Continuous
 62
     7
370
    15
100
AcDbLine
 10
904.8035924226
 20
728.9791539969
 30
0.0
 11
904.4654978132
 21
729.7042002266
 31
0.0
  0
LINE
  5
146
330
1F
100
AcDbEntity
  8
0
  6
Continuous
 62
     7
370
    15
100
AcDbLine
 10
892.1605987934
 20
723.0836292456
 30
0.0
 11
904.8035924226
 21
728.9791539969
 31
0.0
  0
LINE
  5
147
330
1F
100
AcDbEntity
  8
0
  6
Continuous
 62
     7
370
    15
100
AcDbLine
 10
891.8225041841
 20
723.8086754753
 30
0.0
 11
904.4654978132
 21
729.7042002266
 31
0.0
  0
LINE
  5
148
330
1F
100
AcDbEntity
  8
0
  6
Continuous
 62
     7
370
    15
100
AcDbLine
 10
906.2781133873
 20
730.54943675
 30
0.0
 11
906.6162079967
 21
729.8243905204
 31
0.0
  0
LINE
  5
149
330
1F
100
AcDbEntity
  8
0
  6
Continuous
 62
     7
370
    15
100
AcDbLine
 10
906.6162079967
 20
729.8243905204
 30
0.0
 11
904.8035924226
 21
728.9791539969
 31
0.0
  0
LINE
  5
14A
330
1F
100
AcDbEntity
  8
0
  6
Continuous
 62
     7
370
    15
100
AcDbLine
 10
904.4654978132
 20
729.7042002266
 30
0.0
 11
906.2781133873
 21
730.54943675
 31
0.0
  0
LINE
  5
14B
330
1F
100
AcDbEntity
  8
0
  6
Continuous
 62
     7
370
    15
100
AcDbLine
 10
947.462856513
 20
601.5298028674
 30
0.0
 11
891.5559868868
 21
721.4224716847
 31
0.0
  0
LINE
  5
14C
330
1F
100
AcDbEntity
  8
0
  6
Continuous
 62
     7
370
    15
100
AcDbLine
 10
946.7378102833
 20
601.191708258
 30
0.0
 11
890.8309406572
 21
721.0843770753
 31
0.0
  0
ARC
  5
14D
330
1F
100
AcDbEntity
  8
0
  6
Continuous
 62
     7
370
    15
100
AcDbCircle
 10
917.0639339225
 20
552.7655256406
 30
0.0
 40
10.00000000000003
100
AcDbArc
 50
270.0
 51
335.0
  0
ARC
  5
14E
330
1F
100
AcDbEntity
  8
0
  6
Continuous
 62
     7
370
    15
100
AcDbCircle
 10
917.0639339225
 20
552.7655256406
 30
0.0
 40
10.80000000000006
100
AcDbArc
 50
270.0
 51
335.0
  0
LWPOLYLINE
  5
14F
330
1F
100
AcDbEntity
  8
0
  6
Continuous
 62
     7
370
    15
100
AcDbPolyline
 90
        3
 70
   128
 43
0.0
 10
904.4011583561
 20
729.674198245
 10
904.627595618
 20
729.8049318591
 10
904.7957446104
 20
729.9417992759
  0
LINE
  5
150
330
1F
100
AcDbEntity
  8
0
  6
Continuous
 62
     7
370
    15
100
AcDbLine
 10
162.4457287069
 20
790.9655256406
 30
0.0
 11
162.4457287069
 21
789.9655256406
 31
0.0
  0
LINE
  5
151
330
1F
100
AcDbEntity
  8
0
  6
Continuous
 62
     7
370
    15
100
AcDbLine
 10
162.4457287069
 20
790.9655256406
 30
0.0
 11
873.4457287069
 21
790.9655256406
 31
0.0
  0
LINE
  5
152
330
1F
100
AcDbEntity
  8
0
  6
Continuous
 62
     7
370
    15
100
AcDbLine
 10
873.4457287069
 20
790.9655256406
 30
0.0
 11
873.4457287069
 21
789.9655256406
 31
0.0
  0
LINE
  5
153
330
1F
100
AcDbEntity
  8
0
  6
Continuous
 62
     7
370
    15
100
AcDbLine
 10
611.2278540345
 20
791.0655256406
 30
0.0
 11
611.2278540345
 21
790.9655256406
 31
0.0
  0
LINE
  5
154
330
1F
100
AcDbEntity
  8
0
  6
Continuous
 62
     7
370
    15
100
AcDbLine
 10
611.2278540345
 20
791.0655256406
 30
0.0
 11
790.6636033793
 21
791.0655256406
 31
0.0
  0
LINE
  5
155
330
1F
100
AcDbEntity
  8
0
  6
Continuous
 62
     7
370
    15
100
AcDbLine
 10
790.6636033793
 20
791.0655256406
 30
0.0
 11
790.6636033793
 21
790.9655256406
 31
0.0
  0
LINE
  5
156
330
1F
100
AcDbEntity
  8
0
  6
Continuous
 62
     7
370
    15
100
AcDbLine
 10
245.2278540345
 20
791.0655256406
 30
0.0
 11
245.2278540345
 21
790.9655256406
 31
0.0
  0
LINE
  5
157
330
1F
100
AcDbEntity
  8
0
  6
Continuous
 62
     7
370
    15
100
AcDbLine
 10
424.6636033793
 20
791.0655256406
 30
0.0
 11
424.6636033793
 21
790.9655256406
 31
0.0
  0
LINE
  5
158
330
1F
100
AcDbEntity
  8
0
  6
Continuous
 62
     7
370
    15
100
AcDbLine
 10
245.2278540345
 20
791.0655256406
 30
0.0
 11
424.6636033793
 21
791.0655256406
 31
0.0
  0
LINE
  5
159
330
1F
100
AcDbEntity
  8
0
  6
Continuous
 62
     7
370
    15
100
AcDbLine
 10
584.7571738286
 20
791.0655256406
 30
0.0
 11
584.7571738286
 21
790.9655256406
 31
0.0
  0
LINE
  5
15A
330
1F
100
AcDbEntity
  8
0
  6
Continuous
 62
     7
370
    15
100
AcDbLine
 10
589.6809668597
 20
791.0655256406
 30
0.0
 11
589.6809668597
 21
790.9655256406
 31
0.0
  0
LINE
  5
15B
330
1F
100
AcDbEntity
  8
0
  6
Continuous
 62
     7
370
    15
100
AcDbLine
 10
584.7571738286
 20
791.0655256406
 30
0.0
 11
589.6809668597
 21
791.0655256406
 31
0.0
  0
LINE
  5
15C
330
1F
100
AcDbEntity
  8
0
  6
Continuous
 62
     7
370
    15
100
AcDbLine
 10
604.467438578
 20
791.0655256406
 30
0.0
 11
604.467438578
 21
790.9655256406
 31
0.0
  0
LINE
  5
15D
330
1F
100
AcDbEntity
  8
0
  6
Continuous
 62
     7
370
    15
100
AcDbLine
 10
589.6809668597
 20
791.0655256406
 30
0.0
 11
604.467438578
 21
791.0655256406
 31
0.0
  0
LINE
  5
15E
330
1F
100
AcDbEntity
  8
0
  6
Continuous
 62
     7
370
    15
100
AcDbLine
 10
431.4240188358
 20
791.0655256406
 30
0.0
 11
431.4240188358
 21
790.9655256406
 31
0.0
  0
LINE
  5
15F
330
1F
100
AcDbEntity
  8
0
  6
Continuous
 62
     7
370
    15
100
AcDbLine
 10
446.210490554
 20
791.0655256406
 30
0.0
 11
446.210490554
 21
790.9655256406
 31
0.0
  0
LINE
  5
160
330
1F
100
AcDbEntity
  8
0
  6
Continuous
 62
     7
370
    15
100
AcDbLine
 10
431.4240188358
 20
791.0655256406
 30
0.0
 11
446.210490554
 21
791.0655256406
 31
0.0
  0
LINE
  5
161
330
1F
100
AcDbEntity
  8
0
  6
Continuous
 62
     7
370
    15
100
AcDbLine
 10
451.1342835852
 20
791.0655256406
 30
0.0
 11
451.1342835852
 21
790.9655256406
 31
0.0
  0
LINE
  5
162
330
1F
100
AcDbEntity
  8
0
  6
Continuous
 62
     7
370
    15
100
AcDbLine
 10
446.210490554
 20
791.0655256406
 30
0.0
 11
451.1342835852
 21
791.0655256406
 31
0.0
  0
LINE
  5
163
330
1F
100
AcDbEntity
  8
0
  6
Continuous
 62
     7
370
    15
100
AcDbLine
 10
812.210490554
 20
791.0655256406
 30
0.0
 11
812.210490554
 21
790.9655256406
 31
0.0
  0
LINE
  5
164
330
1F
100
AcDbEntity
  8
0
  6
Continuous
 62
     7
370
    15
100
AcDbLine
 10
817.1342835852
 20
791.0655256406
 30
0.0
 11
817.1342835852
 21
790.9655256406
 31
0.0
  0
LINE
  5
165
330
1F
100
AcDbEntity
  8
0
  6
Continuous
 62
     7
370
    15
100
AcDbLine
 10
812.210490554
 20
791.0655256406
 30
0.0
 11
817.1342835852
 21
791.0655256406
 31
0.0
  0
LINE
  5
166
330
1F
100
AcDbEntity
  8
0
  6
Continuous
 62
     7
370
    15
100
AcDbLine
 10
797.4240188358
 20
791.0655256406
 30
0.0
 11
797.4240188358
 21
790.9655256406
 31
0.0
  0
LINE
  5
167
330
1F
100
AcDbEntity
  8
0
  6
Continuous
 62
     7
370
    15
100
AcDbLine
 10
797.4240188358
 20
791.0655256406
 30
0.0
 11
812.210490554
 21
791.0655256406
 31
0.0
  0
LINE
  5
168
330
1F
100
AcDbEntity
  8
0
  6
Continuous
 62
     7
370
    15
100
AcDbLine
 10
223.6809668597
 20
791.0655256406
 30
0.0
 11
223.6809668597
 21
790.9655256406
 31
0.0
  0
LINE
  5
169
330
1F
100
AcDbEntity
  8
0
  6
Continuous
 62
     7
370
    15
100
AcDbLine
 10
238.467438578
 20
791.0655256406
 30
0.0
 11
238.467438578
 21
790.9655256406
 31
0.0
  0
LINE
  5
16A
330
1F
100
AcDbEntity
  8
0
  6
Continuous
 62
     7
370
    15
100
AcDbLine
 10
223.6809668597
 20
791.0655256406
 30
0.0
 11
238.467438578
 21
791.0655256406
 31
0.0
  0
LINE
  5
16B
330
1F
100
AcDbEntity
  8
0
  6
Continuous
 62
     7
370
    15
100
AcDbLine
 10
218.7571738286
 20
791.0655256406
 30
0.0
 11
218.7571738286
 21
790.9655256406
 31
0.0
  0
LINE
  5
16C
330
1F
100
AcDbEntity
  8
0
  6
Continuous
 62
     7
370
    15
100
AcDbLine
 10
218.7571738286
 20
791.0655256406
 30
0.0
 11
223.6809668597
 21
791.0655256406
 31
0.0
  0
LINE
  5
16D
330
1F
100
AcDbEntity
  8
0
  6
Continuous
 62
     7
370
    15
100
AcDbLine
 10
424.6636033793
 20
791.0655256406
 30
0.0
 11
431.4240188358
 21
791.0655256406
 31
0.0
  0
LINE
  5
16E
330
1F
100
AcDbEntity
  8
0
  6
Continuous
 62
     7
370
    15
100
AcDbLine
 10
604.467438578
 20
791.0655256406
 30
0.0
 11
611.2278540345
 21
791.0655256406
 31
0.0
  0
LINE
  5
16F
330
1F
100
AcDbEntity
  8
0
  6
Continuous
 62
     7
370
    15
100
AcDbLine
 10
790.6636033793
 20
791.0655256406
 30
0.0
 11
797.4240188358
 21
791.0655256406
 31
0.0
  0
LINE
  5
170
330
1F
100
AcDbEntity
  8
0
  6
Continuous
 62
     7
370
    15
100
AcDbLine
 10
238.467438578
 20
791.0655256406
 30
0.0
 11
245.2278540345
 21
791.0655256406
 31
0.0
  0
LINE
  5
171
330
1F
100
AcDbEntity
  8
0
  6
Continuous
 62
     7
370
    15
100
AcDbLine
 10
518.6929511168
 20
769.9655256406
 30
0.0
 11
513.2929511168
 21
769.9655256406
 31
0.0
  0
LINE
  5
172
330
1F
100
AcDbEntity
  8
0
  6
Continuous
 62
     7
370
    15
100
AcDbLine
 10
157.2457287069
 20
791.9655256406
 30
0.0
 11
878.6457287069
 21
791.9655256406
 31
0.0
  0
LINE
  5
173
330
1F
100
AcDbEntity
  8
0
  6
Continuous
 62
     7
370
    15
100
AcDbLine
 10
119.1957287069
 20
807.9655256406
 30
0.0
 11
119.1957287069
 21
809.9655256406
 31
0.0
  0
LINE
  5
174
330
1F
100
AcDbEntity
  8
0
  6
Continuous
 62
     7
370
    15
100
AcDbLine
 10
121.4457287069
 20
805.7155256406
 30
0.0
 11
123.4457287069
 21
805.7155256406
 31
0.0
  0
ARC
  5
175
330
1F
100
AcDbEntity
  8
0
  6
Continuous
 62
     7
370
    15
100
AcDbCircle
 10
119.1957287069
 20
805.7155256406
 30
0.0
 40
2.25
100
AcDbArc
 50
0.0
 51
90.0
  0
ARC
  5
176
330
1F
100
AcDbEntity
  8
0
  6
Continuous
 62
     7
370
    15
100
AcDbCircle
 10
119.1957287069
 20
805.7155256406
 30
0.0
 40
4.25
100
AcDbArc
 50
0.0
 51
90.0
  0
ARC
  5
177
330
1F
100
AcDbEntity
  8
0
  6
Continuous
 62
     7
370
    15
100
AcDbCircle
 10
125.6957287069
 20
794.2155256406
 30
0.0
 40
4.25
100
AcDbArc
 50
180.0
 51
270.0
  0
LINE
  5
178
330
1F
100
AcDbEntity
  8
0
  6
Continuous
 62
     7
370
    15
100
AcDbLine
 10
123.4457287069
 20
794.2155256406
 30
0.0
 11
121.4457287069
 21
794.2155256406
 31
0.0
  0
ARC
  5
179
330
1F
100
AcDbEntity
  8
0
  6
Continuous
 62
     7
370
    15
100
AcDbCircle
 10
125.6957287069
 20
794.2155256406
 30
0.0
 40
2.25
100
AcDbArc
 50
180.0
 51
270.0
  0
LINE
  5
17A
330
1F
100
AcDbEntity
  8
0
  6
Continuous
 62
     7
370
    15
100
AcDbLine
 10
125.6957287069
 20
791.9655256406
 30
0.0
 11
125.6957287069
 21
789.9655256406
 31
0.0
  0
LINE
  5
17B
330
1F
100
AcDbEntity
  8
0
  6
Continuous
 62
     7
370
    15
100
AcDbLine
 10
157.2457287069
 20
789.9655256406
 30
0.0
 11
157.2457287069
 21
791.9655256406
 31
0.0
  0
LINE
  5
17C
330
1F
100
AcDbEntity
  8
0
  6
Continuous
 62
     7
370
    15
100
AcDbLine
 10
125.6957287069
 20
789.9655256406
 30
0.0
 11
157.2457287069
 21
789.9655256406
 31
0.0
  0
LINE
  5
17D
330
1F
100
AcDbEntity
  8
0
  6
Continuous
 62
     7
370
    15
100
AcDbLine
 10
125.6957287069
 20
791.9655256406
 30
0.0
 11
157.2457287069
 21
791.9655256406
 31
0.0
  0
LINE
  5
17E
330
1F
100
AcDbEntity
  8
0
  6
Continuous
 62
     7
370
    15
100
AcDbLine
 10
52.6957287069
 20
791.9655256406
 30
0.0
 11
52.6957287069
 21
789.9655256406
 31
0.0
  0
ARC
  5
17F
330
1F
100
AcDbEntity
  8
0
  6
Continuous
 62
     7
370
    15
100
AcDbCircle
 10
52.6957287069
 20
794.2155256406
 30
0.0
 40
4.250000000000114
100
AcDbArc
 50
180.0
 51
270.0
  0
LINE
  5
180
330
1F
100
AcDbEntity
  8
0
  6
Continuous
 62
     7
370
    15
100
AcDbLine
 10
50.4457287069
 20
794.2155256406
 30
0.0
 11
48.4457287069
 21
794.2155256406
 31
0.0
  0
ARC
  5
181
330
1F
100
AcDbEntity
  8
0
  6
Continuous
 62
     7
370
    15
100
AcDbCircle
 10
52.6957287069
 20
794.2155256406
 30
0.0
 40
2.250000000000114
100
AcDbArc
 50
180.0
 51
270.0
  0
LINE
  5
182
330
1F
100
AcDbEntity
  8
0
  6
Continuous
 62
     7
370
    15
100
AcDbLine
 10
50.4457287069
 20
805.7155256406
 30
0.0
 11
48.4457287069
 21
805.7155256406
 31
0.0
  0
LINE
  5
183
330
1F
100
AcDbEntity
  8
0
  6
Continuous
 62
     7
370
    15
100
AcDbLine
 10
50.4457287069
 20
805.7155256406
 30
0.0
 11
50.4457287069
 21
794.2155256406
 31
0.0
  0
LINE
  5
184
330
1F
100
AcDbEntity
  8
0
  6
Continuous
 62
     7
370
    15
100
AcDbLine
 10
48.4457287069
 20
805.7155256406
 30
0.0
 11
48.4457287069
 21
794.2155256406
 31
0.0
  0
LINE
  5
185
330
1F
100
AcDbEntity
  8
0
  6
Continuous
 62
     7
370
    15
100
AcDbLine
 10
63.4457287069
 20
789.9655256406
 30
0.0
 11
63.4457287069
 21
791.9655256406
 31
0.0
  0
LINE
  5
186
330
1F
100
AcDbEntity
  8
0
  6
Continuous
 62
     7
370
    15
100
AcDbLine
 10
61.4457287069
 20
789.9655256406
 30
0.0
 11
63.4457287069
 21
789.9655256406
 31
0.0
  0
LINE
  5
187
330
1F
100
AcDbEntity
  8
0
  6
Continuous
 62
     7
370
    15
100
AcDbLine
 10
61.4457287069
 20
789.9655256406
 30
0.0
 11
61.4457287069
 21
791.9655256406
 31
0.0
  0
LINE
  5
188
330
1F
100
AcDbEntity
  8
0
  6
Continuous
 62
     7
370
    15
100
AcDbLine
 10
61.4457287069
 20
791.9655256406
 30
0.0
 11
63.4457287069
 21
791.9655256406
 31
0.0
  0
LINE
  5
189
330
1F
100
AcDbEntity
  8
0
  6
Continuous
 62
     7
370
    15
100
AcDbLine
 10
121.4457287069
 20
794.2155256406
 30
0.0
 11
121.4457287069
 21
805.7155256406
 31
0.0
  0
LINE
  5
18A
330
1F
100
AcDbEntity
  8
0
  6
Continuous
 62
     7
370
    15
100
AcDbLine
 10
123.4457287069
 20
794.2155256406
 30
0.0
 11
123.4457287069
 21
805.7155256406
 31
0.0
  0
LINE
  5
18B
330
1F
100
AcDbEntity
  8
0
  6
Continuous
 62
     7
370
    15
100
AcDbLine
 10
52.6957287069
 20
807.9655256406
 30
0.0
 11
52.6957287069
 21
809.9655256406
 31
0.0
  0
LINE
  5
18C
330
1F
100
AcDbEntity
  8
0
  6
Continuous
 62
     7
370
    15
100
AcDbLine
 10
119.1957287069
 20
807.9655256406
 30
0.0
 11
52.6957287069
 21
807.9655256406
 31
0.0
  0
LINE
  5
18D
330
1F
100
AcDbEntity
  8
0
  6
Continuous
 62
     7
370
    15
100
AcDbLine
 10
119.1957287069
 20
809.9655256406
 30
0.0
 11
52.6957287069
 21
809.9655256406
 31
0.0
  0
LINE
  5
18E
330
1F
100
AcDbEntity
  8
0
  6
Continuous
 62
     7
370
    15
100
AcDbLine
 10
52.6957287069
 20
789.9655256406
 30
0.0
 11
61.4457287069
 21
789.9655256406
 31
0.0
  0
LINE
  5
18F
330
1F
100
AcDbEntity
  8
0
  6
Continuous
 62
     7
370
    15
100
AcDbLine
 10
52.6957287069
 20
791.9655256406
 30
0.0
 11
61.4457287069
 21
791.9655256406
 31
0.0
  0
ARC
  5
190
330
1F
100
AcDbEntity
  8
0
  6
Continuous
 62
     7
370
    15
100
AcDbCircle
 10
52.6957287069
 20
805.7155256406
 30
0.0
 40
2.25
100
AcDbArc
 50
90.0
 51
180.0
  0
ARC
  5
191
330
1F
100
AcDbEntity
  8
0
  6
Continuous
 62
     7
370
    15
100
AcDbCircle
 10
52.6957287069
 20
805.7155256406
 30
0.0
 40
4.25
100
AcDbArc
 50
90.0
 51
180.0
  0
ARC
  5
192
330
1F
100
AcDbEntity
  8
0
  6
Continuous
 62
     7
370
    15
100
AcDbCircle
 10
154.9957287069
 20
787.7155256406
 30
0.0
 40
4.24999999999999
100
AcDbArc
 50
31.9657187509
 51
58.0342812492
  0
LINE
  5
193
330
1F
100
AcDbEntity
  8
0
  6
Continuous
 62
     7
370
    15
100
AcDbLine
 10
936.4488729357
 20
789.9655256406
 30
0.0
 11
936.4488729357
 21
791.9655256406
 31
0.0
  0
ARC
  5
194
330
1F
100
AcDbEntity
  8
0
  6
Continuous
 62
     7
370
    15
100
AcDbCircle
 10
936.4488729357
 20
779.9655256406
 30
0.0
 40
12.0
100
AcDbArc
 50
335.0
 51
90.0
  0
LINE
  5
195
330
1F
100
AcDbEntity
  8
0
  6
Continuous
 62
     7
370
    15
100
AcDbLine
 10
945.5119508061
 20
775.7393430232
 30
0.0
 11
947.3245663802
 21
774.8941064997
 31
0.0
  0
ARC
  5
196
330
1F
100
AcDbEntity
  8
0
  6
Continuous
 62
     7
370
    15
100
AcDbCircle
 10
936.4488729357
 20
779.9655256406
 30
0.0
 40
9.999999999999929
100
AcDbArc
 50
335.0
 51
90.0
  0
LINE
  5
197
330
1F
100
AcDbEntity
  8
0
  6
Continuous
 62
     7
370
    15
100
AcDbLine
 10
878.6457287069
 20
789.9655256406
 30
0.0
 11
878.6457287069
 21
791.9655256406
 31
0.0
  0
LINE
  5
198
330
1F
100
AcDbEntity
  8
0
  6
Continuous
 62
     7
370
    15
100
AcDbLine
 10
878.6457287069
 20
791.9655256406
 30
0.0
 11
936.4488729357
 21
791.9655256406
 31
0.0
  0
LINE
  5
199
330
1F
100
AcDbEntity
  8
0
  6
Continuous
 62
     7
370
    15
100
AcDbLine
 10
878.6457287069
 20
789.9655256406
 30
0.0
 11
936.4488729357
 21
789.9655256406
 31
0.0
  0
LINE
  5
19A
330
1F
100
AcDbEntity
  8
0
  6
Continuous
 62
     7
370
    15
100
AcDbLine
 10
927.0821976516
 20
738.1272387828
 30
0.0
 11
909.5358091254
 21
729.94522344
 31
0.0
  0
LINE
  5
19B
330
1F
100
AcDbEntity
  8
0
  6
Continuous
 62
     7
370
    15
100
AcDbLine
 10
909.5358091254
 20
729.94522344
 30
0.0
 11
908.6905726019
 21
731.7578390141
 31
0.0
  0
LINE
  5
19C
330
1F
100
AcDbEntity
  8
0
  6
Continuous
 62
     7
370
    15
100
AcDbLine
 10
926.2369611281
 20
739.9398543568
 30
0.0
 11
908.6905726019
 21
731.7578390141
 31
0.0
  0
LINE
  5
19D
330
1F
100
AcDbEntity
  8
0
  6
Continuous
 62
     7
370
    15
100
AcDbLine
 10
926.2369611281
 20
739.9398543568
 30
0.0
 11
927.0821976516
 21
738.1272387828
 31
0.0
  0
LINE
  5
19E
330
1F
100
AcDbEntity
  8
0
  6
Continuous
 62
     7
370
    15
100
AcDbLine
 10
931.0738563811
 20
744.7767496098
 30
0.0
 11
932.8864719551
 21
743.9315130863
 31
0.0
  0
LINE
  5
19F
330
1F
100
AcDbEntity
  8
0
  6
Continuous
 62
     7
370
    15
100
AcDbLine
 10
931.0738563811
 20
744.7767496098
 30
0.0
 11
945.5119508061
 21
775.7393430232
 31
0.0
  0
LINE
  5
1A0
330
1F
100
AcDbEntity
  8
0
  6
Continuous
 62
     7
370
    15
100
AcDbLine
 10
932.8864719551
 20
743.9315130863
 30
0.0
 11
947.3245663802
 21
774.8941064997
 31
0.0
  0
LINE
  5
1A1
330
1F
100
AcDbEntity
  8
0
  6
Continuous
 62
     7
370
    15
100
AcDbLine
 10
907.7231935513
 20
729.0999869166
 30
0.0
 11
906.8779570278
 21
730.9126024906
 31
0.0
  0
LINE
  5
1A2
330
1F
100
AcDbEntity
  8
0
  6
Continuous
 62
     7
370
    15
100
AcDbLine
 10
908.6905726019
 20
731.7578390141
 30
0.0
 11
906.8779570278
 21
730.9126024906
 31
0.0
  0
LINE
  5
1A3
330
1F
100
AcDbEntity
  8
0
  6
Continuous
 62
     7
370
    15
100
AcDbLine
 10
909.5358091254
 20
729.94522344
 30
0.0
 11
907.7231935513
 21
729.0999869166
 31
0.0
  0
ARC
  5
1A4
330
1F
100
AcDbEntity
  8
0
  6
Continuous
 62
     7
370
    15
100
AcDbCircle
 10
922.0107785107
 20
749.0029322272
 30
0.0
 40
10.00000000000018
100
AcDbArc
 50
295.0
 51
335.0
  0
ARC
  5
1A5
330
1F
100
AcDbEntity
  8
0
  6
Continuous
 62
     7
370
    15
100
AcDbCircle
 10
922.0107785107
 20
749.0029322272
 30
0.0
 40
11.99999999999996
100
AcDbArc
 50
295.0
 51
335.0
  0
ARC
  5
1A6
330
1F
100
AcDbEntity
  8
0
  6
Continuous
 62
     7
370
    15
100
AcDbCircle
 10
880.8957287069
 20
787.7155256406
 30
0.0
 40
4.249999999999955
100
AcDbArc
 50
121.9657187508
 51
148.0342812492
  0
LINE
  5
1A7
330
1F
100
AcDbEntity
  8
0
  6
Continuous
 62
     7
370
    15
100
AcDbLine
 10
63.54412165
 20
792.1655256406
 30
0.0
 11
52.6941216511
 21
792.1655256406
 31
0.0
  0
ARC
  5
1A8
330
1F
100
AcDbEntity
  8
0
  6
Continuous
 62
     7
370
    15
100
AcDbCircle
 10
52.6941216511
 20
794.3155256406
 30
0.0
 40
2.149999999999984
100
AcDbArc
 50
180.0
 51
270.0
  0
LINE
  5
1A9
330
1F
100
AcDbEntity
  8
0
  6
Continuous
 62
     7
370
    15
100
AcDbLine
 10
50.5441216511
 20
794.3155256406
 30
0.0
 11
50.5441216511
 21
805.8155256406
 31
0.0
  0
ARC
  5
1AA
330
1F
100
AcDbEntity
  8
0
  6
Continuous
 62
     7
370
    15
100
AcDbCircle
 10
52.6941216511
 20
805.8155256406
 30
0.0
 40
2.150000000000091
100
AcDbArc
 50
90.0
 51
180.0
  0
LINE
  5
1AB
330
1F
100
AcDbEntity
  8
0
  6
Continuous
 62
     7
370
    15
100
AcDbLine
 10
52.6941216511
 20
807.9655256406
 30
0.0
 11
52.6957287069
 21
807.9655256406
 31
0.0
  0
LINE
  5
1AC
330
1F
100
AcDbEntity
  8
0
  6
Continuous
 62
     7
370
    15
100
AcDbLine
 10
119.1941216511
 20
805.6655256406
 30
0.0
 11
52.6957287069
 21
805.6655256406
 31
0.0
  0
LINE
  5
1AD
330
1F
100
AcDbEntity
  8
0
  6
Continuous
 62
     7
370
    15
100
AcDbLine
 10
119.1941216511
 20
805.6655256406
 30
0.0
 11
119.1941216511
 21
807.9655256406
 31
0.0
  0
ARC
  5
1AE
330
1F
100
AcDbEntity
  8
0
  6
Continuous
 62
     7
370
    15
100
AcDbCircle
 10
119.1941216511
 20
805.8155256406
 30
0.0
 40
2.150000000000091
100
AcDbArc
 50
359.9999999959
 51
90.0
  0
LINE
  5
1AF
330
1F
100
AcDbEntity
  8
0
  6
Continuous
 62
     7
370
    15
100
AcDbLine
 10
121.3441216511
 20
805.8155256405
 30
0.0
 11
121.3441216511
 21
794.3155256404
 31
0.0
  0
ARC
  5
1B0
330
1F
100
AcDbEntity
  8
0
  6
Continuous
 62
     7
370
    15
100
AcDbCircle
 10
125.6941216511
 20
794.3155256401
 30
0.0
 40
4.350000000000072
100
AcDbArc
 50
179.999999996
 51
252.5584061437
  0
LINE
  5
1B1
330
1F
100
AcDbEntity
  8
0
  6
Continuous
 62
     7
370
    15
100
AcDbLine
 10
124.3902811701
 20
790.1655256401
 30
0.0
 11
119.1941216511
 21
790.1655256401
 31
0.0
  0
LINE
  5
1B2
330
1F
100
AcDbEntity
  8
0
  6
Continuous
 62
     7
370
    15
100
AcDbLine
 10
119.1941216511
 20
790.1655256401
 30
0.0
 11
119.1941216511
 21
792.4655256401
 31
0.0
  0
LINE
  5
1B3
330
1F
100
AcDbEntity
  8
0
  6
Continuous
 62
     7
370
    15
100
AcDbLine
 10
63.54412165
 20
792.4655256401
 30
0.0
 11
119.1941216511
 21
792.4655256401
 31
0.0
  0
LINE
  5
1B4
330
1F
100
AcDbEntity
  8
0
  6
Continuous
 62
     7
370
    15
100
AcDbLine
 10
63.54412165
 20
792.4655256401
 30
0.0
 11
63.54412165
 21
792.1655256406
 31
0.0
  0
LINE
  5
1B5
330
1F
100
AcDbEntity
  8
0
  6
Continuous
 62
     7
370
    15
100
AcDbLine
 10
52.6957287069
 20
807.9655256406
 30
0.0
 11
52.6957287069
 21
805.6655256406
 31
0.0
  0
LINE
  5
1B6
330
1F
100
AcDbEntity
  8
0
  6
Continuous
 62
     7
370
    15
100
AcDbLine
 10
119.1941216511
 20
790.1655256401
 30
0.0
 11
63.54412165
 21
790.1655256401
 31
0.0
  0
LINE
  5
1B7
330
1F
100
AcDbEntity
  8
0
  6
Continuous
 62
     7
370
    15
100
AcDbLine
 10
63.54412165
 20
790.1655256401
 30
0.0
 11
63.54412165
 21
792.1655256406
 31
0.0
  0
LINE
  5
1B8
330
1F
100
AcDbEntity
  8
0
  6
Continuous
 62
     7
370
    15
100
AcDbLine
 10
910.6171417545
 20
687.8919727525
 30
0.0
 11
907.755818714
 21
686.6818202202
 31
0.0
  0
LINE
  5
1B9
330
1F
100
AcDbEntity
  8
0
  6
Continuous
 62
     7
370
    15
100
AcDbLine
 10
934.0292783062
 20
637.6844838934
 30
0.0
 11
910.6171417545
 21
687.8919727525
 31
0.0
  0
LINE
  5
1BA
330
1F
100
AcDbEntity
  8
0
  6
Continuous
 62
     7
370
    15
100
AcDbLine
 10
931.2630246858
 20
636.2704543319
 30
0.0
 11
934.0292783062
 21
637.6844838934
 31
0.0
  0
LINE
  5
1BB
330
1F
100
AcDbEntity
  8
0
  6
Continuous
 62
     7
370
    15
100
AcDbLine
 10
913.1184772698
 20
687.0125697507
 30
0.0
 11
934.9634440003
 21
640.1658874188
 31
0.0
  0
ARC
  5
1BC
330
1F
100
AcDbEntity
  8
0
  6
Continuous
 62
     7
370
    15
100
AcDbCircle
 10
933.1920056568
 20
639.4162320116
 30
0.0
 40
1.923532436518706
100
AcDbArc
 50
295.8030276957
 51
22.9376068066
  0
ARC
  5
1BD
330
1F
100
AcDbEntity
  8
0
  6
Continuous
 62
     7
370
    15
100
AcDbCircle
 10
911.4055492924
 20
686.1374384586
 30
0.0
 40
1.923532436518243
100
AcDbArc
 50
27.0623931934
 51
114.1969723043
  0
SPLINE
  5
1BE
330
1F
100
AcDbEntity
  8
0
  6
Continuous
 62
     7
370
    15
100
AcDbSpline
210
0.0
220
0.0
230
1.0
 70
     8
 71
     3
 72
    11
 73
     7
 74
     0
 42
0.00000001
 43
0.00000001
 12
1.0
 22
0.0
 32
0.0
 13
1.0
 23
0.0
 33
0.0
 40
0.0
 40
0.0
 40
0.0
 40
0.0
 40
0.2835227646035612
 40
0.5667788824160994
 40
0.8499302227267678
 40
1.0
 40
1.0
 40
1.0
 40
1.0
 10
934.0292783062291
 20
637.6844838934328
 30
0.0
 10
934.0792624948276
 20
637.5933628461964
 30
0.0
 10
934.179183863018
 20
637.411206449022
 30
0.0
 10
934.4109102442495
 20
636.9214625766648
 30
0.0
 10
934.6316745336607
 20
636.4281022402376
 30
0.0
 10
934.7662467762818
 20
636.1131734155874
 30
0.0
 10
934.8128632168421
 20
636.0040806298161
 30
0.0
  0
LWPOLYLINE
  5
1BF
330
1F
100
AcDbEntity
  8
0
  6
Continuous
 62
     7
370
    15
100
AcDbPolyline
 90
        3
 70
   128
 43
0.0
 10
934.8128632168
 20
636.0040806298
 10
934.3192784223
 20
635.7522546938
 10
932.0455243579
 20
634.5923783698
  0
LWPOLYLINE
  5
1C0
330
1F
100
AcDbEntity
  8
0
  6
Continuous
 62
     7
370
    15
100
AcDbPolyline
 90
        3
 70
   128
 43
0.0
 10
906.9733190419
 20
688.3598961823
 10
909.3233767947
 20
689.3561387186
 10
909.8335568439
 20
689.5723760161
  0
SPLINE
  5
1C1
330
1F
100
AcDbEntity
  8
0
  6
Continuous
 62
     7
370
    15
100
AcDbSpline
210
0.0
220
0.0
230
1.0
 70
     8
 71
     3
 72
    11
 73
     7
 74
     0
 42
0.00000001
 43
0.00000001
 12
1.0
 22
0.0
 32
0.0
 13
1.0
 23
0.0
 33
0.0
 40
0.0
 40
0.0
 40
0.0
 40
0.0
 40
0.2835227523786719
 40
0.5667788888047351
 40
0.8499302218874388
 40
1.0
 40
1.0
 40
1.0
 40
1.0
 10
909.8335568438988
 20
689.5723760161206
 30
0.0
 10
909.9347833889104
 20
689.3713637676583
 30
0.0
 10
910.1371412886482
 20
688.9695282963821
 30
0.0
 10
910.391822485332
 20
688.4305641121526
 30
0.0
 10
910.549042129381
 20
688.0734786755299
 30
0.0
 10
910.5996210014646
 20
687.93867081362
 30
0.0
 10
910.6171417545272
 20
687.8919727525102
 30
0.0
  0
LINE
  5
1C2
330
1F
100
AcDbEntity
  8
0
  6
Continuous
 62
     7
370
    15
100
AcDbLine
 10
936.5306138215
 20
636.8050808916
 30
0.0
 11
934.8128632168
 21
636.0040806298
 31
0.0
  0
SPLINE
  5
1C3
330
1F
100
AcDbEntity
  8
0
  6
Continuous
 62
     7
370
    15
100
AcDbSpline
210
0.0
220
0.0
230
1.0
 70
    24
 71
     3
 72
    11
 73
     7
 74
     0
 42
0.00000001
 43
0.00000001
 12
1.0
 22
0.0
 32
0.0
 13
1.0
 23
0.0
 33
0.0
 40
0.0
 40
0.0
 40
0.0
 40
0.0
 40
0.1499516226907178
 40
0.4331749578253685
 40
0.7165923401617044
 40
0.9999999999999999
 40
0.9999999999999999
 40
0.9999999999999999
 40
0.9999999999999999
 10
936.5306138215456
 20
636.8050808915898
 30
0.0
 10
936.4304904960508
 20
637.0197960560179
 30
0.0
 10
936.1412577653854
 20
637.6400576485678
 30
0.0
 10
935.68491965934
 20
638.618677875074
 30
0.0
 10
935.2271531737879
 20
639.6003612713179
 30
0.0
 10
935.0513460529618
 20
639.9773808586044
 30
0.0
 10
934.9634440003194
 20
640.165887418823
 30
0.0
  0
LINE
  5
1C4
330
1F
100
AcDbEntity
  8
0
  6
Continuous
 62
     7
370
    15
100
AcDbLine
 10
911.5513074486
 20
690.3733762779
 30
0.0
 11
909.8335568439
 21
689.5723760161
 31
0.0
  0
SPLINE
  5
1C5
330
1F
100
AcDbEntity
  8
0
  6
Continuous
 62
     7
370
    15
100
AcDbSpline
210
0.0
220
0.0
230
1.0
 70
    24
 71
     3
 72
    11
 73
     7
 74
     0
 42
0.00000001
 43
0.00000001
 12
1.0
 22
0.0
 32
0.0
 13
1.0
 23
0.0
 33
0.0
 40
0.0
 40
0.0
 40
0.0
 40
0.0
 40
0.1499515950756858
 40
0.4331749432232051
 40
0.7165923323728148
 40
1.0
 40
1.0
 40
1.0
 40
1.0
 10
913.1184772698282
 20
687.0125697506611
 30
0.0
 10
913.0763187544187
 20
687.1029789787152
 30
0.0
 10
912.9545327039957
 20
687.364150006669
 30
0.0
 10
912.624596195094
 20
688.0717011333372
 30
0.0
 10
912.1212681410332
 20
689.1510916285575
 30
0.0
 10
911.7412921737775
 20
689.9659527199644
 30
0.0
 10
911.5513074486022
 20
690.3733762778942
 30
0.0
  0
LINE
  5
1C6
330
1F
100
AcDbEntity
  8
0
  6
Continuous
 62
     7
370
    15
100
AcDbLine
 10
899.2711450964
 20
705.0010140182
 30
0.0
 11
899.2237451363
 21
704.9789110538
 31
0.0
  0
SPLINE
  5
1C7
330
1F
100
AcDbEntity
  8
0
  6
Continuous
 62
     7
370
    15
100
AcDbSpline
210
0.0
220
0.0
230
1.0
 70
     8
 71
     3
 72
    13
 73
     9
 74
     0
 42
0.00000001
 43
0.00000001
 12
1.0
 22
0.0
 32
0.0
 13
1.0
 23
0.0
 33
0.0
 40
0.0
 40
0.0
 40
0.0
 40
0.0
 40
0.2359779310481742
 40
0.4700664405346316
 40
0.6281567545471072
 40
0.7867756990089785
 40
0.8916100492377179
 40
1.0
 40
1.0
 40
1.0
 40
1.0
 10
904.2272119906816
 20
701.5952213526077
 30
0.0
 10
903.9975573990042
 20
702.076859459711
 30
0.0
 10
903.5400870076728
 20
703.036279307263
 30
0.0
 10
902.7251585838221
 20
704.2172123623578
 30
0.0
 10
901.7318566056309
 20
705.0067719966058
 30
0.0
 10
900.8009185166295
 20
705.2817132664113
 30
0.0
 10
899.9431147423458
 20
705.2981813939905
 30
0.0
 10
899.4976112944969
 20
705.1011649196394
 30
0.0
 10
899.2711450964495
 20
705.0010140181943
 30
0.0
  0
LINE
  5
1C8
330
1F
100
AcDbEntity
  8
0
  6
Continuous
 62
     7
370
    15
100
AcDbLine
 10
909.8335568439
 20
689.5723760161
 30
0.0
 11
904.2272119907
 21
701.5952213526
 31
0.0
  0
LINE
  5
1C9
330
1F
100
AcDbEntity
  8
0
  6
Continuous
 62
     7
370
    15
100
AcDbLine
 10
898.4270620271
 20
706.8111434806
 30
0.0
 11
898.8427367487
 21
706.9790869695
 31
0.0
  0
SPLINE
  5
1CA
330
1F
100
AcDbEntity
  8
0
  6
Continuous
 62
     7
370
    15
100
AcDbSpline
210
0.0
220
0.0
230
1.0
 70
     8
 71
     3
 72
    14
 73
    10
 74
     0
 42
0.00000001
 43
0.00000001
 12
1.0
 22
0.0
 32
0.0
 13
1.0
 23
0.0
 33
0.0
 40
0.0
 40
0.0
 40
0.0
 40
0.0
 40
0.0000064140457935
 40
0.0730558909548038
 40
0.2154935957733511
 40
0.4037789030075351
 40
0.5887468703998125
 40
0.8882363243876853
 40
1.0
 40
1.0
 40
1.0
 40
1.0
 10
898.8427367486646
 20
706.9790869695083
 30
0.0
 10
898.8427552886342
 20
706.9790944600102
 30
0.0
 10
899.0539252816563
 20
707.0644111704715
 30
0.0
 10
899.7049402165942
 20
707.2505532925968
 30
0.0
 10
900.982871119512
 20
707.2564185928484
 30
0.0
 10
902.5544830927021
 20
706.7823801973921
 30
0.0
 10
904.2461541858198
 20
705.4755483175783
 30
0.0
 10
905.2389716981577
 20
703.8639628827851
 30
0.0
 10
905.7940991110063
 20
702.7098638479956
 30
0.0
 10
905.9449625953848
 20
702.3962216143813
 30
0.0
  0
LINE
  5
1CB
330
1F
100
AcDbEntity
  8
0
  6
Continuous
 62
     7
370
    15
100
AcDbLine
 10
905.9449625954
 20
702.3962216144
 30
0.0
 11
904.2272119907
 21
701.5952213526
 31
0.0
  0
SPLINE
  5
1CC
330
1F
100
AcDbEntity
  8
0
  6
Continuous
 62
     7
370
    15
100
AcDbSpline
210
0.0
220
0.0
230
1.0
 70
     8
 71
     3
 72
    15
 73
    11
 74
     0
 42
0.00000001
 43
0.00000001
 12
1.0
 22
0.0
 32
0.0
 13
1.0
 23
0.0
 33
0.0
 40
0.0
 40
0.0
 40
0.0
 40
0.0
 40
0.0125258353877789
 40
0.2274813526119545
 40
0.4424404199769091
 40
0.4999991763207104
 40
0.7148755009569865
 40
0.9297495265588372
 40
0.9874741646146459
 40
1.0
 40
1.0
 40
1.0
 40
1.0
 10
899.2711450964495
 20
705.0010140181943
 30
0.0
 10
899.2659424695836
 20
705.0129714561232
 30
0.0
 10
899.1714577058971
 20
705.2301301580885
 30
0.0
 10
898.9849668531041
 20
705.6531442258794
 30
0.0
 10
898.800234943711
 20
706.0608620376954
 30
0.0
 10
898.6426384085555
 20
706.4008234444492
 30
0.0
 10
898.512816056431
 20
706.6716852399322
 30
0.0
 10
898.4443631602581
 20
706.7964475015436
 30
0.0
 10
898.4293700491484
 20
706.8114971505099
 30
0.0
 10
898.4274154501453
 20
706.8111986831057
 30
0.0
 10
898.427066940247
 20
706.8111454656197
 30
0.0
  0
LINE
  5
1CD
330
1F
100
AcDbEntity
  8
0
  6
Continuous
 62
     7
370
    15
100
AcDbLine
 10
946.7584819962
 20
610.3866184878
 30
0.0
 11
934.8128632168
 21
636.0040806298
 31
0.0
  0
LINE
  5
1CE
330
1F
100
AcDbEntity
  8
0
  6
Continuous
 62
     7
370
    15
100
AcDbLine
 10
947.6199019567
 20
608.1091143342
 30
0.0
 11
946.7584819962
 21
610.3866184878
 31
0.0
  0
LINE
  5
1CF
330
1F
100
AcDbEntity
  8
0
  6
Continuous
 62
     7
370
    15
100
AcDbLine
 10
947.6199019567
 20
608.1091143342
 30
0.0
 11
944.9708833078
 21
606.8738566516
 31
0.0
  0
SPLINE
  5
1D0
330
1F
100
AcDbEntity
  8
0
  6
Continuous
 62
     7
370
    15
100
AcDbSpline
210
0.0
220
0.0
230
1.0
 70
     8
 71
     3
 72
     9
 73
     5
 74
     0
 42
0.00000001
 43
0.00000001
 12
1.0
 22
0.0
 32
0.0
 13
1.0
 23
0.0
 33
0.0
 40
0.0
 40
0.0
 40
0.0
 40
0.0
 40
0.0000220488581531
 40
1.0
 40
1.0
 40
1.0
 40
1.0
 10
948.4762326008735
 20
611.1876187495529
 30
0.0
 10
948.4762410532346
 20
611.1876006233947
 30
0.0
 10
948.8595879400827
 20
610.3655100553884
 30
0.0
 10
949.1505260003111
 20
609.5044158123726
 30
0.0
 10
949.4414576456874
 20
608.6433405555016
 30
0.0
  0
SPLINE
  5
1D1
330
1F
100
AcDbEntity
  8
0
  6
Continuous
 62
     7
370
    15
100
AcDbSpline
210
0.0
220
0.0
230
1.0
 70
     8
 71
     3
 72
    11
 73
     7
 74
     0
 42
0.00000001
 43
0.00000001
 12
1.0
 22
0.0
 32
0.0
 13
1.0
 23
0.0
 33
0.0
 40
0.0
 40
0.0
 40
0.0
 40
0.0
 40
0.2499768814500236
 40
0.499805842719998
 40
0.7495361389842369
 40
1.0
 40
1.0
 40
1.0
 40
1.0
 10
949.4414576456874
 20
608.6433405555016
 30
0.0
 10
949.4161080767213
 20
608.6293096340883
 30
0.0
 10
949.3654239390278
 20
608.601256093855
 30
0.0
 10
948.9506026135432
 20
608.473991818058
 30
0.0
 10
948.3505713665268
 20
608.3035934287054
 30
0.0
 10
947.8636964370792
 20
608.1740040492525
 30
0.0
 10
947.6199019567031
 20
608.1091143342248
 30
0.0
  0
LINE
  5
1D2
330
1F
100
AcDbEntity
  8
0
  6
Continuous
 62
     7
370
    15
100
AcDbLine
 10
948.4762326009
 20
611.1876187496
 30
0.0
 11
946.7584819962
 21
610.3866184878
 31
0.0
  0
LINE
  5
1D3
330
1F
100
AcDbEntity
  8
0
  6
Continuous
 62
     7
370
    15
100
AcDbLine
 10
898.4270620271
 20
706.8111434806
 30
0.0
 11
898.3785086129
 21
706.7915266279
 31
0.0
  0
SPLINE
  5
1D4
330
1F
100
AcDbEntity
  8
0
  6
Continuous
 62
     7
370
    15
100
AcDbSpline
210
0.0
220
0.0
230
1.0
 70
     8
 71
     3
 72
    11
 73
     7
 74
     0
 42
0.00000001
 43
0.00000001
 12
1.0
 22
0.0
 32
0.0
 13
1.0
 23
0.0
 33
0.0
 40
0.0
 40
0.0
 40
0.0
 40
0.0
 40
0.2440033155445621
 40
0.4919416665511585
 40
0.7439093003410249
 40
1.0
 40
1.0
 40
1.0
 40
1.0
 10
948.2547611130432
 20
606.7999605291233
 30
0.0
 10
948.2178186788032
 20
606.8829792771292
 30
0.0
 10
948.1433380405957
 20
607.0503556144462
 30
0.0
 10
947.9904420033846
 20
607.3711491452287
 30
0.0
 10
947.8145969721603
 20
607.7288846644541
 30
0.0
 10
947.6851504626467
 20
607.9816872513603
 30
0.0
 10
947.6199019567031
 20
608.1091143342248
 30
0.0
  0
LINE
  5
1D5
330
1F
100
AcDbEntity
  8
0
  6
Continuous
 62
     7
370
    15
100
AcDbLine
 10
948.254761113
 20
606.7999605291
 30
0.0
 11
945.6371215418
 21
605.4451041482
 31
0.0
  0
SPLINE
  5
1D6
330
1F
100
AcDbEntity
  8
0
  6
Continuous
 62
     7
370
    15
100
AcDbSpline
210
0.0
220
0.0
230
1.0
 70
     8
 71
     3
 72
    11
 73
     7
 74
     0
 42
0.00000001
 43
0.00000001
 12
1.0
 22
0.0
 32
0.0
 13
1.0
 23
0.0
 33
0.0
 40
0.0
 40
0.0
 40
0.0
 40
0.0
 40
0.250148001126544
 40
0.5002880311524611
 40
0.7504202668475203
 40
1.0
 40
1.0
 40
1.0
 40
1.0
 10
949.4414576456874
 20
608.6433405555016
 30
0.0
 10
949.4631108888054
 20
608.469510442059
 30
0.0
 10
949.5064166850493
 20
608.1218557543638
 30
0.0
 10
949.2742779725826
 20
607.5890747960302
 30
0.0
 10
948.857297897843
 20
607.1139557371639
 30
0.0
 10
948.4554586111784
 20
606.9045484219622
 30
0.0
 10
948.2547611130432
 20
606.7999605291233
 30
0.0
  0
LINE
  5
1D7
330
1F
100
AcDbEntity
  8
0
  6
Continuous
 62
     7
370
    15
100
AcDbLine
 10
905.9449625954
 20
702.3962216144
 30
0.0
 11
911.5513074486
 21
690.3733762779
 31
0.0
  0
LINE
  5
1D8
330
1F
100
AcDbEntity
  8
0
  6
Continuous
 62
     7
370
    15
100
AcDbLine
 10
936.5306138215
 20
636.8050808916
 30
0.0
 11
948.4762326009
 21
611.1876187496
 31
0.0
  0
SPLINE
  5
1D9
330
1F
100
AcDbEntity
  8
0
  6
Continuous
 62
     7
370
    15
100
AcDbSpline
210
0.0
220
0.0
230
1.0
 70
     8
 71
     3
 72
    14
 73
    10
 74
     0
 42
0.00000001
 43
0.00000001
 12
1.0
 22
0.0
 32
0.0
 13
1.0
 23
0.0
 33
0.0
 40
0.0
 40
0.0
 40
0.0
 40
0.0
 40
0.0024045749465583
 40
0.00519013216094
 40
0.0347267574258771
 40
0.2932094380103042
 40
0.5746449636639225
 40
0.7844996086191843
 40
1.0
 40
1.0
 40
1.0
 40
1.0
 10
947.4216883642639
 20
602.8011890387596
 30
0.0
 10
947.4235582941253
 20
602.8021874447575
 30
0.0
 10
947.4275944266344
 20
602.8043424447862
 30
0.0
 10
947.4545578081445
 20
602.819009928916
 30
0.0
 10
947.6785561233612
 20
602.952221283454
 30
0.0
 10
948.0891062727081
 20
603.3964627794602
 30
0.0
 10
948.4982348309725
 20
604.3865876512502
 30
0.0
 10
948.5665329806418
 20
605.5441855569084
 30
0.0
 10
948.3596006081667
 20
606.37768120325
 30
0.0
 10
948.2547611130432
 20
606.7999605291233
 30
0.0
  0
SPLINE
  5
1DA
330
1F
100
AcDbEntity
  8
0
  6
Continuous
 62
     7
370
    15
100
AcDbSpline
210
0.0
220
0.0
230
1.0
 70
     8
 71
     3
 72
    20
 73
    16
 74
     0
 42
0.00000001
 43
0.00000001
 12
1.0
 22
0.0
 32
0.0
 13
1.0
 23
0.0
 33
0.0
 40
0.0
 40
0.0
 40
0.0
 40
0.0
 40
0.2070577373168113
 40
0.4203770502760578
 40
0.7011163025568209
 40
0.8834527988430978
 40
0.9282286404934971
 40
0.9524788585968976
 40
0.9675018207221386
 40
0.9773827146382346
 40
0.9840938553685394
 40
0.9887393639099429
 40
0.9919933949590756
 40
0.9977340800222574
 40
1.0
 40
1.0
 40
1.0
 40
1.0
 10
949.4414576456874
 20
608.6433405555016
 30
0.0
 10
949.5463229793007
 20
608.1542260832415
 30
0.0
 10
949.759224850015
 20
607.1612059635372
 30
0.0
 10
949.5607935413901
 20
605.4524484766966
 30
0.0
 10
948.9267066473913
 20
604.155634655071
 30
0.0
 10
948.2559531317852
 20
603.3879475281825
 30
0.0
 10
947.845601381284
 20
603.0664214114744
 30
0.0
 10
947.7001183818522
 20
602.9663259323016
 30
0.0
 10
947.6122222414372
 20
602.9104543493534
 30
0.0
 10
947.5545474592791
 20
602.8756826161831
 30
0.0
 10
947.5152961606622
 20
602.8528668821324
 30
0.0
 10
947.48805613173
 20
602.8374323861327
 30
0.0
 10
947.4624707824623
 20
602.8231990914749
 30
0.0
 10
947.4412133804879
 20
602.8116053243319
 30
0.0
 10
947.4259952045244
 20
602.80348666953
 30
0.0
 10
947.4216883642639
 20
602.8011890387597
 30
0.0
  0
SPLINE
  5
1DB
330
1F
100
AcDbEntity
  8
0
  6
Continuous
 62
     7
370
    15
100
AcDbSpline
210
0.0
220
0.0
230
1.0
 70
     8
 71
     3
 72
    10
 73
     6
 74
     0
 42
0.00000001
 43
0.00000001
 12
1.0
 22
0.0
 32
0.0
 13
1.0
 23
0.0
 33
0.0
 40
0.0
 40
0.0
 40
0.0
 40
0.0
 40
0.4527378322261458
 40
0.9055954617468476
 40
1.0
 40
1.0
 40
1.0
 40
1.0
 10
949.5635393878721
 20
605.846418655662
 30
0.0
 10
949.57116243472
 20
605.8989180797012
 30
0.0
 10
949.5864105455227
 20
606.0039308194594
 30
0.0
 10
949.7097715628615
 20
606.4865996784382
 30
0.0
 10
949.6677510306527
 20
606.9630454588975
 30
0.0
 10
949.6605023495379
 20
607.0452339355647
 30
0.0
  0
SPLINE
  5
1DC
330
1F
100
AcDbEntity
  8
0
  6
Continuous
 62
     7
370
    15
100
AcDbSpline
210
0.0
220
0.0
230
1.0
 70
     8
 71
     3
 72
    12
 73
     8
 74
     0
 42
0.00000001
 43
0.00000001
 12
1.0
 22
0.0
 32
0.0
 13
1.0
 23
0.0
 33
0.0
 40
0.0
 40
0.0
 40
0.0
 40
0.0
 40
0.4616906276032707
 40
0.7307729957145425
 40
0.9175829515522121
 40
0.9719359527203323
 40
1.0
 40
1.0
 40
1.0
 40
1.0
 10
949.4204069012945
 20
608.7187263543026
 30
0.0
 10
949.3903931084031
 20
608.8272861943229
 30
0.0
 10
949.3428866873653
 20
608.9991168418667
 30
0.0
 10
949.271263306786
 20
609.2232158359144
 30
0.0
 10
949.229772077926
 20
609.3475845858253
 30
0.0
 10
949.2072848580711
 20
609.4132561888274
 30
0.0
 10
949.2003406623218
 20
609.4333440931691
 30
0.0
 10
949.1979760758495
 20
609.4401842786383
 30
0.0
  0
LINE
  5
1DD
330
1F
100
AcDbEntity
  8
0
  6
Continuous
 62
     7
370
    15
100
AcDbLine
 10
904.5751227552
 20
704.6573659624
 30
0.0
 11
904.1295100318
 21
705.3922549802
 31
0.0
  0
LINE
  5
1DE
330
1F
100
AcDbEntity
  8
0
  6
Continuous
 62
     7
370
    15
100
AcDbLine
 10
948.522414348
 20
611.0880732889
 30
0.0
 11
948.4803803906
 21
611.1787197776
 31
0.0
  0
SPLINE
  5
1DF
330
1F
100
AcDbEntity
  8
0
  6
Continuous
 62
     7
370
    15
100
AcDbSpline
210
0.0
220
0.0
230
1.0
 70
     8
 71
     3
 72
     9
 73
     5
 74
     0
 42
0.00000001
 43
0.00000001
 12
1.0
 22
0.0
 32
0.0
 13
1.0
 23
0.0
 33
0.0
 40
0.0
 40
0.0
 40
0.0
 40
0.0
 40
0.5000138394956892
 40
1.0
 40
1.0
 40
1.0
 40
1.0
 10
948.9902211880468
 20
610.0004380078907
 30
0.0
 10
948.9222517756089
 20
610.1691550031904
 30
0.0
 10
948.7863167132786
 20
610.5065796542159
 30
0.0
 10
948.6103801798157
 20
610.8942456540966
 30
0.0
 10
948.5224143479571
 20
611.0880732889349
 30
0.0
  0
SPLINE
  5
1E0
330
1F
100
AcDbEntity
  8
0
  6
Continuous
 62
     7
370
    15
100
AcDbSpline
210
0.0
220
0.0
230
1.0
 70
     8
 71
     3
 72
    13
 73
     9
 74
     0
 42
0.00000001
 43
0.00000001
 12
1.0
 22
0.0
 32
0.0
 13
1.0
 23
0.0
 33
0.0
 40
0.0
 40
0.0
 40
0.0
 40
0.0
 40
0.1254648118065551
 40
0.2502435788816385
 40
0.3760698054095817
 40
0.5019139201694192
 40
0.7508310514861682
 40
1.0
 40
1.0
 40
1.0
 40
1.0
 10
904.1295100314188
 20
705.3922549806632
 30
0.0
 10
904.0418330591287
 20
705.4895272590283
 30
0.0
 10
903.8669585344278
 20
705.6835399285055
 30
0.0
 10
903.5932765022468
 20
705.9429400657547
 30
0.0
 10
903.3262758752214
 20
706.1664122341488
 30
0.0
 10
903.0014168595117
 20
706.404885988181
 30
0.0
 10
902.6687305197697
 20
706.6024468236153
 30
0.0
 10
902.6158158298351
 20
706.6294110238292
 30
0.0
 10
902.5893451088376
 20
706.6428999400766
 30
0.0
  0
SPLINE
  5
1E1
330
1F
100
AcDbEntity
  8
0
  6
Continuous
 62
     7
370
    15
100
AcDbSpline
210
0.0
220
0.0
230
1.0
 70
     8
 71
     3
 72
     9
 73
     5
 74
     0
 42
0.00000001
 43
0.00000001
 12
1.0
 22
0.0
 32
0.0
 13
1.0
 23
0.0
 33
0.0
 40
0.0
 40
0.0
 40
0.0
 40
0.0
 40
0.7838918077665479
 40
1.0
 40
1.0
 40
1.0
 40
1.0
 10
949.6796748857032
 20
606.8375550393896
 30
0.0
 10
949.6858892716738
 20
606.855132873862
 30
0.0
 10
949.6938168784034
 20
606.8775566755884
 30
0.0
 10
949.6706293634322
 20
607.1680702013989
 30
0.0
 10
949.6656183514895
 20
607.2308525542812
 30
0.0
  0
SPLINE
  5
1E2
330
1F
100
AcDbEntity
  8
0
  6
Continuous
 62
     7
370
    15
100
AcDbSpline
210
0.0
220
0.0
230
1.0
 70
     8
 71
     3
 72
     9
 73
     5
 74
     0
 42
0.00000001
 43
0.00000001
 12
1.0
 22
0.0
 32
0.0
 13
1.0
 23
0.0
 33
0.0
 40
0.0
 40
0.0
 40
0.0
 40
0.0
 40
0.0370163330244596
 40
1.0
 40
1.0
 40
1.0
 40
1.0
 10
949.4334142889733
 20
608.6645423852766
 30
0.0
 10
949.430851011752
 20
608.6774177879602
 30
0.0
 10
949.3616038170173
 20
609.0252481004613
 30
0.0
 10
949.1724108883045
 20
609.5220377191605
 30
0.0
 10
948.9902211880468
 20
610.0004380078907
 30
0.0
  0
LINE
  5
1E3
330
1F
100
AcDbEntity
  8
0
  6
Continuous
 62
     7
370
    15
100
AcDbLine
 10
949.1979760761
 20
609.440184278
 30
0.0
 11
949.0288719215
 21
609.8852805447
 31
0.0
  0
LINE
  5
1E4
330
1F
100
AcDbEntity
  8
0
  6
Continuous
 62
     7
370
    15
100
AcDbLine
 10
940.8910628146
 20
639.9386031191
 30
0.0
 11
941.3067572088
 21
640.3624573173
 31
0.0
  0
LINE
  5
1E5
330
1F
100
AcDbEntity
  8
0
  6
Continuous
 62
     7
370
    15
100
AcDbLine
 10
940.8980213376
 20
639.9324683705
 30
0.0
 11
941.4441300376
 21
640.4892994004
 31
0.0
  0
SPLINE
  5
1E6
330
1F
100
AcDbEntity
  8
0
  6
Continuous
 62
     7
370
    15
100
AcDbSpline
210
0.0
220
0.0
230
1.0
 70
     8
 71
     3
 72
    12
 73
     8
 74
     0
 42
0.00000001
 43
0.00000001
 12
1.0
 22
0.0
 32
0.0
 13
1.0
 23
0.0
 33
0.0
 40
0.0
 40
0.0
 40
0.0
 40
0.0
 40
0.3321400402438939
 40
0.4979293210666849
 40
0.6660741919816554
 40
0.8337573930894073
 40
1.0
 40
1.0
 40
1.0
 40
1.0
 10
943.7862191214518
 20
642.1337072354538
 30
0.0
 10
943.7648283935741
 20
642.1570292170583
 30
0.0
 10
943.7327603821368
 20
642.1919924767053
 30
0.0
 10
943.639565891007
 20
642.1767361050792
 30
0.0
 10
943.557817029406
 20
642.1452690548974
 30
0.0
 10
943.4659926184802
 20
642.0949982814456
 30
0.0
 10
943.4003478691259
 20
642.0461568972064
 30
0.0
 10
943.3676670939338
 20
642.0218415587509
 30
0.0
  0
SPLINE
  5
1E7
330
1F
100
AcDbEntity
  8
0
  6
Continuous
 62
     7
370
    15
100
AcDbSpline
210
0.0
220
0.0
230
1.0
 70
     8
 71
     3
 72
    13
 73
     9
 74
     0
 42
0.00000001
 43
0.00000001
 12
1.0
 22
0.0
 32
0.0
 13
1.0
 23
0.0
 33
0.0
 40
0.0
 40
0.0
 40
0.0
 40
0.0
 40
0.3322050656013285
 40
0.5021412700077249
 40
0.6660390201146581
 40
0.8328167933538314
 40
0.916404991962082
 40
1.0
 40
1.0
 40
1.0
 40
1.0
 10
942.9951993111523
 20
641.6449520672879
 30
0.0
 10
942.9450488753159
 20
641.5753001915139
 30
0.0
 10
942.8692444817354
 20
641.4700185899336
 30
0.0
 10
942.8053097463878
 20
641.3402292748079
 30
0.0
 10
942.7736144291879
 20
641.2523748901496
 30
0.0
 10
942.7659249584557
 20
641.1930920442544
 30
0.0
 10
942.7695128996077
 20
641.1542932899831
 30
0.0
 10
942.7755051805156
 20
641.1390342369467
 30
0.0
 10
942.7785014430035
 20
641.1314043996753
 30
0.0
  0
LINE
  5
1E8
330
1F
100
AcDbEntity
  8
0
  6
Continuous
 62
     7
370
    15
100
AcDbLine
 10
939.5886697157
 20
634.9794620295
 30
0.0
 11
912.1184827026
 21
693.8894681869
 31
0.0
  0
LINE
  5
1E9
330
1F
100
AcDbEntity
  8
0
  6
Continuous
 62
     7
370
    15
100
AcDbLine
 10
924.5060136478
 20
690.9863381784
 30
0.0
 11
922.8720336199
 21
694.4904196562
 31
0.0
  0
SPLINE
  5
1EA
330
1F
100
AcDbEntity
  8
0
  6
Continuous
 62
     7
370
    15
100
AcDbSpline
210
0.0
220
0.0
230
1.0
 70
     8
 71
     3
 72
     9
 73
     5
 74
     0
 42
0.00000001
 43
0.00000001
 12
1.0
 22
0.0
 32
0.0
 13
1.0
 23
0.0
 33
0.0
 40
0.0
 40
0.0
 40
0.0
 40
0.0
 40
0.520974465233531
 40
1.0
 40
1.0
 40
1.0
 40
1.0
 10
924.3512930207282
 20
689.8307212570819
 30
0.0
 10
924.2827201796388
 20
690.0442475962675
 30
0.0
 10
924.1510959913808
 20
690.454107106541
 30
0.0
 10
924.3910632184893
 20
690.8139596306285
 30
0.0
 10
924.5060136477813
 20
690.9863381784165
 30
0.0
  0
LINE
  5
1EB
330
1F
100
AcDbEntity
  8
0
  6
Continuous
 62
     7
370
    15
100
AcDbLine
 10
943.4128862003
 20
648.9530027675
 30
0.0
 11
924.3512930207
 21
689.8307212571
 31
0.0
  0
SPLINE
  5
1EC
330
1F
100
AcDbEntity
  8
0
  6
Continuous
 62
     7
370
    15
100
AcDbSpline
210
0.0
220
0.0
230
1.0
 70
     8
 71
     3
 72
     9
 73
     5
 74
     0
 42
0.00000001
 43
0.00000001
 12
1.0
 22
0.0
 32
0.0
 13
1.0
 23
0.0
 33
0.0
 40
0.0
 40
0.0
 40
0.0
 40
0.0
 40
0.4790255347664742
 40
1.0
 40
1.0
 40
1.0
 40
1.0
 10
944.499560847452
 20
648.1100378431885
 30
0.0
 10
944.2772169670113
 20
648.1679652946063
 30
0.0
 10
943.8130582441382
 20
648.2888929847057
 30
0.0
 10
943.5499558364755
 20
648.7255273910932
 30
0.0
 10
943.4128862003417
 20
648.9530027674635
 30
0.0
  0
LINE
  5
1ED
330
1F
100
AcDbEntity
  8
0
  6
Continuous
 62
     7
370
    15
100
AcDbLine
 10
946.9612745391
 20
642.8308757951
 30
0.0
 11
944.4995608475
 21
648.1100378432
 31
0.0
  0
LINE
  5
1EE
330
1F
100
AcDbEntity
  8
0
  6
Continuous
 62
     7
370
    15
100
AcDbLine
 10
916.6535600359
 20
691.8935723868
 30
0.0
 11
916.454950469
 21
692.3191489315
 31
0.0
  0
LINE
  5
1EF
330
1F
100
AcDbEntity
  8
0
  6
Continuous
 62
     7
370
    15
100
AcDbLine
 10
917.5233061225
 20
691.7801097017
 30
0.0
 11
916.6535600359
 21
691.8935723868
 31
0.0
  0
LINE
  5
1F0
330
1F
100
AcDbEntity
  8
0
  6
Continuous
 62
     7
370
    15
100
AcDbLine
 10
921.0220816739
 20
692.3972769762
 30
0.0
 11
917.3803691021
 21
692.1053548015
 31
0.0
  0
SPLINE
  5
1F1
330
1F
100
AcDbEntity
  8
0
  6
Continuous
 62
     7
370
    15
100
AcDbSpline
210
0.0
220
0.0
230
1.0
 70
     8
 71
     3
 72
    13
 73
     9
 74
     0
 42
0.00000001
 43
0.00000001
 12
1.0
 22
0.0
 32
0.0
 13
1.0
 23
0.0
 33
0.0
 40
0.0
 40
0.0
 40
0.0
 40
0.0
 40
0.1668687810416792
 40
0.3335139733833982
 40
0.5001418443617345
 40
0.6667240192321168
 40
0.8323715538120176
 40
1.0
 40
1.0
 40
1.0
 40
1.0
 10
922.1724725581277
 20
682.931603643848
 30
0.0
 10
922.1359150772729
 20
682.9223363117998
 30
0.0
 10
922.0628490991993
 20
682.9038140650692
 30
0.0
 10
921.9665094715249
 20
682.8565876209668
 30
0.0
 10
921.8864270800316
 20
682.7950436421653
 30
0.0
 10
921.8283774686256
 20
682.7202962425376
 30
0.0
 10
921.7912467992011
 20
682.6364520101841
 30
0.0
 10
921.7873508915678
 20
682.5764210849657
 30
0.0
 10
921.7853913595861
 20
682.5462272177255
 30
0.0
  0
SPLINE
  5
1F2
330
1F
100
AcDbEntity
  8
0
  6
Continuous
 62
     7
370
    15
100
AcDbSpline
210
0.0
220
0.0
230
1.0
 70
     8
 71
     3
 72
    10
 73
     6
 74
     0
 42
0.00000001
 43
0.00000001
 12
1.0
 22
0.0
 32
0.0
 13
1.0
 23
0.0
 33
0.0
 40
0.0
 40
0.0
 40
0.0
 40
0.0
 40
0.5008430943487998
 40
0.7508790136583697
 40
1.0
 40
1.0
 40
1.0
 40
1.0
 10
923.7357062677621
 20
682.5921368564675
 30
0.0
 10
923.4871789397963
 20
682.6929348941757
 30
0.0
 10
923.1145793033116
 20
682.8440543405392
 30
0.0
 10
922.573980357605
 20
682.96512462889
 30
0.0
 10
922.3061448476607
 20
682.9427636432897
 30
0.0
 10
922.1724725581277
 20
682.931603643848
 30
0.0
  0
LINE
  5
1F3
330
1F
100
AcDbEntity
  8
0
  6
Continuous
 62
     7
370
    15
100
AcDbLine
 10
925.5155152128
 20
681.8288306888
 30
0.0
 11
923.7357062678
 21
682.5921368565
 31
0.0
  0
LINE
  5
1F4
330
1F
100
AcDbEntity
  8
0
  6
Continuous
 62
     7
370
    15
100
AcDbLine
 10
925.8940810612
 20
681.908969467
 30
0.0
 11
925.5155152128
 21
681.8288306888
 31
0.0
  0
LINE
  5
1F5
330
1F
100
AcDbEntity
  8
0
  6
Continuous
 62
     7
370
    15
100
AcDbLine
 10
924.6513241269
 20
682.8849974377
 30
0.0
 11
924.1001499114
 21
684.0336161199
 31
0.0
  0
SPLINE
  5
1F6
330
1F
100
AcDbEntity
  8
0
  6
Continuous
 62
     7
370
    15
100
AcDbSpline
210
0.0
220
0.0
230
1.0
 70
     8
 71
     3
 72
     9
 73
     5
 74
     0
 42
0.00000001
 43
0.00000001
 12
1.0
 22
0.0
 32
0.0
 13
1.0
 23
0.0
 33
0.0
 40
0.0
 40
0.0
 40
0.0
 40
0.0
 40
0.6636543948251857
 40
1.0
 40
1.0
 40
1.0
 40
1.0
 10
921.0715796744561
 20
682.2500245444185
 30
0.0
 10
921.0211155929852
 20
682.384856671687
 30
0.0
 10
920.9450758924054
 20
682.5880228502278
 30
0.0
 10
920.9816708395845
 20
682.7849587809407
 30
0.0
 10
920.9939793892398
 20
682.851197315737
 30
0.0
  0
SPLINE
  5
1F7
330
1F
100
AcDbEntity
  8
0
  6
Continuous
 62
     7
370
    15
100
AcDbSpline
210
0.0
220
0.0
230
1.0
 70
     8
 71
     3
 72
    13
 73
     9
 74
     0
 42
0.00000001
 43
0.00000001
 12
1.0
 22
0.0
 32
0.0
 13
1.0
 23
0.0
 33
0.0
 40
0.0
 40
0.0
 40
0.0
 40
0.0
 40
0.2498957672619515
 40
0.3750954217629496
 40
0.5002463091109152
 40
0.6260891681495141
 40
0.7505767696289042
 40
1.0
 40
1.0
 40
1.0
 40
1.0
 10
923.0381275780737
 20
681.406200556868
 30
0.0
 10
922.841214199222
 20
681.3834115520714
 30
0.0
 10
922.5456457400185
 20
681.3492050848733
 30
0.0
 10
922.1416474727938
 20
681.4126509679177
 30
0.0
 10
921.8513823676884
 20
681.5068605091717
 30
0.0
 10
921.5887280765573
 20
681.6459579167032
 30
0.0
 10
921.2862887825371
 20
681.8808127104077
 30
0.0
 10
921.15749418254
 20
682.1022867358957
 30
0.0
 10
921.0715796744562
 20
682.2500245444185
 30
0.0
  0
SPLINE
  5
1F8
330
1F
100
AcDbEntity
  8
0
  6
Continuous
 62
     7
370
    15
100
AcDbSpline
210
0.0
220
0.0
230
1.0
 70
     8
 71
     3
 72
    13
 73
     9
 74
     0
 42
0.00000001
 43
0.00000001
 12
1.0
 22
0.0
 32
0.0
 13
1.0
 23
0.0
 33
0.0
 40
0.0
 40
0.0
 40
0.0
 40
0.0
 40
0.2505547133555026
 40
0.5000895114310324
 40
0.6251715279108329
 40
0.7501838345785387
 40
0.8751021895206824
 40
1.0
 40
1.0
 40
1.0
 40
1.0
 10
929.9135801942696
 20
667.1628330927267
 30
0.0
 10
929.8689608838283
 20
667.2395157478397
 30
0.0
 10
929.7799038916044
 20
667.3925689114265
 30
0.0
 10
929.6315750843895
 20
667.5628876351632
 30
0.0
 10
929.4796402804178
 20
667.6512103917929
 30
0.0
 10
929.3560712598094
 20
667.6893360521073
 30
0.0
 10
929.2275706240035
 20
667.6963761878615
 30
0.0
 10
929.1489368980285
 20
667.6697782595592
 30
0.0
 10
929.109623268394
 20
667.6564803890925
 30
0.0
  0
LINE
  5
1F9
330
1F
100
AcDbEntity
  8
0
  6
Continuous
 62
     7
370
    15
100
AcDbLine
 10
930.534883229
 20
667.4418247919
 30
0.0
 11
929.9135801943
 21
667.1628330927
 31
0.0
  0
SPLINE
  5
1FA
330
1F
100
AcDbEntity
  8
0
  6
Continuous
 62
     7
370
    15
100
AcDbSpline
210
0.0
220
0.0
230
1.0
 70
     8
 71
     3
 72
    13
 73
     9
 74
     0
 42
0.00000001
 43
0.00000001
 12
1.0
 22
0.0
 32
0.0
 13
1.0
 23
0.0
 33
0.0
 40
0.0
 40
0.0
 40
0.0
 40
0.0
 40
0.2497025552937979
 40
0.3749249067604912
 40
0.5002270304517792
 40
0.6262186151574741
 40
0.7507599282806414
 40
1.0
 40
1.0
 40
1.0
 40
1.0
 10
931.5746563821808
 20
668.2820200713215
 30
0.0
 10
931.5304203831969
 20
668.3602783985316
 30
0.0
 10
931.4640006472233
 20
668.47778218618
 30
0.0
 10
931.3274367441322
 20
668.59322587823
 30
0.0
 10
931.2115766131263
 20
668.65672892938
 30
0.0
 10
931.0882946047275
 20
668.6982884555521
 30
0.0
 10
930.9173328565874
 20
668.7206149142937
 30
0.0
 10
930.797697835546
 20
668.6816196655741
 30
0.0
 10
930.7179243571609
 20
668.655617357857
 30
0.0
  0
SPLINE
  5
1FB
330
1F
100
AcDbEntity
  8
0
  6
Continuous
 62
     7
370
    15
100
AcDbSpline
210
0.0
220
0.0
230
1.0
 70
     8
 71
     3
 72
    12
 73
     8
 74
     0
 42
0.00000001
 43
0.00000001
 12
1.0
 22
0.0
 32
0.0
 13
1.0
 23
0.0
 33
0.0
 40
0.0
 40
0.0
 40
0.0
 40
0.0
 40
0.2504797821883104
 40
0.4998422172398099
 40
0.6240491896562333
 40
0.7503609880625325
 40
1.0
 40
1.0
 40
1.0
 40
1.0
 10
931.2931428830387
 20
667.3680842252193
 30
0.0
 10
931.3618343254533
 20
667.4189832391351
 30
0.0
 10
931.498910789597
 20
667.5205542152381
 30
0.0
 10
931.6166125644137
 20
667.7101614327723
 30
0.0
 10
931.6542367084845
 20
667.8839521819581
 30
0.0
 10
931.656493069237
 20
668.0657625692277
 30
0.0
 10
931.6073129711618
 20
668.1957234161907
 30
0.0
 10
931.5746563821809
 20
668.2820200713215
 30
0.0
  0
LINE
  5
1FC
330
1F
100
AcDbEntity
  8
0
  6
Continuous
 62
     7
370
    15
100
AcDbLine
 10
931.6407485911
 20
666.59636612
 30
0.0
 11
931.293142883
 21
667.3680842252
 31
0.0
  0
SPLINE
  5
1FD
330
1F
100
AcDbEntity
  8
0
  6
Continuous
 62
     7
370
    15
100
AcDbSpline
210
0.0
220
0.0
230
1.0
 70
     8
 71
     3
 72
    11
 73
     7
 74
     0
 42
0.00000001
 43
0.00000001
 12
1.0
 22
0.0
 32
0.0
 13
1.0
 23
0.0
 33
0.0
 40
0.0
 40
0.0
 40
0.0
 40
0.0
 40
0.3042485527953038
 40
0.6080361507990927
 40
0.9117964285733967
 40
1.0
 40
1.0
 40
1.0
 40
1.0
 10
929.7641897426873
 20
668.1976319954828
 30
0.0
 10
929.7499341816027
 20
668.3247465064861
 30
0.0
 10
929.7214446574626
 20
668.5787829423905
 30
0.0
 10
929.8295482506704
 20
668.9354515236986
 30
0.0
 10
929.9811026221257
 20
669.1782298839381
 30
0.0
 10
930.1129158574349
 20
669.2579941642599
 30
0.0
 10
930.1425777717652
 20
669.2759435093615
 30
0.0
  0
SPLINE
  5
1FE
330
1F
100
AcDbEntity
  8
0
  6
Continuous
 62
     7
370
    15
100
AcDbSpline
210
0.0
220
0.0
230
1.0
 70
     8
 71
     3
 72
    12
 73
     8
 74
     0
 42
0.00000001
 43
0.00000001
 12
1.0
 22
0.0
 32
0.0
 13
1.0
 23
0.0
 33
0.0
 40
0.0
 40
0.0
 40
0.0
 40
0.0
 40
0.2813473056816875
 40
0.5622866534558326
 40
0.8431814567242655
 40
0.9842552657151603
 40
0.9999999999999999
 40
0.9999999999999999
 40
0.9999999999999999
 40
0.9999999999999999
 10
928.2399731781763
 20
666.7855593328301
 30
0.0
 10
928.1818133160317
 20
666.9388892287334
 30
0.0
 10
928.0655779244345
 20
667.2453266898397
 30
0.0
 10
928.1044721679182
 20
667.734216506876
 30
0.0
 10
928.2719791959006
 20
668.0837573743743
 30
0.0
 10
928.4318777735364
 20
668.263220852515
 30
0.0
 10
928.5046109645614
 20
668.3052368589395
 30
0.0
 10
928.511913447689
 20
668.3094553068541
 30
0.0
  0
SPLINE
  5
1FF
330
1F
100
AcDbEntity
  8
0
  6
Continuous
 62
     7
370
    15
100
AcDbSpline
210
0.0
220
0.0
230
1.0
 70
     8
 71
     3
 72
     9
 73
     5
 74
     0
 42
0.00000001
 43
0.00000001
 12
1.0
 22
0.0
 32
0.0
 13
1.0
 23
0.0
 33
0.0
 40
0.0
 40
0.0
 40
0.0
 40
0.0
 40
0.4997213299034629
 40
1.0
 40
1.0
 40
1.0
 40
1.0
 10
929.0263845409279
 20
666.0116027255391
 30
0.0
 10
928.859218783238
 20
666.099854835924
 30
0.0
 10
928.5247008275563
 20
666.2764574844483
 30
0.0
 10
928.3349176525668
 20
666.6157956744321
 30
0.0
 10
928.2399731781763
 20
666.7855593328301
 30
0.0
  0
SPLINE
  5
200
330
1F
100
AcDbEntity
  8
0
  6
Continuous
 62
     7
370
    15
100
AcDbSpline
210
0.0
220
0.0
230
1.0
 70
     8
 71
     3
 72
     9
 73
     5
 74
     0
 42
0.00000001
 43
0.00000001
 12
1.0
 22
0.0
 32
0.0
 13
1.0
 23
0.0
 33
0.0
 40
0.0
 40
0.0
 40
0.0
 40
0.0
 40
0.5006304763340194
 40
1.0
 40
1.0
 40
1.0
 40
1.0
 10
929.8516444544185
 20
665.9903388478067
 30
0.0
 10
929.7150787465499
 20
665.9579153810508
 30
0.0
 10
929.4422913028677
 20
665.893150113476
 30
0.0
 10
929.1649035372934
 20
665.9721517272832
 30
0.0
 10
929.0263845409279
 20
666.0116027255391
 30
0.0
  0
LINE
  5
201
330
1F
100
AcDbEntity
  8
0
  6
Continuous
 62
     7
370
    15
100
AcDbLine
 10
935.6410948381
 20
651.0719336126
 30
0.0
 11
935.3278866486
 21
651.7276349894
 31
0.0
  0
LINE
  5
202
330
1F
100
AcDbEntity
  8
0
  6
Continuous
 62
     7
370
    15
100
AcDbLine
 10
938.0933052467
 20
653.8073611762
 30
0.0
 11
938.7854533763
 21
654.3280341165
 31
0.0
  0
LINE
  5
203
330
1F
100
AcDbEntity
  8
0
  6
Continuous
 62
     7
370
    15
100
AcDbLine
 10
937.3490781342
 20
653.6700551777
 30
0.0
 11
937.9426116242
 21
654.1164404317
 31
0.0
  0
LINE
  5
204
330
1F
100
AcDbEntity
  8
0
  6
Continuous
 62
     7
370
    15
100
AcDbLine
 10
937.4996884822
 20
653.3610161253
 30
0.0
 11
937.3490781342
 21
653.6700551777
 31
0.0
  0
LINE
  5
205
330
1F
100
AcDbEntity
  8
0
  6
Continuous
 62
     7
370
    15
100
AcDbLine
 10
935.3278866486
 20
651.7276349894
 30
0.0
 11
937.4996884822
 21
653.3610161253
 31
0.0
  0
LINE
  5
206
330
1F
100
AcDbEntity
  8
0
  6
Continuous
 62
     7
370
    15
100
AcDbLine
 10
940.9306854484
 20
639.8881422734
 30
0.0
 11
940.5399836275
 21
640.6914948657
 31
0.0
  0
SPLINE
  5
207
330
1F
100
AcDbEntity
  8
0
  6
Continuous
 62
     7
370
    15
100
AcDbSpline
210
0.0
220
0.0
230
1.0
 70
     8
 71
     3
 72
    10
 73
     6
 74
     0
 42
0.00000001
 43
0.00000001
 12
1.0
 22
0.0
 32
0.0
 13
1.0
 23
0.0
 33
0.0
 40
0.0
 40
0.0
 40
0.0
 40
0.0
 40
0.2499966304038081
 40
0.5002514141207202
 40
1.0
 40
1.0
 40
1.0
 40
1.0
 10
942.462720535305
 20
641.7998103969443
 30
0.0
 10
942.4750185581414
 20
641.7830764552106
 30
0.0
 10
942.4996273030869
 20
641.7495912918206
 30
0.0
 10
942.5945588683196
 20
641.7384436027324
 30
0.0
 10
942.6897547602512
 20
641.772197346732
 30
0.0
 10
942.7531864917645
 20
641.7946884267933
 30
0.0
  0
SPLINE
  5
208
330
1F
100
AcDbEntity
  8
0
  6
Continuous
 62
     7
370
    15
100
AcDbSpline
210
0.0
220
0.0
230
1.0
 70
     8
 71
     3
 72
    11
 73
     7
 74
     0
 42
0.00000001
 43
0.00000001
 12
1.0
 22
0.0
 32
0.0
 13
1.0
 23
0.0
 33
0.0
 40
0.0
 40
0.0
 40
0.0
 40
0.0
 40
0.2503307229579997
 40
0.500330416701527
 40
0.7501387009227142
 40
0.9999999999999999
 40
0.9999999999999999
 40
0.9999999999999999
 40
0.9999999999999999
 10
943.2893490594363
 20
642.2510397725221
 30
0.0
 10
943.3256466763935
 20
642.3050284166459
 30
0.0
 10
943.3981939115188
 20
642.4129343120646
 30
0.0
 10
943.468731098299
 20
642.566182422226
 30
0.0
 10
943.5018904889067
 20
642.7001013195734
 30
0.0
 10
943.4852762047436
 20
642.7587718080632
 30
0.0
 10
943.4769681812757
 20
642.7881101647724
 30
0.0
  0
LINE
  5
209
330
1F
100
AcDbEntity
  8
0
  6
Continuous
 62
     7
370
    15
100
AcDbLine
 10
943.4272635338
 20
641.9328861235
 30
0.0
 11
943.2893490594
 21
642.2510397725
 31
0.0
  0
SPLINE
  5
20A
330
1F
100
AcDbEntity
  8
0
  6
Continuous
 62
     7
370
    15
100
AcDbSpline
210
0.0
220
0.0
230
1.0
 70
     8
 71
     3
 72
    11
 73
     7
 74
     0
 42
0.00000001
 43
0.00000001
 12
1.0
 22
0.0
 32
0.0
 13
1.0
 23
0.0
 33
0.0
 40
0.0
 40
0.0
 40
0.0
 40
0.0
 40
0.2813822466218959
 40
0.5625132642951
 40
0.8435967016256758
 40
1.0
 40
1.0
 40
1.0
 40
1.0
 10
942.6501143441192
 20
642.8445450020427
 30
0.0
 10
942.7967824936338
 20
642.9797854621145
 30
0.0
 10
943.089987841669
 20
643.2501456343463
 30
0.0
 10
943.5180356056446
 20
643.4610813433674
 30
0.0
 10
943.8345960691462
 20
643.5258982910776
 30
0.0
 10
943.9195697396727
 20
643.4341555670907
 30
0.0
 10
943.9499481746302
 20
643.4013571678197
 30
0.0
  0
SPLINE
  5
20B
330
1F
100
AcDbEntity
  8
0
  6
Continuous
 62
     7
370
    15
100
AcDbSpline
210
0.0
220
0.0
230
1.0
 70
     8
 71
     3
 72
    13
 73
     9
 74
     0
 42
0.00000001
 43
0.00000001
 12
1.0
 22
0.0
 32
0.0
 13
1.0
 23
0.0
 33
0.0
 40
0.0
 40
0.0
 40
0.0
 40
0.0
 40
0.2493178862007981
 40
0.3731116598096402
 40
0.4997957686022649
 40
0.6255125568845205
 40
0.7502732772197611
 40
1.0
 40
1.0
 40
1.0
 40
1.0
 10
941.8926405127099
 20
641.2555741448886
 30
0.0
 10
941.8697459644453
 20
641.3411250857264
 30
0.0
 10
941.8354835894759
 20
641.4691546227191
 30
0.0
 10
941.9025532947048
 20
641.733689140231
 30
0.0
 10
941.9910196183763
 20
641.9517816123061
 30
0.0
 10
942.1152768151117
 20
642.1825097552081
 30
0.0
 10
942.322604320231
 20
642.4932728589896
 30
0.0
 10
942.5190887932557
 20
642.704013040608
 30
0.0
 10
942.6501143441192
 20
642.8445450020427
 30
0.0
  0
LINE
  5
20C
330
1F
100
AcDbEntity
  8
0
  6
Continuous
 62
     7
370
    15
100
AcDbLine
 10
941.9734904011
 20
641.176931935
 30
0.0
 11
941.8926405127
 21
641.2555741449
 31
0.0
  0
LINE
  5
20D
330
1F
100
AcDbEntity
  8
0
  6
Continuous
 62
     7
370
    15
100
AcDbLine
 10
941.3711142589
 20
640.6736556888
 30
0.0
 11
941.9734904011
 21
641.176931935
 31
0.0
  0
LINE
  5
20E
330
1F
100
AcDbEntity
  8
0
  6
Continuous
 62
     7
370
    15
100
AcDbLine
 10
940.5399836275
 20
640.6914948657
 30
0.0
 11
941.0890045256
 21
641.2420806665
 31
0.0
  0
LINE
  5
20F
330
1F
100
AcDbEntity
  8
0
  6
Continuous
 62
     7
370
    15
100
AcDbLine
 10
929.5155438077
 20
666.7403124125
 30
0.0
 11
929.8550460268
 21
665.9918320044
 31
0.0
  0
SPLINE
  5
210
330
1F
100
AcDbEntity
  8
0
  6
Continuous
 62
     7
370
    15
100
AcDbSpline
210
0.0
220
0.0
230
1.0
 70
     8
 71
     3
 72
     9
 73
     5
 74
     0
 42
0.00000001
 43
0.00000001
 12
1.0
 22
0.0
 32
0.0
 13
1.0
 23
0.0
 33
0.0
 40
0.0
 40
0.0
 40
0.0
 40
0.0
 40
0.500616564572964
 40
0.9999999999999999
 40
0.9999999999999999
 40
0.9999999999999999
 40
0.9999999999999999
 10
929.8550460267761
 20
665.9918320044085
 30
0.0
 10
929.7184741061076
 20
665.9594173600547
 30
0.0
 10
929.4456666715689
 20
665.8946679157742
 30
0.0
 10
929.1682725308658
 20
665.9737174749283
 30
0.0
 10
929.0297464919139
 20
666.0131935153476
 30
0.0
  0
SPLINE
  5
211
330
1F
100
AcDbEntity
  8
0
  6
Continuous
 62
     7
370
    15
100
AcDbSpline
210
0.0
220
0.0
230
1.0
 70
     8
 71
     3
 72
     9
 73
     5
 74
     0
 42
0.00000001
 43
0.00000001
 12
1.0
 22
0.0
 32
0.0
 13
1.0
 23
0.0
 33
0.0
 40
0.0
 40
0.0
 40
0.0
 40
0.0
 40
0.4997008530854938
 40
1.0
 40
1.0
 40
1.0
 40
1.0
 10
929.0297393132347
 20
666.0131962451738
 30
0.0
 10
928.8625529204652
 20
666.1014927227474
 30
0.0
 10
928.5279799619894
 20
666.27819139562
 30
0.0
 10
928.3381632725709
 20
666.6176169209301
 30
0.0
 10
928.2431981447845
 20
666.7874312216838
 30
0.0
  0
SPLINE
  5
212
330
1F
100
AcDbEntity
  8
0
  6
Continuous
 62
     7
370
    15
100
AcDbSpline
210
0.0
220
0.0
230
1.0
 70
     8
 71
     3
 72
    12
 73
     8
 74
     0
 42
0.00000001
 43
0.00000001
 12
1.0
 22
0.0
 32
0.0
 13
1.0
 23
0.0
 33
0.0
 40
0.0
 40
0.0
 40
0.0
 40
0.0
 40
0.2500356429272372
 40
0.499691919095564
 40
0.7492818424375187
 40
0.874623285011235
 40
1.0
 40
1.0
 40
1.0
 40
1.0
 10
928.2431981447845
 20
666.7874312216838
 30
0.0
 10
928.1849233991526
 20
666.940939226805
 30
0.0
 10
928.0684623252881
 20
667.2477223269163
 30
0.0
 10
928.1087038367431
 20
667.7346822609029
 30
0.0
 10
928.271702218736
 20
668.0907598050901
 30
0.0
 10
928.4865569814876
 20
668.3084481278852
 30
0.0
 10
928.6209650986061
 20
668.3789753188461
 30
0.0
 10
928.6881786118036
 20
668.4142438754039
 30
0.0
  0
SPLINE
  5
213
330
1F
100
AcDbEntity
  8
0
  6
Continuous
 62
     7
370
    15
100
AcDbSpline
210
0.0
220
0.0
230
1.0
 70
     8
 71
     3
 72
    11
 73
     7
 74
     0
 42
0.00000001
 43
0.00000001
 12
1.0
 22
0.0
 32
0.0
 13
1.0
 23
0.0
 33
0.0
 40
0.0
 40
0.0
 40
0.0
 40
0.0
 40
0.2497918759814595
 40
0.4996164650705164
 40
0.7496500228683091
 40
1.0
 40
1.0
 40
1.0
 40
1.0
 10
928.6881786118036
 20
668.4142438754039
 30
0.0
 10
928.777249690313
 20
668.4451007899846
 30
0.0
 10
928.9554035122102
 20
668.5068186602124
 30
0.0
 10
929.2485061812267
 20
668.483794784313
 30
0.0
 10
929.5282985129238
 20
668.381896790218
 30
0.0
 10
929.6876182995561
 20
668.2604497722905
 30
0.0
 10
929.7673285660933
 20
668.1996878645969
 30
0.0
  0
SPLINE
  5
214
330
1F
100
AcDbEntity
  8
0
  6
Continuous
 62
     7
370
    15
100
AcDbSpline
210
0.0
220
0.0
230
1.0
 70
     8
 71
     3
 72
    11
 73
     7
 74
     0
 42
0.00000001
 43
0.00000001
 12
1.0
 22
0.0
 32
0.0
 13
1.0
 23
0.0
 33
0.0
 40
0.0
 40
0.0
 40
0.0
 40
0.0
 40
0.2502722655242023
 40
0.500144145656165
 40
0.7499686563293334
 40
1.0
 40
1.0
 40
1.0
 40
1.0
 10
929.7673290512703
 20
668.1996879099222
 30
0.0
 10
929.7532936544544
 20
668.3265436707434
 30
0.0
 10
929.7252453146406
 20
668.5800522486298
 30
0.0
 10
929.8297649876856
 20
668.9411448690179
 30
0.0
 10
930.041749576614
 20
669.2427948078308
 30
0.0
 10
930.2522808670592
 20
669.3589626977196
 30
0.0
 10
930.357590069657
 20
669.4170706769456
 30
0.0
  0
SPLINE
  5
215
330
1F
100
AcDbEntity
  8
0
  6
Continuous
 62
     7
370
    15
100
AcDbSpline
210
0.0
220
0.0
230
1.0
 70
     8
 71
     3
 72
    12
 73
     8
 74
     0
 42
0.00000001
 43
0.00000001
 12
1.0
 22
0.0
 32
0.0
 13
1.0
 23
0.0
 33
0.0
 40
0.0
 40
0.0
 40
0.0
 40
0.0
 40
0.2493224862308979
 40
0.3746760781431645
 40
0.5001494989181156
 40
0.7497768430247591
 40
1.0
 40
1.0
 40
1.0
 40
1.0
 10
930.357590069657
 20
669.4170706769456
 30
0.0
 10
930.536884663848
 20
669.4739572678587
 30
0.0
 10
930.8063244420214
 20
669.5594451237855
 30
0.0
 10
931.189801220086
 20
669.4970046211836
 30
0.0
 10
931.5540295895152
 20
669.3643227441881
 30
0.0
 10
931.9699428112823
 20
669.0658695598406
 30
0.0
 10
932.165287680158
 20
668.7154803136616
 30
0.0
 10
932.263076538393
 20
668.5400768617108
 30
0.0
  0
SPLINE
  5
216
330
1F
100
AcDbEntity
  8
0
  6
Continuous
 62
     7
370
    15
100
AcDbSpline
210
0.0
220
0.0
230
1.0
 70
     8
 71
     3
 72
    13
 73
     9
 74
     0
 42
0.00000001
 43
0.00000001
 12
1.0
 22
0.0
 32
0.0
 13
1.0
 23
0.0
 33
0.0
 40
0.0
 40
0.0
 40
0.0
 40
0.0
 40
0.2496106696942146
 40
0.375034804232308
 40
0.4999515380912758
 40
0.6248925914948297
 40
0.7502737772131727
 40
1.0
 40
1.0
 40
1.0
 40
1.0
 10
932.263076538393
 20
668.5400768617108
 30
0.0
 10
932.3334739756273
 20
668.354683877387
 30
0.0
 10
932.4392446509113
 20
668.0761348006703
 30
0.0
 10
932.4369048477442
 20
667.6844229624907
 30
0.0
 10
932.376631514031
 20
667.4024436610966
 30
0.0
 10
932.2598730633138
 20
667.1431612391324
 30
0.0
 10
932.036014520736
 20
666.8416198715971
 30
0.0
 10
931.8007827003864
 20
666.695246732107
 30
0.0
 10
931.6441780782351
 20
666.59779941325
 30
0.0
  0
LINE
  5
217
330
1F
100
AcDbEntity
  8
0
  6
Continuous
 62
     7
370
    15
100
AcDbLine
 10
931.6441780782
 20
666.5977994132
 30
0.0
 11
931.2964618019
 21
667.3697546328
 31
0.0
  0
SPLINE
  5
218
330
1F
100
AcDbEntity
  8
0
  6
Continuous
 62
     7
370
    15
100
AcDbSpline
210
0.0
220
0.0
230
1.0
 70
     8
 71
     3
 72
    12
 73
     8
 74
     0
 42
0.00000001
 43
0.00000001
 12
1.0
 22
0.0
 32
0.0
 13
1.0
 23
0.0
 33
0.0
 40
0.0
 40
0.0
 40
0.0
 40
0.0
 40
0.2504472301550448
 40
0.499794700010356
 40
0.6239894148598988
 40
0.7503305927502714
 40
1.0
 40
1.0
 40
1.0
 40
1.0
 10
931.2964618019124
 20
667.3697546327899
 30
0.0
 10
931.3651516922323
 20
667.4206593393848
 30
0.0
 10
931.502229842807
 20
667.522245220554
 30
0.0
 10
931.619908430461
 20
667.7118860881011
 30
0.0
 10
931.6575137329313
 20
667.8857101757718
 30
0.0
 10
931.6597496773013
 20
668.0675661013906
 30
0.0
 10
931.6105519571829
 20
668.1975649834706
 30
0.0
 10
931.5778848831552
 20
668.2838836806422
 30
0.0
  0
SPLINE
  5
219
330
1F
100
AcDbEntity
  8
0
  6
Continuous
 62
     7
370
    15
100
AcDbSpline
210
0.0
220
0.0
230
1.0
 70
     8
 71
     3
 72
    14
 73
    10
 74
     0
 42
0.00000001
 43
0.00000001
 12
1.0
 22
0.0
 32
0.0
 13
1.0
 23
0.0
 33
0.0
 40
0.0
 40
0.0
 40
0.0
 40
0.0
 40
0.2494054174661177
 40
0.3744722121319679
 40
0.499611234005904
 40
0.625413697707037
 40
0.7497958388636723
 40
0.8748051731655309
 40
1.0
 40
1.0
 40
1.0
 40
1.0
 10
931.5778814176728
 20
668.2838918124539
 30
0.0
 10
931.5336376688741
 20
668.3621674747664
 30
0.0
 10
931.4672074579591
 20
668.4796952362725
 30
0.0
 10
931.3306004014876
 20
668.5952362622609
 30
0.0
 10
931.2148002485663
 20
668.6586107299901
 30
0.0
 10
931.091250693916
 20
668.7007841447131
 30
0.0
 10
930.9636652186717
 20
668.715416965336
 30
0.0
 10
930.8372862520469
 20
668.7029787178244
 30
0.0
 10
930.7598205469225
 20
668.6727890273212
 30
0.0
 10
930.7210589791907
 20
668.6576829912841
 30
0.0
  0
SPLINE
  5
21A
330
1F
100
AcDbEntity
  8
0
  6
Continuous
 62
     7
370
    15
100
AcDbSpline
210
0.0
220
0.0
230
1.0
 70
     8
 71
     3
 72
    13
 73
     9
 74
     0
 42
0.00000001
 43
0.00000001
 12
1.0
 22
0.0
 32
0.0
 13
1.0
 23
0.0
 33
0.0
 40
0.0
 40
0.0
 40
0.0
 40
0.0
 40
0.1246152089946314
 40
0.2499209492420045
 40
0.3736239356906809
 40
0.5000686572354825
 40
0.7496112235216714
 40
1.0
 40
1.0
 40
1.0
 40
1.0
 10
930.7210589791907
 20
668.6576829912841
 30
0.0
 10
930.6730022840422
 20
668.6314362503987
 30
0.0
 10
930.5766225967968
 20
668.5787973273527
 30
0.0
 10
930.4729205289522
 20
668.447009018991
 30
0.0
 10
930.4074717820511
 20
668.2915727809136
 30
0.0
 10
930.367486435294
 20
668.0663875311258
 30
0.0
 10
930.4059604515214
 20
667.7709543515647
 30
0.0
 10
930.4940387163945
 20
667.5528424475513
 30
0.0
 10
930.5381523917923
 20
667.4436019016811
 30
0.0
  0
LINE
  5
21B
330
1F
100
AcDbEntity
  8
0
  6
Continuous
 62
     7
370
    15
100
AcDbLine
 10
930.5381523918
 20
667.4436019017
 30
0.0
 11
929.9168494279
 21
667.1646112341
 31
0.0
  0
SPLINE
  5
21C
330
1F
100
AcDbEntity
  8
0
  6
Continuous
 62
     7
370
    15
100
AcDbSpline
210
0.0
220
0.0
230
1.0
 70
     8
 71
     3
 72
    14
 73
    10
 74
     0
 42
0.00000001
 43
0.00000001
 12
1.0
 22
0.0
 32
0.0
 13
1.0
 23
0.0
 33
0.0
 40
0.0
 40
0.0
 40
0.0
 40
0.0
 40
0.2504935846868488
 40
0.4999601479604818
 40
0.624998415047885
 40
0.7499581672631436
 40
0.8748152766615492
 40
0.937387347584625
 40
1.0
 40
1.0
 40
1.0
 40
1.0
 10
929.9168489715717
 20
667.1646110292444
 30
0.0
 10
929.8722218318055
 20
667.2413086705944
 30
0.0
 10
929.7831505231393
 20
667.3943894936641
 30
0.0
 10
929.6347558458195
 20
667.5648782678385
 30
0.0
 10
929.4828903517996
 20
667.6530091957112
 30
0.0
 10
929.3590365636588
 20
667.6918750247279
 30
0.0
 10
929.2527400323647
 20
667.6955208836732
 30
0.0
 10
929.170488548245
 20
667.6812780214823
 30
0.0
 10
929.1320285628736
 20
667.6660757518828
 30
0.0
 10
929.112792336346
 20
667.6584721530012
 30
0.0
  0
SPLINE
  5
21D
330
1F
100
AcDbEntity
  8
0
  6
Continuous
 62
     7
370
    15
100
AcDbSpline
210
0.0
220
0.0
230
1.0
 70
     8
 71
     3
 72
    14
 73
    10
 74
     0
 42
0.00000001
 43
0.00000001
 12
1.0
 22
0.0
 32
0.0
 13
1.0
 23
0.0
 33
0.0
 40
0.0
 40
0.0
 40
0.0
 40
0.0
 40
0.2488961579032862
 40
0.373977451183957
 40
0.4991302821848838
 40
0.624258344816575
 40
0.7494501112119856
 40
0.8746564537559062
 40
1.0
 40
1.0
 40
1.0
 40
1.0
 10
929.112792336346
 20
667.6584721530012
 30
0.0
 10
929.0654606416234
 20
667.6303702528901
 30
0.0
 10
928.9943426834286
 20
667.5881459089487
 30
0.0
 10
928.9326919490505
 20
667.4947561432166
 30
0.0
 10
928.9042859030185
 20
667.4151750397024
 30
0.0
 10
928.8902844712603
 20
667.3303238420292
 30
0.0
 10
928.8962015691831
 20
667.2431577623493
 30
0.0
 10
928.915626118765
 20
667.1572347095104
 30
0.0
 10
928.9384460999593
 20
667.102945683279
 30
0.0
 10
928.9498623387847
 20
667.0757863055483
 30
0.0
  0
SPLINE
  5
21E
330
1F
100
AcDbEntity
  8
0
  6
Continuous
 62
     7
370
    15
100
AcDbSpline
210
0.0
220
0.0
230
1.0
 70
     8
 71
     3
 72
    12
 73
     8
 74
     0
 42
0.00000001
 43
0.00000001
 12
1.0
 22
0.0
 32
0.0
 13
1.0
 23
0.0
 33
0.0
 40
0.0
 40
0.0
 40
0.0
 40
0.0
 40
0.2498073254944037
 40
0.4995419295727438
 40
0.749393361613032
 40
0.8746510216452482
 40
1.0
 40
1.0
 40
1.0
 40
1.0
 10
928.9498651804606
 20
667.0757807992668
 30
0.0
 10
928.9797570684958
 20
667.0235358739187
 30
0.0
 10
929.0395321427379
 20
666.9190612322437
 30
0.0
 10
929.1829759209534
 20
666.8081640974017
 30
0.0
 10
929.318201462836
 20
666.7533586549799
 30
0.0
 10
929.4312557076817
 20
666.7349236960061
 30
0.0
 10
929.4874409499305
 20
666.7385157373598
 30
0.0
 10
929.5155438076993
 20
666.7403124124869
 30
0.0
  0
LINE
  5
21F
330
1F
100
AcDbEntity
  8
0
  6
Continuous
 62
     7
370
    15
100
AcDbLine
 10
928.2431981448
 20
666.7874312217
 30
0.0
 11
928.2399731782
 21
666.7855593328
 31
0.0
  0
LINE
  5
220
330
1F
100
AcDbEntity
  8
0
  6
Continuous
 62
     7
370
    15
100
AcDbLine
 10
929.0297393132
 20
666.0131962452
 30
0.0
 11
929.0263845409
 21
666.0116027255
 31
0.0
  0
LINE
  5
221
330
1F
100
AcDbEntity
  8
0
  6
Continuous
 62
     7
370
    15
100
AcDbLine
 10
929.8550460268
 20
665.9918320044
 30
0.0
 11
929.8516444544
 21
665.9903388478
 31
0.0
  0
LINE
  5
222
330
1F
100
AcDbEntity
  8
0
  6
Continuous
 62
     7
370
    15
100
AcDbLine
 10
929.1127923363
 20
667.658472153
 30
0.0
 11
929.1096232684
 21
667.6564803891
 31
0.0
  0
LINE
  5
223
330
1F
100
AcDbEntity
  8
0
  6
Continuous
 62
     7
370
    15
100
AcDbLine
 10
929.9168489716
 20
667.1646110292
 30
0.0
 11
929.9135801943
 21
667.1628330927
 31
0.0
  0
LINE
  5
224
330
1F
100
AcDbEntity
  8
0
  6
Continuous
 62
     7
370
    15
100
AcDbLine
 10
930.5381523918
 20
667.4436019017
 30
0.0
 11
930.534883229
 21
667.4418247919
 31
0.0
  0
LINE
  5
225
330
1F
100
AcDbEntity
  8
0
  6
Continuous
 62
     7
370
    15
100
AcDbLine
 10
930.7210589792
 20
668.6576829913
 30
0.0
 11
930.7179243572
 21
668.6556173579
 31
0.0
  0
LINE
  5
226
330
1F
100
AcDbEntity
  8
0
  6
Continuous
 62
     7
370
    15
100
AcDbLine
 10
931.2964618019
 20
667.3697546328
 30
0.0
 11
931.293142883
 21
667.3680842252
 31
0.0
  0
LINE
  5
227
330
1F
100
AcDbEntity
  8
0
  6
Continuous
 62
     7
370
    15
100
AcDbLine
 10
931.6441780782
 20
666.5977994132
 30
0.0
 11
931.6407485911
 21
666.59636612
 31
0.0
  0
LINE
  5
228
330
1F
100
AcDbEntity
  8
0
  6
Continuous
 62
     7
370
    15
100
AcDbLine
 10
925.2437981882
 20
689.4041541256
 30
0.0
 11
943.6898311503
 21
649.8465087826
 31
0.0
  0
ARC
  5
229
330
1F
100
AcDbEntity
  8
0
  6
Continuous
 62
     7
370
    15
100
AcDbCircle
 10
942.9483324142
 20
649.5866656277
 30
0.0
 40
0.7857091323849139
100
AcDbArc
 50
306.2460571711
 51
19.3119747552
  0
ARC
  5
22A
330
1F
100
AcDbEntity
  8
0
  6
Continuous
 62
     7
370
    15
100
AcDbCircle
 10
924.5034441703
 20
689.0020901168
 30
0.0
 40
0.8424841475986201
100
AcDbArc
 50
28.5050547683
 51
100.4046072003
  0
LINE
  5
22B
330
1F
100
AcDbEntity
  8
0
  6
Continuous
 62
     7
370
    15
100
AcDbLine
 10
931.5778814177
 20
668.2838918125
 30
0.0
 11
931.5746563822
 21
668.2820200713
 31
0.0
  0
LINE
  5
22C
330
1F
100
AcDbEntity
  8
0
  6
Continuous
 62
     7
370
    15
100
AcDbLine
 10
935.646503401
 20
651.0691227641
 30
0.0
 11
935.3332036877
 21
651.7250204142
 31
0.0
  0
LINE
  5
22D
330
1F
100
AcDbEntity
  8
0
  6
Continuous
 62
     7
370
    15
100
AcDbLine
 10
935.3332036877
 20
651.7250204142
 30
0.0
 11
937.5050011325
 21
653.3584109621
 31
0.0
  0
LINE
  5
22E
330
1F
100
AcDbEntity
  8
0
  6
Continuous
 62
     7
370
    15
100
AcDbLine
 10
937.5050011325
 20
653.3584109621
 30
0.0
 11
937.3543458998
 21
653.6675462699
 31
0.0
  0
LINE
  5
22F
330
1F
100
AcDbEntity
  8
0
  6
Continuous
 62
     7
370
    15
100
AcDbLine
 10
937.3543458998
 20
653.6675462699
 30
0.0
 11
937.9478776995
 21
654.1139351487
 31
0.0
  0
LINE
  5
230
330
1F
100
AcDbEntity
  8
0
  6
Continuous
 62
     7
370
    15
100
AcDbLine
 10
937.9478776995
 20
654.1139351487
 30
0.0
 11
938.0986166544
 21
653.8047586777
 31
0.0
  0
LINE
  5
231
330
1F
100
AcDbEntity
  8
0
  6
Continuous
 62
     7
370
    15
100
AcDbLine
 10
938.0986166544
 20
653.8047586777
 30
0.0
 11
938.7907632778
 21
654.325434848
 31
0.0
  0
LINE
  5
232
330
1F
100
AcDbEntity
  8
0
  6
Continuous
 62
     7
370
    15
100
AcDbLine
 10
938.7907632778
 20
654.325434848
 30
0.0
 11
939.0985068698
 21
653.6833024437
 31
0.0
  0
LINE
  5
233
330
1F
100
AcDbEntity
  8
0
  6
Continuous
 62
     7
370
    15
100
AcDbLine
 10
939.0985068698
 20
653.6833024437
 30
0.0
 11
938.4062428915
 21
653.1626869364
 31
0.0
  0
LINE
  5
234
330
1F
100
AcDbEntity
  8
0
  6
Continuous
 62
     7
370
    15
100
AcDbLine
 10
938.4062428915
 20
653.1626869364
 30
0.0
 11
939.0807050496
 21
651.6803263522
 31
0.0
  0
LINE
  5
235
330
1F
100
AcDbEntity
  8
0
  6
Continuous
 62
     7
370
    15
100
AcDbLine
 10
939.0807050496
 20
651.6803263522
 30
0.0
 11
938.4872082541
 21
651.2339102064
 31
0.0
  0
LINE
  5
236
330
1F
100
AcDbEntity
  8
0
  6
Continuous
 62
     7
370
    15
100
AcDbLine
 10
938.4872082541
 20
651.2339102064
 30
0.0
 11
935.646503941
 21
651.0691227919
 31
0.0
  0
LINE
  5
237
330
1F
100
AcDbEntity
  8
0
  6
Continuous
 62
     7
370
    15
100
AcDbLine
 10
938.1735997973
 20
651.9362105697
 30
0.0
 11
937.8125314433
 21
652.716388867
 31
0.0
  0
LINE
  5
238
330
1F
100
AcDbEntity
  8
0
  6
Continuous
 62
     7
370
    15
100
AcDbLine
 10
937.8125314433
 20
652.716388867
 30
0.0
 11
936.6817273956
 21
651.8661946782
 31
0.0
  0
LINE
  5
239
330
1F
100
AcDbEntity
  8
0
  6
Continuous
 62
     7
370
    15
100
AcDbLine
 10
936.6817273956
 20
651.8661946782
 30
0.0
 11
938.1735997973
 21
651.9362105697
 31
0.0
  0
LINE
  5
23A
330
1F
100
AcDbEntity
  8
0
  6
Continuous
 62
     7
370
    15
100
AcDbLine
 10
935.646503401
 20
651.0691227641
 30
0.0
 11
935.6410948381
 21
651.0719336126
 31
0.0
  0
LINE
  5
23B
330
1F
100
AcDbEntity
  8
0
  6
Continuous
 62
     7
370
    15
100
AcDbLine
 10
935.3332036877
 20
651.7250204142
 30
0.0
 11
935.3278866486
 21
651.7276349894
 31
0.0
  0
LINE
  5
23C
330
1F
100
AcDbEntity
  8
0
  6
Continuous
 62
     7
370
    15
100
AcDbLine
 10
937.5050011325
 20
653.3584109621
 30
0.0
 11
937.4996884822
 21
653.3610161253
 31
0.0
  0
LINE
  5
23D
330
1F
100
AcDbEntity
  8
0
  6
Continuous
 62
     7
370
    15
100
AcDbLine
 10
937.3543458998
 20
653.6675462699
 30
0.0
 11
937.3490781342
 21
653.6700551777
 31
0.0
  0
LINE
  5
23E
330
1F
100
AcDbEntity
  8
0
  6
Continuous
 62
     7
370
    15
100
AcDbLine
 10
937.9478776995
 20
654.1139351487
 30
0.0
 11
937.9426116242
 21
654.1164404317
 31
0.0
  0
LINE
  5
23F
330
1F
100
AcDbEntity
  8
0
  6
Continuous
 62
     7
370
    15
100
AcDbLine
 10
922.7571389029
 20
682.0392860609
 30
0.0
 11
923.0393721002
 21
681.4123195226
 31
0.0
  0
SPLINE
  5
240
330
1F
100
AcDbEntity
  8
0
  6
Continuous
 62
     7
370
    15
100
AcDbSpline
210
0.0
220
0.0
230
1.0
 70
     8
 71
     3
 72
    13
 73
     9
 74
     0
 42
0.00000001
 43
0.00000001
 12
1.0
 22
0.0
 32
0.0
 13
1.0
 23
0.0
 33
0.0
 40
0.0
 40
0.0
 40
0.0
 40
0.0
 40
0.2498615142153061
 40
0.3750499752468665
 40
0.5001966880806499
 40
0.6260356875229902
 40
0.750541862220947
 40
1.0
 40
1.0
 40
1.0
 40
1.0
 10
923.0393721002292
 20
681.4123195225563
 30
0.0
 10
922.8424533482348
 20
681.389536863642
 30
0.0
 10
922.5468721207972
 20
681.3553393775318
 30
0.0
 10
922.1428568808667
 20
681.4188289476017
 30
0.0
 10
921.852577207392
 20
681.5130814021875
 30
0.0
 10
921.58989884086
 20
681.6522317628995
 30
0.0
 10
921.2874190555435
 20
681.8871700281121
 30
0.0
 10
921.1585957629879
 20
682.1087095102906
 30
0.0
 10
921.0726623795306
 20
682.2564905279571
 30
0.0
  0
SPLINE
  5
241
330
1F
100
AcDbEntity
  8
0
  6
Continuous
 62
     7
370
    15
100
AcDbSpline
210
0.0
220
0.0
230
1.0
 70
     8
 71
     3
 72
    12
 73
     8
 74
     0
 42
0.00000001
 43
0.00000001
 12
1.0
 22
0.0
 32
0.0
 13
1.0
 23
0.0
 33
0.0
 40
0.0
 40
0.0
 40
0.0
 40
0.0
 40
0.2500632674071937
 40
0.3767833398324716
 40
0.5008646479452681
 40
0.750616101496613
 40
1.0
 40
1.0
 40
1.0
 40
1.0
 10
921.0726623795306
 20
682.2564905279571
 30
0.0
 10
921.0241782931315
 20
682.3907991018472
 30
0.0
 10
920.9511247967441
 20
682.5931688203715
 30
0.0
 10
920.9856415027577
 20
682.85898740331
 30
0.0
 10
921.0917253645299
 20
683.1045510440484
 30
0.0
 10
921.3472462899344
 20
683.3705656926957
 30
0.0
 10
921.6612187303732
 20
683.4756534712228
 30
0.0
 10
921.8180893485269
 20
683.5281586680323
 30
0.0
  0
SPLINE
  5
242
330
1F
100
AcDbEntity
  8
0
  6
Continuous
 62
     7
370
    15
100
AcDbSpline
210
0.0
220
0.0
230
1.0
 70
     8
 71
     3
 72
    10
 73
     6
 74
     0
 42
0.00000001
 43
0.00000001
 12
1.0
 22
0.0
 32
0.0
 13
1.0
 23
0.0
 33
0.0
 40
0.0
 40
0.0
 40
0.0
 40
0.0
 40
0.2495242873690552
 40
0.499600084887017
 40
1.0
 40
1.0
 40
1.0
 40
1.0
 10
921.8180893485269
 20
683.5281586680323
 30
0.0
 10
922.0004281474224
 20
683.5494808928947
 30
0.0
 10
922.3655087588807
 20
683.5921724699892
 30
0.0
 10
923.1204869611051
 20
683.4783470875796
 30
0.0
 10
923.6412412167613
 20
683.2840036738717
 30
0.0
 10
923.9884681568732
 20
683.1544199630528
 30
0.0
  0
LINE
  5
243
330
1F
100
AcDbEntity
  8
0
  6
Continuous
 62
     7
370
    15
100
AcDbLine
 10
923.9884681569
 20
683.1544199631
 30
0.0
 11
924.6524225977
 21
682.8914296117
 31
0.0
  0
LINE
  5
244
330
1F
100
AcDbEntity
  8
0
  6
Continuous
 62
     7
370
    15
100
AcDbLine
 10
924.6524225977
 20
682.8914296117
 30
0.0
 11
924.1010811918
 21
684.0404068346
 31
0.0
  0
LINE
  5
245
330
1F
100
AcDbEntity
  8
0
  6
Continuous
 62
     7
370
    15
100
AcDbLine
 10
924.1010811918
 20
684.0404068346
 30
0.0
 11
924.8320075401
 21
684.1947785789
 31
0.0
  0
LINE
  5
246
330
1F
100
AcDbEntity
  8
0
  6
Continuous
 62
     7
370
    15
100
AcDbLine
 10
924.8320080422
 20
684.1947786849
 30
0.0
 11
925.8953449316
 21
681.9150469402
 31
0.0
  0
LINE
  5
247
330
1F
100
AcDbEntity
  8
0
  6
Continuous
 62
     7
370
    15
100
AcDbLine
 10
925.8953449316
 20
681.9150469402
 30
0.0
 11
925.5167782132
 21
681.8349100278
 31
0.0
  0
LINE
  5
248
330
1F
100
AcDbEntity
  8
0
  6
Continuous
 62
     7
370
    15
100
AcDbLine
 10
925.5167782132
 20
681.8349100278
 30
0.0
 11
923.7368175873
 21
682.5985414761
 31
0.0
  0
SPLINE
  5
249
330
1F
100
AcDbEntity
  8
0
  6
Continuous
 62
     7
370
    15
100
AcDbSpline
210
0.0
220
0.0
230
1.0
 70
     8
 71
     3
 72
    10
 73
     6
 74
     0
 42
0.00000001
 43
0.00000001
 12
1.0
 22
0.0
 32
0.0
 13
1.0
 23
0.0
 33
0.0
 40
0.0
 40
0.0
 40
0.0
 40
0.0
 40
0.5008654000467192
 40
0.7508974515439265
 40
1.0
 40
1.0
 40
1.0
 40
1.0
 10
923.7368175872872
 20
682.5985414761186
 30
0.0
 10
923.4882745861335
 20
682.6993809633966
 30
0.0
 10
923.115658897072
 20
682.8505595315409
 30
0.0
 10
922.5750247023454
 20
682.971700417138
 30
0.0
 10
922.3071736603023
 20
682.9493485420697
 30
0.0
 10
922.1734975393005
 20
682.9381934166931
 30
0.0
  0
SPLINE
  5
24A
330
1F
100
AcDbEntity
  8
0
  6
Continuous
 62
     7
370
    15
100
AcDbSpline
210
0.0
220
0.0
230
1.0
 70
     8
 71
     3
 72
    14
 73
    10
 74
     0
 42
0.00000001
 43
0.00000001
 12
1.0
 22
0.0
 32
0.0
 13
1.0
 23
0.0
 33
0.0
 40
0.0
 40
0.0
 40
0.0
 40
0.0
 40
0.2492125570069779
 40
0.3742623457829215
 40
0.4993439306182749
 40
0.6236829845120532
 40
0.7495543507293932
 40
0.8746949963606435
 40
1.0
 40
1.0
 40
1.0
 40
1.0
 10
922.1734975393005
 20
682.9381934166933
 30
0.0
 10
922.1014440575178
 20
682.916941531644
 30
0.0
 10
921.9932356051122
 20
682.8850258832258
 30
0.0
 10
921.8876788993305
 20
682.8013301140668
 30
0.0
 10
921.8291099243031
 20
682.7269519016638
 30
0.0
 10
921.7933462839238
 20
682.6428810986791
 30
0.0
 10
921.7825534327785
 20
682.5532270431806
 30
0.0
 10
921.7951221553639
 20
682.4614378140637
 30
0.0
 10
921.8197687266988
 20
682.4019988794593
 30
0.0
 10
921.8321000996725
 20
682.3722599083947
 30
0.0
  0
SPLINE
  5
24B
330
1F
100
AcDbEntity
  8
0
  6
Continuous
 62
     7
370
    15
100
AcDbSpline
210
0.0
220
0.0
230
1.0
 70
     8
 71
     3
 72
    13
 73
     9
 74
     0
 42
0.00000001
 43
0.00000001
 12
1.0
 22
0.0
 32
0.0
 13
1.0
 23
0.0
 33
0.0
 40
0.0
 40
0.0
 40
0.0
 40
0.0
 40
0.1251920359843723
 40
0.2502609561235556
 40
0.3726017186890698
 40
0.5006143358108891
 40
0.7498741992883041
 40
1.0
 40
1.0
 40
1.0
 40
1.0
 10
921.8321033308889
 20
682.3722533965993
 30
0.0
 10
921.8503883207035
 20
682.3385898496263
 30
0.0
 10
921.8869403185817
 20
682.2712958609493
 30
0.0
 10
921.9753638753441
 20
682.1829288952822
 30
0.0
 10
922.0869955631699
 20
682.111537724011
 30
0.0
 10
922.2549531991051
 20
682.0409154630829
 30
0.0
 10
922.4906806009219
 20
682.0037499474719
 30
0.0
 10
922.6682168526617
 20
682.0274270043668
 30
0.0
 10
922.7571389029049
 20
682.0392860608818
 30
0.0
  0
LINE
  5
24C
330
1F
100
AcDbEntity
  8
0
  6
Continuous
 62
     7
370
    15
100
AcDbLine
 10
921.0726623795
 20
682.256490528
 30
0.0
 11
921.0715796745
 21
682.2500245444
 31
0.0
  0
LINE
  5
24D
330
1F
100
AcDbEntity
  8
0
  6
Continuous
 62
     7
370
    15
100
AcDbLine
 10
923.0393721002
 20
681.4123195226
 30
0.0
 11
923.0381275781
 21
681.4062005569
 31
0.0
  0
LINE
  5
24E
330
1F
100
AcDbEntity
  8
0
  6
Continuous
 62
     7
370
    15
100
AcDbLine
 10
936.6763213096
 20
651.8690002149
 30
0.0
 11
938.1680825429
 21
651.9392545078
 31
0.0
  0
LINE
  5
24F
330
1F
100
AcDbEntity
  8
0
  6
Continuous
 62
     7
370
    15
100
AcDbLine
 10
938.1680825429
 20
651.9392545078
 30
0.0
 11
938.1735997973
 21
651.9362105697
 31
0.0
  0
LINE
  5
250
330
1F
100
AcDbEntity
  8
0
  6
Continuous
 62
     7
370
    15
100
AcDbLine
 10
938.1680825429
 20
651.9392545078
 30
0.0
 11
937.8071259786
 21
652.7191930715
 31
0.0
  0
LINE
  5
251
330
1F
100
AcDbEntity
  8
0
  6
Continuous
 62
     7
370
    15
100
AcDbLine
 10
938.7907632778
 20
654.325434848
 30
0.0
 11
938.7854533763
 21
654.3280341165
 31
0.0
  0
LINE
  5
252
330
1F
100
AcDbEntity
  8
0
  6
Continuous
 62
     7
370
    15
100
AcDbLine
 10
923.7368175873
 20
682.5985414761
 30
0.0
 11
923.7357062678
 21
682.5921368565
 31
0.0
  0
LINE
  5
253
330
1F
100
AcDbEntity
  8
0
  6
Continuous
 62
     7
370
    15
100
AcDbLine
 10
925.5167782132
 20
681.8349100278
 30
0.0
 11
925.5155152128
 21
681.8288306888
 31
0.0
  0
LINE
  5
254
330
1F
100
AcDbEntity
  8
0
  6
Continuous
 62
     7
370
    15
100
AcDbLine
 10
922.1734975393
 20
682.9381934167
 30
0.0
 11
922.1724725581
 21
682.9316036438
 31
0.0
  0
LINE
  5
255
330
1F
100
AcDbEntity
  8
0
  6
Continuous
 62
     7
370
    15
100
AcDbLine
 10
925.8953449316
 20
681.9150469402
 30
0.0
 11
925.8940810612
 21
681.908969467
 31
0.0
  0
LINE
  5
256
330
1F
100
AcDbEntity
  8
0
  6
Continuous
 62
     7
370
    15
100
AcDbLine
 10
924.1010811918
 20
684.0404068346
 30
0.0
 11
924.1001499114
 21
684.0336161199
 31
0.0
  0
SPLINE
  5
257
330
1F
100
AcDbEntity
  8
0
  6
Continuous
 62
     7
370
    15
100
AcDbSpline
210
0.0
220
0.0
230
1.0
 70
     8
 71
     3
 72
     9
 73
     5
 74
     0
 42
0.00000001
 43
0.00000001
 12
1.0
 22
0.0
 32
0.0
 13
1.0
 23
0.0
 33
0.0
 40
0.0
 40
0.0
 40
0.0
 40
0.0
 40
0.5315589426747921
 40
1.0
 40
1.0
 40
1.0
 40
1.0
 10
943.6898311502564
 20
649.8465087825666
 30
0.0
 10
943.7984003575017
 20
649.662611742457
 30
0.0
 10
944.0026471465768
 20
649.3166537962238
 30
0.0
 10
944.3402903732988
 20
649.2324973877646
 30
0.0
 10
944.498456323423
 20
649.1930750708053
 30
0.0
  0
SPLINE
  5
258
330
1F
100
AcDbEntity
  8
0
  6
Continuous
 62
     7
370
    15
100
AcDbSpline
210
0.0
220
0.0
230
1.0
 70
     8
 71
     3
 72
    12
 73
     8
 74
     0
 42
0.00000001
 43
0.00000001
 12
1.0
 22
0.0
 32
0.0
 13
1.0
 23
0.0
 33
0.0
 40
0.0
 40
0.0
 40
0.0
 40
0.0
 40
0.0304717459459387
 40
0.0888135668586109
 40
0.3925556175487491
 40
0.6962774394174172
 40
1.0
 40
1.0
 40
1.0
 40
1.0
 10
944.498456323423
 20
649.1930750708053
 30
0.0
 10
944.5030538586598
 20
649.1837944795866
 30
0.0
 10
944.5164539278205
 20
649.156745080771
 30
0.0
 10
944.570036068499
 20
649.0326748479785
 30
0.0
 10
944.6256842237656
 20
648.7976221607751
 30
0.0
 10
944.6168242442067
 20
648.4530837931223
 30
0.0
 10
944.5381938925466
 20
648.2459607396638
 30
0.0
 10
944.4988786689051
 20
648.1423990869931
 30
0.0
  0
SPLINE
  5
259
330
1F
100
AcDbEntity
  8
0
  6
Continuous
 62
     7
370
    15
100
AcDbSpline
210
0.0
220
0.0
230
1.0
 70
     8
 71
     3
 72
    10
 73
     6
 74
     0
 42
0.00000001
 43
0.00000001
 12
1.0
 22
0.0
 32
0.0
 13
1.0
 23
0.0
 33
0.0
 40
0.0
 40
0.0
 40
0.0
 40
0.0
 40
0.2117958997118205
 40
0.488006909470135
 40
1.0
 40
1.0
 40
1.0
 40
1.0
 10
944.4988786689053
 20
648.1423990869931
 30
0.0
 10
944.4977947274955
 20
648.1395922545804
 30
0.0
 10
944.4952971772684
 20
648.1331249263034
 30
0.0
 10
944.4951661714715
 20
648.1213729744607
 30
0.0
 10
944.4978303070744
 20
648.114501403741
 30
0.0
 10
944.4995608474516
 20
648.1100378431881
 30
0.0
  0
SPLINE
  5
25A
330
1F
100
AcDbEntity
  8
0
  6
Continuous
 62
     7
370
    15
100
AcDbSpline
210
0.0
220
0.0
230
1.0
 70
     8
 71
     3
 72
     9
 73
     5
 74
     0
 42
0.00000001
 43
0.00000001
 12
1.0
 22
0.0
 32
0.0
 13
1.0
 23
0.0
 33
0.0
 40
0.0
 40
0.0
 40
0.0
 40
0.0
 40
0.4684410573252079
 40
1.0
 40
1.0
 40
1.0
 40
1.0
 10
925.3347273247498
 20
690.2898245312297
 30
0.0
 10
925.2516549372071
 20
690.1682081835467
 30
0.0
 10
925.0743169642786
 20
689.9085888658518
 30
0.0
 10
925.1849762534785
 20
689.5792285479141
 30
0.0
 10
925.2437981882426
 20
689.4041541255523
 30
0.0
  0
SPLINE
  5
25B
330
1F
100
AcDbEntity
  8
0
  6
Continuous
 62
     7
370
    15
100
AcDbSpline
210
0.0
220
0.0
230
1.0
 70
     8
 71
     3
 72
    11
 73
     7
 74
     0
 42
0.00000001
 43
0.00000001
 12
1.0
 22
0.0
 32
0.0
 13
1.0
 23
0.0
 33
0.0
 40
0.0
 40
0.0
 40
0.0
 40
0.0
 40
0.3658281109894473
 40
0.7252591430831312
 40
0.982069018177679
 40
1.0
 40
1.0
 40
1.0
 40
1.0
 10
927.872955644776
 20
690.7406247791392
 30
0.0
 10
927.490008246532
 20
690.7548226337677
 30
0.0
 10
926.7308098865557
 20
690.782970071245
 30
0.0
 10
925.8577320096172
 20
690.6202784163587
 30
0.0
 10
925.4627502393361
 20
690.4108064856944
 30
0.0
 10
925.3425708417898
 20
690.2972366732236
 30
0.0
 10
925.3347273247498
 20
690.2898245312297
 30
0.0
  0
LINE
  5
25C
330
1F
100
AcDbEntity
  8
0
  6
Continuous
 62
     7
370
    15
100
AcDbLine
 10
927.8729556448
 20
690.7406247791
 30
0.0
 11
946.566262564
 21
650.6526987237
 31
0.0
  0
SPLINE
  5
25D
330
1F
100
AcDbEntity
  8
0
  6
Continuous
 62
     7
370
    15
100
AcDbSpline
210
0.0
220
0.0
230
1.0
 70
     8
 71
     3
 72
    11
 73
     7
 74
     0
 42
0.00000001
 43
0.00000001
 12
1.0
 22
0.0
 32
0.0
 13
1.0
 23
0.0
 33
0.0
 40
0.0
 40
0.0
 40
0.0
 40
0.0
 40
0.2357948537758748
 40
0.2749019968044742
 40
0.6342531696138438
 40
1.0
 40
1.0
 40
1.0
 40
1.0
 10
944.498456323423
 20
649.1930750708053
 30
0.0
 10
944.6560070446536
 20
649.2049513523965
 30
0.0
 10
944.8396879315375
 20
649.2187973438239
 30
0.0
 10
945.2862692825463
 20
649.4043374861017
 30
0.0
 10
945.8484694252932
 20
649.7859930126054
 30
0.0
 10
946.325595369832
 20
650.3621029790528
 30
0.0
 10
946.5662625639782
 20
650.6526987237016
 30
0.0
  0
LINE
  5
25E
330
1F
100
AcDbEntity
  8
0
  6
Continuous
 62
     7
370
    15
100
AcDbLine
 10
959.1011144012
 20
662.7257408261
 30
0.0
 11
947.4193645956
 21
649.7529251503
 31
0.0
  0
SPLINE
  5
25F
330
1F
100
AcDbEntity
  8
0
  6
Continuous
 62
     7
370
    15
100
AcDbSpline
210
0.0
220
0.0
230
1.0
 70
     8
 71
     3
 72
    10
 73
     6
 74
     0
 42
0.00000001
 43
0.00000001
 12
1.0
 22
0.0
 32
0.0
 13
1.0
 23
0.0
 33
0.0
 40
0.0
 40
0.0
 40
0.0
 40
0.0
 40
0.3554439450437184
 40
0.714233022066338
 40
1.0
 40
1.0
 40
1.0
 40
1.0
 10
947.4193645956428
 20
649.7529251503197
 30
0.0
 10
947.0730254271199
 20
649.4178903061846
 30
0.0
 10
946.3770876444026
 20
648.7446675587981
 30
0.0
 10
945.3301941817499
 20
648.172871908488
 30
0.0
 10
944.75423354395
 20
648.1517594121702
 30
0.0
 10
944.4988786689051
 20
648.1423990869931
 30
0.0
  0
ARC
  5
260
330
1F
100
AcDbEntity
  8
0
  6
Continuous
 62
     7
370
    15
100
AcDbCircle
 10
944.171136028
 20
647.5274956982
 30
0.0
 40
3.937451596444541
100
AcDbArc
 50
34.41585996
 51
52.5337801466
  0
SPLINE
  5
261
330
1F
100
AcDbEntity
  8
0
  6
Continuous
 62
     7
370
    15
100
AcDbSpline
210
0.0
220
0.0
230
1.0
 70
     8
 71
     3
 72
    12
 73
     8
 74
     0
 42
0.00000001
 43
0.00000001
 12
1.0
 22
0.0
 32
0.0
 13
1.0
 23
0.0
 33
0.0
 40
0.0
 40
0.0
 40
0.0
 40
0.0
 40
0.0304717459515827
 40
0.0888135668586353
 40
0.3925556175487549
 40
0.6962774394174206
 40
1.0
 40
1.0
 40
1.0
 40
1.0
 10
925.3347273247498
 20
690.2898245312297
 30
0.0
 10
925.330380154565
 20
690.2997259226873
 30
0.0
 10
925.3177098044487
 20
690.3285847184258
 30
0.0
 10
925.2548376024888
 20
690.4542516293687
 30
0.0
 10
925.108049806994
 20
690.6533242395095
 30
0.0
 10
924.8383224942878
 20
690.8682176731352
 30
0.0
 10
924.6319397104222
 20
690.9350605946516
 30
0.0
 10
924.5287481929984
 20
690.9684820960538
 30
0.0
  0
SPLINE
  5
262
330
1F
100
AcDbEntity
  8
0
  6
Continuous
 62
     7
370
    15
100
AcDbSpline
210
0.0
220
0.0
230
1.0
 70
     8
 71
     3
 72
    11
 73
     7
 74
     0
 42
0.00000001
 43
0.00000001
 12
1.0
 22
0.0
 32
0.0
 13
1.0
 23
0.0
 33
0.0
 40
0.0
 40
0.0
 40
0.0
 40
0.0
 40
0.3704320937882996
 40
0.7442498469291504
 40
0.9442480537685843
 40
1.0
 40
1.0
 40
1.0
 40
1.0
 10
924.5060136477813
 20
690.9863381784165
 30
0.0
 10
924.5073808298016
 20
690.9838135684929
 30
0.0
 10
924.5101276895541
 20
690.9787412743246
 30
0.0
 10
924.5171096092637
 20
690.9726511261345
 30
0.0
 10
924.5244963218455
 20
690.9695286610424
 30
0.0
 10
924.5279872026473
 20
690.9686694079053
 30
0.0
 10
924.5287481929984
 20
690.9684820960537
 30
0.0
  0
LINE
  5
263
330
1F
100
AcDbEntity
  8
0
  6
Continuous
 62
     7
370
    15
100
AcDbLine
 10
946.566262564
 20
650.6526987237
 30
0.0
 11
958.3105308306
 21
663.4914431269
 31
0.0
  0
ARC
  5
264
330
1F
100
AcDbEntity
  8
0
  6
Continuous
 62
     7
370
    15
100
AcDbCircle
 10
955.2222115603
 20
659.5117820104
 30
0.0
 40
5.037401961090022
100
AcDbArc
 50
39.6442690867
 51
52.1876183903
  0
LINE
  5
265
330
1F
100
AcDbEntity
  8
0
  6
Continuous
 62
     7
370
    15
100
AcDbLine
 10
945.3873681721
 20
691.205254883
 30
0.0
 11
927.8729556448
 21
690.7406247791
 31
0.0
  0
LINE
  5
266
330
1F
100
AcDbEntity
  8
0
  6
Continuous
 62
     7
370
    15
100
AcDbLine
 10
958.3105308306
 20
663.4914431269
 30
0.0
 11
945.3873681721
 21
691.205254883
 31
0.0
  0
LINE
  5
267
330
1F
100
AcDbEntity
  8
0
  6
Continuous
 62
     7
370
    15
100
AcDbLine
 10
940.0177726844
 20
694.7154720785
 30
0.0
 11
942.6779083332
 21
694.7560951822
 31
0.0
  0
LINE
  5
268
330
1F
100
AcDbEntity
  8
0
  6
Continuous
 62
     7
370
    15
100
AcDbLine
 10
942.6779083332
 20
694.7560951822
 30
0.0
 11
944.1560523042
 21
694.7755299205
 31
0.0
  0
LINE
  5
269
330
1F
100
AcDbEntity
  8
0
  6
Continuous
 62
     7
370
    15
100
AcDbLine
 10
945.3327220866
 20
692.2521534291
 30
0.0
 11
944.1560523042
 21
694.7755299205
 31
0.0
  0
LINE
  5
26A
330
1F
100
AcDbEntity
  8
0
  6
Continuous
 62
     7
370
    15
100
AcDbLine
 10
927.7567317193
 20
691.919577429
 30
0.0
 11
945.3327220866
 21
692.2521534291
 31
0.0
  0
SPLINE
  5
26B
330
1F
100
AcDbEntity
  8
0
  6
Continuous
 62
     7
370
    15
100
AcDbSpline
210
0.0
220
0.0
230
1.0
 70
     8
 71
     3
 72
    10
 73
     6
 74
     0
 42
0.00000001
 43
0.00000001
 12
1.0
 22
0.0
 32
0.0
 13
1.0
 23
0.0
 33
0.0
 40
0.0
 40
0.0
 40
0.0
 40
0.0
 40
0.2857669779336523
 40
0.644556054956278
 40
1.0
 40
1.0
 40
1.0
 40
1.0
 10
924.5287481929984
 20
690.9684820960538
 30
0.0
 10
924.716571162223
 20
691.1226650606178
 30
0.0
 10
925.1402115455483
 20
691.4704293967895
 30
0.0
 10
926.2949786574948
 20
691.810889259649
 30
0.0
 10
927.2710044474973
 20
691.8834613370603
 30
0.0
 10
927.7567317193325
 20
691.9195774290055
 30
0.0
  0
ARC
  5
26C
330
1F
100
AcDbEntity
  8
0
  6
Continuous
 62
     7
370
    15
100
AcDbCircle
 10
923.3604282405
 20
690.8909743518
 30
0.0
 40
4.515031402856413
100
AcDbArc
 50
358.091710103
 51
13.1686116559
  0
LINE
  5
26D
330
1F
100
AcDbEntity
  8
0
  6
Continuous
 62
     7
370
    15
100
AcDbLine
 10
940.9376525052
 20
639.8819892238
 30
0.0
 11
940.5468376381
 21
640.6855842444
 31
0.0
  0
LINE
  5
26E
330
1F
100
AcDbEntity
  8
0
  6
Continuous
 62
     7
370
    15
100
AcDbLine
 10
940.5468376381
 20
640.6855842444
 30
0.0
 11
941.0958576077
 21
641.2361720365
 31
0.0
  0
LINE
  5
26F
330
1F
100
AcDbEntity
  8
0
  6
Continuous
 62
     7
370
    15
100
AcDbLine
 10
941.0958576077
 20
641.2361720365
 30
0.0
 11
941.3780486215
 21
640.6675727523
 31
0.0
  0
LINE
  5
270
330
1F
100
AcDbEntity
  8
0
  6
Continuous
 62
     7
370
    15
100
AcDbLine
 10
941.3780486215
 20
640.6675727523
 30
0.0
 11
941.9804338879
 21
641.1708281743
 31
0.0
  0
LINE
  5
271
330
1F
100
AcDbEntity
  8
0
  6
Continuous
 62
     7
370
    15
100
AcDbLine
 10
941.9804342163
 20
641.1708285758
 30
0.0
 11
941.8995690293
 21
641.2495037451
 31
0.0
  0
SPLINE
  5
272
330
1F
100
AcDbEntity
  8
0
  6
Continuous
 62
     7
370
    15
100
AcDbSpline
210
0.0
220
0.0
230
1.0
 70
     8
 71
     3
 72
    13
 73
     9
 74
     0
 42
0.00000001
 43
0.00000001
 12
1.0
 22
0.0
 32
0.0
 13
1.0
 23
0.0
 33
0.0
 40
0.0
 40
0.0
 40
0.0
 40
0.0
 40
0.2493537827004428
 40
0.3731502119427823
 40
0.4998460068465639
 40
0.6255465646135243
 40
0.750308282807609
 40
1.0
 40
1.0
 40
1.0
 40
1.0
 10
941.899569029331
 20
641.2495037451092
 30
0.0
 10
941.8766634538435
 20
641.3350750141418
 30
0.0
 10
941.8423859696392
 20
641.4631297676325
 30
0.0
 10
941.9094329230479
 20
641.7277049239879
 30
0.0
 10
941.9978809219
 20
641.945816781046
 30
0.0
 10
942.1221298032997
 20
642.1765718322329
 30
0.0
 10
942.3294396242553
 20
642.4873559873264
 30
0.0
 10
942.5259348152556
 20
642.6981134865582
 30
0.0
 10
942.6569610444855
 20
642.838650057788
 30
0.0
  0
SPLINE
  5
273
330
1F
100
AcDbEntity
  8
0
  6
Continuous
 62
     7
370
    15
100
AcDbSpline
210
0.0
220
0.0
230
1.0
 70
     8
 71
     3
 72
    11
 73
     7
 74
     0
 42
0.00000001
 43
0.00000001
 12
1.0
 22
0.0
 32
0.0
 13
1.0
 23
0.0
 33
0.0
 40
0.0
 40
0.0
 40
0.0
 40
0.0
 40
0.2501171894885656
 40
0.5000589672841035
 40
0.7500014861899732
 40
0.9999999999999999
 40
0.9999999999999999
 40
0.9999999999999999
 40
0.9999999999999999
 10
942.6569610444855
 20
642.838650057788
 30
0.0
 10
942.8033857182762
 20
642.9735938432551
 30
0.0
 10
943.0961323755948
 20
643.2433867756805
 30
0.0
 10
943.5277463986927
 20
643.4585802998787
 30
0.0
 10
943.8858929982974
 20
643.5182602163891
 30
0.0
 10
943.9890019474655
 20
643.3928675094653
 30
0.0
 10
944.0405621963062
 20
643.3301641338228
 30
0.0
  0
SPLINE
  5
274
330
1F
100
AcDbEntity
  8
0
  6
Continuous
 62
     7
370
    15
100
AcDbSpline
210
0.0
220
0.0
230
1.0
 70
     8
 71
     3
 72
    11
 73
     7
 74
     0
 42
0.00000001
 43
0.00000001
 12
1.0
 22
0.0
 32
0.0
 13
1.0
 23
0.0
 33
0.0
 40
0.0
 40
0.0
 40
0.0
 40
0.0
 40
0.2502460433366588
 40
0.5000742790981253
 40
0.7498688737994568
 40
1.0
 40
1.0
 40
1.0
 40
1.0
 10
944.0405621963062
 20
643.3301641338228
 30
0.0
 10
944.0619931001056
 20
643.2545586171118
 30
0.0
 10
944.1048191269432
 20
643.1034738136879
 30
0.0
 10
943.995494144263
 20
642.7480552009979
 30
0.0
 10
943.7678676681417
 20
642.337956118702
 30
0.0
 10
943.5455234085355
 20
642.0638033867068
 30
0.0
 10
943.4342764417678
 20
641.926634745971
 30
0.0
  0
LINE
  5
275
330
1F
100
AcDbEntity
  8
0
  6
Continuous
 62
     7
370
    15
100
AcDbLine
 10
943.4342764418
 20
641.926634746
 30
0.0
 11
943.2963169832
 21
642.2448848639
 31
0.0
  0
SPLINE
  5
276
330
1F
100
AcDbEntity
  8
0
  6
Continuous
 62
     7
370
    15
100
AcDbSpline
210
0.0
220
0.0
230
1.0
 70
     8
 71
     3
 72
    11
 73
     7
 74
     0
 42
0.00000001
 43
0.00000001
 12
1.0
 22
0.0
 32
0.0
 13
1.0
 23
0.0
 33
0.0
 40
0.0
 40
0.0
 40
0.0
 40
0.0
 40
0.2503042847020719
 40
0.5002979451325168
 40
0.7501213484861698
 40
1.0
 40
1.0
 40
1.0
 40
1.0
 10
943.2963169831594
 20
642.2448848639397
 30
0.0
 10
943.3326132976765
 20
642.2988780749176
 30
0.0
 10
943.4051608834694
 20
642.4067974920201
 30
0.0
 10
943.4756878725166
 20
642.5600623459671
 30
0.0
 10
943.5088344883611
 20
642.6939971842609
 30
0.0
 10
943.4922141126164
 20
642.7526807169777
 30
0.0
 10
943.4839030059512
 20
642.7820257274263
 30
0.0
  0
SPLINE
  5
277
330
1F
100
AcDbEntity
  8
0
  6
Continuous
 62
     7
370
    15
100
AcDbSpline
210
0.0
220
0.0
230
1.0
 70
     8
 71
     3
 72
    13
 73
     9
 74
     0
 42
0.00000001
 43
0.00000001
 12
1.0
 22
0.0
 32
0.0
 13
1.0
 23
0.0
 33
0.0
 40
0.0
 40
0.0
 40
0.0
 40
0.0
 40
0.2491886988766297
 40
0.3735724231201101
 40
0.4997234333244126
 40
0.6255280748750881
 40
0.7502519078808056
 40
1.0
 40
1.0
 40
1.0
 40
1.0
 10
943.483901613719
 20
642.7820292229784
 30
0.0
 10
943.4602279108381
 20
642.8102598247922
 30
0.0
 10
943.4247373665667
 20
642.8525818657727
 30
0.0
 10
943.3273215720075
 20
642.8462885805383
 30
0.0
 10
943.242735281435
 20
642.8211882604651
 30
0.0
 10
943.148446971103
 20
642.775144731715
 30
0.0
 10
943.014980352341
 20
642.6879339024495
 30
0.0
 10
942.9153133031655
 20
642.594405200497
 30
0.0
 10
942.8488419505522
 20
642.532027720895
 30
0.0
  0
SPLINE
  5
278
330
1F
100
AcDbEntity
  8
0
  6
Continuous
 62
     7
370
    15
100
AcDbSpline
210
0.0
220
0.0
230
1.0
 70
     8
 71
     3
 72
    14
 73
    10
 74
     0
 42
0.00000001
 43
0.00000001
 12
1.0
 22
0.0
 32
0.0
 13
1.0
 23
0.0
 33
0.0
 40
0.0
 40
0.0
 40
0.0
 40
0.0
 40
0.2499182797636741
 40
0.4990992268411525
 40
0.6265652673727296
 40
0.7495019737158064
 40
0.8745989327642599
 40
0.9372969125677606
 40
1.0
 40
1.0
 40
1.0
 40
1.0
 10
942.8488419505522
 20
642.532027720895
 30
0.0
 10
942.7881260689102
 20
642.4675047415468
 30
0.0
 10
942.6668734353965
 20
642.3386491446827
 30
0.0
 10
942.5501862922176
 20
642.1556321675939
 30
0.0
 10
942.4878347640525
 20
642.0208015094016
 30
0.0
 10
942.4587771921678
 20
641.9276156118203
 30
0.0
 10
942.4534294556037
 20
641.8632320882175
 30
0.0
 10
942.4590708557639
 20
641.8200399433592
 30
0.0
 10
942.4661234762359
 20
641.8025059568463
 30
0.0
 10
942.4696499300998
 20
641.7937386065072
 30
0.0
  0
SPLINE
  5
279
330
1F
100
AcDbEntity
  8
0
  6
Continuous
 62
     7
370
    15
100
AcDbSpline
210
0.0
220
0.0
230
1.0
 70
     8
 71
     3
 72
    10
 73
     6
 74
     0
 42
0.00000001
 43
0.00000001
 12
1.0
 22
0.0
 32
0.0
 13
1.0
 23
0.0
 33
0.0
 40
0.0
 40
0.0
 40
0.0
 40
0.0
 40
0.2500138183759671
 40
0.500275506955713
 40
1.0
 40
1.0
 40
1.0
 40
1.0
 10
942.4696514921422
 20
641.7937347641044
 30
0.0
 10
942.4819521828181
 20
641.7769948163419
 30
0.0
 10
942.5065657593946
 20
641.7434983243973
 30
0.0
 10
942.6015034155517
 20
641.7323268753989
 30
0.0
 10
942.6967092182506
 20
641.7660683637802
 30
0.0
 10
942.7601459490253
 20
641.7885507089073
 30
0.0
  0
LINE
  5
27A
330
1F
100
AcDbEntity
  8
0
  6
Continuous
 62
     7
370
    15
100
AcDbLine
 10
942.7601463291
 20
641.7885508595
 30
0.0
 11
942.7619440254
 21
641.4292788161
 31
0.0
  0
LINE
  5
27B
330
1F
100
AcDbEntity
  8
0
  6
Continuous
 62
     7
370
    15
100
AcDbLine
 10
942.7619440254
 20
641.4292788161
 30
0.0
 11
940.9376525052
 21
639.8819892238
 31
0.0
  0
LINE
  5
27C
330
1F
100
AcDbEntity
  8
0
  6
Continuous
 62
     7
370
    15
100
AcDbLine
 10
940.9376525052
 20
639.8819892238
 30
0.0
 11
940.9306854484
 21
639.8881422734
 31
0.0
  0
LINE
  5
27D
330
1F
100
AcDbEntity
  8
0
  6
Continuous
 62
     7
370
    15
100
AcDbLine
 10
940.5468376381
 20
640.6855842444
 30
0.0
 11
940.5399836275
 21
640.6914948657
 31
0.0
  0
LINE
  5
27E
330
1F
100
AcDbEntity
  8
0
  6
Continuous
 62
     7
370
    15
100
AcDbLine
 10
941.0958576077
 20
641.2361720365
 30
0.0
 11
941.0890045256
 21
641.2420806665
 31
0.0
  0
LINE
  5
27F
330
1F
100
AcDbEntity
  8
0
  6
Continuous
 62
     7
370
    15
100
AcDbLine
 10
942.6569610445
 20
642.8386500578
 30
0.0
 11
942.6501143441
 21
642.844545002
 31
0.0
  0
LINE
  5
280
330
1F
100
AcDbEntity
  8
0
  6
Continuous
 62
     7
370
    15
100
AcDbLine
 10
941.8995690293
 20
641.2495037451
 30
0.0
 11
941.8926405127
 21
641.2555741449
 31
0.0
  0
ARC
  5
281
330
1F
100
AcDbEntity
  8
0
  6
Continuous
 62
     7
370
    15
100
AcDbCircle
 10
938.8178099298
 20
691.3872120928
 30
0.0
 40
6.57207759586823
100
AcDbArc
 50
358.4134830443
 51
7.5625518173
  0
LINE
  5
282
330
1F
100
AcDbEntity
  8
0
  6
Continuous
 62
     7
370
    15
100
AcDbLine
 10
943.4839016137
 20
642.782029223
 30
0.0
 11
943.4769681813
 21
642.7881101648
 31
0.0
  0
LINE
  5
283
330
1F
100
AcDbEntity
  8
0
  6
Continuous
 62
     7
370
    15
100
AcDbLine
 10
942.7601463291
 20
641.7885508595
 30
0.0
 11
942.7531864918
 21
641.7946884268
 31
0.0
  0
LWPOLYLINE
  5
284
330
1F
100
AcDbEntity
  8
0
  6
Continuous
 62
     7
370
    15
100
AcDbPolyline
 90
        9
 70
   128
 43
0.0
 10
959.3313355496
 20
663.627226014
 10
959.2891567603
 20
663.6732144011
 10
959.2145015267
 20
663.7015912074
 10
959.1101756065
 20
663.7112899511
 10
958.9800998667
 20
663.7019461256
 10
958.8291629264
 20
663.6739108988
 10
958.6630374284
 20
663.6282379147
 10
958.4879668451
 20
663.5666436949
 10
958.3105308306
 20
663.4914431269
  0
ARC
  5
285
330
1F
100
AcDbEntity
  8
0
  6
Continuous
 62
     7
370
    15
100
AcDbCircle
 10
958.5786601444
 20
663.3393046284
 30
0.0
 40
0.8058653670836916
100
AcDbArc
 50
310.4146476753
 51
20.9333827517
  0
LINE
  5
286
330
1F
100
AcDbEntity
  8
0
  6
Continuous
 62
     7
370
    15
100
AcDbLine
 10
916.6533063395
 20
691.9029042926
 30
0.0
 11
916.4546377019
 21
692.3286075148
 31
0.0
  0
LINE
  5
287
330
1F
100
AcDbEntity
  8
0
  6
Continuous
 62
     7
370
    15
100
AcDbLine
 10
916.4546377019
 20
692.3286075148
 30
0.0
 11
920.889797465
 21
692.6838842437
 31
0.0
  0
LINE
  5
288
330
1F
100
AcDbEntity
  8
0
  6
Continuous
 62
     7
370
    15
100
AcDbLine
 10
920.889797465
 20
692.6838842437
 30
0.0
 11
921.0218080781
 21
692.4066515562
 31
0.0
  0
LINE
  5
289
330
1F
100
AcDbEntity
  8
0
  6
Continuous
 62
     7
370
    15
100
AcDbLine
 10
921.0218080781
 20
692.4066515562
 30
0.0
 11
917.380094975
 21
692.114730521
 31
0.0
  0
LINE
  5
28A
330
1F
100
AcDbEntity
  8
0
  6
Continuous
 62
     7
370
    15
100
AcDbLine
 10
917.380094975
 20
692.114730521
 30
0.0
 11
917.5230774756
 21
691.7893878885
 31
0.0
  0
LINE
  5
28B
330
1F
100
AcDbEntity
  8
0
  6
Continuous
 62
     7
370
    15
100
AcDbLine
 10
917.5230774756
 20
691.7893878885
 30
0.0
 11
916.6533063395
 21
691.9029042926
 31
0.0
  0
LINE
  5
28C
330
1F
100
AcDbEntity
  8
0
  6
Continuous
 62
     7
370
    15
100
AcDbLine
 10
946.1981812654
 20
691.7913662647
 30
0.0
 11
959.3313355496
 21
663.627226014
 31
0.0
  0
ARC
  5
28D
330
1F
100
AcDbEntity
  8
0
  6
Continuous
 62
     7
370
    15
100
AcDbCircle
 10
944.991629032
 20
692.6065972113
 30
0.0
 40
1.456148958058221
100
AcDbArc
 50
285.7696822231
 51
325.9542924604
  0
LINE
  5
28E
330
1F
100
AcDbEntity
  8
0
  6
Continuous
 62
     7
370
    15
100
AcDbLine
 10
916.6533063395
 20
691.9029042926
 30
0.0
 11
916.6535600359
 21
691.8935723868
 31
0.0
  0
LINE
  5
28F
330
1F
100
AcDbEntity
  8
0
  6
Continuous
 62
     7
370
    15
100
AcDbLine
 10
917.5230774756
 20
691.7893878885
 30
0.0
 11
917.5233061225
 21
691.7801097017
 31
0.0
  0
LINE
  5
290
330
1F
100
AcDbEntity
  8
0
  6
Continuous
 62
     7
370
    15
100
AcDbLine
 10
943.2963169832
 20
642.2448848639
 30
0.0
 11
943.2893490594
 21
642.2510397725
 31
0.0
  0
LINE
  5
291
330
1F
100
AcDbEntity
  8
0
  6
Continuous
 62
     7
370
    15
100
AcDbLine
 10
959.3313355496
 20
663.627226014
 30
0.0
 11
961.0106070376
 21
660.0260166865
 31
0.0
  0
LINE
  5
292
330
1F
100
AcDbEntity
  8
0
  6
Continuous
 62
     7
370
    15
100
AcDbLine
 10
916.4546377019
 20
692.3286075148
 30
0.0
 11
916.454950469
 21
692.3191489315
 31
0.0
  0
LINE
  5
293
330
1F
100
AcDbEntity
  8
0
  6
Continuous
 62
     7
370
    15
100
AcDbLine
 10
943.4342764418
 20
641.926634746
 30
0.0
 11
943.4272635338
 21
641.9328861235
 31
0.0
  0
LINE
  5
294
330
1F
100
AcDbEntity
  8
0
  6
Continuous
 62
     7
370
    15
100
AcDbLine
 10
921.0218080781
 20
692.4066515562
 30
0.0
 11
921.0220816739
 21
692.3972769762
 31
0.0
  0
ARC
  5
295
330
1F
100
AcDbEntity
  8
0
  6
Continuous
 62
     7
370
    15
100
AcDbCircle
 10
945.4308422909
 20
691.3932901628
 30
0.0
 40
0.8644499318736337
100
AcDbArc
 50
27.4191454446
 51
96.517457603
  0
SPLINE
  5
296
330
1F
100
AcDbEntity
  8
0
  6
Continuous
 62
     7
370
    15
100
AcDbSpline
210
0.0
220
0.0
230
1.0
 70
     8
 71
     3
 72
    11
 73
     7
 74
     0
 42
0.00000001
 43
0.00000001
 12
1.0
 22
0.0
 32
0.0
 13
1.0
 23
0.0
 33
0.0
 40
0.0
 40
0.0
 40
0.0
 40
0.0
 40
0.2933118760927232
 40
0.5865991201419618
 40
0.8805021461502919
 40
1.0
 40
1.0
 40
1.0
 40
1.0
 10
944.1560523042026
 20
694.7755299205033
 30
0.0
 10
944.2687075207897
 20
694.7659573973815
 30
0.0
 10
944.4940084932896
 20
694.7468131550287
 30
0.0
 10
944.7945379370784
 20
694.5780956623034
 30
0.0
 10
944.9827743490247
 20
694.3779490650585
 30
0.0
 10
945.0553016321498
 20
694.237824829314
 30
0.0
 10
945.076266402912
 20
694.1973204514582
 30
0.0
  0
LINE
  5
297
330
1F
100
AcDbEntity
  8
0
  6
Continuous
 62
     7
370
    15
100
AcDbLine
 10
945.0762664029
 20
694.1973204515
 30
0.0
 11
946.1981812654
 21
691.7913662647
 31
0.0
  0
LINE
  5
298
330
1F
100
AcDbEntity
  8
0
  6
Continuous
 62
     7
370
    15
100
AcDbLine
 10
931.3269679114
 20
634.2403663755
 30
0.0
 11
931.305727096
 21
634.2304616206
 31
0.0
  0
LINE
  5
299
330
1F
100
AcDbEntity
  8
0
  6
Continuous
 62
     7
370
    15
100
AcDbLine
 10
929.4857874249
 20
638.1887906708
 30
0.0
 11
929.4645466095
 21
638.1788859159
 31
0.0
  0
LINE
  5
29A
330
1F
100
AcDbEntity
  8
0
  6
Continuous
 62
     7
370
    15
100
AcDbLine
 10
78.4457296102
 20
821.4655256406
 30
0.0
 11
93.4457287068
 21
821.4655256406
 31
0.0
  0
LINE
  5
29B
330
1F
100
AcDbEntity
  8
0
  6
Continuous
 62
     7
370
    15
100
AcDbLine
 10
188.4340584264
 20
443.0655256406
 30
0.0
 11
161.9340584264
 21
443.0655256406
 31
0.0
  0
LINE
  5
29C
330
1F
100
AcDbEntity
  8
0
  6
Continuous
 62
     7
370
    15
100
AcDbLine
 10
214.9340584264
 20
443.0655256406
 30
0.0
 11
188.4340584264
 21
443.0655256406
 31
0.0
  0
LINE
  5
29D
330
1F
100
AcDbEntity
  8
0
  6
Continuous
 62
     7
370
    15
100
AcDbLine
 10
188.4340584264
 20
449.0655256406
 30
0.0
 11
159.9340584264
 21
449.0655256406
 31
0.0
  0
LINE
  5
29E
330
1F
100
AcDbEntity
  8
0
  6
Continuous
 62
     7
370
    15
100
AcDbLine
 10
216.9340584264
 20
449.0655256406
 30
0.0
 11
188.4340584264
 21
449.0655256406
 31
0.0
  0
LINE
  5
29F
330
1F
100
AcDbEntity
  8
0
  6
Continuous
 62
     7
370
    15
100
AcDbLine
 10
767.4340584264
 20
449.0655256406
 30
0.0
 11
738.9340584264
 21
449.0655256406
 31
0.0
  0
LINE
  5
2A0
330
1F
100
AcDbEntity
  8
0
  6
Continuous
 62
     7
370
    15
100
AcDbLine
 10
795.9340584264
 20
449.0655256406
 30
0.0
 11
767.4340584264
 21
449.0655256406
 31
0.0
  0
LINE
  5
2A1
330
1F
100
AcDbEntity
  8
0
  6
Continuous
 62
     7
370
    15
100
AcDbLine
 10
767.4340584264
 20
443.0655256406
 30
0.0
 11
740.9340584264
 21
443.0655256406
 31
0.0
  0
LINE
  5
2A2
330
1F
100
AcDbEntity
  8
0
  6
Continuous
 62
     7
370
    15
100
AcDbLine
 10
793.9340584264
 20
443.0655256406
 30
0.0
 11
767.4340584264
 21
443.0655256406
 31
0.0
  0
LINE
  5
2A3
330
1F
100
AcDbEntity
  8
0
  6
Continuous
 62
     7
370
    15
100
AcDbLine
 10
722.4340584264
 20
541.0655256406
 30
0.0
 11
812.4340584264
 21
541.0655256406
 31
0.0
  0
LINE
  5
2A4
330
1F
100
AcDbEntity
  8
0
  6
Continuous
 62
     7
370
    15
100
AcDbLine
 10
722.4340584264
 20
541.0655256406
 30
0.0
 11
722.4340584264
 21
542.7655256406
 31
0.0
  0
LINE
  5
2A5
330
1F
100
AcDbEntity
  8
0
  6
Continuous
 62
     7
370
    15
100
AcDbLine
 10
812.4340584264
 20
541.0655256406
 30
0.0
 11
812.4340584264
 21
542.7655256406
 31
0.0
  0
LINE
  5
2A6
330
1F
100
AcDbEntity
  8
0
  6
Continuous
 62
     7
370
    15
100
AcDbLine
 10
767.4340584264
 20
478.0655256406
 30
0.0
 11
736.4744082061
 21
478.0655256406
 31
0.0
  0
LINE
  5
2A7
330
1F
100
AcDbEntity
  8
0
  6
Continuous
 62
     7
370
    15
100
AcDbLine
 10
798.3937086468
 20
478.0655256406
 30
0.0
 11
767.4340584264
 21
478.0655256406
 31
0.0
  0
LINE
  5
2A8
330
1F
100
AcDbEntity
  8
0
  6
Continuous
 62
     7
370
    15
100
AcDbLine
 10
233.4340584264
 20
541.0655256406
 30
0.0
 11
233.4340584264
 21
542.7655256406
 31
0.0
  0
LINE
  5
2A9
330
1F
100
AcDbEntity
  8
0
  6
Continuous
 62
     7
370
    15
100
AcDbLine
 10
143.4340584264
 20
541.0655256406
 30
0.0
 11
143.4340584264
 21
542.7655256406
 31
0.0
  0
LINE
  5
2AA
330
1F
100
AcDbEntity
  8
0
  6
Continuous
 62
     7
370
    15
100
AcDbLine
 10
143.4340584264
 20
541.0655256406
 30
0.0
 11
233.4340584264
 21
541.0655256406
 31
0.0
  0
LINE
  5
2AB
330
1F
100
AcDbEntity
  8
0
  6
Continuous
 62
     7
370
    15
100
AcDbLine
 10
188.4340584264
 20
478.0655256406
 30
0.0
 11
157.4744082061
 21
478.0655256406
 31
0.0
  0
LINE
  5
2AC
330
1F
100
AcDbEntity
  8
0
  6
Continuous
 62
     7
370
    15
100
AcDbLine
 10
219.3937086468
 20
478.0655256406
 30
0.0
 11
188.4340584264
 21
478.0655256406
 31
0.0
  0
LINE
  5
2AD
330
1F
100
AcDbEntity
  8
0
  6
Continuous
 62
     8
370
    15
100
AcDbLine
 10
835.6840584264
 20
537.4155256406
 30
0.0
 11
818.4340584264
 21
537.4155256406
 31
0.0
  0
LINE
  5
2AE
330
1F
100
AcDbEntity
  8
0
  6
Continuous
 62
     8
370
    15
100
AcDbLine
 10
818.4340584264
 20
532.9155256406
 30
0.0
 11
835.6840584264
 21
532.9155256406
 31
0.0
  0
LINE
  5
2AF
330
1F
100
AcDbEntity
  8
0
  6
Continuous
 62
     8
370
    15
100
AcDbLine
 10
89.0097941056
 20
516.5655256406
 30
0.0
 11
103.7840584264
 21
516.5655256406
 31
0.0
  0
LINE
  5
2B0
330
1F
100
AcDbEntity
  8
0
  6
Continuous
 62
     8
370
    15
100
AcDbLine
 10
74.0840584264
 20
516.5655256406
 30
0.0
 11
89.0097941056
 21
516.5655256406
 31
0.0
  0
LINE
  5
2B1
330
1F
100
AcDbEntity
  8
0
  6
Continuous
 62
     8
370
    15
100
AcDbLine
 10
813.4340584264
 20
541.5655256406
 30
0.0
 11
813.4340584264
 21
542.7655256406
 31
0.0
  0
LINE
  5
2B2
330
1F
100
AcDbEntity
  8
0
  6
Continuous
 62
     8
370
    15
100
AcDbLine
 10
618.4340584264
 20
539.5155256406
 30
0.0
 11
735.5340584264
 21
539.5155256406
 31
0.0
  0
LINE
  5
2B3
330
1F
100
AcDbEntity
  8
0
  6
Continuous
 62
     8
370
    15
100
AcDbLine
 10
799.3340584264
 20
539.5155256406
 30
0.0
 11
818.4340584264
 21
539.5155256406
 31
0.0
  0
LINE
  5
2B4
330
1F
100
AcDbEntity
  8
0
  6
Continuous
 62
     8
370
    15
100
AcDbLine
 10
618.4340584264
 20
532.0155256406
 30
0.0
 11
735.5340584264
 21
532.0155256406
 31
0.0
  0
LINE
  5
2B5
330
1F
100
AcDbEntity
  8
0
  6
Continuous
 62
     8
370
    15
100
AcDbLine
 10
799.3340584264
 20
532.0155256406
 30
0.0
 11
818.4340584264
 21
532.0155256406
 31
0.0
  0
LINE
  5
2B6
330
1F
100
AcDbEntity
  8
0
  6
Continuous
 62
     8
370
    15
100
AcDbLine
 10
916.5030881264
 20
684.2389766668
 30
0.0
 11
935.0143343531
 21
644.5414810263
 31
0.0
  0
LINE
  5
2B7
330
1F
100
AcDbEntity
  8
0
  6
Continuous
 62
     8
370
    15
100
AcDbLine
 10
960.8616106345
 20
658.9503444701
 30
0.0
 11
959.1011144012
 21
662.7257408261
 31
0.0
  0
LINE
  5
2B8
330
1F
100
AcDbEntity
  8
0
  6
Continuous
 62
     8
370
    15
100
AcDbLine
 10
95.4457287068
 20
819.4655256406
 30
0.0
 11
76.4457287068
 21
819.4655256406
 31
0.0
  0
LINE
  5
2B9
330
1F
100
AcDbEntity
  8
0
  6
Continuous
 62
     8
370
    15
100
AcDbLine
 10
188.4340584264
 20
445.0655256406
 30
0.0
 11
159.9340584264
 21
445.0655256406
 31
0.0
  0
LINE
  5
2BA
330
1F
100
AcDbEntity
  8
0
  6
Continuous
 62
     8
370
    15
100
AcDbLine
 10
216.9340584264
 20
445.0655256406
 30
0.0
 11
188.4340584264
 21
445.0655256406
 31
0.0
  0
LINE
  5
2BB
330
1F
100
AcDbEntity
  8
0
  6
Continuous
 62
     8
370
    15
100
AcDbLine
 10
767.4340584264
 20
445.0655256406
 30
0.0
 11
738.9340584264
 21
445.0655256406
 31
0.0
  0
LINE
  5
2BC
330
1F
100
AcDbEntity
  8
0
  6
Continuous
 62
     8
370
    15
100
AcDbLine
 10
795.9340584264
 20
445.0655256406
 30
0.0
 11
767.4340584264
 21
445.0655256406
 31
0.0
  0
LINE
  5
2BD
330
1F
100
AcDbEntity
  8
0
  6
Continuous
 62
     8
370
    15
100
AcDbLine
 10
767.4340584264
 20
539.5655256406
 30
0.0
 11
735.5340584264
 21
539.5655256406
 31
0.0
  0
LINE
  5
2BE
330
1F
100
AcDbEntity
  8
0
  6
Continuous
 62
     8
370
    15
100
AcDbLine
 10
799.3340584264
 20
539.5655256406
 30
0.0
 11
767.4340584264
 21
539.5655256406
 31
0.0
  0
LINE
  5
2BF
330
1F
100
AcDbEntity
  8
0
  6
Continuous
 62
     8
370
    15
100
AcDbLine
 10
767.4340584264
 20
484.0980915863
 30
0.0
 11
735.5340584264
 21
484.0980915863
 31
0.0
  0
LINE
  5
2C0
330
1F
100
AcDbEntity
  8
0
  6
Continuous
 62
     8
370
    15
100
AcDbLine
 10
799.3340584264
 20
484.0980915863
 30
0.0
 11
767.4340584264
 21
484.0980915863
 31
0.0
  0
LINE
  5
2C1
330
1F
100
AcDbEntity
  8
0
  6
Continuous
 62
     8
370
    15
100
AcDbLine
 10
767.4340584264
 20
483.3256283618
 30
0.0
 11
735.5979716534
 21
483.3256283618
 31
0.0
  0
LINE
  5
2C2
330
1F
100
AcDbEntity
  8
0
  6
Continuous
 62
     8
370
    15
100
AcDbLine
 10
799.2701451994
 20
483.3256283618
 30
0.0
 11
767.4340584264
 21
483.3256283618
 31
0.0
  0
LINE
  5
2C3
330
1F
100
AcDbEntity
  8
0
  6
Continuous
 62
     8
370
    15
100
AcDbLine
 10
188.4340584264
 20
539.5655256406
 30
0.0
 11
156.5340584264
 21
539.5655256406
 31
0.0
  0
LINE
  5
2C4
330
1F
100
AcDbEntity
  8
0
  6
Continuous
 62
     8
370
    15
100
AcDbLine
 10
220.3340584264
 20
539.5655256406
 30
0.0
 11
188.4340584264
 21
539.5655256406
 31
0.0
  0
LINE
  5
2C5
330
1F
100
AcDbEntity
  8
0
  6
Continuous
 62
     8
370
    15
100
AcDbLine
 10
188.4340584264
 20
484.0980915863
 30
0.0
 11
156.5340584264
 21
484.0980915863
 31
0.0
  0
LINE
  5
2C6
330
1F
100
AcDbEntity
  8
0
  6
Continuous
 62
     8
370
    15
100
AcDbLine
 10
220.3340584264
 20
484.0980915863
 30
0.0
 11
188.4340584264
 21
484.0980915863
 31
0.0
  0
LINE
  5
2C7
330
1F
100
AcDbEntity
  8
0
  6
Continuous
 62
     8
370
    15
100
AcDbLine
 10
188.4340584264
 20
483.3256283618
 30
0.0
 11
156.5979716534
 21
483.3256283618
 31
0.0
  0
LINE
  5
2C8
330
1F
100
AcDbEntity
  8
0
  6
Continuous
 62
     8
370
    15
100
AcDbLine
 10
220.2701451994
 20
483.3256283618
 30
0.0
 11
188.4340584264
 21
483.3256283618
 31
0.0
  0
ENDSEC
  0
SECTION
  2
OBJECTS
  0
DICTIONARY
  5
C
330
0
100
AcDbDictionary
281
     1
  3
ACAD_GROUP
350
D
  3
ACAD_LAYOUT
350
1A
  3
ACAD_MLINESTYLE
350
17
  3
ACAD_PLOTSETTINGS
350
19
  3
ACAD_PLOTSTYLENAME
350
E
  0
DICTIONARY
  5
D
102
{ACAD_REACTORS
330
C
102
}
330
C
100
AcDbDictionary
281
     1
  0
DICTIONARY
  5
1A
102
{ACAD_REACTORS
330
C
102
}
330
C
100
AcDbDictionary
281
     1
  3
Layout1
350
1E
  3
Layout2
350
26
  3
Model
350
22
  0
DICTIONARY
  5
17
102
{ACAD_REACTORS
330
C
102
}
330
C
100
AcDbDictionary
281
     1
  3
Standard
350
18
  0
DICTIONARY
  5
19
102
{ACAD_REACTORS
330
C
102
}
330
C
100
AcDbDictionary
281
     1
  0
ACDBDICTIONARYWDFLT
  5
E
102
{ACAD_REACTORS
330
C
102
}
330
C
100
AcDbDictionary
281
     1
  3
Normal
350
F
100
AcDbDictionaryWithDefault
340
F
  0
LAYOUT
  5
1E
102
{ACAD_REACTORS
330
1A
102
}
330
1A
100
AcDbPlotSettings
  1

  2
none_device
  4

  6

 40
0.0
 41
0.0
 42
0.0
 43
0.0
 44
0.0
 45
0.0
 46
0.0
 47
0.0
 48
0.0
 49
0.0
140
0.0
141
0.0
142
1.0
143
1.0
 70
   688
 72
     0
 73
     0
 74
     5
  7

 75
    16
147
1.0
148
0.0
149
0.0
100
AcDbLayout
  1
Layout1
 70
     1
 71
     1
 10
0.0
 20
0.0
 11
420.0
 21
297.0
 12
0.0
 22
0.0
 32
0.0
 14
1.0000000000E+20
 24
1.0000000000E+20
 34
1.0000000000E+20
 15
-1.0000000000E+20
 25
-1.0000000000E+20
 35
-1.0000000000E+20
146
0.0
 13
0.0
 23
0.0
 33
0.0
 16
1.0
 26
0.0
 36
0.0
 17
0.0
 27
1.0
 37
0.0
 76
     0
330
1B
  0
LAYOUT
  5
26
102
{ACAD_REACTORS
330
1A
102
}
330
1A
100
AcDbPlotSettings
  1

  2
none_device
  4

  6

 40
0.0
 41
0.0
 42
0.0
 43
0.0
 44
0.0
 45
0.0
 46
0.0
 47
0.0
 48
0.0
 49
0.0
140
0.0
141
0.0
142
1.0
143
1.0
 70
   688
 72
     0
 73
     0
 74
     5
  7

 75
    16
147
1.0
148
0.0
149
0.0
100
AcDbLayout
  1
Layout2
 70
     1
 71
     2
 10
0.0
 20
0.0
 11
0.0
 21
0.0
 12
0.0
 22
0.0
 32
0.0
 14
0.0
 24
0.0
 34
0.0
 15
0.0
 25
0.0
 35
0.0
146
0.0
 13
0.0
 23
0.0
 33
0.0
 16
1.0
 26
0.0
 36
0.0
 17
0.0
 27
1.0
 37
0.0
 76
     0
330
23
  0
LAYOUT
  5
22
102
{ACAD_REACTORS
330
1A
102
}
330
1A
100
AcDbPlotSettings
  1

  2
none_device
  4

  6

 40
0.0
 41
0.0
 42
0.0
 43
0.0
 44
0.0
 45
0.0
 46
0.0
 47
0.0
 48
0.0
 49
0.0
140
0.0
141
0.0
142
1.0
143
1.0
 70
  1712
 72
     0
 73
     0
 74
     0
  7

 75
     0
147
1.0
148
0.0
149
0.0
100
AcDbLayout
  1
Model
 70
     1
 71
     0
 10
0.0
 20
0.0
 11
1200.0
 21
1200.0
 12
0.0
 22
0.0
 32
0.0
 14
0.0
 24
0.0
 34
0.0
 15
1200.0
 25
1200.0
 35
0.0
146
0.0
 13
0.0
 23
0.0
 33
0.0
 16
1.0
 26
0.0
 36
0.0
 17
0.0
 27
1.0
 37
0.0
 76
     0
330
1F
331
29
  0
MLINESTYLE
  5
18
102
{ACAD_REACTORS
330
17
102
}
330
17
100
AcDbMlineStyle
  2
Standard
 70
     0
  3

 62
   256
 51
90.0
 52
90.0
 71
     2
 49
0.5
 62
   256
  6
BYLAYER
 49
-0.5
 62
   256
  6
BYLAYER
  0
ACDBPLACEHOLDER
  5
F
102
{ACAD_REACTORS
330
E
102
}
330
E
  0
ENDSEC
  0
EOF
