  0
SECTION
  2
HEADER
  9
$ACADVER
  1
AC1015
  9
$ACADMAINTVER
 70
     6
  9
$DWGCODEPAGE
  3
ANSI_1252
  9
$INSBASE
 10
0.0
 20
0.0
 30
0.0
  9
$EXTMIN
 10
0.0
 20
0.0
 30
0.0
  9
$EXTMAX
 10
1000.0
 20
1000.0
 30
0.0
  9
$LIMMIN
 10
0.0
 20
0.0
  9
$LIMMAX
 10
1000.0
 20
1000.0
  9
$ORTHOMODE
 70
     0
  9
$REGENMODE
 70
     1
  9
$FILLMODE
 70
     1
  9
$QTEXTMODE
 70
     0
  9
$MIRRTEXT
 70
     1
  9
$LTSCALE
 40
1.0
  9
$ATTMODE
 70
     1
  9
$TEXTSIZE
 40
3.5
  9
$TRACEWID
 40
1.0
  9
$TEXTSTYLE
  7
Standard
  9
$CLAYER
  8
0
  9
$CELTYPE
  6
ByLayer
  9
$CECOLOR
 62
   256
  9
$CELTSCALE
 40
1.0
  9
$DISPSILH
 70
     0
  9
$DIMSCALE
 40
1.0
  9
$DIMASZ
 40
3.302
  9
$DIMEXO
 40
1.0
  9
$DIMDLI
 40
3.75
  9
$DIMRND
 40
0.0
  9
$DIMDLE
 40
0.0
  9
$DIMEXE
 40
1.0
  9
$DIMTP
 40
0.0
  9
$DIMTM
 40
0.0
  9
$DIMTXT
 40
3.5
  9
$DIMCEN
 40
2.5
  9
$DIMTSZ
 40
0.0
  9
$DIMTOL
 70
     0
  9
$DIMLIM
 70
     0
  9
$DIMTIH
 70
     1
  9
$DIMTOH
 70
     1
  9
$DIMSE1
 70
     0
  9
$DIMSE2
 70
     0
  9
$DIMTAD
 70
     1
  9
$DIMZIN
 70
     0
  9
$DIMBLK
  1

  9
$DIMASO
 70
     1
  9
$DIMSHO
 70
     1
  9
$DIMPOST
  1

  9
$DIMAPOST
  1

  9
$DIMALT
 70
     0
  9
$DIMALTD
 70
     3
  9
$DIMALTF
 40
0.0393700787
  9
$DIMLFAC
 40
1.0
  9
$DIMTOFL
 70
     1
  9
$DIMTVP
 40
0.0
  9
$DIMTIX
 70
     0
  9
$DIMSOXD
 70
     0
  9
$DIMSAH
 70
     0
  9
$DIMBLK1
  1

  9
$DIMBLK2
  1

  9
$DIMSTYLE
  2
ISO-25
  9
$DIMCLRD
 70
     0
  9
$DIMCLRE
 70
     0
  9
$DIMCLRT
 70
     0
  9
$DIMTFAC
 40
1.0
  9
$DIMGAP
 40
1.524
  9
$DIMJUST
 70
     0
  9
$DIMSD1
 70
     0
  9
$DIMSD2
 70
     0
  9
$DIMTOLJ
 70
     0
  9
$DIMTZIN
 70
     0
  9
$DIMALTZ
 70
     0
  9
$DIMALTTZ
 70
     0
  9
$DIMUPT
 70
     0
  9
$DIMDEC
 70
     1
  9
$DIMTDEC
 70
     1
  9
$DIMALTU
 70
     2
  9
$DIMALTTD
 70
     3
  9
$DIMTXSTY
  7
Standard
  9
$DIMAUNIT
 70
     0
  9
$DIMADEC
 70
     1
  9
$DIMALTRND
 40
0.0
  9
$DIMAZIN
 70
     0
  9
$DIMDSEP
 70
    44
  9
$DIMATFIT
 70
     3
  9
$DIMFRAC
 70
     0
  9
$DIMLDRBLK
  1

  9
$DIMLUNIT
 70
     2
  9
$DIMLWD
 70
    -2
  9
$DIMLWE
 70
    -2
  9
$DIMTMOVE
 70
     0
  9
$LUNITS
 70
     2
  9
$LUPREC
 70
     1
  9
$SKETCHINC
 40
1.0
  9
$FILLETRAD
 40
10.0
  9
$AUNITS
 70
     0
  9
$AUPREC
 70
     1
  9
$MENU
  1
.
  9
$ELEVATION
 40
0.0
  9
$PELEVATION
 40
0.0
  9
$THICKNESS
 40
0.0
  9
$LIMCHECK
 70
     0
  9
$CHAMFERA
 40
10.0
  9
$CHAMFERB
 40
10.0
  9
$CHAMFERC
 40
20.0
  9
$CHAMFERD
 40
0.0
  9
$SKPOLY
 70
     0
  9
$TDCREATE
 40
2457077.285423727
  9
$TDUCREATE
 40
2457077.285423727
  9
$TDUPDATE
 40
2457077.285425891
  9
$TDUUPDATE
 40
2457077.285425891
  9
$TDINDWG
 40
0.0000000116
  9
$TDUSRTIMER
 40
0.0000000116
  9
$USRTIMER
 70
     1
  9
$ANGBASE
 50
0.0
  9
$ANGDIR
 70
     0
  9
$PDMODE
 70
     0
  9
$PDSIZE
 40
-1.0
  9
$PLINEWID
 40
0.0
  9
$SPLFRAME
 70
     0
  9
$SPLINETYPE
 70
     6
  9
$SPLINESEGS
 70
     8
  9
$HANDSEED
  5
342
  9
$SURFTAB1
 70
     6
  9
$SURFTAB2
 70
     6
  9
$SURFTYPE
 70
     6
  9
$SURFU
 70
     6
  9
$SURFV
 70
     6
  9
$UCSBASE
  2

  9
$UCSNAME
  2

  9
$UCSORG
 10
0.0
 20
0.0
 30
0.0
  9
$UCSXDIR
 10
1.0
 20
0.0
 30
0.0
  9
$UCSYDIR
 10
0.0
 20
1.0
 30
0.0
  9
$UCSORTHOREF
  2

  9
$UCSORTHOVIEW
 70
     0
  9
$UCSORGTOP
 10
0.0
 20
0.0
 30
0.0
  9
$UCSORGBOTTOM
 10
0.0
 20
0.0
 30
0.0
  9
$UCSORGLEFT
 10
0.0
 20
0.0
 30
0.0
  9
$UCSORGRIGHT
 10
0.0
 20
0.0
 30
0.0
  9
$UCSORGFRONT
 10
0.0
 20
0.0
 30
0.0
  9
$UCSORGBACK
 10
0.0
 20
0.0
 30
0.0
  9
$PUCSBASE
  2

  9
$PUCSNAME
  2

  9
$PUCSORG
 10
0.0
 20
0.0
 30
0.0
  9
$PUCSXDIR
 10
1.0
 20
0.0
 30
0.0
  9
$PUCSYDIR
 10
0.0
 20
1.0
 30
0.0
  9
$PUCSORTHOREF
  2

  9
$PUCSORTHOVIEW
 70
     0
  9
$PUCSORGTOP
 10
0.0
 20
0.0
 30
0.0
  9
$PUCSORGBOTTOM
 10
0.0
 20
0.0
 30
0.0
  9
$PUCSORGLEFT
 10
0.0
 20
0.0
 30
0.0
  9
$PUCSORGRIGHT
 10
0.0
 20
0.0
 30
0.0
  9
$PUCSORGFRONT
 10
0.0
 20
0.0
 30
0.0
  9
$PUCSORGBACK
 10
0.0
 20
0.0
 30
0.0
  9
$USERI1
 70
     0
  9
$USERI2
 70
     0
  9
$USERI3
 70
     0
  9
$USERI4
 70
     0
  9
$USERI5
 70
     0
  9
$USERR1
 40
0.0
  9
$USERR2
 40
0.0
  9
$USERR3
 40
0.0
  9
$USERR4
 40
0.0
  9
$USERR5
 40
0.0
  9
$WORLDVIEW
 70
     1
  9
$SHADEDGE
 70
     3
  9
$SHADEDIF
 70
    70
  9
$TILEMODE
 70
     1
  9
$MAXACTVP
 70
    64
  9
$PINSBASE
 10
0.0
 20
0.0
 30
0.0
  9
$PLIMCHECK
 70
     0
  9
$PEXTMIN
 10
1.0000000000E+20
 20
1.0000000000E+20
 30
1.0000000000E+20
  9
$PEXTMAX
 10
-1.0000000000E+20
 20
-1.0000000000E+20
 30
-1.0000000000E+20
  9
$PLIMMIN
 10
0.0
 20
0.0
  9
$PLIMMAX
 10
420.0
 20
297.0
  9
$UNITMODE
 70
     0
  9
$VISRETAIN
 70
     1
  9
$PLINEGEN
 70
     0
  9
$PSLTSCALE
 70
     1
  9
$TREEDEPTH
 70
  3020
  9
$CMLSTYLE
  2
Standard
  9
$CMLJUST
 70
     0
  9
$CMLSCALE
 40
20.0
  9
$PROXYGRAPHICS
 70
     1
  9
$MEASUREMENT
 70
     1
  9
$CELWEIGHT
370
    -1
  9
$ENDCAPS
280
     0
  9
$JOINSTYLE
280
     0
  9
$LWDISPLAY
290
     1
  9
$INSUNITS
 70
     4
  9
$HYPERLINKBASE
  1

  9
$STYLESHEET
  1

  9
$XEDIT
290
     1
  9
$CEPSNTYPE
380
     0
  9
$PSTYLEMODE
290
     1
  9
$FINGERPRINTGUID
  2
{5783FE0C-5769-4366-B98F-535413111509}
  9
$VERSIONGUID
  2
{FAEB1C32-E019-11D5-929B-00C0DF256EC4}
  9
$EXTNAMES
290
     1
  9
$PSVPSCALE
 40
0.0
  9
$OLESTARTUP
290
     0
  0
ENDSEC
  0
SECTION
  2
CLASSES
  0
CLASS
  1
ACDBDICTIONARYWDFLT
  2
AcDbDictionaryWithDefault
  3
ObjectDBX Classes
 90
        0
280
     0
281
     0
  0
CLASS
  1
VISUALSTYLE
  2
AcDbVisualStyle
  3
ObjectDBX Classes
 90
     4095
280
     0
281
     0
  0
CLASS
  1
MATERIAL
  2
AcDbMaterial
  3
ObjectDBX Classes
 90
     1153
280
     0
281
     0
  0
CLASS
  1
ACDBPLACEHOLDER
  2
AcDbPlaceHolder
  3
ObjectDBX Classes
 90
        0
280
     0
281
     0
  0
CLASS
  1
LAYOUT
  2
AcDbLayout
  3
ObjectDBX Classes
 90
        0
280
     0
281
     0
  0
ENDSEC
  0
SECTION
  2
TABLES
  0
TABLE
  2
VPORT
  5
8
330
0
100
AcDbSymbolTable
 70
     1
  0
VPORT
  5
29
330
8
100
AcDbSymbolTableRecord
100
AcDbViewportTableRecord
  2
*Active
 70
     0
 10
0.0
 20
0.0
 11
1.0
 21
1.0
 12
500.0
 22
500.0
 13
0.0
 23
0.0
 14
10.0
 24
10.0
 15
10.0
 25
10.0
 16
0.0
 26
0.0
 36
1.0
 17
0.0
 27
0.0
 37
0.0
 40
1000.0
 41
1.0
 42
50.0
 43
0.0
 44
0.0
 50
0.0
 51
0.0
 71
     0
 72
  2000
 73
     1
 74
     3
 75
     0
 76
     0
 77
     0
 78
     0
281
     0
 65
     1
110
0.0
120
0.0
130
0.0
111
1.0
121
0.0
131
0.0
112
0.0
122
1.0
132
0.0
 79
     0
146
0.0
  0
ENDTAB
  0
TABLE
  2
LTYPE
  5
5
330
0
100
AcDbSymbolTable
 70
     6
  0
LTYPE
  5
14
330
5
100
AcDbSymbolTableRecord
100
AcDbLinetypeTableRecord
  2
ByBlock
 70
     0
  3

 72
    65
 73
     0
 40
0.0
  0
LTYPE
  5
15
330
5
100
AcDbSymbolTableRecord
100
AcDbLinetypeTableRecord
  2
ByLayer
 70
     0
  3

 72
    65
 73
     0
 40
0.0
  0
LTYPE
  5
16
330
5
100
AcDbSymbolTableRecord
100
AcDbLinetypeTableRecord
  2
Continuous
 70
     0
  3
Solid line
 72
    65
 73
     0
 40
0.0
  0
LTYPE
  5
3F
330
5
100
AcDbSymbolTableRecord
100
AcDbLinetypeTableRecord
  2
HIDDEN
 70
     0
  3
Hidden __ __ __ __ __ __ __ __ __ __ __ __ __ __
 72
    65
 73
     2
 40
1.905
 49
1.27
 74
     0
 49
-0.635
 74
     0
  0
LTYPE
  5
40
330
5
100
AcDbSymbolTableRecord
100
AcDbLinetypeTableRecord
  2
PHANTOM
 70
     0
  3
Phantom ______  __  __  ______  __  __  ______
 72
    65
 73
     6
 40
12.7
 49
6.35
 74
     0
 49
-1.27
 74
     0
 49
1.27
 74
     0
 49
-1.27
 74
     0
 49
1.27
 74
     0
 49
-1.27
 74
     0
  0
LTYPE
  5
41
330
5
100
AcDbSymbolTableRecord
100
AcDbLinetypeTableRecord
  2
CENTER
 70
     0
  3
Center ____ _ ____ _ ____ _ ____ _ ____ _ ____
 72
    65
 73
     4
 40
10.16
 49
6.35
 74
     0
 49
-1.27
 74
     0
 49
1.27
 74
     0
 49
-1.27
 74
     0
  0
LTYPE
  5
42
330
5
100
AcDbSymbolTableRecord
100
AcDbLinetypeTableRecord
  2
CENTERX2
 70
     0
  3
Center (2x) ________  __  ________  __  _____
 72
    65
 73
     4
 40
20.32
 49
12.7
 74
     0
 49
-2.54
 74
     0
 49
2.54
 74
     0
 49
-2.54
 74
     0
  0
LTYPE
  5
43
330
5
100
AcDbSymbolTableRecord
100
AcDbLinetypeTableRecord
  2
DOT2
 70
     0
  3
Dot (.5x) ........................................
 72
    65
 73
     2
 40
0.635
 49
0.0
 74
     0
 49
-0.635
 74
     0
  0
ENDTAB
  0
TABLE
  2
LAYER
  5
2
330
0
100
AcDbSymbolTable
 70
     1
  0
LAYER
  5
10
330
2
100
AcDbSymbolTableRecord
100
AcDbLayerTableRecord
  2
0
 70
     0
 62
     7
  6
Continuous
370
    -3
390
F
  0
ENDTAB
  0
TABLE
  2
STYLE
  5
3
330
0
100
AcDbSymbolTable
 70
     1
  0
STYLE
  5
11
330
3
100
AcDbSymbolTableRecord
100
AcDbTextStyleTableRecord
  2
Standard
 70
     0
 40
0.0
 41
1.0
 50
0.0
 71
     0
 42
3.5
  3
txt
  4

  0
ENDTAB
  0
TABLE
  2
VIEW
  5
6
330
0
100
AcDbSymbolTable
 70
     0
  0
ENDTAB
  0
TABLE
  2
UCS
  5
7
330
0
100
AcDbSymbolTable
 70
     0
  0
ENDTAB
  0
TABLE
  2
APPID
  5
9
330
0
100
AcDbSymbolTable
 70
     1
  0
APPID
  5
12
330
9
100
AcDbSymbolTableRecord
100
AcDbRegAppTableRecord
  2
ACAD
 70
     0
  0
ENDTAB
  0
TABLE
  2
DIMSTYLE
  5
A
330
0
100
AcDbSymbolTable
 70
     1
100
AcDbDimStyleTable
  0
DIMSTYLE
105
27
330
A
100
AcDbSymbolTableRecord
100
AcDbDimStyleTableRecord
  2
ISO-25
 70
     0
 41
2.5
 42
0.625
 43
3.75
 44
1.25
 73
     0
 74
     0
 77
     1
 78
     8
140
2.5
141
2.5
143
0.0393700787
147
0.625
171
     3
172
     1
178
     0
271
     2
272
     2
274
     3
278
    44
283
     0
284
     8
340
11
  0
ENDTAB
  0
TABLE
  2
BLOCK_RECORD
  5
1
330
0
100
AcDbSymbolTable
 70
     1
  0
BLOCK_RECORD
  5
1F
330
1
100
AcDbSymbolTableRecord
100
AcDbBlockTableRecord
  2
*Model_Space
340
22
  0
BLOCK_RECORD
  5
1B
330
1
100
AcDbSymbolTableRecord
100
AcDbBlockTableRecord
  2
*Paper_Space
340
1E
  0
BLOCK_RECORD
  5
23
330
1
100
AcDbSymbolTableRecord
100
AcDbBlockTableRecord
  2
*Paper_Space0
340
26
  0
ENDTAB
  0
ENDSEC
  0
SECTION
  2
BLOCKS
  0
BLOCK
  5
20
330
1F
100
AcDbEntity
  8
0
100
AcDbBlockBegin
  2
*Model_Space
 70
     0
 10
0.0
 20
0.0
 30
0.0
  3
*Model_Space
  1

  0
ENDBLK
  5
21
330
1F
100
AcDbEntity
  8
0
100
AcDbBlockEnd
  0
BLOCK
  5
1C
330
1B
100
AcDbEntity
 67
     1
  8
0
100
AcDbBlockBegin
  2
*Paper_Space
 70
     0
 10
0.0
 20
0.0
 30
0.0
  3
*Paper_Space
  1

  0
ENDBLK
  5
1D
330
1B
100
AcDbEntity
 67
     1
  8
0
100
AcDbBlockEnd
  0
BLOCK
  5
24
330
23
100
AcDbEntity
  8
0
100
AcDbBlockBegin
  2
*Paper_Space0
 70
     0
 10
0.0
 20
0.0
 30
0.0
  3
*Paper_Space0
  1

  0
ENDBLK
  5
25
330
23
100
AcDbEntity
  8
0
100
AcDbBlockEnd
  0
ENDSEC
  0
SECTION
  2
ENTITIES
  0
LINE
  5
44
330
1F
100
AcDbEntity
  8
0
  6
Continuous
 62
     7
370
    15
100
AcDbLine
 10
787.8847977694
 20
17.2566777747
 30
0.0
 11
787.8847977694
 21
21.2566858809
 31
0.0
  0
LINE
  5
45
330
1F
100
AcDbEntity
  8
0
  6
Continuous
 62
     7
370
    15
100
AcDbLine
 10
730.8847986709
 20
21.2566858809
 30
0.0
 11
730.8847986709
 21
17.2566777747
 31
0.0
  0
ARC
  5
46
330
1F
100
AcDbEntity
  8
0
  6
Continuous
 62
     7
370
    15
100
AcDbCircle
 10
785.8847973427
 20
17.2566586455
 30
0.0
 40
2.0
100
AcDbArc
 50
270.0
 51
0.0
  0
ARC
  5
47
330
1F
100
AcDbEntity
  8
0
  6
Continuous
 62
     7
370
    15
100
AcDbCircle
 10
732.8847973427
 20
17.2566586455
 30
0.0
 40
2.0
100
AcDbArc
 50
180.0
 51
270.0
  0
LINE
  5
48
330
1F
100
AcDbEntity
  8
0
  6
Continuous
 62
     7
370
    15
100
AcDbLine
 10
208.8848062407
 20
17.2566777747
 30
0.0
 11
208.8848062407
 21
21.2566858809
 31
0.0
  0
LINE
  5
49
330
1F
100
AcDbEntity
  8
0
  6
Continuous
 62
     7
370
    15
100
AcDbLine
 10
151.8848248374
 20
21.2566858809
 30
0.0
 11
151.8848248374
 21
17.2566777747
 31
0.0
  0
ARC
  5
4A
330
1F
100
AcDbEntity
  8
0
  6
Continuous
 62
     7
370
    15
100
AcDbCircle
 10
206.8847973427
 20
17.2566586455
 30
0.0
 40
2.000000000000004
100
AcDbArc
 50
270.0
 51
0.0
  0
ARC
  5
4B
330
1F
100
AcDbEntity
  8
0
  6
Continuous
 62
     7
370
    15
100
AcDbCircle
 10
153.8847973427
 20
17.2566586455
 30
0.0
 40
2.000000000000004
100
AcDbArc
 50
180.0
 51
270.0
  0
LINE
  5
4C
330
1F
100
AcDbEntity
  8
0
  6
Continuous
 62
     7
370
    15
100
AcDbLine
 10
787.6847971778
 20
21.2566858809
 30
0.0
 11
787.6847971778
 21
89.2566448729
 31
0.0
  0
LINE
  5
4D
330
1F
100
AcDbEntity
  8
0
  6
Continuous
 62
     7
370
    15
100
AcDbLine
 10
731.0847983312
 20
89.2566448729
 30
0.0
 11
731.0847983312
 21
21.2566858809
 31
0.0
  0
LINE
  5
4E
330
1F
100
AcDbEntity
  8
0
  6
Continuous
 62
     7
370
    15
100
AcDbLine
 10
208.6847730529
 20
21.2566858809
 30
0.0
 11
208.6847730529
 21
89.2566448729
 31
0.0
  0
LINE
  5
4F
330
1F
100
AcDbEntity
  8
0
  6
Continuous
 62
     7
370
    15
100
AcDbLine
 10
152.0847984206
 20
89.2566448729
 30
0.0
 11
152.0847984206
 21
21.2566858809
 31
0.0
  0
ARC
  5
50
330
1F
100
AcDbEntity
  8
0
  6
Continuous
 62
     7
370
    15
100
AcDbCircle
 10
792.7847973427
 20
181.7566586455
 30
0.0
 40
1.500000000000114
100
AcDbArc
 50
90.0
 51
180.0
  0
ARC
  5
51
330
1F
100
AcDbEntity
  8
0
  6
Continuous
 62
     7
370
    15
100
AcDbCircle
 10
725.9847973427
 20
181.7566586455
 30
0.0
 40
1.5
100
AcDbArc
 50
0.0
 51
90.0
  0
ARC
  5
52
330
1F
100
AcDbEntity
  8
0
  6
Continuous
 62
     7
370
    15
100
AcDbCircle
 10
786.5847973427
 20
95.2892245912
 30
0.0
 40
4.699999999999891
100
AcDbArc
 50
350.5402980318
 51
0.0
  0
ARC
  5
53
330
1F
100
AcDbEntity
  8
0
  6
Continuous
 62
     7
370
    15
100
AcDbCircle
 10
732.1847973427
 20
95.2892245912
 30
0.0
 40
4.699999999999932
100
AcDbArc
 50
180.0
 51
189.4597019682
  0
LINE
  5
54
330
1F
100
AcDbEntity
  8
0
  6
Continuous
 62
     7
370
    15
100
AcDbLine
 10
791.2847966503
 20
95.2892309706
 30
0.0
 11
791.2847966503
 21
181.7566758673
 31
0.0
  0
LINE
  5
55
330
1F
100
AcDbEntity
  8
0
  6
Continuous
 62
     7
370
    15
100
AcDbLine
 10
727.484796996
 20
181.7566758673
 30
0.0
 11
727.484796996
 21
95.2892309706
 31
0.0
  0
LINE
  5
56
330
1F
100
AcDbEntity
  8
0
  6
Continuous
 62
     7
370
    15
100
AcDbLine
 10
727.5487118017
 20
94.5167547743
 30
0.0
 11
728.4251459491
 21
89.2566448729
 31
0.0
  0
LINE
  5
57
330
1F
100
AcDbEntity
  8
0
  6
Continuous
 62
     7
370
    15
100
AcDbLine
 10
790.3444476973
 20
89.2566448729
 30
0.0
 11
791.2208837073
 21
94.5167547743
 31
0.0
  0
ARC
  5
58
330
1F
100
AcDbEntity
  8
0
  6
Continuous
 62
     7
370
    15
100
AcDbCircle
 10
213.7847973427
 20
181.7566586455
 30
0.0
 40
1.499999999999943
100
AcDbArc
 50
90.0
 51
180.0
  0
ARC
  5
59
330
1F
100
AcDbEntity
  8
0
  6
Continuous
 62
     7
370
    15
100
AcDbCircle
 10
146.9847973427
 20
181.7566586455
 30
0.0
 40
1.499999999999943
100
AcDbArc
 50
0.0
 51
90.0
  0
LINE
  5
5A
330
1F
100
AcDbEntity
  8
0
  6
Continuous
 62
     7
370
    15
100
AcDbLine
 10
212.284774388
 20
95.2892309706
 30
0.0
 11
212.284774388
 21
181.7566758673
 31
0.0
  0
LINE
  5
5B
330
1F
100
AcDbEntity
  8
0
  6
Continuous
 62
     7
370
    15
100
AcDbLine
 10
148.4847970855
 20
181.7566758673
 30
0.0
 11
148.4847970855
 21
95.2892309706
 31
0.0
  0
ARC
  5
5C
330
1F
100
AcDbEntity
  8
0
  6
Continuous
 62
     7
370
    15
100
AcDbCircle
 10
207.5847973427
 20
95.2892245912
 30
0.0
 40
4.700000000000031
100
AcDbArc
 50
350.5402980318
 51
0.0
  0
ARC
  5
5D
330
1F
100
AcDbEntity
  8
0
  6
Continuous
 62
     7
370
    15
100
AcDbCircle
 10
153.1847973427
 20
95.2892245912
 30
0.0
 40
4.70000000000006
100
AcDbArc
 50
180.0
 51
189.4597019682
  0
LINE
  5
5E
330
1F
100
AcDbEntity
  8
0
  6
Continuous
 62
     7
370
    15
100
AcDbLine
 10
148.5486932647
 20
94.5167547743
 30
0.0
 11
149.4251199614
 21
89.2566448729
 31
0.0
  0
LINE
  5
5F
330
1F
100
AcDbEntity
  8
0
  6
Continuous
 62
     7
370
    15
100
AcDbLine
 10
211.344451512
 20
89.2566448729
 30
0.0
 11
212.2208782088
 21
94.5167547743
 31
0.0
  0
LINE
  5
60
330
1F
100
AcDbEntity
  8
0
  6
Continuous
 62
     7
370
    15
100
AcDbLine
 10
66.0348244559
 20
648.3566618245
 30
0.0
 11
66.0348244559
 21
639.156655101
 31
0.0
  0
LINE
  5
61
330
1F
100
AcDbEntity
  8
0
  6
Continuous
 62
     7
370
    15
100
AcDbLine
 10
95.7348056685
 20
639.156655101
 30
0.0
 11
95.7348056685
 21
648.3566618245
 31
0.0
  0
ARC
  5
62
330
1F
100
AcDbEntity
  8
0
  6
Continuous
 62
     7
370
    15
100
AcDbCircle
 10
71.0347973427
 20
639.1566586455
 30
0.0
 40
5.000000000000014
100
AcDbArc
 50
180.0
 51
270.0
  0
ARC
  5
63
330
1F
100
AcDbEntity
  8
0
  6
Continuous
 62
     7
370
    15
100
AcDbCircle
 10
90.7347973427
 20
639.1566586455
 30
0.0
 40
5.0
100
AcDbArc
 50
270.0
 51
0.0
  0
LINE
  5
64
330
1F
100
AcDbEntity
  8
0
  6
Continuous
 62
     7
370
    15
100
AcDbLine
 10
66.0348244559
 20
654.6566567104
 30
0.0
 11
66.0348244559
 21
652.2566607873
 31
0.0
  0
LINE
  5
65
330
1F
100
AcDbEntity
  8
0
  6
Continuous
 62
     7
370
    15
100
AcDbLine
 10
95.7348056685
 20
652.2566607873
 30
0.0
 11
95.7348056685
 21
654.6566567104
 31
0.0
  0
LINE
  5
66
330
1F
100
AcDbEntity
  8
0
  6
Continuous
 62
     7
370
    15
100
AcDbLine
 10
94.8847838294
 20
654.6566567104
 30
0.0
 11
94.8847838294
 21
660.1566604059
 31
0.0
  0
LINE
  5
67
330
1F
100
AcDbEntity
  8
0
  6
Continuous
 62
     7
370
    15
100
AcDbLine
 10
66.8847866904
 20
660.1566604059
 30
0.0
 11
66.8847866904
 21
654.6566567104
 31
0.0
  0
LINE
  5
68
330
1F
100
AcDbEntity
  8
0
  6
Continuous
 62
     7
370
    15
100
AcDbLine
 10
93.884796704
 20
660.1566604059
 30
0.0
 11
93.884796704
 21
662.1566570084
 31
0.0
  0
LINE
  5
69
330
1F
100
AcDbEntity
  8
0
  6
Continuous
 62
     7
370
    15
100
AcDbLine
 10
67.8847738158
 20
662.1566570084
 30
0.0
 11
67.8847738158
 21
660.1566604059
 31
0.0
  0
LINE
  5
6A
330
1F
100
AcDbEntity
  8
0
  6
Continuous
 62
     7
370
    15
100
AcDbLine
 10
64.1348071944
 20
652.2566607873
 30
0.0
 11
64.1348071944
 21
648.3566618245
 31
0.0
  0
LINE
  5
6B
330
1F
100
AcDbEntity
  8
0
  6
Continuous
 62
     7
370
    15
100
AcDbLine
 10
97.63482293
 20
648.3566618245
 30
0.0
 11
97.63482293
 21
652.2566607873
 31
0.0
  0
ARC
  5
6C
330
1F
100
AcDbEntity
  8
0
  6
Continuous
 62
     7
370
    15
100
AcDbCircle
 10
907.7046138558
 20
808.6844773808
 30
0.0
 40
2.000000000000075
100
AcDbArc
 50
205.0
 51
292.0
  0
ARC
  5
6D
330
1F
100
AcDbEntity
  8
0
  6
Continuous
 62
     7
370
    15
100
AcDbCircle
 10
927.904016395
 20
765.3667188455
 30
0.0
 40
2.000000000000096
100
AcDbArc
 50
118.0
 51
205.0
  0
LINE
  5
6E
330
1F
100
AcDbEntity
  8
0
  6
Continuous
 62
     7
370
    15
100
AcDbLine
 10
926.9650735509
 20
767.1326144318
 30
0.0
 11
927.057624663
 21
767.1818217914
 31
0.0
  0
LINE
  5
6F
330
1F
100
AcDbEntity
  8
0
  6
Continuous
 62
     7
370
    15
100
AcDbLine
 10
908.5510083091
 20
806.8693733494
 30
0.0
 11
908.4538229357
 21
806.8301087897
 31
0.0
  0
LINE
  5
70
330
1F
100
AcDbEntity
  8
0
  6
Continuous
 62
     7
370
    15
100
AcDbLine
 10
938.9303483617
 20
725.1572640798
 30
0.0
 11
939.3724211108
 21
725.3923219814
 31
0.0
  0
LINE
  5
71
330
1F
100
AcDbEntity
  8
0
  6
Continuous
 62
     7
370
    15
100
AcDbLine
 10
934.1761924874
 20
733.4596097189
 30
0.0
 11
934.1551371466
 21
733.4493339713
 31
0.0
  0
LINE
  5
72
330
1F
100
AcDbEntity
  8
0
  6
Continuous
 62
     7
370
    15
100
AcDbLine
 10
936.2963297021
 20
728.8575045077
 30
0.0
 11
936.3177426707
 21
728.867038486
 31
0.0
  0
LINE
  5
73
330
1F
100
AcDbEntity
  8
0
  6
Continuous
 62
     7
370
    15
100
AcDbLine
 10
892.759607042
 20
822.2777700703
 30
0.0
 11
892.7385368001
 21
822.2674957197
 31
0.0
  0
LINE
  5
74
330
1F
100
AcDbEntity
  8
0
  6
Continuous
 62
     7
370
    15
100
AcDbLine
 10
894.8797442567
 20
817.6756656449
 30
0.0
 11
894.9011572253
 21
817.685202388
 31
0.0
  0
LINE
  5
75
330
1F
100
AcDbEntity
  8
0
  6
Continuous
 62
     7
370
    15
100
AcDbLine
 10
931.5394022118
 20
757.5705951731
 30
0.0
 11
938.9120199334
 21
765.4220095556
 31
0.0
  0
LINE
  5
76
330
1F
100
AcDbEntity
  8
0
  6
Continuous
 62
     7
370
    15
100
AcDbLine
 10
914.8227729451
 20
817.0815563481
 30
0.0
 11
904.0692158591
 21
816.4805999677
 31
0.0
  0
LINE
  5
77
330
1F
100
AcDbEntity
  8
0
  6
Continuous
 62
     7
370
    15
100
AcDbLine
 10
938.9120199334
 20
765.4220095556
 30
0.0
 11
952.8123446357
 21
781.5414785128
 31
0.0
  0
LINE
  5
78
330
1F
100
AcDbEntity
  8
0
  6
Continuous
 62
     7
370
    15
100
AcDbLine
 10
931.9684364449
 20
817.3126659076
 30
0.0
 11
914.8227729451
 21
817.0815563481
 31
0.0
  0
ARC
  5
79
330
1F
100
AcDbEntity
  8
0
  6
Continuous
 62
     7
370
    15
100
AcDbCircle
 10
952.0550381669
 20
782.1945314297
 30
0.0
 40
0.9999999999999782
100
AcDbArc
 50
319.227745318
 51
25.0
  0
LINE
  5
7A
330
1F
100
AcDbEntity
  8
0
  6
Continuous
 62
     7
370
    15
100
AcDbLine
 10
920.6772156607
 20
762.4082832317
 30
0.0
 11
920.6559666049
 21
762.3983814101
 31
0.0
  0
LINE
  5
7B
330
1F
100
AcDbEntity
  8
0
  6
Continuous
 62
     7
370
    15
100
AcDbLine
 10
924.0157761227
 20
755.1932341139
 30
0.0
 11
924.0370251786
 21
755.2031377982
 31
0.0
  0
LINE
  5
7C
330
1F
100
AcDbEntity
  8
0
  6
Continuous
 62
     7
370
    15
100
AcDbLine
 10
928.92883798
 20
744.7126253228
 30
0.0
 11
928.9075889241
 21
744.7027197759
 31
0.0
  0
LINE
  5
7D
330
1F
100
AcDbEntity
  8
0
  6
Continuous
 62
     7
370
    15
100
AcDbLine
 10
933.5986532819
 20
734.6427041757
 30
0.0
 11
933.6198874366
 21
734.6526087913
 31
0.0
  0
LINE
  5
7E
330
1F
100
AcDbEntity
  8
0
  6
Continuous
 62
     7
370
    15
100
AcDbLine
 10
87.3964734923
 20
932.5566596072
 30
0.0
 11
87.3964734923
 21
942.0566565077
 31
0.0
  0
LINE
  5
7F
330
1F
100
AcDbEntity
  8
0
  6
Continuous
 62
     7
370
    15
100
AcDbLine
 10
68.3964796912
 20
942.0566565077
 30
0.0
 11
68.3964796912
 21
932.5566596072
 31
0.0
  0
ARC
  5
80
330
1F
100
AcDbEntity
  8
0
  6
Continuous
 62
     7
370
    15
100
AcDbCircle
 10
70.3964676231
 20
942.0566586455
 30
0.0
 40
2.0
100
AcDbArc
 50
90.0
 51
180.0
  0
ARC
  5
81
330
1F
100
AcDbEntity
  8
0
  6
Continuous
 62
     7
370
    15
100
AcDbCircle
 10
85.3964676231
 20
942.0566586455
 30
0.0
 40
2.0
100
AcDbArc
 50
0.0
 51
90.0
  0
ARC
  5
82
330
1F
100
AcDbEntity
  8
0
  6
Continuous
 62
     7
370
    15
100
AcDbCircle
 10
105.0347973427
 20
171.2066586455
 30
0.0
 40
0.2500000000000853
100
AcDbArc
 50
180.0
 51
209.4734267879
  0
LINE
  5
83
330
1F
100
AcDbEntity
  8
0
  6
Continuous
 62
     7
370
    15
100
AcDbLine
 10
104.7848173033
 20
171.9066506903
 30
0.0
 11
104.7848173033
 21
171.2066537421
 31
0.0
  0
SPLINE
  5
84
330
1F
100
AcDbEntity
  8
0
  6
Continuous
 62
     7
370
    15
100
AcDbSpline
210
0.0
220
0.0
230
1.0
 70
     8
 71
     3
 72
    13
 73
     9
 74
     0
 42
0.00000001
 43
0.00000001
 12
1.0
 22
0.0
 32
0.0
 13
1.0
 23
0.0
 33
0.0
 40
0.0
 40
0.0
 40
0.0
 40
0.0
 40
0.0546609134964043
 40
0.2134098919912914
 40
0.3745670641457498
 40
0.544513075839496
 40
0.7475314536094916
 40
0.9999999999999999
 40
0.9999999999999999
 40
0.9999999999999999
 40
0.9999999999999999
 10
117.4390622030962
 20
172.4065548460371
 30
0.0
 10
117.4395570589228
 20
172.3969758940018
 30
0.0
 10
117.4414890999686
 20
172.3595772669307
 30
0.0
 10
117.4274872213989
 20
172.2957300578354
 30
0.0
 10
117.3997934420029
 20
172.2283338454035
 30
0.0
 10
117.3628936978628
 20
172.1807269923177
 30
0.0
 10
117.3281404759885
 20
172.157864548363
 30
0.0
 10
117.3162891239637
 20
172.1574170518797
 30
0.0
 10
117.3097201239336
 20
172.1571690122968
 30
0.0
  0
LINE
  5
85
330
1F
100
AcDbEntity
  8
0
  6
Continuous
 62
     7
370
    15
100
AcDbLine
 10
117.4409695517
 20
177.5066858809
 30
0.0
 11
117.4409695517
 21
172.4066740553
 31
0.0
  0
ARC
  5
86
330
1F
100
AcDbEntity
  8
0
  6
Continuous
 62
     7
370
    15
100
AcDbCircle
 10
117.6909470923
 20
177.5066586455
 30
0.0
 40
0.2500000000000853
100
AcDbArc
 50
90.0
 51
180.0
  0
ARC
  5
87
330
1F
100
AcDbEntity
  8
0
  6
Continuous
 62
     7
370
    15
100
AcDbCircle
 10
122.3909174916
 20
177.5066586455
 30
0.0
 40
0.2500000000000853
100
AcDbArc
 50
0.0
 51
90.0
  0
LINE
  5
88
330
1F
100
AcDbEntity
  8
0
  6
Continuous
 62
     7
370
    15
100
AcDbLine
 10
122.6409383666
 20
172.4066740553
 30
0.0
 11
122.6409383666
 21
177.5066858809
 31
0.0
  0
ARC
  5
89
330
1F
100
AcDbEntity
  8
0
  6
Continuous
 62
     7
370
    15
100
AcDbCircle
 10
121.9347973427
 20
171.2066586455
 30
0.0
 40
0.2500000000000853
100
AcDbArc
 50
270.0
 51
0.0
  0
LINE
  5
8A
330
1F
100
AcDbEntity
  8
0
  6
Continuous
 62
     7
370
    15
100
AcDbLine
 10
104.3286629569
 20
177.5066858809
 30
0.0
 11
104.3286629569
 21
172.4066740553
 31
0.0
  0
ARC
  5
8B
330
1F
100
AcDbEntity
  8
0
  6
Continuous
 62
     7
370
    15
100
AcDbCircle
 10
104.5786771937
 20
177.5066586455
 30
0.0
 40
0.2499999999999716
100
AcDbArc
 50
90.0
 51
180.0
  0
SPLINE
  5
8C
330
1F
100
AcDbEntity
  8
0
  6
Continuous
 62
     7
370
    15
100
AcDbSpline
210
0.0
220
0.0
230
1.0
 70
     8
 71
     3
 72
    13
 73
     9
 74
     0
 42
0.00000001
 43
0.00000001
 12
1.0
 22
0.0
 32
0.0
 13
1.0
 23
0.0
 33
0.0
 40
0.0
 40
0.0
 40
0.0
 40
0.0
 40
0.0634267453663505
 40
0.2470157383928883
 40
0.4311322352477413
 40
0.6187717128003073
 40
0.8315412680614335
 40
1.0
 40
1.0
 40
1.0
 40
1.0
 10
110.3756137739886
 20
171.9067698995954
 30
0.0
 10
110.3751467674195
 20
171.9169863677352
 30
0.0
 10
110.373328008285
 20
171.9567744477754
 30
0.0
 10
110.3867294363403
 20
172.0243072404654
 30
0.0
 10
110.4125812127064
 20
172.094481993363
 30
0.0
 10
110.4445829476983
 20
172.1409038938406
 30
0.0
 10
110.4676187996413
 20
172.1569175712976
 30
0.0
 10
110.4668504006116
 20
172.156223856375
 30
0.0
 10
110.4665108572709
 20
172.1559173147564
 30
0.0
  0
ARC
  5
8D
330
1F
100
AcDbEntity
  8
0
  6
Continuous
 62
     7
370
    15
100
AcDbCircle
 10
110.123845519
 20
166.8066586455
 30
0.0
 40
0.2500000000000853
100
AcDbArc
 50
270.0
 51
0.0
  0
LINE
  5
8E
330
1F
100
AcDbEntity
  8
0
  6
Continuous
 62
     7
370
    15
100
AcDbLine
 10
110.3738256346
 20
166.8066388647
 30
0.0
 11
110.3738256346
 21
171.9066506903
 31
0.0
  0
ARC
  5
8F
330
1F
100
AcDbEntity
  8
0
  6
Continuous
 62
     7
370
    15
100
AcDbCircle
 10
105.0671513468
 20
166.8066586455
 30
0.0
 40
0.2500000000000853
100
AcDbArc
 50
180.0
 51
270.0
  0
LINE
  5
90
330
1F
100
AcDbEntity
  8
0
  6
Continuous
 62
     7
370
    15
100
AcDbLine
 10
104.8171230208
 20
171.9066506903
 30
0.0
 11
104.8171230208
 21
166.8066388647
 31
0.0
  0
ARC
  5
91
330
1F
100
AcDbEntity
  8
0
  6
Continuous
 62
     7
370
    15
100
AcDbCircle
 10
105.0347973427
 20
172.4066586455
 30
0.0
 40
0.2500000000000853
100
AcDbArc
 50
180.0
 51
232.7089330724
  0
ARC
  5
92
330
1F
100
AcDbEntity
  8
0
  6
Continuous
 62
     7
370
    15
100
AcDbCircle
 10
105.0347973427
 20
173.1066586455
 30
0.0
 40
0.2500000000000853
100
AcDbArc
 50
90.0
 51
180.0
  0
LINE
  5
93
330
1F
100
AcDbEntity
  8
0
  6
Continuous
 62
     7
370
    15
100
AcDbLine
 10
104.7848173033
 20
173.1066710036
 30
0.0
 11
104.7848173033
 21
172.4066740553
 31
0.0
  0
ARC
  5
94
330
1F
100
AcDbEntity
  8
0
  6
Continuous
 62
     7
370
    15
100
AcDbCircle
 10
121.9024433385
 20
166.8066586455
 30
0.0
 40
0.2499999999999716
100
AcDbArc
 50
270.0
 51
0.0
  0
LINE
  5
95
330
1F
100
AcDbEntity
  8
0
  6
Continuous
 62
     7
370
    15
100
AcDbLine
 10
122.152418698
 20
166.8066388647
 30
0.0
 11
122.152418698
 21
171.0836297552
 31
0.0
  0
LINE
  5
96
330
1F
100
AcDbEntity
  8
0
  6
Continuous
 62
     7
370
    15
100
AcDbLine
 10
118.7321849715
 20
178.4138089697
 30
0.0
 11
118.4848256957
 21
178.5566813033
 31
0.0
  0
LINE
  5
97
330
1F
100
AcDbEntity
  8
0
  6
Continuous
 62
     7
370
    15
100
AcDbLine
 10
108.4847756278
 20
178.5566813033
 30
0.0
 11
108.237416352
 21
178.4138089697
 31
0.0
  0
LINE
  5
98
330
1F
100
AcDbEntity
  8
0
  6
Continuous
 62
     7
370
    15
100
AcDbLine
 10
108.237416352
 20
173.4994656126
 30
0.0
 11
108.4847756278
 21
173.3566528838
 31
0.0
  0
LINE
  5
99
330
1F
100
AcDbEntity
  8
0
  6
Continuous
 62
     7
370
    15
100
AcDbLine
 10
108.3955474746
 20
178.8581615965
 30
0.0
 11
108.4847756278
 21
178.8066631834
 31
0.0
  0
LINE
  5
9A
330
1F
100
AcDbEntity
  8
0
  6
Continuous
 62
     7
370
    15
100
AcDbLine
 10
118.4848256957
 20
178.8066631834
 30
0.0
 11
118.5740538489
 21
178.8581615965
 31
0.0
  0
LINE
  5
9B
330
1F
100
AcDbEntity
  8
0
  6
Continuous
 62
     7
370
    15
100
AcDbLine
 10
108.0230780493
 20
166.0231954138
 30
0.0
 11
108.4847756278
 21
165.7566434424
 31
0.0
  0
LINE
  5
9C
330
1F
100
AcDbEntity
  8
0
  6
Continuous
 62
     7
370
    15
100
AcDbLine
 10
118.9464636695
 20
170.6901198904
 30
0.0
 11
118.4848256957
 21
170.9566718619
 31
0.0
  0
LINE
  5
9D
330
1F
100
AcDbEntity
  8
0
  6
Continuous
 62
     7
370
    15
100
AcDbLine
 10
118.4848256957
 20
165.7566434424
 30
0.0
 11
118.9464636695
 21
166.0231954138
 31
0.0
  0
LINE
  5
9E
330
1F
100
AcDbEntity
  8
0
  6
Continuous
 62
     7
370
    15
100
AcDbLine
 10
110.4848094832
 20
178.8066631834
 30
0.0
 11
110.4848094832
 21
178.5566813033
 31
0.0
  0
LINE
  5
9F
330
1F
100
AcDbEntity
  8
0
  6
Continuous
 62
     7
370
    15
100
AcDbLine
 10
116.4847918402
 20
178.5566813033
 30
0.0
 11
116.4847918402
 21
178.8066631834
 31
0.0
  0
LINE
  5
A0
330
1F
100
AcDbEntity
  8
0
  6
Continuous
 62
     7
370
    15
100
AcDbLine
 10
787.8847977694
 20
21.2566858809
 30
0.0
 11
730.8847986709
 21
21.2566858809
 31
0.0
  0
LINE
  5
A1
330
1F
100
AcDbEntity
  8
0
  6
Continuous
 62
     7
370
    15
100
AcDbLine
 10
785.8847974416
 20
15.2566439192
 30
0.0
 11
732.8847989988
 21
15.2566439192
 31
0.0
  0
LINE
  5
A2
330
1F
100
AcDbEntity
  8
0
  6
Continuous
 62
     7
370
    15
100
AcDbLine
 10
208.8848062407
 20
21.2566858809
 30
0.0
 11
151.8848248374
 21
21.2566858809
 31
0.0
  0
LINE
  5
A3
330
1F
100
AcDbEntity
  8
0
  6
Continuous
 62
     7
370
    15
100
AcDbLine
 10
206.8847723853
 20
15.2566439192
 30
0.0
 11
153.8847990882
 21
15.2566439192
 31
0.0
  0
LINE
  5
A4
330
1F
100
AcDbEntity
  8
0
  6
Continuous
 62
     7
370
    15
100
AcDbLine
 10
804.3847967487
 20
183.2566863577
 30
0.0
 11
804.3847967487
 21
183.7566501181
 31
0.0
  0
LINE
  5
A5
330
1F
100
AcDbEntity
  8
0
  6
Continuous
 62
     7
370
    15
100
AcDbLine
 10
714.3847987603
 20
183.2566863577
 30
0.0
 11
714.3847987603
 21
183.7566501181
 31
0.0
  0
LINE
  5
A6
330
1F
100
AcDbEntity
  8
0
  6
Continuous
 62
     7
370
    15
100
AcDbLine
 10
714.3847987603
 20
183.2566863577
 30
0.0
 11
804.3847967487
 21
183.2566863577
 31
0.0
  0
LINE
  5
A7
330
1F
100
AcDbEntity
  8
0
  6
Continuous
 62
     7
370
    15
100
AcDbLine
 10
790.3444476973
 20
89.2566448729
 30
0.0
 11
728.4251459491
 21
89.2566448729
 31
0.0
  0
LINE
  5
A8
330
1F
100
AcDbEntity
  8
0
  6
Continuous
 62
     7
370
    15
100
AcDbLine
 10
225.384802426
 20
183.2566863577
 30
0.0
 11
225.384802426
 21
183.7566501181
 31
0.0
  0
LINE
  5
A9
330
1F
100
AcDbEntity
  8
0
  6
Continuous
 62
     7
370
    15
100
AcDbLine
 10
135.3847690474
 20
183.2566863577
 30
0.0
 11
225.384802426
 21
183.2566863577
 31
0.0
  0
LINE
  5
AA
330
1F
100
AcDbEntity
  8
0
  6
Continuous
 62
     7
370
    15
100
AcDbLine
 10
135.3847690474
 20
183.2566863577
 30
0.0
 11
135.3847690474
 21
183.7566501181
 31
0.0
  0
LINE
  5
AB
330
1F
100
AcDbEntity
  8
0
  6
Continuous
 62
     7
370
    15
100
AcDbLine
 10
211.344451512
 20
89.2566448729
 30
0.0
 11
149.4251199614
 21
89.2566448729
 31
0.0
  0
LWPOLYLINE
  5
AC
330
1F
100
AcDbEntity
  8
0
  6
Continuous
 62
     7
370
    15
100
AcDbPolyline
 90
        3
 70
   128
 43
0.0
 10
104.8715420615
 20
185.5801946204
 10
104.8724361312
 20
185.5788237135
 10
105.0753899466
 20
185.3178149741
  0
LWPOLYLINE
  5
AD
330
1F
100
AcDbEntity
  8
0
  6
Continuous
 62
     7
370
    15
100
AcDbPolyline
 90
        3
 70
   128
 43
0.0
 10
845.600531305
 20
185.4448920767
 10
845.6971802365
 20
185.5788237135
 10
845.7627155434
 20
185.6828338187
  0
SPLINE
  5
AE
330
1F
100
AcDbEntity
  8
0
  6
Continuous
 62
     7
370
    15
100
AcDbSpline
210
0.0
220
0.0
230
1.0
 70
     8
 71
     3
 72
    12
 73
     8
 74
     0
 42
0.00000001
 43
0.00000001
 12
1.0
 22
0.0
 32
0.0
 13
1.0
 23
0.0
 33
0.0
 40
0.0
 40
0.0
 40
0.0
 40
0.0
 40
0.2096826823008973
 40
0.4420467279338694
 40
0.6744374482327783
 40
0.9068213976842943
 40
1.0
 40
1.0
 40
1.0
 40
1.0
 10
845.1847963582744
 20
186.0566741506939
 30
0.0
 10
845.2890833420013
 20
185.8043425622881
 30
0.0
 10
845.5089380263114
 20
185.2723846924951
 30
0.0
 10
845.8449048569719
 20
184.5510054873948
 30
0.0
 10
846.1918010741911
 20
184.0075906721251
 30
0.0
 10
846.4701778483545
 20
183.7790277526181
 30
0.0
 10
846.6315444010434
 20
183.7616296064727
 30
0.0
 10
846.6777287971248
 20
183.7566501181013
 30
0.0
  0
LINE
  5
AF
330
1F
100
AcDbEntity
  8
0
  6
Continuous
 62
     7
370
    15
100
AcDbLine
 10
846.6777287971
 20
183.7566501181
 30
0.0
 11
104.0918537032
 21
183.7566501181
 31
0.0
  0
SPLINE
  5
B0
330
1F
100
AcDbEntity
  8
0
  6
Continuous
 62
     7
370
    15
100
AcDbSpline
210
0.0
220
0.0
230
1.0
 70
     8
 71
     3
 72
    12
 73
     8
 74
     0
 42
0.00000001
 43
0.00000001
 12
1.0
 22
0.0
 32
0.0
 13
1.0
 23
0.0
 33
0.0
 40
0.0
 40
0.0
 40
0.0
 40
0.0
 40
0.2096817998681153
 40
0.4420447371431689
 40
0.674432319844398
 40
0.9068199328110409
 40
1.0
 40
1.0
 40
1.0
 40
1.0
 10
104.0918537031878
 20
183.7566501181013
 30
0.0
 10
104.1961300436858
 20
183.7809941685688
 30
0.0
 10
104.4159622253756
 20
183.8323155488535
 30
0.0
 10
104.7520091492199
 20
184.2532409915912
 30
0.0
 10
105.0988815762379
 20
184.905031676255
 30
0.0
 10
105.3773244937746
 20
185.5544477972385
 30
0.0
 10
105.5386100329523
 20
185.9449183605892
 30
0.0
 10
105.5847712408769
 20
186.0566741506939
 30
0.0
  0
LINE
  5
B1
330
1F
100
AcDbEntity
  8
0
  6
Continuous
 62
     7
370
    15
100
AcDbLine
 10
105.5847712409
 20
186.0566741507
 30
0.0
 11
845.1847963583
 21
186.0566741507
 31
0.0
  0
SPLINE
  5
B2
330
1F
100
AcDbEntity
  8
0
  6
Continuous
 62
     7
370
    15
100
AcDbSpline
210
0.0
220
0.0
230
1.0
 70
     8
 71
     3
 72
    12
 73
     8
 74
     0
 42
0.00000001
 43
0.00000001
 12
1.0
 22
0.0
 32
0.0
 13
1.0
 23
0.0
 33
0.0
 40
0.0
 40
0.0
 40
0.0
 40
0.0
 40
0.2096835291209646
 40
0.4420469722616797
 40
0.6744341105947173
 40
0.906821279193302
 40
0.9999999999999999
 40
0.9999999999999999
 40
0.9999999999999999
 40
0.9999999999999999
 10
845.1847963582744
 20
663.0566573421842
 30
0.0
 10
845.4371273953736
 20
663.1609443070854
 30
0.0
 10
845.9690822485994
 20
663.3807981853283
 30
0.0
 10
846.6904647266011
 20
663.7167623171051
 30
0.0
 10
847.233824574069
 20
664.0636692229496
 30
0.0
 10
847.4624497409785
 20
664.3420366822498
 30
0.0
 10
847.4798251134262
 20
664.5034052289889
 30
0.0
 10
847.4847980391254
 20
664.5495897810346
 30
0.0
  0
SPLINE
  5
B3
330
1F
100
AcDbEntity
  8
0
  6
Continuous
 62
     7
370
    15
100
AcDbSpline
210
0.0
220
0.0
230
1.0
 70
     8
 71
     3
 72
    11
 73
     7
 74
     0
 42
0.00000001
 43
0.00000001
 12
1.0
 22
0.0
 32
0.0
 13
1.0
 23
0.0
 33
0.0
 40
0.0
 40
0.0
 40
0.0
 40
0.0
 40
0.2543218102132533
 40
0.5088669785588851
 40
0.7634171721976886
 40
1.0
 40
1.0
 40
1.0
 40
1.0
 10
845.1847963582744
 20
663.0566573421842
 30
0.0
 10
845.3847714736717
 20
663.1832390756429
 30
0.0
 10
845.7848973326132
 20
663.4365137129691
 30
0.0
 10
846.2865221738407
 20
663.8164596794836
 30
0.0
 10
846.6225851567161
 20
664.1876815393674
 30
0.0
 10
846.664573342606
 20
664.431932215506
 30
0.0
 10
846.6847993981113
 20
664.5495897810346
 30
0.0
  0
LINE
  5
B4
330
1F
100
AcDbEntity
  8
0
  6
Continuous
 62
     7
370
    15
100
AcDbLine
 10
847.4847980391
 20
664.549589781
 30
0.0
 11
846.6847993981
 21
664.549589781
 31
0.0
  0
LINE
  5
B5
330
1F
100
AcDbEntity
  8
0
  6
Continuous
 62
     7
370
    15
100
AcDbLine
 10
104.0918537032
 20
183.7566501181
 30
0.0
 11
104.0918537032
 21
184.5566636603
 31
0.0
  0
SPLINE
  5
B6
330
1F
100
AcDbEntity
  8
0
  6
Continuous
 62
     7
370
    15
100
AcDbSpline
210
0.0
220
0.0
230
1.0
 70
     8
 71
     3
 72
    11
 73
     7
 74
     0
 42
0.00000001
 43
0.00000001
 12
1.0
 22
0.0
 32
0.0
 13
1.0
 23
0.0
 33
0.0
 40
0.0
 40
0.0
 40
0.0
 40
0.0
 40
0.2543212777707295
 40
0.5088734806672044
 40
0.7634108045436298
 40
1.0
 40
1.0
 40
1.0
 40
1.0
 10
104.0918537031878
 20
184.5566636602766
 30
0.0
 10
104.218435602549
 20
184.5800115777276
 30
0.0
 10
104.4717143383353
 20
184.6267286126676
 30
0.0
 10
104.8516554394587
 20
184.9856694488926
 30
0.0
 10
105.2229523351111
 20
185.4848080032938
 30
0.0
 10
105.467139531026
 20
185.8707535377779
 30
0.0
 10
105.584771240877
 20
186.0566741506941
 30
0.0
  0
LINE
  5
B7
330
1F
100
AcDbEntity
  8
0
  6
Continuous
 62
     7
370
    15
100
AcDbLine
 10
106.7847915541
 20
663.0566573422
 30
0.0
 11
106.7847915541
 21
665.356659023
 31
0.0
  0
LINE
  5
B8
330
1F
100
AcDbEntity
  8
0
  6
Continuous
 62
     7
370
    15
100
AcDbLine
 10
106.7847915541
 20
665.356659023
 30
0.0
 11
846.6777287971
 21
665.356659023
 31
0.0
  0
SPLINE
  5
B9
330
1F
100
AcDbEntity
  8
0
  6
Continuous
 62
     7
370
    15
100
AcDbSpline
210
0.0
220
0.0
230
1.0
 70
     8
 71
     3
 72
    12
 73
     8
 74
     0
 42
0.00000001
 43
0.00000001
 12
1.0
 22
0.0
 32
0.0
 13
1.0
 23
0.0
 33
0.0
 40
0.0
 40
0.0
 40
0.0
 40
0.0
 40
0.2096835599770999
 40
0.4420427356515103
 40
0.6744315881958108
 40
0.9068198465125366
 40
1.0
 40
1.0
 40
1.0
 40
1.0
 10
846.6777287971248
 20
665.3566590230351
 30
0.0
 10
846.5734426170734
 20
665.3323191891925
 30
0.0
 10
846.3535925328532
 20
665.2810073613209
 30
0.0
 10
846.0176162711607
 20
664.8600686435193
 30
0.0
 10
845.670723696403
 20
664.208282535091
 30
0.0
 10
845.3923339517396
 20
663.5588456921788
 30
0.0
 10
845.2309777339646
 20
663.1684045609467
 30
0.0
 10
845.1847963582744
 20
663.0566573421842
 30
0.0
  0
LINE
  5
BA
330
1F
100
AcDbEntity
  8
0
  6
Continuous
 62
     7
370
    15
100
AcDbLine
 10
845.1847963583
 20
663.0566573422
 30
0.0
 11
106.7847915541
 21
663.0566573422
 31
0.0
  0
LINE
  5
BB
330
1F
100
AcDbEntity
  8
0
  6
Continuous
 62
     7
370
    15
100
AcDbLine
 10
846.6777287971
 20
665.356659023
 30
0.0
 11
846.6777287971
 21
664.556660382
 31
0.0
  0
SPLINE
  5
BC
330
1F
100
AcDbEntity
  8
0
  6
Continuous
 62
     7
370
    15
100
AcDbSpline
210
0.0
220
0.0
230
1.0
 70
     8
 71
     3
 72
    11
 73
     7
 74
     0
 42
0.00000001
 43
0.00000001
 12
1.0
 22
0.0
 32
0.0
 13
1.0
 23
0.0
 33
0.0
 40
0.0
 40
0.0
 40
0.0
 40
0.0
 40
0.2543217013131503
 40
0.5088644435069354
 40
0.7634140788027568
 40
0.9999999999999999
 40
0.9999999999999999
 40
0.9999999999999999
 40
0.9999999999999999
 10
846.6777287971248
 20
664.556660382021
 30
0.0
 10
846.5511474029153
 20
664.53330648556
 30
0.0
 10
846.2978745976839
 20
664.4865783948585
 30
0.0
 10
845.9179249135351
 20
664.1276872633109
 30
0.0
 10
845.5467014759886
 20
663.6284667428854
 30
0.0
 10
845.302453536584
 20
663.2425554611232
 30
0.0
 10
845.1847963582744
 20
663.0566573421842
 30
0.0
  0
LINE
  5
BD
330
1F
100
AcDbEntity
  8
0
  6
Continuous
 62
     7
370
    15
100
AcDbLine
 10
847.4847980391
 20
184.563756613
 30
0.0
 11
847.4847980391
 21
664.549589781
 31
0.0
  0
SPLINE
  5
BE
330
1F
100
AcDbEntity
  8
0
  6
Continuous
 62
     7
370
    15
100
AcDbSpline
210
0.0
220
0.0
230
1.0
 70
     8
 71
     3
 72
    12
 73
     8
 74
     0
 42
0.00000001
 43
0.00000001
 12
1.0
 22
0.0
 32
0.0
 13
1.0
 23
0.0
 33
0.0
 40
0.0
 40
0.0
 40
0.0
 40
0.0
 40
0.2096824007701878
 40
0.4420404492593967
 40
0.6744303779503406
 40
0.906818977979973
 40
1.0
 40
1.0
 40
1.0
 40
1.0
 10
847.4847980391254
 20
184.5637566130048
 30
0.0
 10
847.4604583395824
 20
184.6680381810235
 30
0.0
 10
847.409146776565
 20
184.8878786206938
 30
0.0
 10
846.9882040650419
 20
185.2238340808879
 30
0.0
 10
846.3364240144997
 20
185.5707440384208
 30
0.0
 10
845.6869818385085
 20
185.8491245050369
 30
0.0
 10
845.2965434253045
 20
186.0104898919326
 30
0.0
 10
845.1847963582744
 20
186.0566741506939
 30
0.0
  0
LINE
  5
BF
330
1F
100
AcDbEntity
  8
0
  6
Continuous
 62
     7
370
    15
100
AcDbLine
 10
845.1847963583
 20
186.0566741507
 30
0.0
 11
845.1847963583
 21
663.0566573422
 31
0.0
  0
LINE
  5
C0
330
1F
100
AcDbEntity
  8
0
  6
Continuous
 62
     7
370
    15
100
AcDbLine
 10
105.5847712409
 20
664.556660382
 30
0.0
 11
105.5847712409
 21
186.0566741507
 31
0.0
  0
LINE
  5
C1
330
1F
100
AcDbEntity
  8
0
  6
Continuous
 62
     7
370
    15
100
AcDbLine
 10
105.5847712409
 20
664.556660382
 30
0.0
 11
106.534809674
 21
664.556660382
 31
0.0
  0
ARC
  5
C2
330
1F
100
AcDbEntity
  8
0
  6
Continuous
 62
     7
370
    15
100
AcDbCircle
 10
106.6597973427
 20
663.0566586455
 30
0.0
 40
0.1250000000000426
100
AcDbArc
 50
180.0
 51
0.0
  0
LINE
  5
C3
330
1F
100
AcDbEntity
  8
0
  6
Continuous
 62
     7
370
    15
100
AcDbLine
 10
106.534809674
 20
663.0566573422
 30
0.0
 11
106.534809674
 21
664.556660382
 31
0.0
  0
SPLINE
  5
C4
330
1F
100
AcDbEntity
  8
0
  6
Continuous
 62
     7
370
    15
100
AcDbSpline
210
0.0
220
0.0
230
1.0
 70
     8
 71
     3
 72
    12
 73
     8
 74
     0
 42
0.00000001
 43
0.00000001
 12
1.0
 22
0.0
 32
0.0
 13
1.0
 23
0.0
 33
0.0
 40
0.0
 40
0.0
 40
0.0
 40
0.0
 40
0.2096841021401607
 40
0.4420434272501985
 40
0.6744380820531223
 40
0.9068259659368156
 40
1.0
 40
1.0
 40
1.0
 40
1.0
 10
105.584771240877
 20
186.0566741506941
 30
0.0
 10
105.3324357872877
 20
185.9523988576549
 30
0.0
 10
104.8004773432146
 20
185.7325719492624
 30
0.0
 10
104.0791672541323
 20
185.3965079145633
 30
0.0
 10
103.5357440351837
 20
185.049651730863
 30
0.0
 10
103.3071875069972
 20
184.7712127462859
 30
0.0
 10
103.2897867998192
 20
184.6099182209016
 30
0.0
 10
103.284806812929
 20
184.5637566130048
 30
0.0
  0
LINE
  5
C5
330
1F
100
AcDbEntity
  8
0
  6
Continuous
 62
     7
370
    15
100
AcDbLine
 10
103.2848068129
 20
662.8066605608
 30
0.0
 11
103.2848068129
 21
184.563756613
 31
0.0
  0
SPLINE
  5
C6
330
1F
100
AcDbEntity
  8
0
  6
Continuous
 62
     7
370
    15
100
AcDbSpline
210
0.0
220
0.0
230
1.0
 70
     8
 71
     3
 72
    12
 73
     8
 74
     0
 42
0.00000001
 43
0.00000001
 12
1.0
 22
0.0
 32
0.0
 13
1.0
 23
0.0
 33
0.0
 40
0.0
 40
0.0
 40
0.0
 40
0.0
 40
0.2039315104711332
 40
0.442558795246233
 40
0.6812536531086955
 40
0.9199291092016395
 40
1.0
 40
1.0
 40
1.0
 40
1.0
 10
103.284806812929
 20
662.806660560835
 30
0.0
 10
103.307866735953
 20
662.9254944591434
 30
0.0
 10
103.3579098692013
 20
663.1833799950681
 30
0.0
 10
103.7803511683232
 20
663.5812830076185
 30
0.0
 10
104.4535917027982
 20
663.9988634330806
 30
0.0
 10
105.1065642413327
 20
664.3249708401582
 30
0.0
 10
105.4887611971253
 20
664.5101438670553
 30
0.0
 10
105.5847712408769
 20
664.556660382021
 30
0.0
  0
SPLINE
  5
C7
330
1F
100
AcDbEntity
  8
0
  6
Continuous
 62
     7
370
    15
100
AcDbSpline
210
0.0
220
0.0
230
1.0
 70
     8
 71
     3
 72
    11
 73
     7
 74
     0
 42
0.00000001
 43
0.00000001
 12
1.0
 22
0.0
 32
0.0
 13
1.0
 23
0.0
 33
0.0
 40
0.0
 40
0.0
 40
0.0
 40
0.0
 40
0.2543297671395674
 40
0.5088646832208635
 40
0.7634174146260966
 40
1.0
 40
1.0
 40
1.0
 40
1.0
 10
845.1847963582744
 20
186.0566741506941
 30
0.0
 10
845.3113749114341
 20
185.8566847885145
 30
0.0
 10
845.564634119275
 20
185.4565447475843
 30
0.0
 10
845.9446160747187
 20
184.9549668481228
 30
0.0
 10
846.3158044874007
 20
184.618849470191
 30
0.0
 10
846.5600664603169
 20
184.5768803948652
 30
0.0
 10
846.6777287971248
 20
184.5566636602766
 30
0.0
  0
LINE
  5
C8
330
1F
100
AcDbEntity
  8
0
  6
Continuous
 62
     7
370
    15
100
AcDbLine
 10
846.6777287971
 20
183.7566501181
 30
0.0
 11
846.6777287971
 21
184.5566636603
 31
0.0
  0
LINE
  5
C9
330
1F
100
AcDbEntity
  8
0
  6
Continuous
 62
     7
370
    15
100
AcDbLine
 10
847.4847980391
 20
184.563756613
 30
0.0
 11
846.6847993981
 21
184.563756613
 31
0.0
  0
SPLINE
  5
CA
330
1F
100
AcDbEntity
  8
0
  6
Continuous
 62
     7
370
    15
100
AcDbSpline
210
0.0
220
0.0
230
1.0
 70
     8
 71
     3
 72
    11
 73
     7
 74
     0
 42
0.00000001
 43
0.00000001
 12
1.0
 22
0.0
 32
0.0
 13
1.0
 23
0.0
 33
0.0
 40
0.0
 40
0.0
 40
0.0
 40
0.0
 40
0.2543224354915838
 40
0.5088586974052912
 40
0.7634119536953652
 40
1.0
 40
1.0
 40
1.0
 40
1.0
 10
846.6847993981113
 20
184.5637566130048
 30
0.0
 10
846.6614469810498
 20
184.6903412829879
 30
0.0
 10
846.6147225129384
 20
184.9436170514214
 30
0.0
 10
846.2558152959898
 20
185.3235153912863
 30
0.0
 10
845.7566083731439
 20
185.6947648094812
 30
0.0
 10
845.3706949861861
 20
185.9390158150691
 30
0.0
 10
845.1847963582744
 20
186.0566741506939
 30
0.0
  0
SPLINE
  5
CB
330
1F
100
AcDbEntity
  8
0
  6
Continuous
 62
     7
370
    15
100
AcDbSpline
210
0.0
220
0.0
230
1.0
 70
     8
 71
     3
 72
    11
 73
     7
 74
     0
 42
0.00000001
 43
0.00000001
 12
1.0
 22
0.0
 32
0.0
 13
1.0
 23
0.0
 33
0.0
 40
0.0
 40
0.0
 40
0.0
 40
0.0
 40
0.2543159607168948
 40
0.5088740845071096
 40
0.7634252932089679
 40
1.0
 40
1.0
 40
1.0
 40
1.0
 10
105.584771240877
 20
186.0566741506941
 30
0.0
 10
105.3848084193938
 20
185.9300913095375
 30
0.0
 10
104.9846923691435
 20
185.6768050933429
 30
0.0
 10
104.4830486822934
 20
185.2968629821334
 30
0.0
 10
104.1470289594573
 20
184.9256015356223
 30
0.0
 10
104.1050443069383
 20
184.6813920167006
 30
0.0
 10
104.0848203551043
 20
184.5637566130048
 30
0.0
  0
LINE
  5
CC
330
1F
100
AcDbEntity
  8
0
  6
Continuous
 62
     7
370
    15
100
AcDbLine
 10
103.2848068129
 20
184.563756613
 30
0.0
 11
104.0848203551
 21
184.563756613
 31
0.0
  0
LINE
  5
CD
330
1F
100
AcDbEntity
  8
0
  6
Continuous
 62
     7
370
    15
100
AcDbLine
 10
104.4848271262
 20
184.5566636603
 30
0.0
 11
104.4848271262
 21
185.2558857481
 31
0.0
  0
LINE
  5
CE
330
1F
100
AcDbEntity
  8
0
  6
Continuous
 62
     7
370
    15
100
AcDbLine
 10
104.4848271262
 20
184.5566636603
 30
0.0
 11
103.684813584
 21
184.5566636603
 31
0.0
  0
LINE
  5
CF
330
1F
100
AcDbEntity
  8
0
  6
Continuous
 62
     7
370
    15
100
AcDbLine
 10
103.684813584
 20
184.5566636603
 30
0.0
 11
103.684813584
 21
184.563756613
 31
0.0
  0
LINE
  5
D0
330
1F
100
AcDbEntity
  8
0
  6
Continuous
 62
     7
370
    15
100
AcDbLine
 10
106.534809674
 20
664.556660382
 30
0.0
 11
106.7847915541
 21
664.556660382
 31
0.0
  0
LINE
  5
D1
330
1F
100
AcDbEntity
  8
0
  6
Continuous
 62
     7
370
    15
100
AcDbLine
 10
106.534809674
 20
663.756661741
 30
0.0
 11
106.7847915541
 21
663.756661741
 31
0.0
  0
LINE
  5
D2
330
1F
100
AcDbEntity
  8
0
  6
Continuous
 62
     7
370
    15
100
AcDbLine
 10
845.6847973716
 20
663.5566583555
 30
0.0
 11
845.6754841458
 21
663.7494123261
 31
0.0
  0
LINE
  5
D3
330
1F
100
AcDbEntity
  8
0
  6
Continuous
 62
     7
370
    15
100
AcDbLine
 10
845.6847973716
 20
663.5566583555
 30
0.0
 11
845.6847973716
 21
663.3820539992
 31
0.0
  0
LINE
  5
D4
330
1F
100
AcDbEntity
  8
0
  6
Continuous
 62
     7
370
    15
100
AcDbLine
 10
108.9040943038
 20
932.5566596072
 30
0.0
 11
105.9691019904
 21
966.1034351866
 31
0.0
  0
LINE
  5
D5
330
1F
100
AcDbEntity
  8
0
  6
Continuous
 62
     7
370
    15
100
AcDbLine
 10
51.0573097121
 20
980.2023774664
 30
0.0
 11
46.8888588797
 21
932.5566596072
 31
0.0
  0
LINE
  5
D6
330
1F
100
AcDbEntity
  8
0
  6
Continuous
 62
     7
370
    15
100
AcDbLine
 10
105.9691019904
 20
966.1034351866
 30
0.0
 11
51.0573097121
 21
980.2023774664
 31
0.0
  0
ARC
  5
D7
330
1F
100
AcDbEntity
  8
0
  6
Continuous
 62
     7
370
    15
100
AcDbCircle
 10
106.9653042208
 20
960.3368147918
 30
0.0
 40
5.852036368828219
100
AcDbArc
 50
80.1987078463
 51
99.8012921537
  0
LINE
  5
D8
330
1F
100
AcDbEntity
  8
0
  6
Continuous
 62
     7
370
    15
100
AcDbLine
 10
107.9615064513
 20
966.1034351866
 30
0.0
 11
110.89643916
 21
932.5566596072
 31
0.0
  0
LINE
  5
D9
330
1F
100
AcDbEntity
  8
0
  6
Continuous
 62
     7
370
    15
100
AcDbLine
 10
44.8964544188
 20
932.5566596072
 30
0.0
 11
49.0649052512
 21
980.2023774664
 31
0.0
  0
ARC
  5
DA
330
1F
100
AcDbEntity
  8
0
  6
Continuous
 62
     7
370
    15
100
AcDbCircle
 10
50.0611074816
 20
974.4366595742
 30
0.0
 40
5.851147041119978
100
AcDbArc
 50
80.1972034212
 51
99.8027965788
  0
ARC
  5
DB
330
1F
100
AcDbEntity
  8
0
  6
Continuous
 62
     7
370
    15
100
AcDbCircle
 10
70.9573194759
 20
975.5391065713
 30
0.0
 40
20.43909205521998
100
AcDbArc
 50
161.6751459745
 51
166.8115560486
  0
LINE
  5
DC
330
1F
100
AcDbEntity
  8
0
  6
Continuous
 62
     7
370
    15
100
AcDbLine
 10
51.5547104727
 20
981.9652444403
 30
0.0
 11
106.466502751
 21
967.8662872593
 31
0.0
  0
ARC
  5
DD
330
1F
100
AcDbEntity
  8
0
  6
Continuous
 62
     7
370
    15
100
AcDbCircle
 10
125.8713265673
 20
961.4394850475
 30
0.0
 40
20.44140342566715
100
AcDbArc
 50
161.6753301081
 51
166.811118766
  0
ARC
  5
DE
330
1F
100
AcDbEntity
  8
0
  6
Continuous
 62
     7
370
    15
100
AcDbCircle
 10
105.9691161775
 20
965.9291168925
 30
0.0
 40
2.00000000000001
100
AcDbArc
 50
5.0
 51
75.6
  0
ARC
  5
DF
330
1F
100
AcDbEntity
  8
0
  6
Continuous
 62
     7
370
    15
100
AcDbCircle
 10
51.0573176699
 20
980.0280704185
 30
0.0
 40
2.00000000000004
100
AcDbArc
 50
75.6
 51
175.0
  0
LINE
  5
E0
330
1F
100
AcDbEntity
  8
0
  6
Continuous
 62
     7
370
    15
100
AcDbLine
 10
79.9254485022
 20
665.356659023
 30
0.0
 11
79.9254485022
 21
662.1566570084
 31
0.0
  0
LINE
  5
E1
330
1F
100
AcDbEntity
  8
0
  6
Continuous
 62
     7
370
    15
100
AcDbLine
 10
66.9768758666
 20
662.1566570084
 30
0.0
 11
66.9768758666
 21
665.356659023
 31
0.0
  0
LINE
  5
E2
330
1F
100
AcDbEntity
  8
0
  6
Continuous
 62
     7
370
    15
100
AcDbLine
 10
66.9768758666
 20
662.1566570084
 30
0.0
 11
79.9254485022
 21
662.1566570084
 31
0.0
  0
LINE
  5
E3
330
1F
100
AcDbEntity
  8
0
  6
Continuous
 62
     7
370
    15
100
AcDbLine
 10
82.0146509063
 20
662.1566570084
 30
0.0
 11
82.0146509063
 21
665.356659023
 31
0.0
  0
LINE
  5
E4
330
1F
100
AcDbEntity
  8
0
  6
Continuous
 62
     7
370
    15
100
AcDbLine
 10
79.9254485022
 20
662.1566570084
 30
0.0
 11
82.0146509063
 21
662.1566570084
 31
0.0
  0
LINE
  5
E5
330
1F
100
AcDbEntity
  8
0
  6
Continuous
 62
     7
370
    15
100
AcDbLine
 10
94.8872276198
 20
665.356659023
 30
0.0
 11
94.8872276198
 21
662.1566570084
 31
0.0
  0
LINE
  5
E6
330
1F
100
AcDbEntity
  8
0
  6
Continuous
 62
     7
370
    15
100
AcDbLine
 10
82.0146509063
 20
662.1566570084
 30
0.0
 11
94.8872276198
 21
662.1566570084
 31
0.0
  0
LINE
  5
E7
330
1F
100
AcDbEntity
  8
0
  6
Continuous
 62
     7
370
    15
100
AcDbLine
 10
71.6927357566
 20
648.3566618245
 30
0.0
 11
71.6927357566
 21
652.2566607873
 31
0.0
  0
LINE
  5
E8
330
1F
100
AcDbEntity
  8
0
  6
Continuous
 62
     7
370
    15
100
AcDbLine
 10
73.5073395621
 20
652.2566607873
 30
0.0
 11
73.5073395621
 21
648.3566618245
 31
0.0
  0
LINE
  5
E9
330
1F
100
AcDbEntity
  8
0
  6
Continuous
 62
     7
370
    15
100
AcDbLine
 10
71.6927357566
 20
648.3566618245
 30
0.0
 11
73.5073395621
 21
648.3566618245
 31
0.0
  0
LINE
  5
EA
330
1F
100
AcDbEntity
  8
0
  6
Continuous
 62
     7
370
    15
100
AcDbLine
 10
71.6927357566
 20
652.2566607873
 30
0.0
 11
73.5073395621
 21
652.2566607873
 31
0.0
  0
LINE
  5
EB
330
1F
100
AcDbEntity
  8
0
  6
Continuous
 62
     7
370
    15
100
AcDbLine
 10
88.4152360808
 20
648.3566618245
 30
0.0
 11
88.4152360808
 21
652.2566607873
 31
0.0
  0
LINE
  5
EC
330
1F
100
AcDbEntity
  8
0
  6
Continuous
 62
     7
370
    15
100
AcDbLine
 10
73.5073395621
 20
648.3566618245
 30
0.0
 11
88.4152360808
 21
648.3566618245
 31
0.0
  0
LINE
  5
ED
330
1F
100
AcDbEntity
  8
0
  6
Continuous
 62
     7
370
    15
100
AcDbLine
 10
73.5073395621
 20
652.2566607873
 30
0.0
 11
88.4152360808
 21
652.2566607873
 31
0.0
  0
LINE
  5
EE
330
1F
100
AcDbEntity
  8
0
  6
Continuous
 62
     7
370
    15
100
AcDbLine
 10
90.2192302596
 20
652.2566607873
 30
0.0
 11
90.2192302596
 21
648.3566618245
 31
0.0
  0
LINE
  5
EF
330
1F
100
AcDbEntity
  8
0
  6
Continuous
 62
     7
370
    15
100
AcDbLine
 10
88.4152360808
 20
648.3566618245
 30
0.0
 11
90.2192302596
 21
648.3566618245
 31
0.0
  0
LINE
  5
F0
330
1F
100
AcDbEntity
  8
0
  6
Continuous
 62
     7
370
    15
100
AcDbLine
 10
88.4152360808
 20
652.2566607873
 30
0.0
 11
90.2192302596
 21
652.2566607873
 31
0.0
  0
LINE
  5
F1
330
1F
100
AcDbEntity
  8
0
  6
Continuous
 62
     7
370
    15
100
AcDbLine
 10
80.9350319754
 20
634.1566598694
 30
0.0
 11
71.0348196875
 21
634.1566598694
 31
0.0
  0
LINE
  5
F2
330
1F
100
AcDbEntity
  8
0
  6
Continuous
 62
     7
370
    15
100
AcDbLine
 10
90.7348104369
 20
634.1566598694
 30
0.0
 11
80.9350319754
 21
634.1566598694
 31
0.0
  0
LINE
  5
F3
330
1F
100
AcDbEntity
  8
0
  6
Continuous
 62
     7
370
    15
100
AcDbLine
 10
80.9605427634
 20
654.6566567104
 30
0.0
 11
95.7348056685
 21
654.6566567104
 31
0.0
  0
LINE
  5
F4
330
1F
100
AcDbEntity
  8
0
  6
Continuous
 62
     7
370
    15
100
AcDbLine
 10
66.0348244559
 20
654.6566567104
 30
0.0
 11
80.9605427634
 21
654.6566567104
 31
0.0
  0
LINE
  5
F5
330
1F
100
AcDbEntity
  8
0
  6
Continuous
 62
     7
370
    15
100
AcDbLine
 10
80.9561916243
 20
660.1566604059
 30
0.0
 11
94.8847838294
 21
660.1566604059
 31
0.0
  0
LINE
  5
F6
330
1F
100
AcDbEntity
  8
0
  6
Continuous
 62
     7
370
    15
100
AcDbLine
 10
66.8847866904
 20
660.1566604059
 30
0.0
 11
80.9561916243
 21
660.1566604059
 31
0.0
  0
LINE
  5
F7
330
1F
100
AcDbEntity
  8
0
  6
Continuous
 62
     7
370
    15
100
AcDbLine
 10
64.1729541671
 20
652.2566607873
 30
0.0
 11
64.1729541671
 21
648.3566618245
 31
0.0
  0
LINE
  5
F8
330
1F
100
AcDbEntity
  8
0
  6
Continuous
 62
     7
370
    15
100
AcDbLine
 10
64.1729541671
 20
648.3566618245
 30
0.0
 11
71.6927357566
 21
648.3566618245
 31
0.0
  0
LINE
  5
F9
330
1F
100
AcDbEntity
  8
0
  6
Continuous
 62
     7
370
    15
100
AcDbLine
 10
64.1729541671
 20
652.2566607873
 30
0.0
 11
71.6927357566
 21
652.2566607873
 31
0.0
  0
LINE
  5
FA
330
1F
100
AcDbEntity
  8
0
  6
Continuous
 62
     7
370
    15
100
AcDbLine
 10
97.6072855841
 20
648.3566618245
 30
0.0
 11
97.6072855841
 21
652.2566607873
 31
0.0
  0
LINE
  5
FB
330
1F
100
AcDbEntity
  8
0
  6
Continuous
 62
     7
370
    15
100
AcDbLine
 10
90.2192302596
 20
648.3566618245
 30
0.0
 11
97.6072855841
 21
648.3566618245
 31
0.0
  0
LINE
  5
FC
330
1F
100
AcDbEntity
  8
0
  6
Continuous
 62
     7
370
    15
100
AcDbLine
 10
90.2192302596
 20
652.2566607873
 30
0.0
 11
97.6072855841
 21
652.2566607873
 31
0.0
  0
LINE
  5
FD
330
1F
100
AcDbEntity
  8
0
  6
Continuous
 62
     7
370
    15
100
AcDbLine
 10
65.9230061423
 20
665.356659023
 30
0.0
 11
65.9230061423
 21
662.1566570084
 31
0.0
  0
LINE
  5
FE
330
1F
100
AcDbEntity
  8
0
  6
Continuous
 62
     7
370
    15
100
AcDbLine
 10
65.9230061423
 20
662.1566570084
 30
0.0
 11
66.9768758666
 21
662.1566570084
 31
0.0
  0
LINE
  5
FF
330
1F
100
AcDbEntity
  8
0
  6
Continuous
 62
     7
370
    15
100
AcDbLine
 10
95.9226199042
 20
662.1566570084
 30
0.0
 11
95.9226199042
 21
665.356659023
 31
0.0
  0
LINE
  5
100
330
1F
100
AcDbEntity
  8
0
  6
Continuous
 62
     7
370
    15
100
AcDbLine
 10
94.8872276198
 20
662.1566570084
 30
0.0
 11
95.9226199042
 21
662.1566570084
 31
0.0
  0
LINE
  5
101
330
1F
100
AcDbEntity
  8
0
  6
Continuous
 62
     7
370
    15
100
AcDbLine
 10
65.8469506156
 20
662.1566570084
 30
0.0
 11
65.8469506156
 21
665.356659023
 31
0.0
  0
LINE
  5
102
330
1F
100
AcDbEntity
  8
0
  6
Continuous
 62
     7
370
    15
100
AcDbLine
 10
65.8469506156
 20
662.1566570084
 30
0.0
 11
65.9230061423
 21
662.1566570084
 31
0.0
  0
LINE
  5
103
330
1F
100
AcDbEntity
  8
0
  6
Continuous
 62
     7
370
    15
100
AcDbLine
 10
64.1348071944
 20
648.3566618245
 30
0.0
 11
64.1729541671
 21
648.3566618245
 31
0.0
  0
LINE
  5
104
330
1F
100
AcDbEntity
  8
0
  6
Continuous
 62
     7
370
    15
100
AcDbLine
 10
64.1348071944
 20
652.2566607873
 30
0.0
 11
64.1729541671
 21
652.2566607873
 31
0.0
  0
LINE
  5
105
330
1F
100
AcDbEntity
  8
0
  6
Continuous
 62
     7
370
    15
100
AcDbLine
 10
97.6072855841
 20
648.3566618245
 30
0.0
 11
97.63482293
 21
648.3566618245
 31
0.0
  0
LINE
  5
106
330
1F
100
AcDbEntity
  8
0
  6
Continuous
 62
     7
370
    15
100
AcDbLine
 10
97.6072855841
 20
652.2566607873
 30
0.0
 11
97.63482293
 21
652.2566607873
 31
0.0
  0
LWPOLYLINE
  5
107
330
1F
100
AcDbEntity
  8
0
  6
Continuous
 62
     7
370
    15
100
AcDbPolyline
 90
        9
 70
   128
 43
0.0
 10
917.1442993533
 20
864.5823604147
 10
917.3339315306
 20
864.1756928246
 10
917.5162770402
 20
863.7846565525
 10
917.6843323361
 20
863.4242719691
 10
917.8316303145
 20
863.1083971541
 10
917.9525085341
 20
862.8491616528
 10
918.0423327338
 20
862.656534342
 10
918.0976458441
 20
862.5379061978
 10
918.1163319003
 20
862.4978518765
  0
LINE
  5
108
330
1F
100
AcDbEntity
  8
0
  6
Continuous
 62
     7
370
    15
100
AcDbLine
 10
918.1163319003
 20
862.4978518765
 30
0.0
 11
882.7230416786
 21
845.9936908166
 31
0.0
  0
SPLINE
  5
109
330
1F
100
AcDbEntity
  8
0
  6
Continuous
 62
     7
370
    15
100
AcDbSpline
210
0.0
220
0.0
230
1.0
 70
     8
 71
     3
 72
    11
 73
     7
 74
     0
 42
0.00000001
 43
0.00000001
 12
1.0
 22
0.0
 32
0.0
 13
1.0
 23
0.0
 33
0.0
 40
0.0
 40
0.0
 40
0.0
 40
0.0
 40
0.28897502097696
 40
0.5779520777186087
 40
0.867441502031776
 40
1.0
 40
1.0
 40
1.0
 40
1.0
 10
882.7230416785945
 20
845.9936908166295
 30
0.0
 10
882.4195121735147
 20
845.9034173319958
 30
0.0
 10
881.8124510250574
 20
845.7228697267717
 30
0.0
 10
880.6639419501553
 20
845.9622561367289
 30
0.0
 10
879.6293818726974
 20
846.3540355397381
 30
0.0
 10
879.0024334241945
 20
846.62088053117
 30
0.0
 10
878.8055189501514
 20
846.7046922724134
 30
0.0
  0
LINE
  5
10A
330
1F
100
AcDbEntity
  8
0
  6
Continuous
 62
     7
370
    15
100
AcDbLine
 10
878.8055189502
 20
846.7046922724
 30
0.0
 11
917.1442993533
 21
864.5823604147
 31
0.0
  0
SPLINE
  5
10B
330
1F
100
AcDbEntity
  8
0
  6
Continuous
 62
     7
370
    15
100
AcDbSpline
210
0.0
220
0.0
230
1.0
 70
     8
 71
     3
 72
    11
 73
     7
 74
     0
 42
0.00000001
 43
0.00000001
 12
1.0
 22
0.0
 32
0.0
 13
1.0
 23
0.0
 33
0.0
 40
0.0
 40
0.0
 40
0.0
 40
0.0
 40
0.2888080119049951
 40
0.5776160298585998
 40
0.866937119581045
 40
1.0
 40
1.0
 40
1.0
 40
1.0
 10
878.8055189501514
 20
846.7046922724134
 30
0.0
 10
879.2532165340469
 20
846.5684857831523
 30
0.0
 10
880.1486117112148
 20
846.2960728017773
 30
0.0
 10
881.29578384152
 20
845.7960506559702
 30
0.0
 10
881.9706496440863
 20
845.2598144683604
 30
0.0
 10
882.1920169335973
 20
844.8607564358852
 30
0.0
 10
882.2617538820972
 20
844.7350418846494
 30
0.0
  0
LINE
  5
10C
330
1F
100
AcDbEntity
  8
0
  6
Continuous
 62
     7
370
    15
100
AcDbLine
 10
882.2617538821
 20
844.7350418846
 30
0.0
 11
938.6626937043
 21
723.7828412745
 31
0.0
  0
LWPOLYLINE
  5
10D
330
1F
100
AcDbEntity
  8
0
  6
Continuous
 62
     7
370
    15
100
AcDbPolyline
 90
        9
 70
   128
 43
0.0
 10
938.6626937043
 20
723.7828412745
 10
938.622639383
 20
723.7641640659
 10
938.5040112387
 20
723.7088504899
 10
938.311383928
 20
723.6190258245
 10
938.0521484267
 20
723.4981424827
 10
937.7362736117
 20
723.3508459012
 10
937.3758890282
 20
723.1827961932
 10
936.9848527562
 20
723.0004511494
 10
936.578185166
 20
722.8108194377
  0
LINE
  5
10E
330
1F
100
AcDbEntity
  8
0
  6
Continuous
 62
     7
370
    15
100
AcDbLine
 10
936.578185166
 20
722.8108194377
 30
0.0
 11
878.8055189502
 21
846.7046922724
 31
0.0
  0
LWPOLYLINE
  5
10F
330
1F
100
AcDbEntity
  8
0
  6
Continuous
 62
     7
370
    15
100
AcDbPolyline
 90
        9
 70
   128
 43
0.0
 10
936.578185166
 20
716.3024979364
 10
936.9848527562
 20
716.112865759
 10
937.3758890282
 20
715.9305211808
 10
937.7362736117
 20
715.7624714728
 10
938.0521484267
 20
715.6151744257
 10
938.311383928
 20
715.4942915495
 10
938.5040112387
 20
715.4044664185
 10
938.622639383
 20
715.3491533081
 10
938.6626937043
 20
715.3304756339
  0
ARC
  5
110
330
1F
100
AcDbEntity
  8
0
  6
Continuous
 62
     7
370
    15
100
AcDbCircle
 10
929.5996118508
 20
719.5566586456
 30
0.0
 40
7.69999999999975
100
AcDbArc
 50
335.0
 51
25.0
  0
ARC
  5
111
330
1F
100
AcDbEntity
  8
0
  6
Continuous
 62
     7
370
    15
100
AcDbCircle
 10
929.5996118508
 20
719.5566586456
 30
0.0
 40
9.999999999999673
100
AcDbArc
 50
335.0
 51
25.0
  0
LWPOLYLINE
  5
112
330
1F
100
AcDbEntity
  8
0
  6
Continuous
 62
     7
370
    15
100
AcDbPolyline
 90
        9
 70
   128
 43
0.0
 10
935.322255696
 20
899.3024981301
 10
935.7289232861
 20
899.1128659527
 10
936.1199595582
 20
898.9305204432
 10
936.4803441416
 20
898.7624651472
 10
936.7962338578
 20
898.61518207
 10
937.0554693591
 20
898.4942889492
 10
937.2480966698
 20
898.4044647496
 10
937.3667099129
 20
898.3491516392
 10
937.4067642342
 20
898.3304804842
  0
LINE
  5
113
330
1F
100
AcDbEntity
  8
0
  6
Continuous
 62
     7
370
    15
100
AcDbLine
 10
922.9532190215
 20
867.3347538988
 30
0.0
 11
937.4067642342
 21
898.3304804842
 31
0.0
  0
LWPOLYLINE
  5
114
330
1F
100
AcDbEntity
  8
0
  6
Continuous
 62
     7
370
    15
100
AcDbPolyline
 90
        9
 70
   128
 43
0.0
 10
922.9532190215
 20
867.3347538988
 10
922.9131647002
 20
867.3534250538
 10
922.7945514571
 20
867.4087381642
 10
922.6019241463
 20
867.4985623639
 10
922.3426886451
 20
867.6194554846
 10
922.0267989289
 20
867.7667385619
 10
921.6664292466
 20
867.9347938578
 10
921.2753780734
 20
868.1171393673
 10
920.8687104832
 20
868.3067715447
  0
LINE
  5
115
330
1F
100
AcDbEntity
  8
0
  6
Continuous
 62
     7
370
    15
100
AcDbLine
 10
920.8687104832
 20
868.3067715447
 30
0.0
 11
935.322255696
 21
899.3024981301
 31
0.0
  0
CIRCLE
  5
116
330
1F
100
AcDbEntity
  8
0
  6
Continuous
 62
     7
370
    15
100
AcDbCircle
 10
117.9436900331
 20
892.5566586456
 30
0.0
 40
6.347663105371566
  0
CIRCLE
  5
117
330
1F
100
AcDbEntity
  8
0
  6
Continuous
 62
     7
370
    15
100
AcDbCircle
 10
887.9436900331
 20
892.5566586456
 30
0.0
 40
6.347663105371566
  0
LINE
  5
118
330
1F
100
AcDbEntity
  8
0
  6
Continuous
 62
     7
370
    15
100
AcDbLine
 10
42.6964469802
 20
667.6566569786
 30
0.0
 11
908.9888193261
 21
667.6566569786
 31
0.0
  0
LINE
  5
119
330
1F
100
AcDbEntity
  8
0
  6
Continuous
 62
     7
370
    15
100
AcDbLine
 10
42.6964469802
 20
910.2566546481
 30
0.0
 11
42.6964469802
 21
667.6566569786
 31
0.0
  0
LINE
  5
11A
330
1F
100
AcDbEntity
  8
0
  6
Continuous
 62
     7
370
    15
100
AcDbLine
 10
928.343684281
 20
910.2566546481
 30
0.0
 11
42.6964469802
 21
910.2566546481
 31
0.0
  0
ARC
  5
11B
330
1F
100
AcDbEntity
  8
0
  6
Continuous
 62
     7
370
    15
100
AcDbCircle
 10
928.3436900331
 20
902.5566586456
 30
0.0
 40
7.699999999999704
100
AcDbArc
 50
335.0
 51
90.0
  0
ARC
  5
11C
330
1F
100
AcDbEntity
  8
0
  6
Continuous
 62
     7
370
    15
100
AcDbCircle
 10
913.8901454816
 20
871.5609323289
 30
0.0
 40
7.700000000000203
100
AcDbArc
 50
295.0
 51
335.0
  0
LINE
  5
11D
330
1F
100
AcDbEntity
  8
0
  6
Continuous
 62
     7
370
    15
100
AcDbLine
 10
915.967390741
 20
672.1024966519
 30
0.0
 11
936.578185166
 21
716.3024979364
 31
0.0
  0
ARC
  5
11E
330
1F
100
AcDbEntity
  8
0
  6
Continuous
 62
     7
370
    15
100
AcDbCircle
 10
908.9888133603
 20
675.3566586456
 30
0.0
 40
7.699999999999853
100
AcDbArc
 50
270.0
 51
335.0
  0
CIRCLE
  5
11F
330
1F
100
AcDbEntity
  8
0
  6
Continuous
 62
     7
370
    15
100
AcDbCircle
 10
507.9436900331
 20
892.5566586456
 30
0.0
 40
6.347663105371566
  0
ARC
  5
120
330
1F
100
AcDbEntity
  8
0
  6
Continuous
 62
     7
370
    15
100
AcDbCircle
 10
913.8901454816
 20
871.5609323289
 30
0.0
 40
10.00000000000028
100
AcDbArc
 50
295.0
 51
335.0
  0
SPLINE
  5
121
330
1F
100
AcDbEntity
  8
0
  6
Continuous
 62
     7
370
    15
100
AcDbSpline
210
0.0
220
0.0
230
1.0
 70
     8
 71
     3
 72
    12
 73
     8
 74
     0
 42
0.00000001
 43
0.00000001
 12
1.0
 22
0.0
 32
0.0
 13
1.0
 23
0.0
 33
0.0
 40
0.0
 40
0.0
 40
0.0
 40
0.0
 40
0.2096839207968237
 40
0.4420505192546743
 40
0.6744347517683768
 40
0.906820887018619
 40
0.9999999999999999
 40
0.9999999999999999
 40
0.9999999999999999
 40
0.9999999999999999
 10
42.69644698016533
 20
667.6566569785958
 30
0.0
 10
42.44411618778049
 20
667.552372906186
 30
0.0
 10
41.91215857570457
 20
667.3325237723867
 30
0.0
 10
41.19077312384606
 20
666.9965609296831
 30
0.0
 10
40.64743326159298
 20
666.6496429773406
 30
0.0
 10
40.41885917347393
 20
666.3712738306109
 30
0.0
 10
40.40146180427023
 20
666.2099113626361
 30
0.0
 10
40.39648255221734
 20
666.1637282650357
 30
0.0
  0
LINE
  5
122
330
1F
100
AcDbEntity
  8
0
  6
Continuous
 62
     7
370
    15
100
AcDbLine
 10
40.3964825522
 20
911.7495870869
 30
0.0
 11
40.3964825522
 21
666.163728265
 31
0.0
  0
SPLINE
  5
123
330
1F
100
AcDbEntity
  8
0
  6
Continuous
 62
     7
370
    15
100
AcDbSpline
210
0.0
220
0.0
230
1.0
 70
     8
 71
     3
 72
    12
 73
     8
 74
     0
 42
0.00000001
 43
0.00000001
 12
1.0
 22
0.0
 32
0.0
 13
1.0
 23
0.0
 33
0.0
 40
0.0
 40
0.0
 40
0.0
 40
0.0
 40
0.2096859238379875
 40
0.4420473979566078
 40
0.6744364558661826
 40
0.9068270129147971
 40
1.0
 40
1.0
 40
1.0
 40
1.0
 10
40.39648255221734
 20
911.7495870869046
 30
0.0
 10
40.4208253835891
 20
911.6453009592142
 30
0.0
 10
40.47214349340717
 20
911.4254511450504
 30
0.0
 10
40.8930794405093
 20
911.0894753497614
 30
0.0
 10
41.54485872630492
 20
910.7425848923813
 30
0.0
 10
42.19429245620693
 20
910.4642178982649
 30
0.0
 10
42.58471267114911
 20
910.3028395079589
 30
0.0
 10
42.69644698016533
 20
910.2566546480542
 30
0.0
  0
LINE
  5
124
330
1F
100
AcDbEntity
  8
0
  6
Continuous
 62
     7
370
    15
100
AcDbLine
 10
40.3964825522
 20
911.7495870869
 30
0.0
 11
41.1964960944
 21
911.7495870869
 31
0.0
  0
SPLINE
  5
125
330
1F
100
AcDbEntity
  8
0
  6
Continuous
 62
     7
370
    15
100
AcDbSpline
210
0.0
220
0.0
230
1.0
 70
     8
 71
     3
 72
    11
 73
     7
 74
     0
 42
0.00000001
 43
0.00000001
 12
1.0
 22
0.0
 32
0.0
 13
1.0
 23
0.0
 33
0.0
 40
0.0
 40
0.0
 40
0.0
 40
0.0
 40
0.2543237965342766
 40
0.508862536227007
 40
0.7634147179705693
 40
1.0
 40
1.0
 40
1.0
 40
1.0
 10
41.19649609439263
 20
911.7495870869046
 30
0.0
 10
41.21984912546489
 20
911.6230059753302
 30
0.0
 10
41.26657492455205
 20
911.369736771457
 30
0.0
 10
41.62542818496245
 20
910.9897856550207
 30
0.0
 10
42.12465442313857
 20
910.6185723611892
 30
0.0
 10
42.51055516333441
 20
910.3743153982883
 30
0.0
 10
42.69644698016533
 20
910.2566546480542
 30
0.0
  0
LINE
  5
126
330
1F
100
AcDbEntity
  8
0
  6
Continuous
 62
     7
370
    15
100
AcDbLine
 10
908.9888193261
 20
667.6566569786
 30
0.0
 11
908.9888193261
 21
665.356659023
 31
0.0
  0
LWPOLYLINE
  5
127
330
1F
100
AcDbEntity
  8
0
  6
Continuous
 62
     7
370
    15
100
AcDbPolyline
 90
        9
 70
   128
 43
0.0
 10
918.0518843781
 20
671.1304752808
 10
918.011844958
 20
671.1491538863
 10
917.8932168137
 20
671.2044669967
 10
917.700589503
 20
671.2942911963
 10
917.4413540017
 20
671.4151731412
 10
917.1254791867
 20
671.5624711196
 10
916.7650946032
 20
671.7305226903
 10
916.37404343
 20
671.9128644745
 10
915.967390741
 20
672.1024966519
  0
ARC
  5
128
330
1F
100
AcDbEntity
  8
0
  6
Continuous
 62
     7
370
    15
100
AcDbCircle
 10
908.9888133603
 20
675.3566586456
 30
0.0
 40
9.999999999999881
100
AcDbArc
 50
270.0
 51
335.0
  0
CIRCLE
  5
129
330
1F
100
AcDbEntity
  8
0
  6
Continuous
 62
     7
370
    15
100
AcDbCircle
 10
887.9436900331
 20
892.5566586456
 30
0.0
 40
4.700000000000045
  0
SPLINE
  5
12A
330
1F
100
AcDbEntity
  8
0
  6
Continuous
 62
     7
370
    15
100
AcDbSpline
210
0.0
220
0.0
230
1.0
 70
     8
 71
     3
 72
    12
 73
     8
 74
     0
 42
0.00000001
 43
0.00000001
 12
1.0
 22
0.0
 32
0.0
 13
1.0
 23
0.0
 33
0.0
 40
0.0
 40
0.0
 40
0.0
 40
0.0
 40
0.2096820461937561
 40
0.4420455443697918
 40
0.6744334000704907
 40
0.9068212860366391
 40
1.0
 40
1.0
 40
1.0
 40
1.0
 10
42.69644698016533
 20
910.2566546480542
 30
0.0
 10
42.59216448393383
 20
910.5089853429198
 30
0.0
 10
42.3723191817173
 20
911.0409415184618
 30
0.0
 10
42.03637753749073
 20
911.7623338527504
 30
0.0
 10
41.68945641070815
 20
912.3056895308906
 30
0.0
 10
41.41108244894514
 20
912.5343154158311
 30
0.0
 10
41.24971389297733
 20
912.5516908479318
 30
0.0
 10
41.20352944247612
 20
912.5566637794858
 30
0.0
  0
SPLINE
  5
12B
330
1F
100
AcDbEntity
  8
0
  6
Continuous
 62
     7
370
    15
100
AcDbSpline
210
0.0
220
0.0
230
1.0
 70
     8
 71
     3
 72
    11
 73
     7
 74
     0
 42
0.00000001
 43
0.00000001
 12
1.0
 22
0.0
 32
0.0
 13
1.0
 23
0.0
 33
0.0
 40
0.0
 40
0.0
 40
0.0
 40
0.0
 40
0.2543220693271407
 40
0.5088621498616231
 40
0.7634154890057571
 40
1.0
 40
1.0
 40
1.0
 40
1.0
 10
42.69644698016533
 20
910.2566546480542
 30
0.0
 10
42.56986165572824
 20
910.4566277392603
 30
0.0
 10
42.31658249476339
 20
910.8567453435828
 30
0.0
 10
41.93669167692443
 20
911.358400000787
 30
0.0
 10
41.56544167853166
 20
911.6944483883966
 30
0.0
 10
41.32118809083302
 20
911.736438304478
 30
0.0
 10
41.20352944247612
 20
911.7566651384717
 30
0.0
  0
LINE
  5
12C
330
1F
100
AcDbEntity
  8
0
  6
Continuous
 62
     7
370
    15
100
AcDbLine
 10
41.2035294425
 20
912.5566637795
 30
0.0
 11
41.2035294425
 21
911.7566651385
 31
0.0
  0
LINE
  5
12D
330
1F
100
AcDbEntity
  8
0
  6
Continuous
 62
     7
370
    15
100
AcDbLine
 10
848.3853720676
 20
665.356659023
 30
0.0
 11
41.2035294425
 21
665.356659023
 31
0.0
  0
SPLINE
  5
12E
330
1F
100
AcDbEntity
  8
0
  6
Continuous
 62
     7
370
    15
100
AcDbSpline
210
0.0
220
0.0
230
1.0
 70
     8
 71
     3
 72
    12
 73
     8
 74
     0
 42
0.00000001
 43
0.00000001
 12
1.0
 22
0.0
 32
0.0
 13
1.0
 23
0.0
 33
0.0
 40
0.0
 40
0.0
 40
0.0
 40
0.0
 40
0.2096825526471274
 40
0.4420466451859582
 40
0.6744360627364385
 40
0.906819792451277
 40
0.9999999999999999
 40
0.9999999999999999
 40
0.9999999999999999
 40
0.9999999999999999
 10
41.20352944247612
 20
665.3566590230351
 30
0.0
 10
41.30780649513138
 20
665.3809997583877
 30
0.0
 10
41.52764033783446
 20
665.4323141871188
 30
0.0
 10
41.86367572418531
 20
665.8532469572251
 30
0.0
 10
42.21059087633955
 20
666.505016681035
 30
0.0
 10
42.48889255912464
 20
667.154483098763
 30
0.0
 10
42.65026134564403
 20
667.5449117352819
 30
0.0
 10
42.69644698016533
 20
667.6566569785958
 30
0.0
  0
CIRCLE
  5
12F
330
1F
100
AcDbEntity
  8
0
  6
Continuous
 62
     7
370
    15
100
AcDbCircle
 10
117.9436900331
 20
892.5566586456
 30
0.0
 40
4.700000000000045
  0
LINE
  5
130
330
1F
100
AcDbEntity
  8
0
  6
Continuous
 62
     7
370
    15
100
AcDbLine
 10
928.343684281
 20
912.5566637795
 30
0.0
 11
928.343684281
 21
910.2566546481
 31
0.0
  0
ARC
  5
131
330
1F
100
AcDbEntity
  8
0
  6
Continuous
 62
     7
370
    15
100
AcDbCircle
 10
928.3436900331
 20
902.5566586456
 30
0.0
 40
9.999999999999673
100
AcDbArc
 50
335.0
 51
90.0
  0
SPLINE
  5
132
330
1F
100
AcDbEntity
  8
0
  6
Continuous
 62
     7
370
    15
100
AcDbSpline
210
0.0
220
0.0
230
1.0
 70
     8
 71
     3
 72
    11
 73
     7
 74
     0
 42
0.00000001
 43
0.00000001
 12
1.0
 22
0.0
 32
0.0
 13
1.0
 23
0.0
 33
0.0
 40
0.0
 40
0.0
 40
0.0
 40
0.0
 40
0.2543146905753911
 40
0.5088679360457793
 40
0.7634149878673632
 40
1.0
 40
1.0
 40
1.0
 40
1.0
 10
42.69644698016533
 20
667.6566569785958
 30
0.0
 10
42.49648479791285
 20
667.5300744816159
 30
0.0
 10
42.09637286281448
 20
667.2767907494333
 30
0.0
 10
41.59472314339469
 20
666.8968690764234
 30
0.0
 10
41.25869822198707
 20
666.5256363108102
 30
0.0
 10
41.21671836427626
 20
666.2813866548331
 30
0.0
 10
41.19649609439263
 20
666.1637282650357
 30
0.0
  0
LINE
  5
133
330
1F
100
AcDbEntity
  8
0
  6
Continuous
 62
     7
370
    15
100
AcDbLine
 10
40.3964825522
 20
666.163728265
 30
0.0
 11
41.1964960944
 21
666.163728265
 31
0.0
  0
LINE
  5
134
330
1F
100
AcDbEntity
  8
0
  6
Continuous
 62
     7
370
    15
100
AcDbLine
 10
918.0518843781
 20
671.1304752808
 30
0.0
 11
938.6626937043
 21
715.3304756339
 31
0.0
  0
LINE
  5
135
330
1F
100
AcDbEntity
  8
0
  6
Continuous
 62
     7
370
    15
100
AcDbLine
 10
41.2035294425
 20
912.5566637795
 30
0.0
 11
44.6464725386
 21
912.5566637795
 31
0.0
  0
LINE
  5
136
330
1F
100
AcDbEntity
  8
0
  6
Continuous
 62
     7
370
    15
100
AcDbLine
 10
55.3964682471
 20
912.5566637795
 30
0.0
 11
117.6464863669
 21
912.5566637795
 31
0.0
  0
CIRCLE
  5
137
330
1F
100
AcDbEntity
  8
0
  6
Continuous
 62
     7
370
    15
100
AcDbCircle
 10
507.9436900331
 20
892.5566586456
 30
0.0
 40
4.700000000000045
  0
LINE
  5
138
330
1F
100
AcDbEntity
  8
0
  6
Continuous
 62
     7
370
    15
100
AcDbLine
 10
41.2035294425
 20
665.356659023
 30
0.0
 11
41.2035294425
 21
666.156657664
 31
0.0
  0
SPLINE
  5
139
330
1F
100
AcDbEntity
  8
0
  6
Continuous
 62
     7
370
    15
100
AcDbSpline
210
0.0
220
0.0
230
1.0
 70
     8
 71
     3
 72
    11
 73
     7
 74
     0
 42
0.00000001
 43
0.00000001
 12
1.0
 22
0.0
 32
0.0
 13
1.0
 23
0.0
 33
0.0
 40
0.0
 40
0.0
 40
0.0
 40
0.0
 40
0.2543227570917955
 40
0.5088715235192445
 40
0.7634116545209505
 40
1.0
 40
1.0
 40
1.0
 40
1.0
 10
41.20352944247612
 20
666.1566576640492
 30
0.0
 10
41.330108244863
 20
666.1800125215791
 30
0.0
 10
41.58337833658571
 20
666.2267429914301
 30
0.0
 10
41.96336415738061
 20
666.5856198804383
 30
0.0
 10
42.33452857847792
 20
667.0848617729242
 30
0.0
 10
42.57878352472527
 20
667.4707603803856
 30
0.0
 10
42.69644698016533
 20
667.6566569785958
 30
0.0
  0
CIRCLE
  5
13A
330
1F
100
AcDbEntity
  8
0
  6
Continuous
 62
     7
370
    15
100
AcDbCircle
 10
117.9436900331
 20
892.5566586456
 30
0.0
 40
2.700000000000045
  0
CIRCLE
  5
13B
330
1F
100
AcDbEntity
  8
0
  6
Continuous
 62
     7
370
    15
100
AcDbCircle
 10
887.9436900331
 20
892.5566586456
 30
0.0
 40
2.700000000000045
  0
CIRCLE
  5
13C
330
1F
100
AcDbEntity
  8
0
  6
Continuous
 62
     7
370
    15
100
AcDbCircle
 10
507.9436900331
 20
892.5566586456
 30
0.0
 40
2.700000000000045
  0
LINE
  5
13D
330
1F
100
AcDbEntity
  8
0
  6
Continuous
 62
     7
370
    15
100
AcDbLine
 10
896.7543326866
 20
851.5702864807
 30
0.0
 11
896.4162402403
 21
852.2953322809
 31
0.0
  0
LWPOLYLINE
  5
13E
330
1F
100
AcDbEntity
  8
0
  6
Continuous
 62
     7
370
    15
100
AcDbPolyline
 90
        9
 70
   128
 43
0.0
 10
896.4162402403
 20
852.2953322809
 10
896.7698596966
 20
852.4602285306
 10
897.1098967444
 20
852.6187917869
 10
897.4232756149
 20
852.7649200241
 10
897.6979487192
 20
852.8930029552
 10
897.9233734857
 20
852.9981231968
 10
898.0908774387
 20
853.0762276332
 10
898.1940232765
 20
853.1243285816
 10
898.2288547408
 20
853.1405708473
  0
LINE
  5
13F
330
1F
100
AcDbEntity
  8
0
  6
Continuous
 62
     7
370
    15
100
AcDbLine
 10
898.2288547408
 20
853.1405708473
 30
0.0
 11
898.5669471871
 21
852.4155250471
 31
0.0
  0
LWPOLYLINE
  5
140
330
1F
100
AcDbEntity
  8
0
  6
Continuous
 62
     7
370
    15
100
AcDbPolyline
 90
        9
 70
   128
 43
0.0
 10
898.5669471871
 20
852.4155250471
 10
898.5321157228
 20
852.3992827814
 10
898.428969885
 20
852.351181833
 10
898.2614659321
 20
852.2730773966
 10
898.0360411655
 20
852.167957155
 10
897.7613680612
 20
852.0398742239
 10
897.4479891907
 20
851.8937459867
 10
897.1079521429
 20
851.7351827304
 10
896.7543326866
 20
851.5702864807
  0
LINE
  5
141
330
1F
100
AcDbEntity
  8
0
  6
Continuous
 62
     7
370
    15
100
AcDbLine
 10
850.3853761207
 20
665.356659023
 30
0.0
 11
850.3853761207
 21
664.556660382
 31
0.0
  0
LINE
  5
142
330
1F
100
AcDbEntity
  8
0
  6
Continuous
 62
     7
370
    15
100
AcDbLine
 10
850.3853761207
 20
664.556660382
 30
0.0
 11
848.3853720676
 21
664.556660382
 31
0.0
  0
LINE
  5
143
330
1F
100
AcDbEntity
  8
0
  6
Continuous
 62
     7
370
    15
100
AcDbLine
 10
848.3853720676
 20
664.556660382
 30
0.0
 11
848.3853720676
 21
665.356659023
 31
0.0
  0
LINE
  5
144
330
1F
100
AcDbEntity
  8
0
  6
Continuous
 62
     7
370
    15
100
AcDbLine
 10
848.3853720676
 20
665.356659023
 30
0.0
 11
850.3853761207
 21
665.356659023
 31
0.0
  0
ARC
  5
145
330
1F
100
AcDbEntity
  8
0
  6
Continuous
 62
     7
370
    15
100
AcDbCircle
 10
909.0146728388
 20
675.3566586455
 30
0.0
 40
10.80000000000007
100
AcDbArc
 50
270.0
 51
335.0
  0
LINE
  5
146
330
1F
100
AcDbEntity
  8
0
  6
Continuous
 62
     7
370
    15
100
AcDbLine
 10
909.0146728408
 20
664.556660382
 30
0.0
 11
909.0146728408
 21
665.356659023
 31
0.0
  0
ARC
  5
147
330
1F
100
AcDbEntity
  8
0
  6
Continuous
 62
     7
370
    15
100
AcDbCircle
 10
909.0146728388
 20
675.3566586455
 30
0.0
 40
10.0
100
AcDbArc
 50
270.0
 51
335.0
  0
LINE
  5
148
330
1F
100
AcDbEntity
  8
0
  6
Continuous
 62
     7
370
    15
100
AcDbLine
 10
918.077752794
 20
671.1304752808
 30
0.0
 11
918.8027985942
 21
670.7923828344
 31
0.0
  0
LINE
  5
149
330
1F
100
AcDbEntity
  8
0
  6
Continuous
 62
     7
370
    15
100
AcDbLine
 10
883.7732457172
 20
846.3998070638
 30
0.0
 11
884.1113381635
 21
845.6747612636
 31
0.0
  0
LINE
  5
14A
330
1F
100
AcDbEntity
  8
0
  6
Continuous
 62
     7
370
    15
100
AcDbLine
 10
883.7732457172
 20
846.3998070638
 30
0.0
 11
896.4162402403
 21
852.2953322809
 31
0.0
  0
LINE
  5
14B
330
1F
100
AcDbEntity
  8
0
  6
Continuous
 62
     7
370
    15
100
AcDbLine
 10
884.1113381635
 20
845.6747612636
 30
0.0
 11
896.7543326866
 21
851.5702864807
 31
0.0
  0
LINE
  5
14C
330
1F
100
AcDbEntity
  8
0
  6
Continuous
 62
     7
370
    15
100
AcDbLine
 10
939.4135930192
 20
714.9923813249
 30
0.0
 11
938.688547219
 21
715.3304756339
 31
0.0
  0
LINE
  5
14D
330
1F
100
AcDbEntity
  8
0
  6
Continuous
 62
     7
370
    15
100
AcDbLine
 10
918.8027985942
 20
670.7923828344
 30
0.0
 11
939.4135930192
 21
714.9923813249
 31
0.0
  0
LINE
  5
14E
330
1F
100
AcDbEntity
  8
0
  6
Continuous
 62
     7
370
    15
100
AcDbLine
 10
918.077752794
 20
671.1304752808
 30
0.0
 11
938.688547219
 21
715.3304756339
 31
0.0
  0
LINE
  5
14F
330
1F
100
AcDbEntity
  8
0
  6
Continuous
 62
     7
370
    15
100
AcDbLine
 10
883.5067235481
 20
844.0136021654
 30
0.0
 11
882.7816777479
 21
843.6755097191
 31
0.0
  0
ARC
  5
150
330
1F
100
AcDbEntity
  8
0
  6
Continuous
 62
     7
370
    15
100
AcDbCircle
 10
884.6396105369
 20
844.5418775168
 30
0.0
 40
2.050000000000009
100
AcDbArc
 50
115.0
 51
205.0
  0
ARC
  5
151
330
1F
100
AcDbEntity
  8
0
  6
Continuous
 62
     7
370
    15
100
AcDbCircle
 10
884.6396105369
 20
844.5418775168
 30
0.0
 40
1.250000000000128
100
AcDbArc
 50
115.0
 51
205.0
  0
LINE
  5
152
330
1F
100
AcDbEntity
  8
0
  6
Continuous
 62
     7
370
    15
100
AcDbLine
 10
938.688547219
 20
723.7828412745
 30
0.0
 11
939.4135930192
 21
724.1209360491
 31
0.0
  0
LINE
  5
153
330
1F
100
AcDbEntity
  8
0
  6
Continuous
 62
     7
370
    15
100
AcDbLine
 10
938.688547219
 20
723.7828412745
 30
0.0
 11
882.7816777479
 21
843.6755097191
 31
0.0
  0
LINE
  5
154
330
1F
100
AcDbEntity
  8
0
  6
Continuous
 62
     7
370
    15
100
AcDbLine
 10
939.4135930192
 20
724.1209360491
 30
0.0
 11
883.5067235481
 21
844.0136021654
 31
0.0
  0
ARC
  5
155
330
1F
100
AcDbEntity
  8
0
  6
Continuous
 62
     7
370
    15
100
AcDbCircle
 10
929.6254713292
 20
719.5566586455
 30
0.0
 40
10.7999999999999
100
AcDbArc
 50
335.0
 51
25.0
  0
ARC
  5
156
330
1F
100
AcDbEntity
  8
0
  6
Continuous
 62
     7
370
    15
100
AcDbCircle
 10
929.6254713292
 20
719.5566586455
 30
0.0
 40
10.00000000000002
100
AcDbArc
 50
335.0
 51
25.0
  0
LINE
  5
157
330
1F
100
AcDbEntity
  8
0
  6
Continuous
 62
     7
370
    15
100
AcDbLine
 10
850.3853761207
 20
664.556660382
 30
0.0
 11
909.0146728408
 21
664.556660382
 31
0.0
  0
LINE
  5
158
330
1F
100
AcDbEntity
  8
0
  6
Continuous
 62
     7
370
    15
100
AcDbLine
 10
850.3853761207
 20
665.356659023
 30
0.0
 11
909.0146728408
 21
665.356659023
 31
0.0
  0
LWPOLYLINE
  5
159
330
1F
100
AcDbEntity
  8
0
  6
Continuous
 62
     7
370
    15
100
AcDbPolyline
 90
        3
 70
   128
 43
0.0
 10
896.3518970262
 20
852.2653287928
 10
896.5783350717
 20
852.3960641305
 10
896.7464872252
 20
852.5329312961
  0
CIRCLE
  5
15A
330
1F
100
AcDbEntity
  8
0
  6
Continuous
 62
     7
370
    15
100
AcDbCircle
 10
507.999611852
 20
892.5566586455
 30
0.0
 40
2.525000000000091
  0
CIRCLE
  5
15B
330
1F
100
AcDbEntity
  8
0
  6
Continuous
 62
     7
370
    15
100
AcDbCircle
 10
507.999611852
 20
892.5566586455
 30
0.0
 40
2.099999999999966
  0
CIRCLE
  5
15C
330
1F
100
AcDbEntity
  8
0
  6
Continuous
 62
     7
370
    15
100
AcDbCircle
 10
117.999611852
 20
892.5566586455
 30
0.0
 40
2.524999999999991
  0
CIRCLE
  5
15D
330
1F
100
AcDbEntity
  8
0
  6
Continuous
 62
     7
370
    15
100
AcDbCircle
 10
117.999611852
 20
892.5566586455
 30
0.0
 40
2.099999999999994
  0
LINE
  5
15E
330
1F
100
AcDbEntity
  8
0
  6
Continuous
 62
     7
370
    15
100
AcDbLine
 10
149.1964765441
 20
912.5566637795
 30
0.0
 11
870.5964692485
 21
912.5566637795
 31
0.0
  0
LINE
  5
15F
330
1F
100
AcDbEntity
  8
0
  6
Continuous
 62
     7
370
    15
100
AcDbLine
 10
149.1964765441
 20
912.5566637795
 30
0.0
 11
149.1964765441
 21
914.5566529314
 31
0.0
  0
LINE
  5
160
330
1F
100
AcDbEntity
  8
0
  6
Continuous
 62
     7
370
    15
100
AcDbLine
 10
149.1964765441
 20
914.5566529314
 30
0.0
 11
870.5964692485
 21
914.5566529314
 31
0.0
  0
LINE
  5
161
330
1F
100
AcDbEntity
  8
0
  6
Continuous
 62
     7
370
    15
100
AcDbLine
 10
870.5964692485
 20
912.5566637795
 30
0.0
 11
870.5964692485
 21
914.5566529314
 31
0.0
  0
LINE
  5
162
330
1F
100
AcDbEntity
  8
0
  6
Continuous
 62
     7
370
    15
100
AcDbLine
 10
505.899608935
 20
892.5566530506
 30
0.0
 11
510.0996204268
 21
892.5566530506
 31
0.0
  0
LINE
  5
163
330
1F
100
AcDbEntity
  8
0
  6
Continuous
 62
     7
370
    15
100
AcDbLine
 10
44.6464725386
 20
930.556655554
 30
0.0
 11
44.6464725386
 21
932.5566596072
 31
0.0
  0
LINE
  5
164
330
1F
100
AcDbEntity
  8
0
  6
Continuous
 62
     7
370
    15
100
AcDbLine
 10
111.1464806449
 20
932.5566596072
 30
0.0
 11
44.6464725386
 21
932.5566596072
 31
0.0
  0
LINE
  5
165
330
1F
100
AcDbEntity
  8
0
  6
Continuous
 62
     7
370
    15
100
AcDbLine
 10
111.1464806449
 20
930.556655554
 30
0.0
 11
111.1464806449
 21
932.5566596072
 31
0.0
  0
LINE
  5
166
330
1F
100
AcDbEntity
  8
0
  6
Continuous
 62
     7
370
    15
100
AcDbLine
 10
111.1464806449
 20
930.556655554
 30
0.0
 11
44.6464725386
 21
930.556655554
 31
0.0
  0
LINE
  5
167
330
1F
100
AcDbEntity
  8
0
  6
Continuous
 62
     7
370
    15
100
AcDbLine
 10
44.6464725386
 20
914.5566529314
 30
0.0
 11
44.6464725386
 21
912.5566637795
 31
0.0
  0
LINE
  5
168
330
1F
100
AcDbEntity
  8
0
  6
Continuous
 62
     7
370
    15
100
AcDbLine
 10
42.396456803
 20
916.8066537659
 30
0.0
 11
40.3964825522
 21
916.8066537659
 31
0.0
  0
ARC
  5
169
330
1F
100
AcDbEntity
  8
0
  6
Continuous
 62
     7
370
    15
100
AcDbCircle
 10
44.6464676231
 20
916.8066586455
 30
0.0
 40
2.25
100
AcDbArc
 50
180.0
 51
270.0
  0
ARC
  5
16A
330
1F
100
AcDbEntity
  8
0
  6
Continuous
 62
     7
370
    15
100
AcDbCircle
 10
44.6464676231
 20
916.8066586455
 30
0.0
 40
4.25
100
AcDbArc
 50
180.0
 51
270.0
  0
LINE
  5
16B
330
1F
100
AcDbEntity
  8
0
  6
Continuous
 62
     7
370
    15
100
AcDbLine
 10
40.3964825522
 20
928.3066547196
 30
0.0
 11
40.3964825522
 21
916.8066537659
 31
0.0
  0
LINE
  5
16C
330
1F
100
AcDbEntity
  8
0
  6
Continuous
 62
     7
370
    15
100
AcDbLine
 10
42.396456803
 20
928.3066547196
 30
0.0
 11
40.3964825522
 21
928.3066547196
 31
0.0
  0
LINE
  5
16D
330
1F
100
AcDbEntity
  8
0
  6
Continuous
 62
     7
370
    15
100
AcDbLine
 10
42.396456803
 20
928.3066547196
 30
0.0
 11
42.396456803
 21
916.8066537659
 31
0.0
  0
LINE
  5
16E
330
1F
100
AcDbEntity
  8
0
  6
Continuous
 62
     7
370
    15
100
AcDbLine
 10
53.3964939963
 20
912.5566637795
 30
0.0
 11
53.3964939963
 21
914.5566529314
 31
0.0
  0
LINE
  5
16F
330
1F
100
AcDbEntity
  8
0
  6
Continuous
 62
     7
370
    15
100
AcDbLine
 10
44.6464725386
 20
914.5566529314
 30
0.0
 11
53.3964939963
 21
914.5566529314
 31
0.0
  0
LINE
  5
170
330
1F
100
AcDbEntity
  8
0
  6
Continuous
 62
     7
370
    15
100
AcDbLine
 10
44.6464725386
 20
912.5566637795
 30
0.0
 11
53.3964939963
 21
912.5566637795
 31
0.0
  0
ARC
  5
171
330
1F
100
AcDbEntity
  8
0
  6
Continuous
 62
     7
370
    15
100
AcDbCircle
 10
117.6464676231
 20
916.8066586455
 30
0.0
 40
4.249999999999972
100
AcDbArc
 50
180.0
 51
270.0
  0
LINE
  5
172
330
1F
100
AcDbEntity
  8
0
  6
Continuous
 62
     7
370
    15
100
AcDbLine
 10
115.3964706313
 20
916.8066537659
 30
0.0
 11
113.3964963805
 21
916.8066537659
 31
0.0
  0
ARC
  5
173
330
1F
100
AcDbEntity
  8
0
  6
Continuous
 62
     7
370
    15
100
AcDbCircle
 10
117.6464676231
 20
916.8066586455
 30
0.0
 40
2.249999999999972
100
AcDbArc
 50
180.0
 51
270.0
  0
LINE
  5
174
330
1F
100
AcDbEntity
  8
0
  6
Continuous
 62
     7
370
    15
100
AcDbLine
 10
117.6464863669
 20
914.5566529314
 30
0.0
 11
117.6464863669
 21
912.5566637795
 31
0.0
  0
LINE
  5
175
330
1F
100
AcDbEntity
  8
0
  6
Continuous
 62
     7
370
    15
100
AcDbLine
 10
55.3964682471
 20
912.5566637795
 30
0.0
 11
55.3964682471
 21
914.5566529314
 31
0.0
  0
LINE
  5
176
330
1F
100
AcDbEntity
  8
0
  6
Continuous
 62
     7
370
    15
100
AcDbLine
 10
53.3964939963
 20
914.5566529314
 30
0.0
 11
55.3964682471
 21
914.5566529314
 31
0.0
  0
LINE
  5
177
330
1F
100
AcDbEntity
  8
0
  6
Continuous
 62
     7
370
    15
100
AcDbLine
 10
53.3964939963
 20
912.5566637795
 30
0.0
 11
55.3964682471
 21
912.5566637795
 31
0.0
  0
ARC
  5
178
330
1F
100
AcDbEntity
  8
0
  6
Continuous
 62
     7
370
    15
100
AcDbCircle
 10
111.1464676231
 20
928.3066586455
 30
0.0
 40
4.250000000000114
100
AcDbArc
 50
0.0
 51
90.0
  0
LINE
  5
179
330
1F
100
AcDbEntity
  8
0
  6
Continuous
 62
     7
370
    15
100
AcDbLine
 10
113.3964963805
 20
928.3066547196
 30
0.0
 11
115.3964706313
 21
928.3066547196
 31
0.0
  0
ARC
  5
17A
330
1F
100
AcDbEntity
  8
0
  6
Continuous
 62
     7
370
    15
100
AcDbCircle
 10
111.1464676231
 20
928.3066586455
 30
0.0
 40
2.250000000000114
100
AcDbArc
 50
0.0
 51
90.0
  0
LINE
  5
17B
330
1F
100
AcDbEntity
  8
0
  6
Continuous
 62
     7
370
    15
100
AcDbLine
 10
115.3964706313
 20
916.8066537659
 30
0.0
 11
115.3964706313
 21
928.3066547196
 31
0.0
  0
LINE
  5
17C
330
1F
100
AcDbEntity
  8
0
  6
Continuous
 62
     7
370
    15
100
AcDbLine
 10
113.3964963805
 20
916.8066537659
 30
0.0
 11
113.3964963805
 21
928.3066547196
 31
0.0
  0
LINE
  5
17D
330
1F
100
AcDbEntity
  8
0
  6
Continuous
 62
     7
370
    15
100
AcDbLine
 10
117.6464863669
 20
912.5566637795
 30
0.0
 11
149.1964765441
 21
912.5566637795
 31
0.0
  0
LINE
  5
17E
330
1F
100
AcDbEntity
  8
0
  6
Continuous
 62
     7
370
    15
100
AcDbLine
 10
117.6464863669
 20
914.5566529314
 30
0.0
 11
149.1964765441
 21
914.5566529314
 31
0.0
  0
ARC
  5
17F
330
1F
100
AcDbEntity
  8
0
  6
Continuous
 62
     7
370
    15
100
AcDbCircle
 10
44.6464676231
 20
928.3066586455
 30
0.0
 40
2.25
100
AcDbArc
 50
90.0
 51
180.0
  0
ARC
  5
180
330
1F
100
AcDbEntity
  8
0
  6
Continuous
 62
     7
370
    15
100
AcDbCircle
 10
44.6464676231
 20
928.3066586455
 30
0.0
 40
4.25
100
AcDbArc
 50
90.0
 51
180.0
  0
LINE
  5
181
330
1F
100
AcDbEntity
  8
0
  6
Continuous
 62
     7
370
    15
100
AcDbLine
 10
919.0329321276
 20
860.7183701079
 30
0.0
 11
901.486546601
 21
852.5363585632
 31
0.0
  0
LINE
  5
182
330
1F
100
AcDbEntity
  8
0
  6
Continuous
 62
     7
370
    15
100
AcDbLine
 10
901.486546601
 20
852.5363585632
 30
0.0
 11
900.6413080346
 21
854.3489730637
 31
0.0
  0
LINE
  5
183
330
1F
100
AcDbEntity
  8
0
  6
Continuous
 62
     7
370
    15
100
AcDbLine
 10
918.1876935612
 20
862.530992059
 30
0.0
 11
900.6413080346
 21
854.3489730637
 31
0.0
  0
LINE
  5
184
330
1F
100
AcDbEntity
  8
0
  6
Continuous
 62
     7
370
    15
100
AcDbLine
 10
918.1876935612
 20
862.530992059
 30
0.0
 11
919.0329321276
 21
860.7183701079
 31
0.0
  0
LINE
  5
185
330
1F
100
AcDbEntity
  8
0
  6
Continuous
 62
     7
370
    15
100
AcDbLine
 10
899.673939551
 20
851.6911199968
 30
0.0
 11
898.8287009846
 21
853.5037344973
 31
0.0
  0
LWPOLYLINE
  5
186
330
1F
100
AcDbEntity
  8
0
  6
Continuous
 62
     7
370
    15
100
AcDbPolyline
 90
        9
 70
   128
 43
0.0
 10
900.6413080346
 20
854.3489730637
 10
900.2876885783
 20
854.1840768139
 10
899.947658981
 20
854.0255135577
 10
899.6342726599
 20
853.8793778698
 10
899.3595995557
 20
853.7513023894
 10
899.1341747891
 20
853.6461895983
 10
898.9666708361
 20
853.5680777113
 10
898.8635249984
 20
853.519976763
 10
898.8287009846
 20
853.5037344973
  0
LWPOLYLINE
  5
187
330
1F
100
AcDbEntity
  8
0
  6
Continuous
 62
     7
370
    15
100
AcDbPolyline
 90
        9
 70
   128
 43
0.0
 10
901.486546601
 20
852.5363585632
 10
901.1329271447
 20
852.3714623134
 10
900.7928826462
 20
852.2128990571
 10
900.4795112263
 20
852.0667708199
 10
900.2048381221
 20
851.9386804383
 10
899.9794133555
 20
851.8335676472
 10
899.8119094025
 20
851.7554632108
 10
899.7087635648
 20
851.7073622625
 10
899.673939551
 20
851.6911199968
  0
LINE
  5
188
330
1F
100
AcDbEntity
  8
0
  6
Continuous
 62
     7
370
    15
100
AcDbLine
 10
870.5964692485
 20
914.5566529314
 30
0.0
 11
928.399608339
 21
914.5566529314
 31
0.0
  0
LINE
  5
189
330
1F
100
AcDbEntity
  8
0
  6
Continuous
 62
     7
370
    15
100
AcDbLine
 10
928.399608339
 20
912.5566637795
 30
0.0
 11
928.399608339
 21
914.5566529314
 31
0.0
  0
LINE
  5
18A
330
1F
100
AcDbEntity
  8
0
  6
Continuous
 62
     7
370
    15
100
AcDbLine
 10
870.5964692485
 20
912.5566637795
 30
0.0
 11
928.399608339
 21
912.5566637795
 31
0.0
  0
LINE
  5
18B
330
1F
100
AcDbEntity
  8
0
  6
Continuous
 62
     7
370
    15
100
AcDbLine
 10
937.4626882922
 20
898.3304804842
 30
0.0
 11
939.2753102433
 21
897.4852419178
 31
0.0
  0
LINE
  5
18C
330
1F
100
AcDbEntity
  8
0
  6
Continuous
 62
     7
370
    15
100
AcDbLine
 10
923.0245955836
 20
867.3678791802
 30
0.0
 11
924.8372175347
 21
866.5226406138
 31
0.0
  0
LINE
  5
18D
330
1F
100
AcDbEntity
  8
0
  6
Continuous
 62
     7
370
    15
100
AcDbLine
 10
923.0245955836
 20
867.3678791802
 30
0.0
 11
937.4626882922
 21
898.3304804842
 31
0.0
  0
LINE
  5
18E
330
1F
100
AcDbEntity
  8
0
  6
Continuous
 62
     7
370
    15
100
AcDbLine
 10
924.8372175347
 20
866.5226406138
 30
0.0
 11
939.2753102433
 21
897.4852419178
 31
0.0
  0
ARC
  5
18F
330
1F
100
AcDbEntity
  8
0
  6
Continuous
 62
     7
370
    15
100
AcDbCircle
 10
928.399611852
 20
902.5566586455
 30
0.0
 40
10.00000000000003
100
AcDbArc
 50
335.0
 51
90.0
  0
ARC
  5
190
330
1F
100
AcDbEntity
  8
0
  6
Continuous
 62
     7
370
    15
100
AcDbCircle
 10
928.399611852
 20
902.5566586455
 30
0.0
 40
12.00000000000006
100
AcDbArc
 50
335.0
 51
90.0
  0
ARC
  5
191
330
1F
100
AcDbEntity
  8
0
  6
Continuous
 62
     7
370
    15
100
AcDbCircle
 10
913.961517427
 20
871.5940652321
 30
0.0
 40
12.00000000000006
100
AcDbArc
 50
295.0
 51
335.0
  0
ARC
  5
192
330
1F
100
AcDbEntity
  8
0
  6
Continuous
 62
     7
370
    15
100
AcDbCircle
 10
913.961517427
 20
871.5940652321
 30
0.0
 40
10.00000000000014
100
AcDbArc
 50
295.0
 51
335.0
  0
LINE
  5
193
330
1F
100
AcDbEntity
  8
0
  6
Continuous
 62
     7
370
    15
100
AcDbLine
 10
111.1448713195
 20
928.2566613238
 30
0.0
 11
44.6464725386
 21
928.2566613238
 31
0.0
  0
ARC
  5
194
330
1F
100
AcDbEntity
  8
0
  6
Continuous
 62
     7
370
    15
100
AcDbCircle
 10
44.6448605674
 20
916.9066586455
 30
0.0
 40
2.149999999999984
100
AcDbArc
 50
180.0
 51
270.0
  0
LINE
  5
195
330
1F
100
AcDbEntity
  8
0
  6
Continuous
 62
     7
370
    15
100
AcDbLine
 10
44.6464725386
 20
930.556655554
 30
0.0
 11
44.6464725386
 21
928.2566613238
 31
0.0
  0
LINE
  5
196
330
1F
100
AcDbEntity
  8
0
  6
Continuous
 62
     7
370
    15
100
AcDbLine
 10
111.1448713195
 20
928.2566613238
 30
0.0
 11
111.1448713195
 21
930.556655554
 31
0.0
  0
ARC
  5
197
330
1F
100
AcDbEntity
  8
0
  6
Continuous
 62
     7
370
    15
100
AcDbCircle
 10
111.1448605674
 20
928.4066586455
 30
0.0
 40
2.150000000000091
100
AcDbArc
 50
359.9999999959
 51
90.0
  0
LINE
  5
198
330
1F
100
AcDbEntity
  8
0
  6
Continuous
 62
     7
370
    15
100
AcDbLine
 10
113.2948704612
 20
928.4066564124
 30
0.0
 11
113.2948704612
 21
916.9066554587
 31
0.0
  0
ARC
  5
199
330
1F
100
AcDbEntity
  8
0
  6
Continuous
 62
     7
370
    15
100
AcDbCircle
 10
117.6448605674
 20
916.9066586451
 30
0.0
 40
4.350000000000072
100
AcDbArc
 50
179.999999996
 51
252.5584061437
  0
LINE
  5
19A
330
1F
100
AcDbEntity
  8
0
  6
Continuous
 62
     7
370
    15
100
AcDbLine
 10
116.341025437
 20
912.7566522639
 30
0.0
 11
111.1448713195
 21
912.7566522639
 31
0.0
  0
LINE
  5
19B
330
1F
100
AcDbEntity
  8
0
  6
Continuous
 62
     7
370
    15
100
AcDbLine
 10
111.1448713195
 20
912.7566522639
 30
0.0
 11
111.1448713195
 21
915.0566613953
 31
0.0
  0
LINE
  5
19C
330
1F
100
AcDbEntity
  8
0
  6
Continuous
 62
     7
370
    15
100
AcDbLine
 10
55.4948755156
 20
915.0566613953
 30
0.0
 11
111.1448713195
 21
915.0566613953
 31
0.0
  0
LINE
  5
19D
330
1F
100
AcDbEntity
  8
0
  6
Continuous
 62
     7
370
    15
100
AcDbLine
 10
55.4948755156
 20
915.0566613953
 30
0.0
 11
55.4948755156
 21
914.756656317
 31
0.0
  0
ARC
  5
19E
330
1F
100
AcDbEntity
  8
0
  6
Continuous
 62
     7
370
    15
100
AcDbCircle
 10
44.6448605674
 20
928.4066586455
 30
0.0
 40
2.150000000000091
100
AcDbArc
 50
90.0
 51
180.0
  0
LINE
  5
19F
330
1F
100
AcDbEntity
  8
0
  6
Continuous
 62
     7
370
    15
100
AcDbLine
 10
55.4948755156
 20
914.756656317
 30
0.0
 11
44.6448632132
 21
914.756656317
 31
0.0
  0
LINE
  5
1A0
330
1F
100
AcDbEntity
  8
0
  6
Continuous
 62
     7
370
    15
100
AcDbLine
 10
44.6448632132
 20
930.556655554
 30
0.0
 11
44.6464725386
 21
930.556655554
 31
0.0
  0
LINE
  5
1A1
330
1F
100
AcDbEntity
  8
0
  6
Continuous
 62
     7
370
    15
100
AcDbLine
 10
42.4948640715
 20
916.9066554587
 30
0.0
 11
42.4948640715
 21
928.4066564124
 31
0.0
  0
LINE
  5
1A2
330
1F
100
AcDbEntity
  8
0
  6
Continuous
 62
     7
370
    15
100
AcDbLine
 10
111.1448713195
 20
912.7566522639
 30
0.0
 11
55.4948755156
 21
912.7566522639
 31
0.0
  0
LINE
  5
1A3
330
1F
100
AcDbEntity
  8
0
  6
Continuous
 62
     7
370
    15
100
AcDbLine
 10
55.4948755156
 20
912.7566522639
 30
0.0
 11
55.4948755156
 21
914.756656317
 31
0.0
  0
LINE
  5
1A4
330
1F
100
AcDbEntity
  8
0
  6
Continuous
 62
     7
370
    15
100
AcDbLine
 10
902.5678791653
 20
810.4831061046
 30
0.0
 11
899.7065581929
 21
809.2729530017
 31
0.0
  0
LWPOLYLINE
  5
1A5
330
1F
100
AcDbEntity
  8
0
  6
Continuous
 62
     7
370
    15
100
AcDbPolyline
 90
       22
 70
   128
 43
0.0
 10
925.980017389
 20
760.2756178658
 10
925.3748365294
 20
761.5734270494
 10
924.6272452723
 20
763.1766355317
 10
923.7468399655
 20
765.0646722596
 10
922.7449156892
 20
767.2133153956
 10
921.6343172442
 20
769.5950052421
 10
920.4292901408
 20
772.1791869681
 10
919.1453017842
 20
774.9327054899
 10
917.7988179576
 20
777.8202413301
 10
916.4071240079
 20
780.8047464769
 10
914.9880566251
 20
783.847939847
 10
913.5598399293
 20
786.9107803981
 10
912.1407725465
 20
789.9539737682
 10
910.7490785968
 20
792.938478915
 10
909.4025947701
 20
795.8260184805
 10
908.1186064135
 20
798.5795370023
 10
906.9135793101
 20
801.1637187283
 10
905.8029808652
 20
803.5454085748
 10
904.8010565888
 20
805.6940517108
 10
903.920651282
 20
807.5820884387
 10
903.1730600249
 20
809.185296921
 10
902.5678791653
 20
810.4831061046
  0
LINE
  5
1A6
330
1F
100
AcDbEntity
  8
0
  6
Continuous
 62
     7
370
    15
100
AcDbLine
 10
923.213765825
 20
758.8615870755
 30
0.0
 11
925.980017389
 21
760.2756178658
 31
0.0
  0
LWPOLYLINE
  5
1A7
330
1F
100
AcDbEntity
  8
0
  6
Continuous
 62
     7
370
    15
100
AcDbPolyline
 90
       22
 70
   128
 43
0.0
 10
905.0692178857
 20
809.6036991756
 10
905.6338824879
 20
808.3927637617
 10
906.3314356457
 20
806.8968734424
 10
907.15290686
 20
805.1352209132
 10
908.0877610099
 20
803.130403785
 10
909.1240175616
 20
800.9081414621
 10
910.2483846795
 20
798.4969398658
 10
911.4464231383
 20
795.9277338068
 10
912.7027698409
 20
793.2334846537
 10
914.001316632
 20
790.4487593751
 10
915.3253891122
 20
787.6092723291
 10
916.6580148589
 20
784.7514531295
 10
917.9820873391
 20
781.9119660835
 10
919.280619229
 20
779.1272370796
 10
920.5369808327
 20
776.4329879265
 10
921.7350192916
 20
773.8637855928
 10
922.8593715083
 20
771.4525839965
 10
923.89562806
 20
769.2303216736
 10
924.830497111
 20
767.2255045454
 10
925.6519683253
 20
765.4638482909
 10
926.3495065819
 20
763.9679579716
 10
926.9141860854
 20
762.7570188324
  0
ARC
  5
1A8
330
1F
100
AcDbEntity
  8
0
  6
Continuous
 62
     7
370
    15
100
AcDbCircle
 10
925.1427579689
 20
762.0073623738
 30
0.0
 40
1.923523427894441
100
AcDbArc
 50
295.8027197315
 51
22.9377543718
  0
ARC
  5
1A9
330
1F
100
AcDbEntity
  8
0
  6
Continuous
 62
     7
370
    15
100
AcDbCircle
 10
903.3562867645
 20
808.7285696504
 30
0.0
 40
1.923534432156961
100
AcDbArc
 50
27.0623037239
 51
114.1969475955
  0
SPLINE
  5
1AA
330
1F
100
AcDbEntity
  8
0
  6
Continuous
 62
     7
370
    15
100
AcDbSpline
210
0.0
220
0.0
230
1.0
 70
     8
 71
     3
 72
    11
 73
     7
 74
     0
 42
0.00000001
 43
0.00000001
 12
1.0
 22
0.0
 32
0.0
 13
1.0
 23
0.0
 33
0.0
 40
0.0
 40
0.0
 40
0.0
 40
0.0
 40
0.283522827986988
 40
0.5667766162812907
 40
0.8499317813474319
 40
1.0
 40
1.0
 40
1.0
 40
1.0
 10
925.9800173889865
 20
760.2756178657895
 30
0.0
 10
926.030000303646
 20
760.1844979278719
 30
0.0
 10
926.1299187033168
 20
760.0023445173146
 30
0.0
 10
926.3616509833955
 20
759.5125859586794
 30
0.0
 10
926.5824119220315
 20
759.0192434761478
 30
0.0
 10
926.7169805053745
 20
758.7043074831585
 30
0.0
 10
926.763594950365
 20
758.5952139179593
 30
0.0
  0
LWPOLYLINE
  5
1AB
330
1F
100
AcDbEntity
  8
0
  6
Continuous
 62
     7
370
    15
100
AcDbPolyline
 90
        3
 70
   128
 43
0.0
 10
926.7635949504
 20
758.595213918
 10
926.2700237881
 20
758.3433880191
 10
923.9962705027
 20
757.1835114341
  0
LWPOLYLINE
  5
1AC
330
1F
100
AcDbEntity
  8
0
  6
Continuous
 62
     7
370
    15
100
AcDbPolyline
 90
        3
 70
   128
 43
0.0
 10
898.9240535151
 20
810.9510323684
 10
901.274115647
 20
811.9472718518
 10
901.784301604
 20
812.1635100524
  0
SPLINE
  5
1AD
330
1F
100
AcDbEntity
  8
0
  6
Continuous
 62
     7
370
    15
100
AcDbSpline
210
0.0
220
0.0
230
1.0
 70
     8
 71
     3
 72
    11
 73
     7
 74
     0
 42
0.00000001
 43
0.00000001
 12
1.0
 22
0.0
 32
0.0
 13
1.0
 23
0.0
 33
0.0
 40
0.0
 40
0.0
 40
0.0
 40
0.0
 40
0.2835198568957422
 40
0.5667805530171702
 40
0.8499266514133755
 40
1.0
 40
1.0
 40
1.0
 40
1.0
 10
901.78430160396
 20
812.1635100524312
 30
0.0
 10
901.8855252000382
 20
811.9624976694917
 30
0.0
 10
902.0878798653933
 20
811.5606566456806
 30
0.0
 10
902.3425669559169
 20
811.0217065222095
 30
0.0
 10
902.4997715927208
 20
810.6646009234239
 30
0.0
 10
902.5503560079045
 20
810.529802267178
 30
0.0
 10
902.5678791653385
 20
810.483106104601
 30
0.0
  0
LWPOLYLINE
  5
1AE
330
1F
100
AcDbEntity
  8
0
  6
Continuous
 62
     7
370
    15
100
AcDbPolyline
 90
        9
 70
   128
 43
0.0
 10
928.4813561093
 20
759.3962146621
 10
928.4487970721
 20
759.3810341041
 10
928.3523120534
 20
759.3360419105
 10
928.1953581225
 20
759.2628492694
 10
927.9835679185
 20
759.1640899609
 10
927.7245410334
 20
759.0433085989
 10
927.4276055943
 20
758.9048432838
 10
927.1034159314
 20
758.7536691408
 10
926.7635949504
 20
758.595213918
  0
SPLINE
  5
1AF
330
1F
100
AcDbEntity
  8
0
  6
Continuous
 62
     7
370
    15
100
AcDbSpline
210
0.0
220
0.0
230
1.0
 70
     8
 71
     3
 72
    11
 73
     7
 74
     0
 42
0.00000001
 43
0.00000001
 12
1.0
 22
0.0
 32
0.0
 13
1.0
 23
0.0
 33
0.0
 40
0.0
 40
0.0
 40
0.0
 40
0.0
 40
0.1499518688548173
 40
0.4331751785501955
 40
0.7165946932949703
 40
0.9999999999999999
 40
0.9999999999999999
 40
0.9999999999999999
 40
0.9999999999999999
 10
928.4813561093082
 20
759.3962146620637
 30
0.0
 10
928.3812324830725
 20
759.6109287980672
 30
0.0
 10
928.0919992110706
 20
760.2311867175639
 30
0.0
 10
927.6356489804673
 20
761.2098194225146
 30
0.0
 10
927.1778889034938
 20
762.1914841027312
 30
0.0
 10
927.0020855558615
 20
762.5685104060486
 30
0.0
 10
926.91418608539
 20
762.7570188324338
 30
0.0
  0
LWPOLYLINE
  5
1B0
330
1F
100
AcDbEntity
  8
0
  6
Continuous
 62
     7
370
    15
100
AcDbPolyline
 90
        9
 70
   128
 43
0.0
 10
903.5020478617
 20
812.9645070712
 10
903.4694888245
 20
812.9493302386
 10
903.3730038058
 20
812.9043361823
 10
903.2160498749
 20
812.8311491291
 10
903.0042596709
 20
812.7323842327
 10
902.7452327859
 20
812.6116028707
 10
902.4482973468
 20
812.4731412809
 10
902.1241076838
 20
812.32196155
 10
901.784301604
 20
812.1635100524
  0
SPLINE
  5
1B1
330
1F
100
AcDbEntity
  8
0
  6
Continuous
 62
     7
370
    15
100
AcDbSpline
210
0.0
220
0.0
230
1.0
 70
     8
 71
     3
 72
    11
 73
     7
 74
     0
 42
0.00000001
 43
0.00000001
 12
1.0
 22
0.0
 32
0.0
 13
1.0
 23
0.0
 33
0.0
 40
0.0
 40
0.0
 40
0.0
 40
0.0
 40
0.1499511728775941
 40
0.4331733384279303
 40
0.7165923629391798
 40
1.0
 40
1.0
 40
1.0
 40
1.0
 10
905.0692178856601
 20
809.6036991755849
 30
0.0
 10
905.027060478082
 20
809.6941109679806
 30
0.0
 10
904.9052777362095
 20
809.9552891714833
 30
0.0
 10
904.5753296639562
 20
810.662838997767
 30
0.0
 10
904.0720129260786
 20
811.7422201891488
 30
0.0
 10
903.6920336719481
 20
812.5570835673683
 30
0.0
 10
903.502047861742
 20
812.9645070712453
 30
0.0
  0
LINE
  5
1B2
330
1F
100
AcDbEntity
  8
0
  6
Continuous
 62
     7
370
    15
100
AcDbLine
 10
891.2218817126
 20
827.5921500008
 30
0.0
 11
891.1744811188
 21
827.5700441282
 31
0.0
  0
SPLINE
  5
1B3
330
1F
100
AcDbEntity
  8
0
  6
Continuous
 62
     7
370
    15
100
AcDbSpline
210
0.0
220
0.0
230
1.0
 70
     8
 71
     3
 72
    13
 73
     9
 74
     0
 42
0.00000001
 43
0.00000001
 12
1.0
 22
0.0
 32
0.0
 13
1.0
 23
0.0
 33
0.0
 40
0.0
 40
0.0
 40
0.0
 40
0.0
 40
0.2359778528614276
 40
0.4700657450743171
 40
0.6281563366912699
 40
0.7867760529867611
 40
0.8916103594112076
 40
1.0
 40
1.0
 40
1.0
 40
1.0
 10
896.1779483210315
 20
824.1863554994947
 30
0.0
 10
895.948296512555
 20
824.6679949540065
 30
0.0
 10
895.4908321905848
 20
825.6274163840135
 30
0.0
 10
894.6758975540173
 20
826.8083425382011
 30
0.0
 10
893.6825983947892
 20
827.5979080472093
 30
0.0
 10
892.7516554276451
 20
827.8728427285384
 30
0.0
 10
891.8938524251187
 20
827.8893138664938
 30
0.0
 10
891.4483480897194
 20
827.6922996394969
 30
0.0
 10
891.2218817126026
 20
827.5921500007993
 30
0.0
  0
LINE
  5
1B4
330
1F
100
AcDbEntity
  8
0
  6
Continuous
 62
     7
370
    15
100
AcDbLine
 10
901.784301604
 20
812.1635100524
 30
0.0
 11
896.177948321
 21
824.1863554995
 31
0.0
  0
LINE
  5
1B5
330
1F
100
AcDbEntity
  8
0
  6
Continuous
 62
     7
370
    15
100
AcDbLine
 10
890.3777979862
 20
829.4022760074
 30
0.0
 11
890.7934733283
 21
829.5702195446
 31
0.0
  0
SPLINE
  5
1B6
330
1F
100
AcDbEntity
  8
0
  6
Continuous
 62
     7
370
    15
100
AcDbSpline
210
0.0
220
0.0
230
1.0
 70
     8
 71
     3
 72
    14
 73
    10
 74
     0
 42
0.00000001
 43
0.00000001
 12
1.0
 22
0.0
 32
0.0
 13
1.0
 23
0.0
 33
0.0
 40
0.0
 40
0.0
 40
0.0
 40
0.0
 40
0.0000068050638242
 40
0.0730557447289091
 40
0.2154938469515845
 40
0.4037790850986408
 40
0.5887465982653668
 40
0.888236380389266
 40
1.0
 40
1.0
 40
1.0
 40
1.0
 10
890.7934733282794
 20
829.5702195446378
 30
0.0
 10
890.7934931964768
 20
829.5702269952571
 30
0.0
 10
891.0067881783293
 20
829.6502130998779
 30
0.0
 10
891.6537198744445
 20
829.8465993055604
 30
0.0
 10
892.9345048221953
 20
829.845305283591
 30
0.0
 10
894.5049642687463
 20
829.3741611977032
 30
0.0
 10
896.1970119883493
 20
828.0663801107328
 30
0.0
 10
897.189701689393
 20
826.4551248677892
 30
0.0
 10
897.7448366651236
 20
825.3010011068776
 30
0.0
 10
897.8957020293941
 20
824.9873525183087
 30
0.0
  0
LWPOLYLINE
  5
1B7
330
1F
100
AcDbEntity
  8
0
  6
Continuous
 62
     7
370
    15
100
AcDbPolyline
 90
        9
 70
   128
 43
0.0
 10
897.8957020294
 20
824.9873525183
 10
897.8631504428
 20
824.9721756856
 10
897.7666579735
 20
824.9271816294
 10
897.6097040426
 20
824.8539945762
 10
897.3979138386
 20
824.7552296798
 10
897.1388944041
 20
824.6344483178
 10
896.8419515144
 20
824.4959867279
 10
896.5177618515
 20
824.344806997
 10
896.177948321
 20
824.1863554995
  0
SPLINE
  5
1B8
330
1F
100
AcDbEntity
  8
0
  6
Continuous
 62
     7
370
    15
100
AcDbSpline
210
0.0
220
0.0
230
1.0
 70
     8
 71
     3
 72
    15
 73
    11
 74
     0
 42
0.00000001
 43
0.00000001
 12
1.0
 22
0.0
 32
0.0
 13
1.0
 23
0.0
 33
0.0
 40
0.0
 40
0.0
 40
0.0
 40
0.0
 40
0.0125234800125345
 40
0.2274795576051647
 40
0.4424405681205076
 40
0.4999944095810338
 40
0.7148697059387816
 40
0.9297452072856665
 40
0.9874677378818276
 40
0.9999999999999999
 40
0.9999999999999999
 40
0.9999999999999999
 40
0.9999999999999999
 10
891.2218817126026
 20
827.5921500007993
 30
0.0
 10
891.2166801441017
 20
827.6041053601703
 30
0.0
 10
891.1221975801315
 20
827.8212654353231
 30
0.0
 10
890.9356976897039
 20
828.2442874907737
 30
0.0
 10
890.7509884636063
 20
828.6519770601955
 30
0.0
 10
890.5933680660183
 20
828.9919735720907
 30
0.0
 10
890.4635588697076
 20
829.2628184414101
 30
0.0
 10
890.3951073762187
 20
829.3875726066093
 30
0.0
 10
890.3801117664188
 20
829.4026397942243
 30
0.0
 10
890.3781545677814
 20
829.402331077266
 30
0.0
 10
890.3778054367771
 20
829.4022760074025
 30
0.0
  0
SPLINE
  5
1B9
330
1F
100
AcDbEntity
  8
0
  6
Continuous
 62
     7
370
    15
100
AcDbSpline
210
0.0
220
0.0
230
1.0
 70
     8
 71
     3
 72
     9
 73
     5
 74
     0
 42
0.00000001
 43
0.00000001
 12
1.0
 22
0.0
 32
0.0
 13
1.0
 23
0.0
 33
0.0
 40
0.0
 40
0.0
 40
0.0
 40
0.0
 40
0.0000205915677006
 40
1.0
 40
1.0
 40
1.0
 40
1.0
 10
940.4269762884845
 20
733.7787516135162
 30
0.0
 10
940.4269812555211
 20
733.7787336079409
 30
0.0
 10
940.6681982787011
 20
732.9043186232146
 30
0.0
 10
941.0302023688744
 20
732.0693874990369
 30
0.0
 10
941.392199004816
 20
731.2344735674
 30
0.0
  0
SPLINE
  5
1BA
330
1F
100
AcDbEntity
  8
0
  6
Continuous
 62
     7
370
    15
100
AcDbSpline
210
0.0
220
0.0
230
1.0
 70
     8
 71
     3
 72
    11
 73
     7
 74
     0
 42
0.00000001
 43
0.00000001
 12
1.0
 22
0.0
 32
0.0
 13
1.0
 23
0.0
 33
0.0
 40
0.0
 40
0.0
 40
0.0
 40
0.0
 40
0.2499758539378441
 40
0.4998063474208891
 40
0.7495350896944192
 40
1.0
 40
1.0
 40
1.0
 40
1.0
 10
941.392199004816
 20
731.2344735674
 30
0.0
 10
941.3668510336469
 20
731.220442492534
 30
0.0
 10
941.3161698311028
 20
731.1923885018435
 30
0.0
 10
940.9013408250718
 20
731.0651260170958
 30
0.0
 10
940.3013176865531
 20
730.8947251399197
 30
0.0
 10
939.8144356589935
 20
730.7651368750601
 30
0.0
 10
939.5706363569965
 20
730.7002473808265
 30
0.0
  0
LINE
  5
1BB
330
1F
100
AcDbEntity
  8
0
  6
Continuous
 62
     7
370
    15
100
AcDbLine
 10
939.570636357
 20
730.7002473808
 30
0.0
 11
938.7092151295
 21
732.9777513351
 31
0.0
  0
LWPOLYLINE
  5
1BC
330
1F
100
AcDbEntity
  8
0
  6
Continuous
 62
     7
370
    15
100
AcDbPolyline
 90
        9
 70
   128
 43
0.0
 10
940.4269762885
 20
733.7787516135
 10
940.3944172513
 20
733.7635724525
 10
940.2979322325
 20
733.718578862
 10
940.1409783017
 20
733.6453880835
 10
939.9291880976
 20
733.5466283094
 10
939.6701612126
 20
733.4258464816
 10
939.3732257735
 20
733.2873816322
 10
939.0490361106
 20
733.1362065579
 10
938.7092151295
 20
732.9777513351
  0
LINE
  5
1BD
330
1F
100
AcDbEntity
  8
0
  6
Continuous
 62
     7
370
    15
100
AcDbLine
 10
938.7092151295
 20
732.9777513351
 30
0.0
 11
926.7635949504
 21
758.595213918
 31
0.0
  0
LINE
  5
1BE
330
1F
100
AcDbEntity
  8
0
  6
Continuous
 62
     7
370
    15
100
AcDbLine
 10
939.570636357
 20
730.7002473808
 30
0.0
 11
936.9216271292
 21
729.464989663
 31
0.0
  0
LINE
  5
1BF
330
1F
100
AcDbEntity
  8
0
  6
Continuous
 62
     7
370
    15
100
AcDbLine
 10
890.3777979862
 20
829.4022760074
 30
0.0
 11
890.329250003
 21
829.3826586287
 31
0.0
  0
SPLINE
  5
1C0
330
1F
100
AcDbEntity
  8
0
  6
Continuous
 62
     7
370
    15
100
AcDbSpline
210
0.0
220
0.0
230
1.0
 70
     8
 71
     3
 72
    11
 73
     7
 74
     0
 42
0.00000001
 43
0.00000001
 12
1.0
 22
0.0
 32
0.0
 13
1.0
 23
0.0
 33
0.0
 40
0.0
 40
0.0
 40
0.0
 40
0.0
 40
0.2440040072202333
 40
0.4919453843437421
 40
0.7439119779742043
 40
1.0
 40
1.0
 40
1.0
 40
1.0
 10
940.2055003296604
 20
729.3910935241169
 30
0.0
 10
940.1685586002245
 20
729.4741126659218
 30
0.0
 10
940.0940790312511
 20
729.6414905876549
 30
0.0
 10
939.9411833602625
 20
729.9622786895449
 30
0.0
 10
939.76532906981
 20
730.3200166189534
 30
0.0
 10
939.6358839551131
 20
730.5728201978378
 30
0.0
 10
939.5706363569965
 20
730.7002473808265
 30
0.0
  0
LINE
  5
1C1
330
1F
100
AcDbEntity
  8
0
  6
Continuous
 62
     7
370
    15
100
AcDbLine
 10
940.2055003297
 20
729.3910935241
 30
0.0
 11
937.5878580462
 21
728.0362371657
 31
0.0
  0
SPLINE
  5
1C2
330
1F
100
AcDbEntity
  8
0
  6
Continuous
 62
     7
370
    15
100
AcDbSpline
210
0.0
220
0.0
230
1.0
 70
     8
 71
     3
 72
    11
 73
     7
 74
     0
 42
0.00000001
 43
0.00000001
 12
1.0
 22
0.0
 32
0.0
 13
1.0
 23
0.0
 33
0.0
 40
0.0
 40
0.0
 40
0.0
 40
0.0
 40
0.2501494782414595
 40
0.5002865832330406
 40
0.750420104164199
 40
1.0
 40
1.0
 40
1.0
 40
1.0
 10
941.392199004816
 20
731.2344735674
 30
0.0
 10
941.41385228144
 20
731.0606445291405
 30
0.0
 10
941.4571577636428
 20
730.712995050801
 30
0.0
 10
941.2250003455036
 20
730.1802017297584
 30
0.0
 10
940.8080494072389
 20
729.7050905933105
 30
0.0
 10
940.4062016217827
 20
729.495681880244
 30
0.0
 10
940.2055003296604
 20
729.3910935241169
 30
0.0
  0
LINE
  5
1C3
330
1F
100
AcDbEntity
  8
0
  6
Continuous
 62
     7
370
    15
100
AcDbLine
 10
897.8957020294
 20
824.9873525183
 30
0.0
 11
903.5020478617
 21
812.9645070712
 31
0.0
  0
LINE
  5
1C4
330
1F
100
AcDbEntity
  8
0
  6
Continuous
 62
     7
370
    15
100
AcDbLine
 10
928.4813561093
 20
759.3962146621
 30
0.0
 11
940.4269762885
 21
733.7787516135
 31
0.0
  0
SPLINE
  5
1C5
330
1F
100
AcDbEntity
  8
0
  6
Continuous
 62
     7
370
    15
100
AcDbSpline
210
0.0
220
0.0
230
1.0
 70
     8
 71
     3
 72
    14
 73
    10
 74
     0
 42
0.00000001
 43
0.00000001
 12
1.0
 22
0.0
 32
0.0
 13
1.0
 23
0.0
 33
0.0
 40
0.0
 40
0.0
 40
0.0
 40
0.0
 40
0.0024056673997808
 40
0.0051902299551975
 40
0.0347282098968916
 40
0.2932106102923008
 40
0.5746445332967135
 40
0.78450120417999
 40
0.9999999999999999
 40
0.9999999999999999
 40
0.9999999999999999
 40
0.9999999999999999
 10
939.3724211107959
 20
725.3923219814336
 30
0.0
 10
939.3742949857523
 20
725.3933202320133
 30
0.0
 10
939.3783378729497
 20
725.395473958693
 30
0.0
 10
939.4052680618136
 20
725.4101503976228
 30
0.0
 10
939.6294194827136
 20
725.5433195089086
 30
0.0
 10
940.0397869469914
 20
725.9876066570993
 30
0.0
 10
940.4489857414989
 20
726.9777303892812
 30
0.0
 10
940.5172612104053
 20
728.1353066853825
 30
0.0
 10
940.3103355446432
 20
728.9688125666831
 30
0.0
 10
940.2055003296604
 20
729.3910935241169
 30
0.0
  0
SPLINE
  5
1C6
330
1F
100
AcDbEntity
  8
0
  6
Continuous
 62
     7
370
    15
100
AcDbSpline
210
0.0
220
0.0
230
1.0
 70
     8
 71
     3
 72
    20
 73
    16
 74
     0
 42
0.00000001
 43
0.00000001
 12
1.0
 22
0.0
 32
0.0
 13
1.0
 23
0.0
 33
0.0
 40
0.0
 40
0.0
 40
0.0
 40
0.0
 40
0.2070574817072915
 40
0.4203774783952783
 40
0.701116206111005
 40
0.883453253951599
 40
0.9282287147332772
 40
0.952479357058778
 40
0.9675013441305903
 40
0.9773814696957687
 40
0.9840939315160087
 40
0.9887396623458602
 40
0.9919928472709323
 40
0.9977328838457378
 40
0.9999999999999999
 40
0.9999999999999999
 40
0.9999999999999999
 40
0.9999999999999999
 10
941.392199004816
 20
731.2344735674
 30
0.0
 10
941.4970653020841
 20
730.7453583050212
 30
0.0
 10
941.7099696089017
 20
729.7523343440027
 30
0.0
 10
941.5115375248599
 20
728.0435886023571
 30
0.0
 10
940.8774377394881
 20
726.7467598601942
 30
0.0
 10
940.2067144496654
 20
725.9790870229785
 30
0.0
 10
939.796333885739
 20
725.6575516496016
 30
0.0
 10
939.6508561023431
 20
725.5574616463488
 30
0.0
 10
939.5629670314299
 20
725.5015888754634
 30
0.0
 10
939.5052774421536
 20
725.4668109124058
 30
0.0
 10
939.4660418888114
 20
725.4440012199067
 30
0.0
 10
939.438798748304
 20
725.4285674771618
 30
0.0
 10
939.4131987632924
 20
725.4143309695337
 30
0.0
 10
939.3919507326133
 20
725.4027337111805
 30
0.0
 10
939.3767305095095
 20
725.3946194296483
 30
0.0
 10
939.3724211107959
 20
725.3923219814336
 30
0.0
  0
SPLINE
  5
1C7
330
1F
100
AcDbEntity
  8
0
  6
Continuous
 62
     7
370
    15
100
AcDbSpline
210
0.0
220
0.0
230
1.0
 70
     8
 71
     3
 72
    10
 73
     6
 74
     0
 42
0.00000001
 43
0.00000001
 12
1.0
 22
0.0
 32
0.0
 13
1.0
 23
0.0
 33
0.0
 40
0.0
 40
0.0
 40
0.0
 40
0.0
 40
0.452735857068724
 40
0.9055911235837643
 40
1.0
 40
1.0
 40
1.0
 40
1.0
 10
941.5142842184772
 20
728.437551659243
 30
0.0
 10
941.5219043779317
 20
728.4900486478491
 30
0.0
 10
941.5371467066641
 20
728.5950564711843
 30
0.0
 10
941.6604912143292
 20
729.0777541765156
 30
0.0
 10
941.6184914753607
 20
729.554178697309
 30
0.0
 10
941.6112460743656
 20
729.6363669866136
 30
0.0
  0
SPLINE
  5
1C8
330
1F
100
AcDbEntity
  8
0
  6
Continuous
 62
     7
370
    15
100
AcDbSpline
210
0.0
220
0.0
230
1.0
 70
     8
 71
     3
 72
    12
 73
     8
 74
     0
 42
0.00000001
 43
0.00000001
 12
1.0
 22
0.0
 32
0.0
 13
1.0
 23
0.0
 33
0.0
 40
0.0
 40
0.0
 40
0.0
 40
0.0
 40
0.4616934669059549
 40
0.7307676330762064
 40
0.9175815888462551
 40
0.9719305112544493
 40
1.0
 40
1.0
 40
1.0
 40
1.0
 10
941.3711436640491
 20
731.3098594732022
 30
0.0
 10
941.3411282586648
 20
731.4184163861942
 30
0.0
 10
941.293619926144
 20
731.5902400831869
 30
0.0
 10
941.2220088108008
 20
731.8143588129739
 30
0.0
 10
941.1805173935433
 20
731.9387081117071
 30
0.0
 10
941.1580305526309
 20
732.0043941818788
 30
0.0
 10
941.1510808964374
 20
732.0244775123152
 30
0.0
 10
941.1487140309085
 20
732.0313173531925
 30
0.0
  0
LINE
  5
1C9
330
1F
100
AcDbEntity
  8
0
  6
Continuous
 62
     7
370
    15
100
AcDbLine
 10
896.5258606326
 20
827.2484994213
 30
0.0
 11
896.0802488577
 21
827.9833874385
 31
0.0
  0
LINE
  5
1CA
330
1F
100
AcDbEntity
  8
0
  6
Continuous
 62
     7
370
    15
100
AcDbLine
 10
940.473154987
 20
733.6792062688
 30
0.0
 11
940.4311188113
 21
733.7698528263
 31
0.0
  0
SPLINE
  5
1CB
330
1F
100
AcDbEntity
  8
0
  6
Continuous
 62
     7
370
    15
100
AcDbSpline
210
0.0
220
0.0
230
1.0
 70
     8
 71
     3
 72
     9
 73
     5
 74
     0
 42
0.00000001
 43
0.00000001
 12
1.0
 22
0.0
 32
0.0
 13
1.0
 23
0.0
 33
0.0
 40
0.0
 40
0.0
 40
0.0
 40
0.0
 40
0.5000130496848041
 40
0.9999999999999999
 40
0.9999999999999999
 40
0.9999999999999999
 40
0.9999999999999999
 10
940.9409620415439
 20
732.5915709789282
 30
0.0
 10
940.8729940697712
 20
732.7602882282438
 30
0.0
 10
940.7370616739757
 20
733.097713920277
 30
0.0
 10
940.5611223520395
 20
733.4853788585665
 30
0.0
 10
940.4731549870243
 20
733.6792062688058
 30
0.0
  0
SPLINE
  5
1CC
330
1F
100
AcDbEntity
  8
0
  6
Continuous
 62
     7
370
    15
100
AcDbSpline
210
0.0
220
0.0
230
1.0
 70
     8
 71
     3
 72
    13
 73
     9
 74
     0
 42
0.00000001
 43
0.00000001
 12
1.0
 22
0.0
 32
0.0
 13
1.0
 23
0.0
 33
0.0
 40
0.0
 40
0.0
 40
0.0
 40
0.0
 40
0.1254662990600216
 40
0.2502434736769119
 40
0.3760702968654274
 40
0.5019146944800779
 40
0.750834418295273
 40
0.9999999999999999
 40
0.9999999999999999
 40
0.9999999999999999
 40
0.9999999999999999
 10
896.0802488576641
 20
827.9833874385243
 30
0.0
 10
895.992571633983
 20
828.0806595507642
 30
0.0
 10
895.8176987543279
 20
828.2746695075505
 30
0.0
 10
895.5440068348945
 20
828.5340752170874
 30
0.0
 10
895.2770217934312
 20
828.757540318859
 30
0.0
 10
894.9521479848363
 20
828.9960252825155
 30
0.0
 10
894.6194702255511
 20
829.1935781694184
 30
0.0
 10
894.5665569069005
 20
829.2205445841738
 30
0.0
 10
894.5400871884098
 20
829.2340344469434
 30
0.0
  0
SPLINE
  5
1CD
330
1F
100
AcDbEntity
  8
0
  6
Continuous
 62
     7
370
    15
100
AcDbSpline
210
0.0
220
0.0
230
1.0
 70
     8
 71
     3
 72
     9
 73
     5
 74
     0
 42
0.00000001
 43
0.00000001
 12
1.0
 22
0.0
 32
0.0
 13
1.0
 23
0.0
 33
0.0
 40
0.0
 40
0.0
 40
0.0
 40
0.0
 40
0.7838892005040345
 40
1.0
 40
1.0
 40
1.0
 40
1.0
 10
941.6304089676609
 20
729.4286880478634
 30
0.0
 10
941.6366208214997
 20
729.4462673680997
 30
0.0
 10
941.6445452243806
 20
729.468693139784
 30
0.0
 10
941.6213663728013
 20
729.7592031601525
 30
0.0
 10
941.6163571726551
 20
729.8219855129158
 30
0.0
  0
SPLINE
  5
1CE
330
1F
100
AcDbEntity
  8
0
  6
Continuous
 62
     7
370
    15
100
AcDbSpline
210
0.0
220
0.0
230
1.0
 70
     8
 71
     3
 72
     9
 73
     5
 74
     0
 42
0.00000001
 43
0.00000001
 12
1.0
 22
0.0
 32
0.0
 13
1.0
 23
0.0
 33
0.0
 40
0.0
 40
0.0
 40
0.0
 40
0.0
 40
0.1164889660845979
 40
0.9999999999999999
 40
0.9999999999999999
 40
0.9999999999999999
 40
0.9999999999999999
 10
941.4032407652606
 20
731.1613160836881
 30
0.0
 10
941.3948516489843
 20
731.2049782419482
 30
0.0
 10
941.3228352464157
 20
731.5797962159385
 30
0.0
 10
941.1200898427543
 20
732.1169710690565
 30
0.0
 10
940.9409620415439
 20
732.5915709789282
 30
0.0
  0
LINE
  5
1CF
330
1F
100
AcDbEntity
  8
0
  6
Continuous
 62
     7
370
    15
100
AcDbLine
 10
941.1487140309
 20
732.0313173532
 30
0.0
 11
940.9796156537
 21
732.4764134082
 31
0.0
  0
LINE
  5
1D0
330
1F
100
AcDbEntity
  8
0
  6
Continuous
 62
     7
370
    15
100
AcDbLine
 10
932.8418084037
 20
762.529735146
 30
0.0
 11
933.2574911963
 21
762.9535912256
 31
0.0
  0
LINE
  5
1D1
330
1F
100
AcDbEntity
  8
0
  6
Continuous
 62
     7
370
    15
100
AcDbLine
 10
932.8487672459
 20
762.5235995929
 30
0.0
 11
933.3948650014
 21
763.080433635
 31
0.0
  0
SPLINE
  5
1D2
330
1F
100
AcDbEntity
  8
0
  6
Continuous
 62
     7
370
    15
100
AcDbSpline
210
0.0
220
0.0
230
1.0
 70
     8
 71
     3
 72
     9
 73
     5
 74
     0
 42
0.00000001
 43
0.00000001
 12
1.0
 22
0.0
 32
0.0
 13
1.0
 23
0.0
 33
0.0
 40
0.0
 40
0.0
 40
0.0
 40
0.0
 40
0.668236225555361
 40
1.0
 40
1.0
 40
1.0
 40
1.0
 10
934.163302982973
 20
763.169427094925
 30
0.0
 10
934.1436084575059
 20
763.2444442108676
 30
0.0
 10
934.1141360573066
 20
763.3567055835285
 30
0.0
 10
934.1766999959882
 20
763.5465131780386
 30
0.0
 10
934.1974564444293
 20
763.6094844620114
 30
0.0
  0
SPLINE
  5
1D3
330
1F
100
AcDbEntity
  8
0
  6
Continuous
 62
     7
370
    15
100
AcDbSpline
210
0.0
220
0.0
230
1.0
 70
     8
 71
     3
 72
    12
 73
     8
 74
     0
 42
0.00000001
 43
0.00000001
 12
1.0
 22
0.0
 32
0.0
 13
1.0
 23
0.0
 33
0.0
 40
0.0
 40
0.0
 40
0.0
 40
0.0
 40
0.3321438171524075
 40
0.4979368267522702
 40
0.6660726423440243
 40
0.833760457630704
 40
1.0
 40
1.0
 40
1.0
 40
1.0
 10
935.7369550120105
 20
764.7248401026612
 30
0.0
 10
935.7155672619044
 20
764.7481614569765
 30
0.0
 10
935.6835035958986
 20
764.7831239056617
 30
0.0
 10
935.5903009653481
 20
764.7678702512784
 30
0.0
 10
935.5085587124195
 20
764.7364005233201
 30
0.0
 10
935.4167290968165
 20
764.6861354474612
 30
0.0
 10
935.3510889341118
 20
764.6372901071381
 30
0.0
 10
935.3184111963977
 20
764.6129733602887
 30
0.0
  0
SPLINE
  5
1D4
330
1F
100
AcDbEntity
  8
0
  6
Continuous
 62
     7
370
    15
100
AcDbSpline
210
0.0
220
0.0
230
1.0
 70
     8
 71
     3
 72
    13
 73
     9
 74
     0
 42
0.00000001
 43
0.00000001
 12
1.0
 22
0.0
 32
0.0
 13
1.0
 23
0.0
 33
0.0
 40
0.0
 40
0.0
 40
0.0
 40
0.0
 40
0.3322067446031073
 40
0.5021417870648396
 40
0.6660407695646982
 40
0.8328129237477768
 40
0.9164050688266803
 40
1.0
 40
1.0
 40
1.0
 40
1.0
 10
934.9459417711963
 20
764.2360857407933
 30
0.0
 10
934.895793444243
 20
764.1664351817167
 30
0.0
 10
934.8199925433772
 20
764.0611559940633
 30
0.0
 10
934.7560365203669
 20
763.9313584839608
 30
0.0
 10
934.7243699579502
 20
763.8435099130078
 30
0.0
 10
934.7166479475469
 20
763.7842235243933
 30
0.0
 10
934.7202645322095
 20
763.7454261567132
 30
0.0
 10
934.7262442668227
 20
763.7301660348046
 30
0.0
 10
934.7292341839542
 20
763.7225358466989
 30
0.0
  0
LWPOLYLINE
  5
1D5
330
1F
100
AcDbEntity
  8
0
  6
Continuous
 62
     7
370
    15
100
AcDbPolyline
 90
        6
 70
   128
 43
0.0
 10
916.4567597758
 20
813.5774737875
 10
915.8171274316
 20
814.9491554778
 10
915.3305896174
 20
815.992527334
 10
915.0038965594
 20
816.6931277792
 10
914.8415633094
 20
817.041248707
 10
914.8227729451
 20
817.0815563481
  0
SPLINE
  5
1D6
330
1F
100
AcDbEntity
  8
0
  6
Continuous
 62
     7
370
    15
100
AcDbSpline
210
0.0
220
0.0
230
1.0
 70
     8
 71
     3
 72
     9
 73
     5
 74
     0
 42
0.00000001
 43
0.00000001
 12
1.0
 22
0.0
 32
0.0
 13
1.0
 23
0.0
 33
0.0
 40
0.0
 40
0.0
 40
0.0
 40
0.0
 40
0.5209695974441929
 40
1.0
 40
1.0
 40
1.0
 40
1.0
 10
916.3020261179676
 20
812.421851484049
 30
0.0
 10
916.233454790654
 20
812.6353806438569
 30
0.0
 10
916.1018322782273
 20
813.0452493979178
 30
0.0
 10
916.3418053693578
 20
813.4050962196582
 30
0.0
 10
916.4567597758045
 20
813.5774737875348
 30
0.0
  0
LWPOLYLINE
  5
1D7
330
1F
100
AcDbEntity
  8
0
  6
Continuous
 62
     7
370
    15
100
AcDbPolyline
 90
       17
 70
   128
 43
0.0
 10
935.3636213195
 20
771.5441367309
 10
934.3934216153
 20
773.6247448902
 10
933.3199270617
 20
775.9268588107
 10
932.1568467271
 20
778.4211045782
 10
930.9189923655
 20
781.0756644885
 10
929.6222039115
 20
783.8566682022
 10
928.2829769503
 20
786.728632329
 10
926.9184329163
 20
789.6549149136
 10
925.5459614646
 20
792.5981810968
 10
924.1830863606
 20
795.5208874028
 10
922.8471823584
 20
798.3857250492
 10
921.5553112876
 20
801.1561638396
 10
920.3239389312
 20
803.7968433182
 10
919.1687860142
 20
806.2740794103
 10
918.1045897853
 20
808.5562593024
 10
917.1449252021
 20
810.6142661254
 10
916.302026118
 20
812.421851484
  0
SPLINE
  5
1D8
330
1F
100
AcDbEntity
  8
0
  6
Continuous
 62
     7
370
    15
100
AcDbSpline
210
0.0
220
0.0
230
1.0
 70
     8
 71
     3
 72
     9
 73
     5
 74
     0
 42
0.00000001
 43
0.00000001
 12
1.0
 22
0.0
 32
0.0
 13
1.0
 23
0.0
 33
0.0
 40
0.0
 40
0.0
 40
0.0
 40
0.0
 40
0.4790243717297046
 40
1.0
 40
1.0
 40
1.0
 40
1.0
 10
936.4503034006824
 20
770.7011705915814
 30
0.0
 10
936.2279573048731
 20
770.7590985306723
 30
0.0
 10
935.7637928303053
 20
770.8800275324296
 30
0.0
 10
935.5006909742285
 20
771.3166612207838
 30
0.0
 10
935.3636213194599
 20
771.544136730898
 30
0.0
  0
LWPOLYLINE
  5
1D9
330
1F
100
AcDbEntity
  8
0
  6
Continuous
 62
     7
370
    15
100
AcDbPolyline
 90
        7
 70
   128
 43
0.0
 10
938.9120199334
 20
765.4220095556
 10
938.8889380347
 20
765.471485136
 10
938.7181111228
 20
765.8378339093
 10
938.3830883157
 20
766.5562822204
 10
937.8885336768
 20
767.6168723683
 10
937.241271938
 20
769.0049118082
 10
936.4503034007
 20
770.7011705916
  0
LINE
  5
1DA
330
1F
100
AcDbEntity
  8
0
  6
Continuous
 62
     7
370
    15
100
AcDbLine
 10
908.6042948615
 20
814.4847086351
 30
0.0
 11
908.4056921851
 21
814.9102783482
 31
0.0
  0
LINE
  5
1DB
330
1F
100
AcDbEntity
  8
0
  6
Continuous
 62
     7
370
    15
100
AcDbLine
 10
909.474045838
 20
814.3712437432
 30
0.0
 11
908.6042948615
 21
814.4847086351
 31
0.0
  0
LINE
  5
1DC
330
1F
100
AcDbEntity
  8
0
  6
Continuous
 62
     7
370
    15
100
AcDbLine
 10
912.9728235852
 20
814.9884125869
 30
0.0
 11
909.3311138999
 21
814.6964913885
 31
0.0
  0
SPLINE
  5
1DD
330
1F
100
AcDbEntity
  8
0
  6
Continuous
 62
     7
370
    15
100
AcDbSpline
210
0.0
220
0.0
230
1.0
 70
     8
 71
     3
 72
    13
 73
     9
 74
     0
 42
0.00000001
 43
0.00000001
 12
1.0
 22
0.0
 32
0.0
 13
1.0
 23
0.0
 33
0.0
 40
0.0
 40
0.0
 40
0.0
 40
0.0
 40
0.1668663391686004
 40
0.3335133376002712
 40
0.5001306277355413
 40
0.666720656842292
 40
0.8323504840149863
 40
1.0
 40
1.0
 40
1.0
 40
1.0
 10
914.1232081305255
 20
805.522733060587
 30
0.0
 10
914.0866488186152
 20
805.5134660140377
 30
0.0
 10
914.0135782509002
 20
805.4949441021904
 30
0.0
 10
913.9172463825917
 20
805.4477274024885
 30
0.0
 10
913.8371678635577
 20
805.3861668479065
 30
0.0
 10
913.7791223895503
 20
805.3114406190817
 30
0.0
 10
913.7419735858368
 20
805.2275760603386
 30
0.0
 10
913.738089419593
 20
805.1675527546782
 30
0.0
 10
913.7361355673542
 20
805.1373592297917
 30
0.0
  0
SPLINE
  5
1DE
330
1F
100
AcDbEntity
  8
0
  6
Continuous
 62
     7
370
    15
100
AcDbSpline
210
0.0
220
0.0
230
1.0
 70
     8
 71
     3
 72
    10
 73
     6
 74
     0
 42
0.00000001
 43
0.00000001
 12
1.0
 22
0.0
 32
0.0
 13
1.0
 23
0.0
 33
0.0
 40
0.0
 40
0.0
 40
0.0
 40
0.0
 40
0.5008399224805038
 40
0.7508730307572601
 40
1.0
 40
1.0
 40
1.0
 40
1.0
 10
915.6864442478885
 20
805.18326970743
 30
0.0
 10
915.4379169989958
 20
805.2840663928105
 30
0.0
 10
915.0653180901917
 20
805.4351835646745
 30
0.0
 10
914.5247210855788
 20
805.5562580401369
 30
0.0
 10
914.2568837113563
 20
805.5338945213999
 30
0.0
 10
914.1232081305255
 20
805.522733060587
 30
0.0
  0
LINE
  5
1DF
330
1F
100
AcDbEntity
  8
0
  6
Continuous
 62
     7
370
    15
100
AcDbLine
 10
917.466253842
 20
804.4199651759
 30
0.0
 11
915.6864442479
 21
805.1832697074
 31
0.0
  0
LINE
  5
1E0
330
1F
100
AcDbEntity
  8
0
  6
Continuous
 62
     7
370
    15
100
AcDbLine
 10
917.8448178422
 20
804.5001036208
 30
0.0
 11
917.466253842
 21
804.4199651759
 31
0.0
  0
LINE
  5
1E1
330
1F
100
AcDbEntity
  8
0
  6
Continuous
 62
     7
370
    15
100
AcDbLine
 10
916.6020609986
 20
805.476129679
 30
0.0
 11
916.0508819472
 21
806.6247484367
 31
0.0
  0
SPLINE
  5
1E2
330
1F
100
AcDbEntity
  8
0
  6
Continuous
 62
     7
370
    15
100
AcDbSpline
210
0.0
220
0.0
230
1.0
 70
     8
 71
     3
 72
     9
 73
     5
 74
     0
 42
0.00000001
 43
0.00000001
 12
1.0
 22
0.0
 32
0.0
 13
1.0
 23
0.0
 33
0.0
 40
0.0
 40
0.0
 40
0.0
 40
0.0
 40
0.6636438209432026
 40
1.0
 40
1.0
 40
1.0
 40
1.0
 10
913.0223252426853
 20
804.8411539475804
 30
0.0
 10
912.9718587371676
 20
804.9759900816914
 30
0.0
 10
912.89581417241
 20
805.1791655349327
 30
0.0
 10
912.9324105705441
 20
805.3760953015303
 30
0.0
 10
912.9447199951877
 20
805.4423338453656
 30
0.0
  0
SPLINE
  5
1E3
330
1F
100
AcDbEntity
  8
0
  6
Continuous
 62
     7
370
    15
100
AcDbSpline
210
0.0
220
0.0
230
1.0
 70
     8
 71
     3
 72
    13
 73
     9
 74
     0
 42
0.00000001
 43
0.00000001
 12
1.0
 22
0.0
 32
0.0
 13
1.0
 23
0.0
 33
0.0
 40
0.0
 40
0.0
 40
0.0
 40
0.0
 40
0.2498959733065365
 40
0.3750963053247263
 40
0.5002458865259019
 40
0.6260873264019107
 40
0.750572626234932
 40
1.0
 40
1.0
 40
1.0
 40
1.0
 10
914.9888612877597
 20
803.9973309914952
 30
0.0
 10
914.791948115679
 20
803.974542089863
 30
0.0
 10
914.4963795143129
 20
803.9403357251442
 30
0.0
 10
914.0923835584134
 20
804.0037870281451
 30
0.0
 10
913.8021238879079
 20
804.0979967739636
 30
0.0
 10
913.5394732424746
 20
804.2370874298744
 30
0.0
 10
913.237027780669
 20
804.47195094062
 30
0.0
 10
913.1082377240292
 20
804.6934186355275
 30
0.0
 10
913.0223252426853
 20
804.8411539475804
 30
0.0
  0
SPLINE
  5
1E4
330
1F
100
AcDbEntity
  8
0
  6
Continuous
 62
     7
370
    15
100
AcDbSpline
210
0.0
220
0.0
230
1.0
 70
     8
 71
     3
 72
    13
 73
     9
 74
     0
 42
0.00000001
 43
0.00000001
 12
1.0
 22
0.0
 32
0.0
 13
1.0
 23
0.0
 33
0.0
 40
0.0
 40
0.0
 40
0.0
 40
0.0
 40
0.2505499882462075
 40
0.5000912503709802
 40
0.6251705726859437
 40
0.7501907466456551
 40
0.8751059603338127
 40
1.0
 40
1.0
 40
1.0
 40
1.0
 10
921.8643166672458
 20
789.7539666573888
 30
0.0
 10
921.8197011269582
 20
789.8306500972889
 30
0.0
 10
921.7306496706617
 20
789.9837082459273
 30
0.0
 10
921.5823149431309
 20
790.1540151457674
 30
0.0
 10
921.4303788968097
 20
790.2423495142771
 30
0.0
 10
921.3068066873678
 20
790.2804642454284
 30
0.0
 10
921.178310219793
 20
790.2875126007687
 30
0.0
 10
921.0996806640409
 20
790.2609116656301
 30
0.0
 10
921.0603692185153
 20
790.2476123254186
 30
0.0
  0
LINE
  5
1E5
330
1F
100
AcDbEntity
  8
0
  6
Continuous
 62
     7
370
    15
100
AcDbLine
 10
922.4856205832
 20
790.0329573731
 30
0.0
 11
921.8643166672
 21
789.7539666574
 31
0.0
  0
SPLINE
  5
1E6
330
1F
100
AcDbEntity
  8
0
  6
Continuous
 62
     7
370
    15
100
AcDbSpline
210
0.0
220
0.0
230
1.0
 70
     8
 71
     3
 72
    13
 73
     9
 74
     0
 42
0.00000001
 43
0.00000001
 12
1.0
 22
0.0
 32
0.0
 13
1.0
 23
0.0
 33
0.0
 40
0.0
 40
0.0
 40
0.0
 40
0.0
 40
0.2497055723198106
 40
0.3749276833309901
 40
0.5002329195496311
 40
0.6262277220565824
 40
0.7507572949057937
 40
1.0
 40
1.0
 40
1.0
 40
1.0
 10
923.5253938090076
 20
790.8731518964654
 30
0.0
 10
923.4811537183315
 20
790.9514075760972
 30
0.0
 10
923.4147281493969
 20
791.0689068389258
 30
0.0
 10
923.2781753718908
 20
791.1843640732417
 30
0.0
 10
923.162307766363
 20
791.2478666517035
 30
0.0
 10
923.039039115718
 20
791.2894155614501
 30
0.0
 10
922.8680641463583
 20
791.3117468789118
 30
0.0
 10
922.7484372766806
 20
791.2727526323524
 30
0.0
 10
922.6686664473285
 20
791.2467500846273
 30
0.0
  0
SPLINE
  5
1E7
330
1F
100
AcDbEntity
  8
0
  6
Continuous
 62
     7
370
    15
100
AcDbSpline
210
0.0
220
0.0
230
1.0
 70
     8
 71
     3
 72
    12
 73
     8
 74
     0
 42
0.00000001
 43
0.00000001
 12
1.0
 22
0.0
 32
0.0
 13
1.0
 23
0.0
 33
0.0
 40
0.0
 40
0.0
 40
0.0
 40
0.0
 40
0.2504799851433048
 40
0.4998463698796273
 40
0.6240541510361853
 40
0.7503630992169912
 40
1.0
 40
1.0
 40
1.0
 40
1.0
 10
923.2438810717334
 20
789.9592189769631
 30
0.0
 10
923.3125717045234
 20
790.0101169145862
 30
0.0
 10
923.4496475807665
 20
790.1116865044305
 30
0.0
 10
923.5673515048924
 20
790.3012932241127
 30
0.0
 10
923.6049853722485
 20
790.475081813219
 30
0.0
 10
923.6072185816782
 20
790.6568978143354
 30
0.0
 10
923.5580457366143
 20
790.786856360237
 30
0.0
 10
923.5253938090076
 20
790.8731518964654
 30
0.0
  0
LINE
  5
1E8
330
1F
100
AcDbEntity
  8
0
  6
Continuous
 62
     7
370
    15
100
AcDbLine
 10
923.5914804589
 20
789.1874990146
 30
0.0
 11
923.2438810717
 21
789.959218977
 31
0.0
  0
SPLINE
  5
1E9
330
1F
100
AcDbEntity
  8
0
  6
Continuous
 62
     7
370
    15
100
AcDbSpline
210
0.0
220
0.0
230
1.0
 70
     8
 71
     3
 72
    11
 73
     7
 74
     0
 42
0.00000001
 43
0.00000001
 12
1.0
 22
0.0
 32
0.0
 13
1.0
 23
0.0
 33
0.0
 40
0.0
 40
0.0
 40
0.0
 40
0.0
 40
0.304244987513446
 40
0.6080370065635433
 40
0.9118003833153726
 40
0.9999999999999999
 40
0.9999999999999999
 40
0.9999999999999999
 40
0.9999999999999999
 10
921.7149325262775
 20
790.7887666206246
 30
0.0
 10
921.7006777781937
 20
790.91588039599
 30
0.0
 10
921.6721895048947
 20
791.1699186961699
 30
0.0
 10
921.7802872366665
 20
791.5265819575565
 30
0.0
 10
921.931834609317
 20
791.7693573501809
 30
0.0
 10
922.063655369968
 20
791.8491279687995
 30
0.0
 10
922.0933177124729
 20
791.8670779745465
 30
0.0
  0
SPLINE
  5
1EA
330
1F
100
AcDbEntity
  8
0
  6
Continuous
 62
     7
370
    15
100
AcDbSpline
210
0.0
220
0.0
230
1.0
 70
     8
 71
     3
 72
    12
 73
     8
 74
     0
 42
0.00000001
 43
0.00000001
 12
1.0
 22
0.0
 32
0.0
 13
1.0
 23
0.0
 33
0.0
 40
0.0
 40
0.0
 40
0.0
 40
0.0
 40
0.2813460283795047
 40
0.5622866473523666
 40
0.8431826459491688
 40
0.9842539789221934
 40
1.0
 40
1.0
 40
1.0
 40
1.0
 10
920.19070764892
 20
789.3766916077024
 30
0.0
 10
920.1325505211538
 20
789.5300221719554
 30
0.0
 10
920.0163200679301
 20
789.836462356688
 30
0.0
 10
920.055210731719
 20
790.325349972212
 30
0.0
 10
920.2227251526987
 20
790.674888723227
 30
0.0
 10
920.3826096504997
 20
790.8543501924473
 30
0.0
 10
920.4553499878174
 20
790.8963695030646
 30
0.0
 10
920.4626538407077
 20
790.9005886595136
 30
0.0
  0
SPLINE
  5
1EB
330
1F
100
AcDbEntity
  8
0
  6
Continuous
 62
     7
370
    15
100
AcDbSpline
210
0.0
220
0.0
230
1.0
 70
     8
 71
     3
 72
     9
 73
     5
 74
     0
 42
0.00000001
 43
0.00000001
 12
1.0
 22
0.0
 32
0.0
 13
1.0
 23
0.0
 33
0.0
 40
0.0
 40
0.0
 40
0.0
 40
0.0
 40
0.4997198998381975
 40
1.0
 40
1.0
 40
1.0
 40
1.0
 10
920.9771164309253
 20
788.6027364711648
 30
0.0
 10
920.8099531076855
 20
788.690989312401
 30
0.0
 10
920.4754390663314
 20
788.8675939288365
 30
0.0
 10
920.285653560691
 20
789.2069290162051
 30
0.0
 10
920.19070764892
 20
789.3766916077024
 30
0.0
  0
SPLINE
  5
1EC
330
1F
100
AcDbEntity
  8
0
  6
Continuous
 62
     7
370
    15
100
AcDbSpline
210
0.0
220
0.0
230
1.0
 70
     8
 71
     3
 72
     9
 73
     5
 74
     0
 42
0.00000001
 43
0.00000001
 12
1.0
 22
0.0
 32
0.0
 13
1.0
 23
0.0
 33
0.0
 40
0.0
 40
0.0
 40
0.0
 40
0.0
 40
0.5006259986120956
 40
0.9999999999999999
 40
0.9999999999999999
 40
0.9999999999999999
 40
0.9999999999999999
 10
921.8023874413242
 20
788.5814725141412
 30
0.0
 10
921.6658196803328
 20
788.549048237892
 30
0.0
 10
921.3930256956617
 20
788.4842807740781
 30
0.0
 10
921.1156370892489
 20
788.5632842094966
 30
0.0
 10
920.9771164309253
 20
788.6027364711648
 30
0.0
  0
LINE
  5
1ED
330
1F
100
AcDbEntity
  8
0
  6
Continuous
 62
     7
370
    15
100
AcDbLine
 10
927.5918312918
 20
773.6630669515
 30
0.0
 11
927.2786237847
 21
774.3187664728
 31
0.0
  0
LINE
  5
1EE
330
1F
100
AcDbEntity
  8
0
  6
Continuous
 62
     7
370
    15
100
AcDbLine
 10
930.0440408837
 20
776.3984954636
 30
0.0
 11
930.73618492
 21
776.9191681127
 31
0.0
  0
LINE
  5
1EF
330
1F
100
AcDbEntity
  8
0
  6
Continuous
 62
     7
370
    15
100
AcDbLine
 10
929.299817289
 20
776.2611887138
 30
0.0
 11
929.8933454406
 21
776.7075716238
 31
0.0
  0
LINE
  5
1F0
330
1F
100
AcDbEntity
  8
0
  6
Continuous
 62
     7
370
    15
100
AcDbLine
 10
929.4504233252
 20
775.9521498065
 30
0.0
 11
929.299817289
 21
776.2611887138
 31
0.0
  0
LINE
  5
1F1
330
1F
100
AcDbEntity
  8
0
  6
Continuous
 62
     7
370
    15
100
AcDbLine
 10
927.2786237847
 20
774.3187664728
 30
0.0
 11
929.4504233252
 21
775.9521498065
 31
0.0
  0
LINE
  5
1F2
330
1F
100
AcDbEntity
  8
0
  6
Continuous
 62
     7
370
    15
100
AcDbLine
 10
932.8814305913
 20
762.4792760889
 30
0.0
 11
932.4907221448
 21
763.2826274912
 31
0.0
  0
SPLINE
  5
1F3
330
1F
100
AcDbEntity
  8
0
  6
Continuous
 62
     7
370
    15
100
AcDbSpline
210
0.0
220
0.0
230
1.0
 70
     8
 71
     3
 72
    10
 73
     6
 74
     0
 42
0.00000001
 43
0.00000001
 12
1.0
 22
0.0
 32
0.0
 13
1.0
 23
0.0
 33
0.0
 40
0.0
 40
0.0
 40
0.0
 40
0.0
 40
0.2499797799228936
 40
0.5002665895438524
 40
0.9999999999999999
 40
0.9999999999999999
 40
0.9999999999999999
 40
0.9999999999999999
 10
934.4134636770954
 20
764.3909423332101
 30
0.0
 10
934.4257606813964
 20
764.3742080650235
 30
0.0
 10
934.4503697934024
 20
764.3407189753184
 30
0.0
 10
934.5452848023742
 20
764.3295817336643
 30
0.0
 10
934.6404944599869
 20
764.3633322906956
 30
0.0
 10
934.703932012247
 20
764.3858200590497
 30
0.0
  0
SPLINE
  5
1F4
330
1F
100
AcDbEntity
  8
0
  6
Continuous
 62
     7
370
    15
100
AcDbSpline
210
0.0
220
0.0
230
1.0
 70
     8
 71
     3
 72
    11
 73
     7
 74
     0
 42
0.00000001
 43
0.00000001
 12
1.0
 22
0.0
 32
0.0
 13
1.0
 23
0.0
 33
0.0
 40
0.0
 40
0.0
 40
0.0
 40
0.0
 40
0.2503254851519652
 40
0.5003334209547626
 40
0.7501301304740099
 40
0.9999999999999999
 40
0.9999999999999999
 40
0.9999999999999999
 40
0.9999999999999999
 10
935.2400906931629
 20
764.8421718459016
 30
0.0
 10
935.2763873317551
 20
764.8961615301142
 30
0.0
 10
935.3489345649904
 20
765.0040724101508
 30
0.0
 10
935.419460241844
 20
765.1573080064657
 30
0.0
 10
935.4526381560271
 20
765.2912383635648
 30
0.0
 10
935.4360210055268
 20
765.3499054065185
 30
0.0
 10
935.4277112137546
 20
765.3792432229405
 30
0.0
  0
LINE
  5
1F5
330
1F
100
AcDbEntity
  8
0
  6
Continuous
 62
     7
370
    15
100
AcDbLine
 10
935.37800094
 20
764.5240208785
 30
0.0
 11
935.2400906932
 21
764.8421718459
 31
0.0
  0
SPLINE
  5
1F6
330
1F
100
AcDbEntity
  8
0
  6
Continuous
 62
     7
370
    15
100
AcDbSpline
210
0.0
220
0.0
230
1.0
 70
     8
 71
     3
 72
    11
 73
     7
 74
     0
 42
0.00000001
 43
0.00000001
 12
1.0
 22
0.0
 32
0.0
 13
1.0
 23
0.0
 33
0.0
 40
0.0
 40
0.0
 40
0.0
 40
0.0
 40
0.2813804058465804
 40
0.5625124691743489
 40
0.8435946853999587
 40
1.0
 40
1.0
 40
1.0
 40
1.0
 10
934.6008606802692
 20
765.435677645672
 30
0.0
 10
934.7475266119831
 20
765.5709186485476
 30
0.0
 10
935.0407290300545
 20
765.8412812924292
 30
0.0
 10
935.4687645193035
 20
766.0522153539395
 30
0.0
 10
935.7853431857978
 20
766.1170331199869
 30
0.0
 10
935.8703119528727
 20
766.0252887035409
 30
0.0
 10
935.9006889712085
 20
765.9924893360024
 30
0.0
  0
SPLINE
  5
1F7
330
1F
100
AcDbEntity
  8
0
  6
Continuous
 62
     7
370
    15
100
AcDbSpline
210
0.0
220
0.0
230
1.0
 70
     8
 71
     3
 72
    13
 73
     9
 74
     0
 42
0.00000001
 43
0.00000001
 12
1.0
 22
0.0
 32
0.0
 13
1.0
 23
0.0
 33
0.0
 40
0.0
 40
0.0
 40
0.0
 40
0.0
 40
0.2493162124559762
 40
0.373116043201642
 40
0.4997934588923061
 40
0.6255122153138059
 40
0.7502717114847159
 40
1.0
 40
1.0
 40
1.0
 40
1.0
 10
933.8433750521411
 20
763.8467072229272
 30
0.0
 10
933.8204845141173
 20
763.9322616468166
 30
0.0
 10
933.786227508165
 20
764.0602987600292
 30
0.0
 10
933.8532851947081
 20
764.3248083950997
 30
0.0
 10
933.9417659726624
 20
764.5429269902879
 30
0.0
 10
934.0660040102862
 20
764.773639659418
 30
0.0
 10
934.2733500982365
 20
765.084407296449
 30
0.0
 10
934.4698344849611
 20
765.2951459501843
 30
0.0
 10
934.6008606802692
 20
765.435677645672
 30
0.0
  0
LINE
  5
1F8
330
1F
100
AcDbEntity
  8
0
  6
Continuous
 62
     7
370
    15
100
AcDbLine
 10
933.9242287528
 20
763.7680663447
 30
0.0
 11
933.8433750521
 21
763.8467072229
 31
0.0
  0
LINE
  5
1F9
330
1F
100
AcDbEntity
  8
0
  6
Continuous
 62
     7
370
    15
100
AcDbLine
 10
933.3218493115
 20
763.264787076
 30
0.0
 11
933.9242287528
 21
763.7680663447
 31
0.0
  0
LINE
  5
1FA
330
1F
100
AcDbEntity
  8
0
  6
Continuous
 62
     7
370
    15
100
AcDbLine
 10
932.4907221448
 20
763.2826274912
 30
0.0
 11
933.0397405278
 21
763.8332142215
 31
0.0
  0
LWPOLYLINE
  5
1FB
330
1F
100
AcDbEntity
  8
0
  6
Continuous
 62
     7
370
    15
100
AcDbPolyline
 90
       32
 70
   128
 43
0.0
 10
931.5394022118
 20
757.5705951731
 10
931.5131016623
 20
757.6270165573
 10
931.349173988
 20
757.9785405378
 10
931.0368605506
 20
758.6483104806
 10
930.5795588147
 20
759.6289894264
 10
929.9822904717
 20
760.9098299127
 10
929.2516120326
 20
762.4768024962
 10
928.3954956185
 20
764.3127335887
 10
927.4233438622
 20
766.3975140731
 10
926.345811094
 20
768.7082967441
 10
925.1746990334
 20
771.2197719793
 10
923.9228226792
 20
773.9044173341
 10
922.6039209019
 20
776.7328216414
 10
921.2324180257
 20
779.6739942114
 10
919.8233791243
 20
782.695711283
 10
918.3921970975
 20
785.7648699264
 10
916.9545926701
 20
788.8478419464
 10
915.5262865674
 20
791.9108501356
 10
914.1229399096
 20
794.9203333537
 10
912.7599306952
 20
797.8433153312
 10
911.4521898877
 20
800.6477809231
 10
910.2140375029
 20
803.3029964845
 10
909.0590484988
 20
805.7798749487
 10
907.9998739611
 20
808.0512813012
 10
907.0481218945
 20
810.0923231523
 10
906.2142231118
 20
811.8806413095
 10
905.5072971236
 20
813.3966407459
 10
904.9351074349
 20
814.6237141173
 10
904.5039125334
 20
815.5484131257
 10
904.2184360873
 20
816.1606198828
 10
904.0818073403
 20
816.4536065142
 10
904.0692158591
 20
816.4805999677
  0
LINE
  5
1FC
330
1F
100
AcDbEntity
  8
0
  6
Continuous
 62
     7
370
    15
100
AcDbLine
 10
921.4662768494
 20
789.3314442317
 30
0.0
 11
921.8057849061
 21
788.5829663556
 31
0.0
  0
SPLINE
  5
1FD
330
1F
100
AcDbEntity
  8
0
  6
Continuous
 62
     7
370
    15
100
AcDbSpline
210
0.0
220
0.0
230
1.0
 70
     8
 71
     3
 72
     9
 73
     5
 74
     0
 42
0.00000001
 43
0.00000001
 12
1.0
 22
0.0
 32
0.0
 13
1.0
 23
0.0
 33
0.0
 40
0.0
 40
0.0
 40
0.0
 40
0.0
 40
0.500627856714924
 40
1.0
 40
1.0
 40
1.0
 40
1.0
 10
921.8057849060764
 20
788.5829663555509
 30
0.0
 10
921.6692124402263
 20
788.5505506593674
 30
0.0
 10
921.3964100701262
 20
788.4858005745514
 30
0.0
 10
921.1190099739366
 20
788.5648513933236
 30
0.0
 10
920.9804840933551
 20
788.6043271701222
 30
0.0
  0
SPLINE
  5
1FE
330
1F
100
AcDbEntity
  8
0
  6
Continuous
 62
     7
370
    15
100
AcDbSpline
210
0.0
220
0.0
230
1.0
 70
     8
 71
     3
 72
     9
 73
     5
 74
     0
 42
0.00000001
 43
0.00000001
 12
1.0
 22
0.0
 32
0.0
 13
1.0
 23
0.0
 33
0.0
 40
0.0
 40
0.0
 40
0.0
 40
0.0
 40
0.4997040172716962
 40
1.0
 40
1.0
 40
1.0
 40
1.0
 10
920.9804840933551
 20
788.6043308954125
 30
0.0
 10
920.8132933740471
 20
788.6926267066991
 30
0.0
 10
920.4787138759261
 20
788.8693229273313
 30
0.0
 10
920.288902879759
 20
789.2087509517036
 30
0.0
 10
920.1939412008991
 20
789.3785654287225
 30
0.0
  0
SPLINE
  5
1FF
330
1F
100
AcDbEntity
  8
0
  6
Continuous
 62
     7
370
    15
100
AcDbSpline
210
0.0
220
0.0
230
1.0
 70
     8
 71
     3
 72
    12
 73
     8
 74
     0
 42
0.00000001
 43
0.00000001
 12
1.0
 22
0.0
 32
0.0
 13
1.0
 23
0.0
 33
0.0
 40
0.0
 40
0.0
 40
0.0
 40
0.0
 40
0.250034682984917
 40
0.4996923851045849
 40
0.7492809285091843
 40
0.8746232538772134
 40
1.0
 40
1.0
 40
1.0
 40
1.0
 10
920.1939412008991
 20
789.3785654287225
 30
0.0
 10
920.1356618860042
 20
789.5320727609156
 30
0.0
 10
920.0191911247705
 20
789.8388559801028
 30
0.0
 10
920.0594543371114
 20
790.3258139276463
 30
0.0
 10
920.2224341721533
 20
790.6818958253256
 30
0.0
 10
920.437302230547
 20
790.8995796509373
 30
0.0
 10
920.5717077104027
 20
790.9701057395331
 30
0.0
 10
920.6389196764698
 20
791.0053736250287
 30
0.0
  0
SPLINE
  5
200
330
1F
100
AcDbEntity
  8
0
  6
Continuous
 62
     7
370
    15
100
AcDbSpline
210
0.0
220
0.0
230
1.0
 70
     8
 71
     3
 72
    11
 73
     7
 74
     0
 42
0.00000001
 43
0.00000001
 12
1.0
 22
0.0
 32
0.0
 13
1.0
 23
0.0
 33
0.0
 40
0.0
 40
0.0
 40
0.0
 40
0.0
 40
0.2497910455532664
 40
0.4996133172678415
 40
0.7496517283931825
 40
1.0
 40
1.0
 40
1.0
 40
1.0
 10
920.6389196764698
 20
791.0053736250287
 30
0.0
 10
920.7279932976309
 20
791.0362332986014
 30
0.0
 10
920.9061516749695
 20
791.0979565034875
 30
0.0
 10
921.1992422370162
 20
791.0749278952422
 30
0.0
 10
921.479036402419
 20
790.9730335379
 30
0.0
 10
921.6383537622216
 20
790.8515824189
 30
0.0
 10
921.7180617701282
 20
790.7908192555791
 30
0.0
  0
SPLINE
  5
201
330
1F
100
AcDbEntity
  8
0
  6
Continuous
 62
     7
370
    15
100
AcDbSpline
210
0.0
220
0.0
230
1.0
 70
     8
 71
     3
 72
    11
 73
     7
 74
     0
 42
0.00000001
 43
0.00000001
 12
1.0
 22
0.0
 32
0.0
 13
1.0
 23
0.0
 33
0.0
 40
0.0
 40
0.0
 40
0.0
 40
0.0
 40
0.2502699165921204
 40
0.5001461758753689
 40
0.7499715060442979
 40
1.0
 40
1.0
 40
1.0
 40
1.0
 10
921.7180617701282
 20
790.7908192555791
 30
0.0
 10
921.7040272197069
 20
790.9176754188421
 30
0.0
 10
921.6759801942438
 20
791.1711882093773
 30
0.0
 10
921.7804976939341
 20
791.5322780341232
 30
0.0
 10
921.9924987655246
 20
791.8339190164886
 30
0.0
 10
922.2030221112487
 20
791.9500951805107
 30
0.0
 10
922.3083265673389
 20
792.0082068722135
 30
0.0
  0
SPLINE
  5
202
330
1F
100
AcDbEntity
  8
0
  6
Continuous
 62
     7
370
    15
100
AcDbSpline
210
0.0
220
0.0
230
1.0
 70
     8
 71
     3
 72
    12
 73
     8
 74
     0
 42
0.00000001
 43
0.00000001
 12
1.0
 22
0.0
 32
0.0
 13
1.0
 23
0.0
 33
0.0
 40
0.0
 40
0.0
 40
0.0
 40
0.0
 40
0.2493257161826412
 40
0.3746748707721835
 40
0.5001468886084419
 40
0.7497781890298985
 40
1.0
 40
1.0
 40
1.0
 40
1.0
 10
922.3083265673389
 20
792.0082068722135
 30
0.0
 10
922.4876199890084
 20
792.0650895423256
 30
0.0
 10
922.7570536464058
 20
792.1505701233092
 30
0.0
 10
923.1405443545254
 20
792.0881419799224
 30
0.0
 10
923.5047619845737
 20
791.9554541246225
 30
0.0
 10
923.9206845246562
 20
791.6570073371047
 30
0.0
 10
924.1160262880404
 20
791.3066114150499
 30
0.0
 10
924.2138125550022
 20
791.1312064807302
 30
0.0
  0
SPLINE
  5
203
330
1F
100
AcDbEntity
  8
0
  6
Continuous
 62
     7
370
    15
100
AcDbSpline
210
0.0
220
0.0
230
1.0
 70
     8
 71
     3
 72
    13
 73
     9
 74
     0
 42
0.00000001
 43
0.00000001
 12
1.0
 22
0.0
 32
0.0
 13
1.0
 23
0.0
 33
0.0
 40
0.0
 40
0.0
 40
0.0
 40
0.0
 40
0.2496110791703905
 40
0.3750348442769992
 40
0.4999533579792011
 40
0.6248956733046506
 40
0.750277427035546
 40
1.0
 40
1.0
 40
1.0
 40
1.0
 10
924.2138125550022
 20
791.1312064807302
 30
0.0
 10
924.2842156129254
 20
790.9458170375441
 30
0.0
 10
924.3899945709454
 20
790.6672737085099
 30
0.0
 10
924.3876438858897
 20
790.2755515934563
 30
0.0
 10
924.3273697632496
 20
789.993576523699
 30
0.0
 10
924.2106122074579
 20
789.7342938414753
 30
0.0
 10
923.9867472383077
 20
789.4327565737173
 30
0.0
 10
923.7515219190465
 20
789.286381340494
 30
0.0
 10
923.5949226271381
 20
789.1889332513696
 30
0.0
  0
LINE
  5
204
330
1F
100
AcDbEntity
  8
0
  6
Continuous
 62
     7
370
    15
100
AcDbLine
 10
923.5949226271
 20
789.1889332514
 30
0.0
 11
923.2472040307
 21
789.960887907
 31
0.0
  0
SPLINE
  5
205
330
1F
100
AcDbEntity
  8
0
  6
Continuous
 62
     7
370
    15
100
AcDbSpline
210
0.0
220
0.0
230
1.0
 70
     8
 71
     3
 72
    12
 73
     8
 74
     0
 42
0.00000001
 43
0.00000001
 12
1.0
 22
0.0
 32
0.0
 13
1.0
 23
0.0
 33
0.0
 40
0.0
 40
0.0
 40
0.0
 40
0.0
 40
0.250444661207623
 40
0.499797035072052
 40
0.6239899810712971
 40
0.7503316478175517
 40
1.0
 40
1.0
 40
1.0
 40
1.0
 10
923.2472040306797
 20
789.9608879070169
 30
0.0
 10
923.3158888742458
 20
790.0117935055769
 30
0.0
 10
923.4529589998511
 20
790.1133826834262
 30
0.0
 10
923.5706629985293
 20
790.3030152546653
 30
0.0
 10
923.6082420487708
 20
790.4768449415367
 30
0.0
 10
923.6104907619647
 20
790.6586968290214
 30
0.0
 10
923.561293825691
 20
790.7886981710989
 30
0.0
 10
923.5286273609867
 20
790.8750182669049
 30
0.0
  0
SPLINE
  5
206
330
1F
100
AcDbEntity
  8
0
  6
Continuous
 62
     7
370
    15
100
AcDbSpline
210
0.0
220
0.0
230
1.0
 70
     8
 71
     3
 72
    14
 73
    10
 74
     0
 42
0.00000001
 43
0.00000001
 12
1.0
 22
0.0
 32
0.0
 13
1.0
 23
0.0
 33
0.0
 40
0.0
 40
0.0
 40
0.0
 40
0.0
 40
0.2494058938708455
 40
0.3744739909113072
 40
0.4996158111245044
 40
0.6254097969406534
 40
0.7497889140508727
 40
0.8748034850706993
 40
1.0
 40
1.0
 40
1.0
 40
1.0
 10
923.5286273609867
 20
790.8750257174855
 30
0.0
 10
923.484385130686
 20
790.9533042003192
 30
0.0
 10
923.4179570110839
 20
791.0708365305067
 30
0.0
 10
923.2813346750486
 20
791.1863655229522
 30
0.0
 10
923.1655351213049
 20
791.2497384545986
 30
0.0
 10
923.0419926628433
 20
791.2919208793912
 30
0.0
 10
922.9144047608681
 20
791.3065535179117
 30
0.0
 10
922.7880349744127
 20
791.2941065996827
 30
0.0
 10
922.7105608976498
 20
791.2639187806709
 30
0.0
 10
922.6717956911792
 20
791.2488138954526
 30
0.0
  0
SPLINE
  5
207
330
1F
100
AcDbEntity
  8
0
  6
Continuous
 62
     7
370
    15
100
AcDbSpline
210
0.0
220
0.0
230
1.0
 70
     8
 71
     3
 72
    13
 73
     9
 74
     0
 42
0.00000001
 43
0.00000001
 12
1.0
 22
0.0
 32
0.0
 13
1.0
 23
0.0
 33
0.0
 40
0.0
 40
0.0
 40
0.0
 40
0.0
 40
0.1246162125875687
 40
0.2499174046277388
 40
0.3736268744248092
 40
0.500067767019481
 40
0.7496124032761687
 40
0.9999999999999999
 40
0.9999999999999999
 40
0.9999999999999999
 40
0.9999999999999999
 10
922.6717956911792
 20
791.2488138954526
 30
0.0
 10
922.6237422781192
 20
791.2225693827111
 30
0.0
 10
922.5273713162188
 20
791.1699360986952
 30
0.0
 10
922.4236548877028
 20
791.0381363164146
 30
0.0
 10
922.3582167774051
 20
790.8827124605376
 30
0.0
 10
922.3182223328264
 20
790.65751110979
 30
0.0
 10
922.3567010905481
 20
790.3620925742808
 30
0.0
 10
922.4447734874575
 20
790.1439763413523
 30
0.0
 10
922.4888839375247
 20
790.0347343366033
 30
0.0
  0
LINE
  5
208
330
1F
100
AcDbEntity
  8
0
  6
Continuous
 62
     7
370
    15
100
AcDbLine
 10
922.4888839375
 20
790.0347343366
 30
0.0
 11
921.8675949227
 21
789.7557436209
 31
0.0
  0
SPLINE
  5
209
330
1F
100
AcDbEntity
  8
0
  6
Continuous
 62
     7
370
    15
100
AcDbSpline
210
0.0
220
0.0
230
1.0
 70
     8
 71
     3
 72
    14
 73
    10
 74
     0
 42
0.00000001
 43
0.00000001
 12
1.0
 22
0.0
 32
0.0
 13
1.0
 23
0.0
 33
0.0
 40
0.0
 40
0.0
 40
0.0
 40
0.0
 40
0.2504938320051049
 40
0.4999595827215457
 40
0.625000860322463
 40
0.7499507430063248
 40
0.8748107161009784
 40
0.9373851770160694
 40
1.0
 40
1.0
 40
1.0
 40
1.0
 10
921.8675949227085
 20
789.7557436208612
 30
0.0
 10
921.8229681532308
 20
789.8324417633835
 30
0.0
 10
921.7338977722651
 20
789.9855232625328
 30
0.0
 10
921.5854886410458
 20
790.1560109861198
 30
0.0
 10
921.4336389989052
 20
790.2441423004385
 30
0.0
 10
921.3097735928365
 20
790.2830057126483
 30
0.0
 10
921.2034772672316
 20
790.2866552260821
 30
0.0
 10
921.1212364261312
 20
790.2724099549824
 30
0.0
 10
921.0827684526344
 20
790.2572085225025
 30
0.0
 10
921.0635282646884
 20
790.2496053557282
 30
0.0
  0
SPLINE
  5
20A
330
1F
100
AcDbEntity
  8
0
  6
Continuous
 62
     7
370
    15
100
AcDbSpline
210
0.0
220
0.0
230
1.0
 70
     8
 71
     3
 72
    14
 73
    10
 74
     0
 42
0.00000001
 43
0.00000001
 12
1.0
 22
0.0
 32
0.0
 13
1.0
 23
0.0
 33
0.0
 40
0.0
 40
0.0
 40
0.0
 40
0.0
 40
0.2488907352055721
 40
0.37397231836096
 40
0.4991321449888573
 40
0.6242598118700807
 40
0.7494474206234841
 40
0.8746505067056176
 40
1.0
 40
1.0
 40
1.0
 40
1.0
 10
921.0635282646884
 20
790.2496053557282
 30
0.0
 10
921.016199323115
 20
790.2215038437647
 30
0.0
 10
920.9450849283138
 20
790.1792797426151
 30
0.0
 10
920.8834228627983
 20
790.0858844190352
 30
0.0
 10
920.8550344962773
 20
790.0063108716151
 30
0.0
 10
920.8410255355187
 20
789.921456127158
 30
0.0
 10
920.8469427907793
 20
789.8342936191344
 30
0.0
 10
920.8663552346674
 20
789.74836399194
 30
0.0
 10
920.8891799445761
 20
789.6940771039206
 30
0.0
 10
920.9005989681949
 20
789.6669177989846
 30
0.0
  0
SPLINE
  5
20B
330
1F
100
AcDbEntity
  8
0
  6
Continuous
 62
     7
370
    15
100
AcDbSpline
210
0.0
220
0.0
230
1.0
 70
     8
 71
     3
 72
    12
 73
     8
 74
     0
 42
0.00000001
 43
0.00000001
 12
1.0
 22
0.0
 32
0.0
 13
1.0
 23
0.0
 33
0.0
 40
0.0
 40
0.0
 40
0.0
 40
0.0
 40
0.2498129489979307
 40
0.4995437659249398
 40
0.7493939907945262
 40
0.8746488020023786
 40
1.0
 40
1.0
 40
1.0
 40
1.0
 10
920.9005989681949
 20
789.6669140736943
 30
0.0
 10
920.9304931313875
 20
789.614669984219
 30
0.0
 10
920.9902716293412
 20
789.5101989817807
 30
0.0
 10
921.1337158773739
 20
789.3992980178955
 30
0.0
 10
921.2689302097407
 20
789.3444932356601
 30
0.0
 10
921.3819917967731
 20
789.3260585321065
 30
0.0
 10
921.4381746289645
 20
789.3296485382705
 30
0.0
 10
921.4662768494358
 20
789.3314442317372
 30
0.0
  0
SPLINE
  5
20C
330
1F
100
AcDbEntity
  8
0
  6
Continuous
 62
     7
370
    15
100
AcDbSpline
210
0.0
220
0.0
230
1.0
 70
     8
 71
     3
 72
     9
 73
     5
 74
     0
 42
0.00000001
 43
0.00000001
 12
1.0
 22
0.0
 32
0.0
 13
1.0
 23
0.0
 33
0.0
 40
0.0
 40
0.0
 40
0.0
 40
0.0
 40
0.5011765943148547
 40
1.0
 40
1.0
 40
1.0
 40
1.0
 10
920.1939412008991
 20
789.3785654287225
 30
0.0
 10
920.1934066438052
 20
789.3782525616201
 30
0.0
 10
920.1923400395389
 20
789.377628296429
 30
0.0
 10
920.1912509248288
 20
789.3770033470701
 30
0.0
 10
920.19070764892
 20
789.3766916077024
 30
0.0
  0
LINE
  5
20D
330
1F
100
AcDbEntity
  8
0
  6
Continuous
 62
     7
370
    15
100
AcDbLine
 10
920.9804840934
 20
788.6043308954
 30
0.0
 11
920.9771164309
 21
788.6027364712
 31
0.0
  0
LINE
  5
20E
330
1F
100
AcDbEntity
  8
0
  6
Continuous
 62
     7
370
    15
100
AcDbLine
 10
921.8057849061
 20
788.5829663556
 30
0.0
 11
921.8023874413
 21
788.5814725141
 31
0.0
  0
SPLINE
  5
20F
330
1F
100
AcDbEntity
  8
0
  6
Continuous
 62
     7
370
    15
100
AcDbSpline
210
0.0
220
0.0
230
1.0
 70
     8
 71
     3
 72
     9
 73
     5
 74
     0
 42
0.00000001
 43
0.00000001
 12
1.0
 22
0.0
 32
0.0
 13
1.0
 23
0.0
 33
0.0
 40
0.0
 40
0.0
 40
0.0
 40
0.0
 40
0.5013459132830945
 40
1.0
 40
1.0
 40
1.0
 40
1.0
 10
921.0635282646884
 20
790.2496053557282
 30
0.0
 10
921.0630024694519
 20
790.2492745664962
 30
0.0
 10
921.0619537020788
 20
790.2486147641054
 30
0.0
 10
921.0608964310396
 20
790.2479458714665
 30
0.0
 10
921.0603692185153
 20
790.2476123254186
 30
0.0
  0
LINE
  5
210
330
1F
100
AcDbEntity
  8
0
  6
Continuous
 62
     7
370
    15
100
AcDbLine
 10
921.8675949227
 20
789.7557436209
 30
0.0
 11
921.8643166672
 21
789.7539666574
 31
0.0
  0
SPLINE
  5
211
330
1F
100
AcDbEntity
  8
0
  6
Continuous
 62
     7
370
    15
100
AcDbSpline
210
0.0
220
0.0
230
1.0
 70
     8
 71
     3
 72
     9
 73
     5
 74
     0
 42
0.00000001
 43
0.00000001
 12
1.0
 22
0.0
 32
0.0
 13
1.0
 23
0.0
 33
0.0
 40
0.0
 40
0.0
 40
0.0
 40
0.0
 40
0.501108057766563
 40
1.0
 40
1.0
 40
1.0
 40
1.0
 10
922.4888839375247
 20
790.0347343366033
 30
0.0
 10
922.4883443812886
 20
790.0344394383469
 30
0.0
 10
922.4872676549664
 20
790.0338509460012
 30
0.0
 10
922.4861687954044
 20
790.0332547903711
 30
0.0
 10
922.4856205832233
 20
790.0329573731309
 30
0.0
  0
SPLINE
  5
212
330
1F
100
AcDbEntity
  8
0
  6
Continuous
 62
     7
370
    15
100
AcDbSpline
210
0.0
220
0.0
230
1.0
 70
     8
 71
     3
 72
     9
 73
     5
 74
     0
 42
0.00000001
 43
0.00000001
 12
1.0
 22
0.0
 32
0.0
 13
1.0
 23
0.0
 33
0.0
 40
0.0
 40
0.0
 40
0.0
 40
0.0
 40
0.4985413735726399
 40
1.0
 40
1.0
 40
1.0
 40
1.0
 10
922.6717956911792
 20
791.2488138954526
 30
0.0
 10
922.67127339423
 20
791.2484712872122
 30
0.0
 10
922.6702257440713
 20
791.247784065933
 30
0.0
 10
922.6691872227857
 20
791.2470954147192
 30
0.0
 10
922.6686664473285
 20
791.2467500846273
 30
0.0
  0
LINE
  5
213
330
1F
100
AcDbEntity
  8
0
  6
Continuous
 62
     7
370
    15
100
AcDbLine
 10
923.2472040307
 20
789.960887907
 30
0.0
 11
923.2438810717
 21
789.959218977
 31
0.0
  0
SPLINE
  5
214
330
1F
100
AcDbEntity
  8
0
  6
Continuous
 62
     7
370
    15
100
AcDbSpline
210
0.0
220
0.0
230
1.0
 70
     8
 71
     3
 72
     9
 73
     5
 74
     0
 42
0.00000001
 43
0.00000001
 12
1.0
 22
0.0
 32
0.0
 13
1.0
 23
0.0
 33
0.0
 40
0.0
 40
0.0
 40
0.0
 40
0.0
 40
0.4997710878644931
 40
1.0
 40
1.0
 40
1.0
 40
1.0
 10
923.5949226271381
 20
789.1889332513696
 30
0.0
 10
923.5943525253804
 20
789.1886932262014
 30
0.0
 10
923.5932117996131
 20
789.1882129559856
 30
0.0
 10
923.5920577485902
 20
789.1877370676895
 30
0.0
 10
923.5914804589023
 20
789.1874990146047
 30
0.0
  0
LWPOLYLINE
  5
215
330
1F
100
AcDbEntity
  8
0
  6
Continuous
 62
     7
370
    15
100
AcDbPolyline
 90
       17
 70
   128
 43
0.0
 10
917.1945311677
 20
811.9952908437
 10
918.0102058303
 20
810.2460733335
 10
918.9388908993
 20
808.2545256894
 10
919.9687101495
 20
806.04603949
 10
921.0865654599
 20
803.6488077323
 10
922.2781666171
 20
801.0934001486
 10
923.5283293378
 20
798.4124353807
 10
924.8210795771
 20
795.6401041429
 10
926.1399515521
 20
792.8117892425
 10
927.4680920493
 20
789.9635663907
 10
928.7885733496
 20
787.1317832451
 10
930.084557141
 20
784.3525639455
 10
931.3394733321
 20
781.6613695304
 10
932.5373478781
 20
779.0925322752
 10
933.6628772866
 20
776.6788310091
 10
934.7016968381
 20
774.4510589819
 10
935.6405743014
 20
772.4376401584
  0
ARC
  5
216
330
1F
100
AcDbEntity
  8
0
  6
Continuous
 62
     7
370
    15
100
AcDbCircle
 10
934.8990672032
 20
772.1778056066
 30
0.0
 40
0.7857141789075329
100
AcDbArc
 50
306.2458172238
 51
19.3111810435
  0
ARC
  5
217
330
1F
100
AcDbEntity
  8
0
  6
Continuous
 62
     7
370
    15
100
AcDbCircle
 10
916.4541866592
 20
811.5932340802
 30
0.0
 40
0.8424723332211672
100
AcDbArc
 50
28.5049304013
 51
100.4054041315
  0
SPLINE
  5
218
330
1F
100
AcDbEntity
  8
0
  6
Continuous
 62
     7
370
    15
100
AcDbSpline
210
0.0
220
0.0
230
1.0
 70
     8
 71
     3
 72
     9
 73
     5
 74
     0
 42
0.00000001
 43
0.00000001
 12
1.0
 22
0.0
 32
0.0
 13
1.0
 23
0.0
 33
0.0
 40
0.0
 40
0.0
 40
0.0
 40
0.0
 40
0.5015891564567585
 40
1.0
 40
1.0
 40
1.0
 40
1.0
 10
923.5286273609867
 20
790.8750257174855
 30
0.0
 10
923.5280855643459
 20
790.8747148467485
 30
0.0
 10
923.5270054041516
 20
790.8740950751023
 30
0.0
 10
923.5259298679254
 20
790.8734656224786
 30
0.0
 10
923.5253938090076
 20
790.8731518964654
 30
0.0
  0
LINE
  5
219
330
1F
100
AcDbEntity
  8
0
  6
Continuous
 62
     7
370
    15
100
AcDbLine
 10
927.5972404134
 20
773.6602543573
 30
0.0
 11
927.2839434993
 21
774.3161550443
 31
0.0
  0
LINE
  5
21A
330
1F
100
AcDbEntity
  8
0
  6
Continuous
 62
     7
370
    15
100
AcDbLine
 10
927.2839434993
 20
774.3161550443
 30
0.0
 11
929.4557430398
 21
775.9495458286
 31
0.0
  0
LINE
  5
21B
330
1F
100
AcDbEntity
  8
0
  6
Continuous
 62
     7
370
    15
100
AcDbLine
 10
929.4557430398
 20
775.9495458286
 30
0.0
 11
929.3050773989
 21
776.2586778681
 31
0.0
  0
LINE
  5
21C
330
1F
100
AcDbEntity
  8
0
  6
Continuous
 62
     7
370
    15
100
AcDbLine
 10
929.3050773989
 20
776.2586778681
 30
0.0
 11
929.8986204516
 21
776.7050682287
 31
0.0
  0
LINE
  5
21D
330
1F
100
AcDbEntity
  8
0
  6
Continuous
 62
     7
370
    15
100
AcDbLine
 10
929.8986204516
 20
776.7050682287
 30
0.0
 11
930.0493605983
 21
776.3958914857
 31
0.0
  0
LINE
  5
21E
330
1F
100
AcDbEntity
  8
0
  6
Continuous
 62
     7
370
    15
100
AcDbLine
 10
930.0493605983
 20
776.3958914857
 30
0.0
 11
930.7415046345
 21
776.9165678601
 31
0.0
  0
LINE
  5
21F
330
1F
100
AcDbEntity
  8
0
  6
Continuous
 62
     7
370
    15
100
AcDbLine
 10
930.7415046345
 20
776.9165678601
 30
0.0
 11
931.0492434155
 21
776.2744358461
 31
0.0
  0
LINE
  5
220
330
1F
100
AcDbEntity
  8
0
  6
Continuous
 62
     7
370
    15
100
AcDbLine
 10
931.0492434155
 20
776.2744358461
 30
0.0
 11
930.3569801699
 21
775.7538190763
 31
0.0
  0
LINE
  5
221
330
1F
100
AcDbEntity
  8
0
  6
Continuous
 62
     7
370
    15
100
AcDbLine
 10
930.3569801699
 20
775.7538190763
 30
0.0
 11
931.0314365279
 21
774.2714590113
 31
0.0
  0
LINE
  5
222
330
1F
100
AcDbEntity
  8
0
  6
Continuous
 62
     7
370
    15
100
AcDbLine
 10
931.0314365279
 20
774.2714590113
 30
0.0
 11
930.4379530799
 21
773.8250425737
 31
0.0
  0
LINE
  5
223
330
1F
100
AcDbEntity
  8
0
  6
Continuous
 62
     7
370
    15
100
AcDbLine
 10
930.4379530799
 20
773.8250425737
 30
0.0
 11
927.5972404134
 21
773.6602543573
 31
0.0
  0
LINE
  5
224
330
1F
100
AcDbEntity
  8
0
  6
Continuous
 62
     7
370
    15
100
AcDbLine
 10
930.1243432414
 20
774.5273417513
 30
0.0
 11
929.7632732045
 21
775.307521848
 31
0.0
  0
LINE
  5
225
330
1F
100
AcDbEntity
  8
0
  6
Continuous
 62
     7
370
    15
100
AcDbLine
 10
929.7632732045
 20
775.307521848
 30
0.0
 11
928.632468785
 21
774.4573286455
 31
0.0
  0
LINE
  5
226
330
1F
100
AcDbEntity
  8
0
  6
Continuous
 62
     7
370
    15
100
AcDbLine
 10
928.632468785
 20
774.4573286455
 30
0.0
 11
930.1243432414
 21
774.5273417513
 31
0.0
  0
LINE
  5
227
330
1F
100
AcDbEntity
  8
0
  6
Continuous
 62
     7
370
    15
100
AcDbLine
 10
927.5972404134
 20
773.6602543573
 30
0.0
 11
927.5918312918
 21
773.6630669515
 31
0.0
  0
LINE
  5
228
330
1F
100
AcDbEntity
  8
0
  6
Continuous
 62
     7
370
    15
100
AcDbLine
 10
927.2839434993
 20
774.3161550443
 30
0.0
 11
927.2786237847
 21
774.3187664728
 31
0.0
  0
LINE
  5
229
330
1F
100
AcDbEntity
  8
0
  6
Continuous
 62
     7
370
    15
100
AcDbLine
 10
929.4557430398
 20
775.9495458286
 30
0.0
 11
929.4504233252
 21
775.9521498065
 31
0.0
  0
LINE
  5
22A
330
1F
100
AcDbEntity
  8
0
  6
Continuous
 62
     7
370
    15
100
AcDbLine
 10
929.3050773989
 20
776.2586778681
 30
0.0
 11
929.299817289
 21
776.2611887138
 31
0.0
  0
LINE
  5
22B
330
1F
100
AcDbEntity
  8
0
  6
Continuous
 62
     7
370
    15
100
AcDbLine
 10
929.8986204516
 20
776.7050682287
 30
0.0
 11
929.8933454406
 21
776.7075716238
 31
0.0
  0
LINE
  5
22C
330
1F
100
AcDbEntity
  8
0
  6
Continuous
 62
     7
370
    15
100
AcDbLine
 10
914.7078849923
 20
804.630421726
 30
0.0
 11
914.9901129853
 21
804.0034553687
 31
0.0
  0
SPLINE
  5
22D
330
1F
100
AcDbEntity
  8
0
  6
Continuous
 62
     7
370
    15
100
AcDbSpline
210
0.0
220
0.0
230
1.0
 70
     8
 71
     3
 72
    13
 73
     9
 74
     0
 42
0.00000001
 43
0.00000001
 12
1.0
 22
0.0
 32
0.0
 13
1.0
 23
0.0
 33
0.0
 40
0.0
 40
0.0
 40
0.0
 40
0.0
 40
0.2498609795868727
 40
0.3750497255795069
 40
0.5001975182820219
 40
0.6260362837620763
 40
0.7505409262953744
 40
1.0
 40
1.0
 40
1.0
 40
1.0
 10
914.9901129853
 20
804.0034553687459
 30
0.0
 10
914.7931935152604
 20
803.9806705696307
 30
0.0
 10
914.497610774323
 20
803.9464698205992
 30
0.0
 10
914.0935965394175
 20
804.0099639984505
 30
0.0
 10
913.8033139602053
 20
804.1042175101417
 30
0.0
 10
913.5406338525319
 20
804.2433640564535
 30
0.0
 10
913.2381487623451
 20
804.4783013580925
 30
0.0
 10
913.1093293684783
 20
804.6998398826204
 30
0.0
 10
913.0233981262912
 20
804.8476210515386
 30
0.0
  0
SPLINE
  5
22E
330
1F
100
AcDbEntity
  8
0
  6
Continuous
 62
     7
370
    15
100
AcDbSpline
210
0.0
220
0.0
230
1.0
 70
     8
 71
     3
 72
    12
 73
     8
 74
     0
 42
0.00000001
 43
0.00000001
 12
1.0
 22
0.0
 32
0.0
 13
1.0
 23
0.0
 33
0.0
 40
0.0
 40
0.0
 40
0.0
 40
0.0
 40
0.2500654234359452
 40
0.3767877941240947
 40
0.5008647244907609
 40
0.7506174714526733
 40
0.9999999999999999
 40
0.9999999999999999
 40
0.9999999999999999
 40
0.9999999999999999
 10
913.0233981262912
 20
804.8476210515386
 30
0.0
 10
912.9749164100359
 20
804.9819322247804
 30
0.0
 10
912.9018662511127
 20
805.1843065074646
 30
0.0
 10
912.9363745626963
 20
805.4501116267693
 30
0.0
 10
913.042481899531
 20
805.6956943309689
 30
0.0
 10
913.2979725932993
 20
805.961693820773
 30
0.0
 10
913.6119543032376
 20
806.0667863222484
 30
0.0
 10
913.7688287150135
 20
806.1192935984021
 30
0.0
  0
SPLINE
  5
22F
330
1F
100
AcDbEntity
  8
0
  6
Continuous
 62
     7
370
    15
100
AcDbSpline
210
0.0
220
0.0
230
1.0
 70
     8
 71
     3
 72
    10
 73
     6
 74
     0
 42
0.00000001
 43
0.00000001
 12
1.0
 22
0.0
 32
0.0
 13
1.0
 23
0.0
 33
0.0
 40
0.0
 40
0.0
 40
0.0
 40
0.0
 40
0.249521738814313
 40
0.4995992541163768
 40
1.0
 40
1.0
 40
1.0
 40
1.0
 10
913.7688287150135
 20
806.1192935984021
 30
0.0
 10
913.9511659814185
 20
806.1406152148703
 30
0.0
 10
914.3162466462396
 20
806.1833059388715
 30
0.0
 10
915.0712258283604
 20
806.0694781849897
 30
0.0
 10
915.5919838180358
 20
805.8751340744499
 30
0.0
 10
915.9392126452198
 20
805.7455501239186
 30
0.0
  0
LINE
  5
230
330
1F
100
AcDbEntity
  8
0
  6
Continuous
 62
     7
370
    15
100
AcDbLine
 10
915.9392126452
 20
805.7455501239
 30
0.0
 11
916.6031636845
 21
805.48255953
 31
0.0
  0
LINE
  5
231
330
1F
100
AcDbEntity
  8
0
  6
Continuous
 62
     7
370
    15
100
AcDbLine
 10
916.6031636845
 20
805.48255953
 30
0.0
 11
916.0518207204
 21
806.6315433662
 31
0.0
  0
LINE
  5
232
330
1F
100
AcDbEntity
  8
0
  6
Continuous
 62
     7
370
    15
100
AcDbLine
 10
916.0518207204
 20
806.6315433662
 30
0.0
 11
916.7827524792
 21
806.7859119456
 31
0.0
  0
LINE
  5
233
330
1F
100
AcDbEntity
  8
0
  6
Continuous
 62
     7
370
    15
100
AcDbLine
 10
916.7827524792
 20
806.7859119456
 30
0.0
 11
917.8460844409
 21
804.5061832945
 31
0.0
  0
LINE
  5
234
330
1F
100
AcDbEntity
  8
0
  6
Continuous
 62
     7
370
    15
100
AcDbLine
 10
917.8460844409
 20
804.5061832945
 30
0.0
 11
917.4675204407
 21
804.4260448496
 31
0.0
  0
LINE
  5
235
330
1F
100
AcDbEntity
  8
0
  6
Continuous
 62
     7
370
    15
100
AcDbLine
 10
917.4675204407
 20
804.4260448496
 30
0.0
 11
915.687561835
 21
805.1896772067
 31
0.0
  0
SPLINE
  5
236
330
1F
100
AcDbEntity
  8
0
  6
Continuous
 62
     7
370
    15
100
AcDbSpline
210
0.0
220
0.0
230
1.0
 70
     8
 71
     3
 72
    10
 73
     6
 74
     0
 42
0.00000001
 43
0.00000001
 12
1.0
 22
0.0
 32
0.0
 13
1.0
 23
0.0
 33
0.0
 40
0.0
 40
0.0
 40
0.0
 40
0.0
 40
0.5008649016279164
 40
0.7508987056591008
 40
1.0
 40
1.0
 40
1.0
 40
1.0
 10
915.687561834978
 20
805.1896772067433
 30
0.0
 10
915.4390184443865
 20
805.2905144812846
 30
0.0
 10
915.0664011783563
 20
805.4416901350172
 30
0.0
 10
914.5257661395926
 20
805.5628332103291
 30
0.0
 10
914.2579127811867
 20
805.540481700309
 30
0.0
 10
914.1242363106479
 20
805.5293268244153
 30
0.0
  0
SPLINE
  5
237
330
1F
100
AcDbEntity
  8
0
  6
Continuous
 62
     7
370
    15
100
AcDbSpline
210
0.0
220
0.0
230
1.0
 70
     8
 71
     3
 72
    14
 73
    10
 74
     0
 42
0.00000001
 43
0.00000001
 12
1.0
 22
0.0
 32
0.0
 13
1.0
 23
0.0
 33
0.0
 40
0.0
 40
0.0
 40
0.0
 40
0.0
 40
0.2492130359157779
 40
0.3742610740392061
 40
0.4993463843218323
 40
0.6236887403403371
 40
0.749555010771586
 40
0.8746910307292819
 40
1.0
 40
1.0
 40
1.0
 40
1.0
 10
914.1242363106479
 20
805.5293268244153
 30
0.0
 10
914.052180024951
 20
805.5080751684778
 30
0.0
 10
913.9439679373406
 20
805.4761600339141
 30
0.0
 10
913.8384128923867
 20
805.3924620022774
 30
0.0
 10
913.7798513321151
 20
805.3180834355223
 30
0.0
 10
913.7440807745825
 20
805.2340216901432
 30
0.0
 10
913.7332924790653
 20
805.1443534933269
 30
0.0
 10
913.7458604861849
 20
805.0525735844029
 30
0.0
 10
913.7705050268411
 20
804.9931352924859
 30
0.0
 10
913.7828358065357
 20
804.9633956234342
 30
0.0
  0
SPLINE
  5
238
330
1F
100
AcDbEntity
  8
0
  6
Continuous
 62
     7
370
    15
100
AcDbSpline
210
0.0
220
0.0
230
1.0
 70
     8
 71
     3
 72
    13
 73
     9
 74
     0
 42
0.00000001
 43
0.00000001
 12
1.0
 22
0.0
 32
0.0
 13
1.0
 23
0.0
 33
0.0
 40
0.0
 40
0.0
 40
0.0
 40
0.0
 40
0.125184608054035
 40
0.2502678710033273
 40
0.372607107912688
 40
0.5006094705642014
 40
0.7498684796611439
 40
1.0
 40
1.0
 40
1.0
 40
1.0
 10
913.7828358065357
 20
804.9633881728536
 30
0.0
 10
913.8011229519591
 20
804.9297234628732
 30
0.0
 10
913.8376824381693
 20
804.8624212966907
 30
0.0
 10
913.9261014555185
 20
804.774065968435
 30
0.0
 10
914.0377401095359
 20
804.7026797775751
 30
0.0
 10
914.2056892743304
 20
804.6320356966789
 30
0.0
 10
914.4414190847011
 20
804.5948878168471
 30
0.0
 10
914.6189596263124
 20
804.6185633013758
 30
0.0
 10
914.7078849922885
 20
804.630421725977
 30
0.0
  0
LINE
  5
239
330
1F
100
AcDbEntity
  8
0
  6
Continuous
 62
     7
370
    15
100
AcDbLine
 10
913.0233981263
 20
804.8476210515
 30
0.0
 11
913.0223252427
 21
804.8411539476
 31
0.0
  0
LINE
  5
23A
330
1F
100
AcDbEntity
  8
0
  6
Continuous
 62
     7
370
    15
100
AcDbLine
 10
914.9901129853
 20
804.0034553687
 30
0.0
 11
914.9888612878
 21
803.9973309915
 31
0.0
  0
LINE
  5
23B
330
1F
100
AcDbEntity
  8
0
  6
Continuous
 62
     7
370
    15
100
AcDbLine
 10
928.6270596635
 20
774.4601337891
 30
0.0
 11
930.1188149106
 21
774.5303890388
 31
0.0
  0
LINE
  5
23C
330
1F
100
AcDbEntity
  8
0
  6
Continuous
 62
     7
370
    15
100
AcDbLine
 10
930.1188149106
 20
774.5303890388
 30
0.0
 11
930.1243432414
 21
774.5273417513
 31
0.0
  0
LINE
  5
23D
330
1F
100
AcDbEntity
  8
0
  6
Continuous
 62
     7
370
    15
100
AcDbLine
 10
930.1188149106
 20
774.5303890388
 30
0.0
 11
929.757864083
 21
775.3103269915
 31
0.0
  0
LINE
  5
23E
330
1F
100
AcDbEntity
  8
0
  6
Continuous
 62
     7
370
    15
100
AcDbLine
 10
930.7415046345
 20
776.9165678601
 30
0.0
 11
930.73618492
 21
776.9191681127
 31
0.0
  0
LINE
  5
23F
330
1F
100
AcDbEntity
  8
0
  6
Continuous
 62
     7
370
    15
100
AcDbLine
 10
915.687561835
 20
805.1896772067
 30
0.0
 11
915.6864442479
 21
805.1832697074
 31
0.0
  0
LINE
  5
240
330
1F
100
AcDbEntity
  8
0
  6
Continuous
 62
     7
370
    15
100
AcDbLine
 10
917.4675204407
 20
804.4260448496
 30
0.0
 11
917.466253842
 21
804.4199651759
 31
0.0
  0
SPLINE
  5
241
330
1F
100
AcDbEntity
  8
0
  6
Continuous
 62
     7
370
    15
100
AcDbSpline
210
0.0
220
0.0
230
1.0
 70
     8
 71
     3
 72
     9
 73
     5
 74
     0
 42
0.00000001
 43
0.00000001
 12
1.0
 22
0.0
 32
0.0
 13
1.0
 23
0.0
 33
0.0
 40
0.0
 40
0.0
 40
0.0
 40
0.0
 40
0.4996779067772749
 40
1.0
 40
1.0
 40
1.0
 40
1.0
 10
914.1242363106479
 20
805.5293268244153
 30
0.0
 10
914.1240686158616
 20
805.528229372111
 30
0.0
 10
914.1237330100967
 20
805.5260330526631
 30
0.0
 10
914.1233831655043
 20
805.5238335302466
 30
0.0
 10
914.1232081305255
 20
805.522733060587
 30
0.0
  0
LINE
  5
242
330
1F
100
AcDbEntity
  8
0
  6
Continuous
 62
     7
370
    15
100
AcDbLine
 10
917.8460844409
 20
804.5061832945
 30
0.0
 11
917.8448178422
 21
804.5001036208
 31
0.0
  0
LINE
  5
243
330
1F
100
AcDbEntity
  8
0
  6
Continuous
 62
     7
370
    15
100
AcDbLine
 10
916.0518207204
 20
806.6315433662
 30
0.0
 11
916.0508819472
 21
806.6247484367
 31
0.0
  0
SPLINE
  5
244
330
1F
100
AcDbEntity
  8
0
  6
Continuous
 62
     7
370
    15
100
AcDbSpline
210
0.0
220
0.0
230
1.0
 70
     8
 71
     3
 72
     9
 73
     5
 74
     0
 42
0.00000001
 43
0.00000001
 12
1.0
 22
0.0
 32
0.0
 13
1.0
 23
0.0
 33
0.0
 40
0.0
 40
0.0
 40
0.0
 40
0.0
 40
0.531556253097097
 40
1.0
 40
1.0
 40
1.0
 40
1.0
 10
935.6405743014087
 20
772.4376401584035
 30
0.0
 10
935.7491414116847
 20
772.2537435367166
 30
0.0
 10
935.9533852892489
 20
771.9077846271648
 30
0.0
 10
936.2910321528423
 20
771.8236307135176
 30
0.0
 10
936.449200714754
 20
771.7842093388921
 30
0.0
  0
SPLINE
  5
245
330
1F
100
AcDbEntity
  8
0
  6
Continuous
 62
     7
370
    15
100
AcDbSpline
210
0.0
220
0.0
230
1.0
 70
     8
 71
     3
 72
    12
 73
     8
 74
     0
 42
0.00000001
 43
0.00000001
 12
1.0
 22
0.0
 32
0.0
 13
1.0
 23
0.0
 33
0.0
 40
0.0
 40
0.0
 40
0.0
 40
0.0
 40
0.030465230396685
 40
0.0888156440776437
 40
0.3925583524358909
 40
0.6962787716102035
 40
1.0
 40
1.0
 40
1.0
 40
1.0
 10
936.449200714754
 20
771.7842093388921
 30
0.0
 10
936.4537954356442
 20
771.7749281414611
 30
0.0
 10
936.4671904794341
 20
771.7478705575559
 30
0.0
 10
936.5207757998958
 20
771.6238290184609
 30
0.0
 10
936.5764257103876
 20
771.3887464447598
 30
0.0
 10
936.567560873447
 20
771.0442185847659
 30
0.0
 10
936.4889322909094
 20
770.8370944124996
 30
0.0
 10
936.4496179472675
 20
770.7335321884042
 30
0.0
  0
SPLINE
  5
246
330
1F
100
AcDbEntity
  8
0
  6
Continuous
 62
     7
370
    15
100
AcDbSpline
210
0.0
220
0.0
230
1.0
 70
     8
 71
     3
 72
    10
 73
     6
 74
     0
 42
0.00000001
 43
0.00000001
 12
1.0
 22
0.0
 32
0.0
 13
1.0
 23
0.0
 33
0.0
 40
0.0
 40
0.0
 40
0.0
 40
0.0
 40
0.2117592693158178
 40
0.4878815667324407
 40
1.0
 40
1.0
 40
1.0
 40
1.0
 10
936.4496179472675
 20
770.7335321884042
 30
0.0
 10
936.4485370174241
 20
770.7307262036081
 30
0.0
 10
936.4460466152466
 20
770.7242613708623
 30
0.0
 10
936.4459063443238
 20
770.7124971276752
 30
0.0
 10
936.4485717147944
 20
770.705631303729
 30
0.0
 10
936.4503034006824
 20
770.7011705915814
 30
0.0
  0
SPLINE
  5
247
330
1F
100
AcDbEntity
  8
0
  6
Continuous
 62
     7
370
    15
100
AcDbSpline
210
0.0
220
0.0
230
1.0
 70
     8
 71
     3
 72
     9
 73
     5
 74
     0
 42
0.00000001
 43
0.00000001
 12
1.0
 22
0.0
 32
0.0
 13
1.0
 23
0.0
 33
0.0
 40
0.0
 40
0.0
 40
0.0
 40
0.0
 40
0.4684483904136415
 40
1.0
 40
1.0
 40
1.0
 40
1.0
 10
917.2854729544391
 20
812.8809562604314
 30
0.0
 10
917.2023979395069
 20
812.7593415509164
 30
0.0
 10
917.0250571339192
 20
812.4997297943092
 30
0.0
 10
917.1357122582343
 20
812.1703651503509
 30
0.0
 10
917.1945311676731
 20
811.9952908437139
 30
0.0
  0
SPLINE
  5
248
330
1F
100
AcDbEntity
  8
0
  6
Continuous
 62
     7
370
    15
100
AcDbSpline
210
0.0
220
0.0
230
1.0
 70
     8
 71
     3
 72
    11
 73
     7
 74
     0
 42
0.00000001
 43
0.00000001
 12
1.0
 22
0.0
 32
0.0
 13
1.0
 23
0.0
 33
0.0
 40
0.0
 40
0.0
 40
0.0
 40
0.0
 40
0.3658304960657513
 40
0.7252614311659781
 40
0.9820710711483569
 40
1.0
 40
1.0
 40
1.0
 40
1.0
 10
919.8236920487155
 20
813.3317610900289
 30
0.0
 10
919.4407407969613
 20
813.3459592481743
 30
0.0
 10
918.6815373519211
 20
813.3741071926653
 30
0.0
 10
917.8084880818096
 20
813.2113861144422
 30
0.0
 10
917.4134531954768
 20
813.0019727773449
 30
0.0
 10
917.2933130755804
 20
812.8883697810267
 30
0.0
 10
917.2854729544391
 20
812.8809562604314
 30
0.0
  0
LWPOLYLINE
  5
249
330
1F
100
AcDbEntity
  8
0
  6
Continuous
 62
     7
370
    15
100
AcDbPolyline
 90
       10
 70
   128
 43
0.0
 10
919.8236920487
 20
813.33176109
 10
921.8769081485
 20
808.9286244194
 10
923.9693590056
 20
804.4413632433
 10
926.0868736159
 20
799.9003386776
 10
928.2151468646
 20
795.3362396638
 10
930.3397842299
 20
790.7799451332
 10
932.4464060914
 20
786.2622595112
 10
934.5207967412
 20
781.8137339036
 10
936.5488894831
 20
777.4644537549
 10
938.5170050513
 20
773.2438302319
  0
SPLINE
  5
24A
330
1F
100
AcDbEntity
  8
0
  6
Continuous
 62
     7
370
    15
100
AcDbSpline
210
0.0
220
0.0
230
1.0
 70
     8
 71
     3
 72
    11
 73
     7
 74
     0
 42
0.00000001
 43
0.00000001
 12
1.0
 22
0.0
 32
0.0
 13
1.0
 23
0.0
 33
0.0
 40
0.0
 40
0.0
 40
0.0
 40
0.0
 40
0.2357971945182258
 40
0.2749039915286079
 40
0.6342525420475987
 40
1.0
 40
1.0
 40
1.0
 40
1.0
 10
936.449200714754
 20
771.7842093388921
 30
0.0
 10
936.6067555054523
 20
771.7960817185775
 30
0.0
 10
936.7904406461338
 20
771.8099231239898
 30
0.0
 10
937.2369934776107
 20
771.9954803019846
 30
0.0
 10
937.799225383178
 20
772.3771292641077
 30
0.0
 10
938.2763416591042
 20
772.9532352147994
 30
0.0
 10
938.5170050513019
 20
773.2438302318936
 30
0.0
  0
LINE
  5
24B
330
1F
100
AcDbEntity
  8
0
  6
Continuous
 62
     7
370
    15
100
AcDbLine
 10
951.0518469464
 20
785.3168739657
 30
0.0
 11
939.3700965296
 21
772.3440571408
 31
0.0
  0
SPLINE
  5
24C
330
1F
100
AcDbEntity
  8
0
  6
Continuous
 62
     7
370
    15
100
AcDbSpline
210
0.0
220
0.0
230
1.0
 70
     8
 71
     3
 72
    10
 73
     6
 74
     0
 42
0.00000001
 43
0.00000001
 12
1.0
 22
0.0
 32
0.0
 13
1.0
 23
0.0
 33
0.0
 40
0.0
 40
0.0
 40
0.0
 40
0.0
 40
0.3554436864764374
 40
0.7142329603782811
 40
1.0
 40
1.0
 40
1.0
 40
1.0
 10
939.3700965296497
 20
772.3440571408158
 30
0.0
 10
939.0237572120237
 20
772.0090228869449
 30
0.0
 10
938.327818683545
 20
771.335800894053
 30
0.0
 10
937.2809286272455
 20
770.7640074720189
 30
0.0
 10
936.7049713050221
 20
770.7428932686682
 30
0.0
 10
936.4496179472675
 20
770.7335321884042
 30
0.0
  0
ARC
  5
24D
330
1F
100
AcDbEntity
  8
0
  6
Continuous
 62
     7
370
    15
100
AcDbCircle
 10
936.1222256179
 20
770.1189932058
 30
0.0
 40
3.936949958348452
100
AcDbArc
 50
34.4144134963
 51
52.5345495004
  0
SPLINE
  5
24E
330
1F
100
AcDbEntity
  8
0
  6
Continuous
 62
     7
370
    15
100
AcDbSpline
210
0.0
220
0.0
230
1.0
 70
     8
 71
     3
 72
    12
 73
     8
 74
     0
 42
0.00000001
 43
0.00000001
 12
1.0
 22
0.0
 32
0.0
 13
1.0
 23
0.0
 33
0.0
 40
0.0
 40
0.0
 40
0.0
 40
0.0
 40
0.0304727311895146
 40
0.0888160069183323
 40
0.392560390620006
 40
0.6962747170791577
 40
0.9999999999999999
 40
0.9999999999999999
 40
0.9999999999999999
 40
0.9999999999999999
 10
917.2854729544391
 20
812.8809562604314
 30
0.0
 10
917.2811226097007
 20
812.890857249658
 30
0.0
 10
917.2684430685731
 20
812.9197147328344
 30
0.0
 10
917.2055970082436
 20
813.0453982754888
 30
0.0
 10
917.0587798187719
 20
813.2444494277757
 30
0.0
 10
916.7890671433987
 20
813.4593589914422
 30
0.0
 10
916.5826796530949
 20
813.5261957591958
 30
0.0
 10
916.4794840466251
 20
813.559614745844
 30
0.0
  0
SPLINE
  5
24F
330
1F
100
AcDbEntity
  8
0
  6
Continuous
 62
     7
370
    15
100
AcDbSpline
210
0.0
220
0.0
230
1.0
 70
     8
 71
     3
 72
    11
 73
     7
 74
     0
 42
0.00000001
 43
0.00000001
 12
1.0
 22
0.0
 32
0.0
 13
1.0
 23
0.0
 33
0.0
 40
0.0
 40
0.0
 40
0.0
 40
0.0
 40
0.3705711090402938
 40
0.744056532985117
 40
0.9445015761753041
 40
1.0
 40
1.0
 40
1.0
 40
1.0
 10
916.4567597758045
 20
813.5774737875348
 30
0.0
 10
916.4581259598858
 20
813.5749487992581
 30
0.0
 10
916.4608690722501
 20
813.5698789652175
 30
0.0
 10
916.4678552840451
 20
813.5637748590775
 30
0.0
 10
916.4752315477939
 20
813.5606666958932
 30
0.0
 10
916.4787262584489
 20
813.5598022015827
 30
0.0
 10
916.4794840466251
 20
813.559614745844
 30
0.0
  0
LINE
  5
250
330
1F
100
AcDbEntity
  8
0
  6
Continuous
 62
     7
370
    15
100
AcDbLine
 10
938.5170050513
 20
773.2438302319
 30
0.0
 11
950.2612658393
 21
786.0825775843
 31
0.0
  0
ARC
  5
251
330
1F
100
AcDbEntity
  8
0
  6
Continuous
 62
     7
370
    15
100
AcDbCircle
 10
947.1733349246
 20
782.1033354509
 30
0.0
 40
5.03683286295058
100
AcDbArc
 50
39.6434240087
 51
52.188186481
  0
LINE
  5
252
330
1F
100
AcDbEntity
  8
0
  6
Continuous
 62
     7
370
    15
100
AcDbLine
 10
937.3380996835
 20
813.7963867466
 30
0.0
 11
919.8236920487
 21
813.33176109
 31
0.0
  0
LWPOLYLINE
  5
253
330
1F
100
AcDbEntity
  8
0
  6
Continuous
 62
     7
370
    15
100
AcDbPolyline
 90
        9
 70
   128
 43
0.0
 10
950.2612658393
 20
786.0825775843
 10
948.690459932
 20
789.4511787872
 10
947.094158138
 20
792.8744784276
 10
945.4786487471
 20
796.3389388006
 10
943.8503392588
 20
799.830854563
 10
942.2156669747
 20
803.3364197891
 10
940.5810989987
 20
806.8417614977
 10
938.9531024348
 20
810.3330216091
 10
937.3380996835
 20
813.7963867466
  0
LINE
  5
254
330
1F
100
AcDbEntity
  8
0
  6
Continuous
 62
     7
370
    15
100
AcDbLine
 10
931.9685109507
 20
817.3066085856
 30
0.0
 11
934.6286513459
 21
817.347229151
 31
0.0
  0
LINE
  5
255
330
1F
100
AcDbEntity
  8
0
  6
Continuous
 62
     7
370
    15
100
AcDbLine
 10
934.6286513459
 20
817.347229151
 30
0.0
 11
936.1067869317
 21
817.3666602652
 31
0.0
  0
LWPOLYLINE
  5
256
330
1F
100
AcDbEntity
  8
0
  6
Continuous
 62
     7
370
    15
100
AcDbPolyline
 90
        9
 70
   128
 43
0.0
 10
937.2834571254
 20
814.8432827275
 10
937.0192744385
 20
815.4098472278
 10
936.7869057309
 20
815.9081495087
 10
936.5873642813
 20
816.3360661547
 10
936.4214994561
 20
816.6917568724
 10
936.2900265109
 20
816.9737091939
 10
936.1934967887
 20
817.1807161252
 10
936.132327522
 20
817.3118835966
 10
936.1067869317
 20
817.3666602652
  0
LINE
  5
257
330
1F
100
AcDbEntity
  8
0
  6
Continuous
 62
     7
370
    15
100
AcDbLine
 10
919.7074778926
 20
814.5107111614
 30
0.0
 11
937.2834571254
 21
814.8432827275
 31
0.0
  0
SPLINE
  5
258
330
1F
100
AcDbEntity
  8
0
  6
Continuous
 62
     7
370
    15
100
AcDbSpline
210
0.0
220
0.0
230
1.0
 70
     8
 71
     3
 72
    10
 73
     6
 74
     0
 42
0.00000001
 43
0.00000001
 12
1.0
 22
0.0
 32
0.0
 13
1.0
 23
0.0
 33
0.0
 40
0.0
 40
0.0
 40
0.0
 40
0.0
 40
0.2857699377111675
 40
0.6445563436183798
 40
1.0
 40
1.0
 40
1.0
 40
1.0
 10
916.4794840466251
 20
813.559614745844
 30
0.0
 10
916.6673062514533
 20
813.713797534891
 30
0.0
 10
917.090940712671
 20
814.0615580290598
 30
0.0
 10
918.2457314395199
 20
814.4020248646108
 30
0.0
 10
919.2217517361635
 20
814.4745956113206
 30
0.0
 10
919.7074778925647
 20
814.5107111613637
 30
0.0
  0
ARC
  5
259
330
1F
100
AcDbEntity
  8
0
  6
Continuous
 62
     7
370
    15
100
AcDbCircle
 10
915.3108787274
 20
813.4821166587
 30
0.0
 40
4.515317360902562
100
AcDbArc
 50
358.0917548747
 51
13.1676509371
  0
LINE
  5
25A
330
1F
100
AcDbEntity
  8
0
  6
Continuous
 62
     7
370
    15
100
AcDbLine
 10
932.8883894335
 20
762.4731219094
 30
0.0
 11
932.4975766789
 21
763.2767154555
 31
0.0
  0
LINE
  5
25B
330
1F
100
AcDbEntity
  8
0
  6
Continuous
 62
     7
370
    15
100
AcDbLine
 10
932.4975766789
 20
763.2767154555
 30
0.0
 11
933.0465950619
 21
763.8273059111
 31
0.0
  0
LINE
  5
25C
330
1F
100
AcDbEntity
  8
0
  6
Continuous
 62
     7
370
    15
100
AcDbLine
 10
933.0465950619
 20
763.8273059111
 30
0.0
 11
933.3287932526
 21
763.2587074022
 31
0.0
  0
LINE
  5
25D
330
1F
100
AcDbEntity
  8
0
  6
Continuous
 62
     7
370
    15
100
AcDbLine
 10
933.3287932526
 20
763.2587074022
 30
0.0
 11
933.9311726939
 21
763.7619605939
 31
0.0
  0
LINE
  5
25E
330
1F
100
AcDbEntity
  8
0
  6
Continuous
 62
     7
370
    15
100
AcDbLine
 10
933.9311726939
 20
763.7619605939
 30
0.0
 11
933.8503040921
 21
763.8406349997
 31
0.0
  0
SPLINE
  5
25F
330
1F
100
AcDbEntity
  8
0
  6
Continuous
 62
     7
370
    15
100
AcDbSpline
210
0.0
220
0.0
230
1.0
 70
     8
 71
     3
 72
    13
 73
     9
 74
     0
 42
0.00000001
 43
0.00000001
 12
1.0
 22
0.0
 32
0.0
 13
1.0
 23
0.0
 33
0.0
 40
0.0
 40
0.0
 40
0.0
 40
0.0
 40
0.2493517916114678
 40
0.3731475085894433
 40
0.4998470582492766
 40
0.6255448496896316
 40
0.7503071489345292
 40
1.0
 40
1.0
 40
1.0
 40
1.0
 10
933.8503040920963
 20
763.8406349997407
 30
0.0
 10
933.8273994646494
 20
763.9262045494382
 30
0.0
 10
933.7931233737828
 20
764.0542568247974
 30
0.0
 10
933.8601812423859
 20
764.3188470026618
 30
0.0
 10
933.9486107055824
 20
764.536938432324
 30
0.0
 10
934.0728742246822
 20
764.7677089446504
 30
0.0
 10
934.2801785440603
 20
765.0784849370318
 30
0.0
 10
934.4766739474649
 20
765.2892455766017
 30
0.0
 10
934.6077003132572
 20
765.4297842364198
 30
0.0
  0
SPLINE
  5
260
330
1F
100
AcDbEntity
  8
0
  6
Continuous
 62
     7
370
    15
100
AcDbSpline
210
0.0
220
0.0
230
1.0
 70
     8
 71
     3
 72
    11
 73
     7
 74
     0
 42
0.00000001
 43
0.00000001
 12
1.0
 22
0.0
 32
0.0
 13
1.0
 23
0.0
 33
0.0
 40
0.0
 40
0.0
 40
0.0
 40
0.0
 40
0.2501136597724443
 40
0.5000518208246664
 40
0.7500014507426874
 40
1.0
 40
1.0
 40
1.0
 40
1.0
 10
934.6077003132572
 20
765.4297842364198
 30
0.0
 10
934.7541278750501
 20
765.5647276027182
 30
0.0
 10
935.0468802539489
 20
765.8345196488108
 30
0.0
 10
935.4784812737123
 20
766.0497145616713
 30
0.0
 10
935.8366329929254
 20
766.1093927604035
 30
0.0
 10
935.9397429228657
 20
765.9839985520987
 30
0.0
 10
935.9913029324283
 20
765.9212953131085
 30
0.0
  0
SPLINE
  5
261
330
1F
100
AcDbEntity
  8
0
  6
Continuous
 62
     7
370
    15
100
AcDbSpline
210
0.0
220
0.0
230
1.0
 70
     8
 71
     3
 72
    11
 73
     7
 74
     0
 42
0.00000001
 43
0.00000001
 12
1.0
 22
0.0
 32
0.0
 13
1.0
 23
0.0
 33
0.0
 40
0.0
 40
0.0
 40
0.0
 40
0.0
 40
0.2502455465997115
 40
0.5000714634944721
 40
0.7498700014338842
 40
1.0
 40
1.0
 40
1.0
 40
1.0
 10
935.9913029324283
 20
765.9212953131085
 30
0.0
 10
936.0127368771656
 20
765.8456912237904
 30
0.0
 10
936.0555688246626
 20
765.6946098235205
 30
0.0
 10
935.9462263526898
 20
765.3391784046846
 30
0.0
 10
935.7186054904978
 20
764.9290965852742
 30
0.0
 10
935.4962638934686
 20
764.6549368632743
 30
0.0
 10
935.3850193869342
 20
764.5177661161309
 30
0.0
  0
LINE
  5
262
330
1F
100
AcDbEntity
  8
0
  6
Continuous
 62
     7
370
    15
100
AcDbLine
 10
935.3850193869
 20
764.5177661161
 30
0.0
 11
935.2470495354
 21
764.8360176663
 31
0.0
  0
SPLINE
  5
263
330
1F
100
AcDbEntity
  8
0
  6
Continuous
 62
     7
370
    15
100
AcDbSpline
210
0.0
220
0.0
230
1.0
 70
     8
 71
     3
 72
    11
 73
     7
 74
     0
 42
0.00000001
 43
0.00000001
 12
1.0
 22
0.0
 32
0.0
 13
1.0
 23
0.0
 33
0.0
 40
0.0
 40
0.0
 40
0.0
 40
0.0
 40
0.2502973013151171
 40
0.5002910449372766
 40
0.7501058533182414
 40
1.0
 40
1.0
 40
1.0
 40
1.0
 10
935.2470495354404
 20
764.8360176663285
 30
0.0
 10
935.2833460576497
 20
764.8900108851855
 30
0.0
 10
935.3558950820631
 20
764.9979318405433
 30
0.0
 10
935.4264270932277
 20
765.1511935117738
 30
0.0
 10
935.4595805097834
 20
765.2851378426694
 30
0.0
 10
935.4429545522966
 20
765.3438160580511
 30
0.0
 10
935.4346402537097
 20
765.3731598238832
 30
0.0
  0
SPLINE
  5
264
330
1F
100
AcDbEntity
  8
0
  6
Continuous
 62
     7
370
    15
100
AcDbSpline
210
0.0
220
0.0
230
1.0
 70
     8
 71
     3
 72
    13
 73
     9
 74
     0
 42
0.00000001
 43
0.00000001
 12
1.0
 22
0.0
 32
0.0
 13
1.0
 23
0.0
 33
0.0
 40
0.0
 40
0.0
 40
0.0
 40
0.0
 40
0.2491939358733277
 40
0.3735727551999332
 40
0.499715315490042
 40
0.6255298611497735
 40
0.7502562320341987
 40
0.9999999999999999
 40
0.9999999999999999
 40
0.9999999999999999
 40
0.9999999999999999
 10
935.4346402537097
 20
765.3731635491735
 30
0.0
 10
935.4109640847502
 20
765.4013933742684
 30
0.0
 10
935.3754705578316
 20
765.4437133990416
 30
0.0
 10
935.278072899458
 20
765.4374219267199
 30
0.0
 10
935.1934607352041
 20
765.4123147527087
 30
0.0
 10
935.0991921575588
 20
765.3662823012486
 30
0.0
 10
934.9657100513381
 20
765.2790649698453
 30
0.0
 10
934.8660490507729
 20
765.1855361158104
 30
0.0
 10
934.7995825659503
 20
765.1231593172437
 30
0.0
  0
SPLINE
  5
265
330
1F
100
AcDbEntity
  8
0
  6
Continuous
 62
     7
370
    15
100
AcDbSpline
210
0.0
220
0.0
230
1.0
 70
     8
 71
     3
 72
    14
 73
    10
 74
     0
 42
0.00000001
 43
0.00000001
 12
1.0
 22
0.0
 32
0.0
 13
1.0
 23
0.0
 33
0.0
 40
0.0
 40
0.0
 40
0.0
 40
0.0
 40
0.2499258049014358
 40
0.4991049672461382
 40
0.6265753878891285
 40
0.7495068196051993
 40
0.8746026951453366
 40
0.9372961900858405
 40
1.0
 40
1.0
 40
1.0
 40
1.0
 10
934.7995825659503
 20
765.1231593172437
 30
0.0
 10
934.7388631442055
 20
765.0586374329896
 30
0.0
 10
934.6176056973683
 20
764.9297864208263
 30
0.0
 10
934.5009233231051
 20
764.7467627665039
 30
0.0
 10
934.4385843210935
 20
764.6119367472995
 30
0.0
 10
934.4095081574228
 20
764.5187485493589
 30
0.0
 10
934.4041571971562
 20
764.454366431308
 30
0.0
 10
934.4098170523245
 20
764.4111709139328
 30
0.0
 10
934.4168673021611
 20
764.3936375254158
 30
0.0
 10
934.4203927170505
 20
764.3848701100236
 30
0.0
  0
SPLINE
  5
266
330
1F
100
AcDbEntity
  8
0
  6
Continuous
 62
     7
370
    15
100
AcDbSpline
210
0.0
220
0.0
230
1.0
 70
     8
 71
     3
 72
    10
 73
     6
 74
     0
 42
0.00000001
 43
0.00000001
 12
1.0
 22
0.0
 32
0.0
 13
1.0
 23
0.0
 33
0.0
 40
0.0
 40
0.0
 40
0.0
 40
0.0
 40
0.2499804071481186
 40
0.5002560877397514
 40
1.0
 40
1.0
 40
1.0
 40
1.0
 10
934.4203927170505
 20
764.3848663847333
 30
0.0
 10
934.4326956899439
 20
764.3681279305417
 30
0.0
 10
934.4573161678345
 20
764.334631250925
 30
0.0
 10
934.5522296873329
 20
764.3234572226688
 30
0.0
 10
934.6474468892528
 20
764.3572008581045
 30
0.0
 10
934.7108908545246
 20
764.3796845059281
 30
0.0
  0
LINE
  5
267
330
1F
100
AcDbEntity
  8
0
  6
Continuous
 62
     7
370
    15
100
AcDbLine
 10
934.7108908545
 20
764.3796845059
 30
0.0
 11
934.7126789939
 21
764.020410059
 31
0.0
  0
LINE
  5
268
330
1F
100
AcDbEntity
  8
0
  6
Continuous
 62
     7
370
    15
100
AcDbLine
 10
934.7126789939
 20
764.020410059
 30
0.0
 11
932.8883894335
 21
762.4731219094
 31
0.0
  0
LINE
  5
269
330
1F
100
AcDbEntity
  8
0
  6
Continuous
 62
     7
370
    15
100
AcDbLine
 10
932.8883894335
 20
762.4731219094
 30
0.0
 11
932.8814305913
 21
762.4792760889
 31
0.0
  0
LINE
  5
26A
330
1F
100
AcDbEntity
  8
0
  6
Continuous
 62
     7
370
    15
100
AcDbLine
 10
932.4975766789
 20
763.2767154555
 30
0.0
 11
932.4907221448
 21
763.2826274912
 31
0.0
  0
LINE
  5
26B
330
1F
100
AcDbEntity
  8
0
  6
Continuous
 62
     7
370
    15
100
AcDbLine
 10
933.0465950619
 20
763.8273059111
 30
0.0
 11
933.0397405278
 21
763.8332142215
 31
0.0
  0
SPLINE
  5
26C
330
1F
100
AcDbEntity
  8
0
  6
Continuous
 62
     7
370
    15
100
AcDbSpline
210
0.0
220
0.0
230
1.0
 70
     8
 71
     3
 72
     9
 73
     5
 74
     0
 42
0.00000001
 43
0.00000001
 12
1.0
 22
0.0
 32
0.0
 13
1.0
 23
0.0
 33
0.0
 40
0.0
 40
0.0
 40
0.0
 40
0.0
 40
0.4998741374016724
 40
1.0
 40
1.0
 40
1.0
 40
1.0
 10
934.6077003132572
 20
765.4297842364198
 30
0.0
 10
934.606556506357
 20
765.4307665948596
 30
0.0
 10
934.6042683165618
 20
765.4327318064325
 30
0.0
 10
934.6019967496369
 20
765.4346955344855
 30
0.0
 10
934.6008606802692
 20
765.435677645672
 30
0.0
  0
SPLINE
  5
26D
330
1F
100
AcDbEntity
  8
0
  6
Continuous
 62
     7
370
    15
100
AcDbSpline
210
0.0
220
0.0
230
1.0
 70
     8
 71
     3
 72
     9
 73
     5
 74
     0
 42
0.00000001
 43
0.00000001
 12
1.0
 22
0.0
 32
0.0
 13
1.0
 23
0.0
 33
0.0
 40
0.0
 40
0.0
 40
0.0
 40
0.0
 40
0.4989033727971777
 40
1.0
 40
1.0
 40
1.0
 40
1.0
 10
933.8503040920963
 20
763.8406349997407
 30
0.0
 10
933.849151711073
 20
763.8416481419083
 30
0.0
 10
933.8468418829858
 20
763.8436788801694
 30
0.0
 10
933.8445323508865
 20
763.845696300436
 30
0.0
 10
933.8433750521411
 20
763.8467072229272
 30
0.0
  0
ARC
  5
26E
330
1F
100
AcDbEntity
  8
0
  6
Continuous
 62
     7
370
    15
100
AcDbCircle
 10
930.7705444642
 20
813.9784683362
 30
0.0
 40
6.570078786680392
100
AcDbArc
 50
358.4119151594
 51
7.5637492569
  0
SPLINE
  5
26F
330
1F
100
AcDbEntity
  8
0
  6
Continuous
 62
     7
370
    15
100
AcDbSpline
210
0.0
220
0.0
230
1.0
 70
     8
 71
     3
 72
     9
 73
     5
 74
     0
 42
0.00000001
 43
0.00000001
 12
1.0
 22
0.0
 32
0.0
 13
1.0
 23
0.0
 33
0.0
 40
0.0
 40
0.0
 40
0.0
 40
0.0
 40
0.5005163344687628
 40
1.0
 40
1.0
 40
1.0
 40
1.0
 10
935.4346402537097
 20
765.3731635491735
 30
0.0
 10
935.433482283376
 20
765.3741763038622
 30
0.0
 10
935.4311687318415
 20
765.3761997237166
 30
0.0
 10
935.4288629260722
 20
765.378229421868
 30
0.0
 10
935.4277112137546
 20
765.3792432229405
 30
0.0
  0
SPLINE
  5
270
330
1F
100
AcDbEntity
  8
0
  6
Continuous
 62
     7
370
    15
100
AcDbSpline
210
0.0
220
0.0
230
1.0
 70
     8
 71
     3
 72
     9
 73
     5
 74
     0
 42
0.00000001
 43
0.00000001
 12
1.0
 22
0.0
 32
0.0
 13
1.0
 23
0.0
 33
0.0
 40
0.0
 40
0.0
 40
0.0
 40
0.0
 40
0.5011884772110555
 40
1.0
 40
1.0
 40
1.0
 40
1.0
 10
934.7108908545246
 20
764.3796845059281
 30
0.0
 10
934.7097287012433
 20
764.3807068097982
 30
0.0
 10
934.7074099063507
 20
764.3827465691232
 30
0.0
 10
934.7050894717592
 20
764.3847971871495
 30
0.0
 10
934.703932012247
 20
764.3858200590497
 30
0.0
  0
LWPOLYLINE
  5
271
330
1F
100
AcDbEntity
  8
0
  6
Continuous
 62
     7
370
    15
100
AcDbPolyline
 90
        9
 70
   128
 43
0.0
 10
951.2820698869
 20
786.2183606903
 10
951.2398996007
 20
786.2643456738
 10
951.1652447831
 20
786.2927249353
 10
951.0609217536
 20
786.3024218659
 10
950.9308346164
 20
786.2930788379
 10
950.7799007546
 20
786.2650423031
 10
950.6137826096
 20
786.219370244
 10
950.4387088668
 20
786.1577762942
 10
950.2612658393
 20
786.0825775843
  0
ARC
  5
272
330
1F
100
AcDbEntity
  8
0
  6
Continuous
 62
     7
370
    15
100
AcDbCircle
 10
950.5294508601
 20
785.9304248994
 30
0.0
 40
0.805817857331699
100
AcDbArc
 50
310.4120917896
 51
20.9357716268
  0
LINE
  5
273
330
1F
100
AcDbEntity
  8
0
  6
Continuous
 62
     7
370
    15
100
AcDbLine
 10
908.6040415417
 20
814.494036762
 30
0.0
 11
908.4053792607
 21
814.9197405856
 31
0.0
  0
LINE
  5
274
330
1F
100
AcDbEntity
  8
0
  6
Continuous
 62
     7
370
    15
100
AcDbLine
 10
908.4053792607
 20
814.9197405856
 30
0.0
 11
912.8405310761
 21
815.2750140707
 31
0.0
  0
LINE
  5
275
330
1F
100
AcDbEntity
  8
0
  6
Continuous
 62
     7
370
    15
100
AcDbLine
 10
912.8405310761
 20
815.2750140707
 30
0.0
 11
912.9725404631
 21
814.9977854173
 31
0.0
  0
LINE
  5
276
330
1F
100
AcDbEntity
  8
0
  6
Continuous
 62
     7
370
    15
100
AcDbLine
 10
912.9725404631
 20
814.9977854173
 30
0.0
 11
909.3308307778
 21
814.7058642189
 31
0.0
  0
LINE
  5
277
330
1F
100
AcDbEntity
  8
0
  6
Continuous
 62
     7
370
    15
100
AcDbLine
 10
909.3308307778
 20
814.7058642189
 30
0.0
 11
909.4738223206
 21
814.380519716
 31
0.0
  0
LINE
  5
278
330
1F
100
AcDbEntity
  8
0
  6
Continuous
 62
     7
370
    15
100
AcDbLine
 10
909.4738223206
 20
814.380519716
 30
0.0
 11
908.6040415417
 21
814.494036762
 31
0.0
  0
LWPOLYLINE
  5
279
330
1F
100
AcDbEntity
  8
0
  6
Continuous
 62
     7
370
    15
100
AcDbPolyline
 90
        9
 70
   128
 43
0.0
 10
938.1489165675
 20
814.3825015705
 10
939.7901602637
 20
810.862854747
 10
941.4446063887
 20
807.314865915
 10
943.1057431351
 20
803.7525645177
 10
944.7669692885
 20
800.190039603
 10
946.4217432391
 20
796.6413802187
 10
948.0634935748
 20
793.1206232588
 10
949.6857382905
 20
789.6416975837
 10
951.2820698869
 20
786.2183606903
  0
ARC
  5
27A
330
1F
100
AcDbEntity
  8
0
  6
Continuous
 62
     7
370
    15
100
AcDbCircle
 10
936.9423711283
 20
815.1977174479
 30
0.0
 40
1.456134892032289
100
AcDbArc
 50
285.7694057379
 51
325.9546340924
  0
LINE
  5
27B
330
1F
100
AcDbEntity
  8
0
  6
Continuous
 62
     7
370
    15
100
AcDbLine
 10
908.6040415417
 20
814.494036762
 30
0.0
 11
908.6042948615
 21
814.4847086351
 31
0.0
  0
LINE
  5
27C
330
1F
100
AcDbEntity
  8
0
  6
Continuous
 62
     7
370
    15
100
AcDbLine
 10
909.4738223206
 20
814.380519716
 30
0.0
 11
909.474045838
 21
814.3712437432
 31
0.0
  0
LINE
  5
27D
330
1F
100
AcDbEntity
  8
0
  6
Continuous
 62
     7
370
    15
100
AcDbLine
 10
935.2470495354
 20
764.8360176663
 30
0.0
 11
935.2400906932
 21
764.8421718459
 31
0.0
  0
LWPOLYLINE
  5
27E
330
1F
100
AcDbEntity
  8
0
  6
Continuous
 62
     7
370
    15
100
AcDbPolyline
 90
        6
 70
   128
 43
0.0
 10
951.2820698869
 20
786.2183606903
 10
951.9419827115
 20
784.8031936865
 10
952.4461933028
 20
783.7219095509
 10
952.7834065806
 20
782.9987375717
 10
952.9460825574
 20
782.6498790364
 10
952.9613413464
 20
782.6171486359
  0
LINE
  5
27F
330
1F
100
AcDbEntity
  8
0
  6
Continuous
 62
     7
370
    15
100
AcDbLine
 10
908.4053792607
 20
814.9197405856
 30
0.0
 11
908.4056921851
 21
814.9102783482
 31
0.0
  0
SPLINE
  5
280
330
1F
100
AcDbEntity
  8
0
  6
Continuous
 62
     7
370
    15
100
AcDbSpline
210
0.0
220
0.0
230
1.0
 70
     8
 71
     3
 72
     9
 73
     5
 74
     0
 42
0.00000001
 43
0.00000001
 12
1.0
 22
0.0
 32
0.0
 13
1.0
 23
0.0
 33
0.0
 40
0.0
 40
0.0
 40
0.0
 40
0.0
 40
0.499895841673722
 40
1.0
 40
1.0
 40
1.0
 40
1.0
 10
935.3850193869342
 20
764.5177661161309
 30
0.0
 10
935.3838457992199
 20
764.5188077538753
 30
0.0
 10
935.3814981347336
 20
764.5208914634353
 30
0.0
 10
935.3791668334687
 20
764.5229775953145
 30
0.0
 10
935.3780009400119
 20
764.524020878542
 30
0.0
  0
LINE
  5
281
330
1F
100
AcDbEntity
  8
0
  6
Continuous
 62
     7
370
    15
100
AcDbLine
 10
912.9725404631
 20
814.9977854173
 30
0.0
 11
912.9728235852
 21
814.9884125869
 31
0.0
  0
ARC
  5
282
330
1F
100
AcDbEntity
  8
0
  6
Continuous
 62
     7
370
    15
100
AcDbCircle
 10
937.3815888597
 20
813.9844354889
 30
0.0
 40
0.8644353165458154
100
AcDbArc
 50
27.4188997768
 51
96.5183374677
  0
SPLINE
  5
283
330
1F
100
AcDbEntity
  8
0
  6
Continuous
 62
     7
370
    15
100
AcDbSpline
210
0.0
220
0.0
230
1.0
 70
     8
 71
     3
 72
    11
 73
     7
 74
     0
 42
0.00000001
 43
0.00000001
 12
1.0
 22
0.0
 32
0.0
 13
1.0
 23
0.0
 33
0.0
 40
0.0
 40
0.0
 40
0.0
 40
0.0
 40
0.2933141123865306
 40
0.5865953853072399
 40
0.8804995204919797
 40
1.0
 40
1.0
 40
1.0
 40
1.0
 10
936.1067869316806
 20
817.366660265196
 30
0.0
 10
936.2194446336134
 20
817.3570913540892
 30
0.0
 10
936.4447474243159
 20
817.3379546032113
 30
0.0
 10
936.7452732652928
 20
817.1692249041414
 30
0.0
 10
936.933505739427
 20
816.9690793543845
 30
0.0
 10
937.0060408395813
 20
816.8289553441127
 30
0.0
 10
937.0270081412067
 20
816.7884505073911
 30
0.0
  0
LWPOLYLINE
  5
284
330
1F
100
AcDbEntity
  8
0
  6
Continuous
 62
     7
370
    15
100
AcDbPolyline
 90
        9
 70
   128
 43
0.0
 10
937.0270081412
 20
816.7884505074
 10
937.0529808652
 20
816.7327425163
 10
937.1124513995
 20
816.6052034776
 10
937.2051664244
 20
816.4063772838
 10
937.3307385098
 20
816.1370909493
 10
937.4886312138
 20
815.7984918635
 10
937.6781739842
 20
815.3920030873
 10
937.8985919606
 20
814.9193457048
 10
938.1489165675
 20
814.3825015705
  0
LINE
  5
285
330
1F
100
AcDbEntity
  8
0
  6
Continuous
 62
     7
370
    15
100
AcDbLine
 10
907.3541619431
 20
790.9796393196
 30
0.0
 11
907.3329277884
 21
790.9697337727
 31
0.0
  0
LINE
  5
286
330
1F
100
AcDbEntity
  8
0
  6
Continuous
 62
     7
370
    15
100
AcDbLine
 10
918.5958214652
 20
766.8718515615
 30
0.0
 11
918.5745724093
 21
766.8619460146
 31
0.0
  0
LINE
  5
287
330
1F
100
AcDbEntity
  8
0
  6
Continuous
 62
     7
370
    15
100
AcDbLine
 10
923.2777067076
 20
756.8314994405
 30
0.0
 11
923.2564725529
 21
756.8215938936
 31
0.0
  0
LINE
  5
288
330
1F
100
AcDbEntity
  8
0
  6
Continuous
 62
     7
370
    15
100
AcDbLine
 10
921.4365192305
 20
760.7799253147
 30
0.0
 11
921.4152850758
 21
760.7700197677
 31
0.0
  0
CIRCLE
  5
289
330
1F
100
AcDbEntity
  8
0
  6
Continuous
 62
     7
370
    15
100
AcDbCircle
 10
887.999611852
 20
892.5566586455
 30
0.0
 40
2.525000000000065
  0
CIRCLE
  5
28A
330
1F
100
AcDbEntity
  8
0
  6
Continuous
 62
     7
370
    15
100
AcDbCircle
 10
887.999611852
 20
892.5566586455
 30
0.0
 40
2.100000000000012
  0
LINE
  5
28B
330
1F
100
AcDbEntity
  8
0
  6
Continuous
 62
     7
370
    15
100
AcDbLine
 10
70.396453942
 20
944.0566605608
 30
0.0
 11
85.3964396369
 21
944.0566605608
 31
0.0
  0
SPLINE
  5
28C
330
1F
100
AcDbEntity
  8
0
  6
Continuous
 62
     7
370
    15
100
AcDbSpline
210
0.0
220
0.0
230
1.0
 70
     8
 71
     3
 72
    13
 73
     9
 74
     0
 42
0.00000001
 43
0.00000001
 12
1.0
 22
0.0
 32
0.0
 13
1.0
 23
0.0
 33
0.0
 40
0.0
 40
0.0
 40
0.0
 40
0.0
 40
0.1695949579215813
 40
0.3386670141993781
 40
0.5184904903411955
 40
0.7277278375663897
 40
0.9924710864094967
 40
1.0
 40
1.0
 40
1.0
 40
1.0
 10
117.0283862005938
 20
171.9066506903059
 30
0.0
 10
117.0288453453432
 20
171.9312703359863
 30
0.0
 10
117.0297622191894
 20
171.9804337191166
 30
0.0
 10
117.0365844017899
 20
172.0465507751242
 30
0.0
 10
117.0467016069829
 20
172.1022396933467
 30
0.0
 10
117.0612086054108
 20
172.1448745835829
 30
0.0
 10
117.0728229868513
 20
172.1566964793547
 30
0.0
 10
117.079288593181
 20
172.1566342901595
 30
0.0
 10
117.0794673811663
 20
172.1566325704939
 30
0.0
  0
LINE
  5
28D
330
1F
100
AcDbEntity
  8
0
  6
Continuous
 62
     7
370
    15
100
AcDbLine
 10
110.661537255
 20
172.1566325705
 30
0.0
 11
117.0794673812
 21
172.1566325705
 31
0.0
  0
SPLINE
  5
28E
330
1F
100
AcDbEntity
  8
0
  6
Continuous
 62
     7
370
    15
100
AcDbSpline
210
0.0
220
0.0
230
1.0
 70
     8
 71
     3
 72
    13
 73
     9
 74
     0
 42
0.00000001
 43
0.00000001
 12
1.0
 22
0.0
 32
0.0
 13
1.0
 23
0.0
 33
0.0
 40
0.0
 40
0.0
 40
0.0
 40
0.0
 40
0.0075289135905033
 40
0.2722721624336103
 40
0.4815095096588045
 40
0.6613329858006218
 40
0.8304050420784186
 40
1.0
 40
1.0
 40
1.0
 40
1.0
 10
117.0794673811663
 20
170.9566718618757
 30
0.0
 10
117.0792885931811
 20
170.9566701422102
 30
0.0
 10
117.0728229868501
 20
170.9566079530135
 30
0.0
 10
117.0612086054112
 20
170.9684298487876
 30
0.0
 10
117.0467016069831
 20
171.0110647390224
 30
0.0
 10
117.0365844017897
 20
171.0667536572453
 30
0.0
 10
117.0297622191893
 20
171.1328707132528
 30
0.0
 10
117.0288453453432
 20
171.1820340963831
 30
0.0
 10
117.0283862005938
 20
171.2066537420637
 30
0.0
  0
LINE
  5
28F
330
1F
100
AcDbEntity
  8
0
  6
Continuous
 62
     7
370
    15
100
AcDbLine
 10
117.0794673812
 20
170.9566718619
 30
0.0
 11
110.4848094832
 21
170.9566718619
 31
0.0
  0
LINE
  5
290
330
1F
100
AcDbEntity
  8
0
  6
Continuous
 62
     7
370
    15
100
AcDbLine
 10
117.0283862006
 20
171.9066506903
 30
0.0
 11
117.0283862006
 21
171.2066537421
 31
0.0
  0
SPLINE
  5
291
330
1F
100
AcDbEntity
  8
0
  6
Continuous
 62
     7
370
    15
100
AcDbSpline
210
0.0
220
0.0
230
1.0
 70
     8
 71
     3
 72
    12
 73
     8
 74
     0
 42
0.00000001
 43
0.00000001
 12
1.0
 22
0.0
 32
0.0
 13
1.0
 23
0.0
 33
0.0
 40
0.0
 40
0.0
 40
0.0
 40
0.0
 40
0.2289434302840346
 40
0.4594157396254706
 40
0.6825307604260678
 40
0.8947213365711636
 40
1.0
 40
1.0
 40
1.0
 40
1.0
 10
121.4797206770647
 20
170.9566718618757
 30
0.0
 10
121.6138211785946
 20
170.9739867446506
 30
0.0
 10
121.882917701775
 20
171.0087321385963
 30
0.0
 10
122.2354547961307
 20
171.2826813931986
 30
0.0
 10
122.4885655897044
 20
171.6796679972644
 30
0.0
 10
122.6018643605454
 20
172.0805740866384
 30
0.0
 10
122.6115127415373
 20
172.3254640277812
 30
0.0
 10
122.6147123228777
 20
172.4066740553266
 30
0.0
  0
SPLINE
  5
292
330
1F
100
AcDbEntity
  8
0
  6
Continuous
 62
     7
370
    15
100
AcDbSpline
210
0.0
220
0.0
230
1.0
 70
     8
 71
     3
 72
    12
 73
     8
 74
     0
 42
0.00000001
 43
0.00000001
 12
1.0
 22
0.0
 32
0.0
 13
1.0
 23
0.0
 33
0.0
 40
0.0
 40
0.0
 40
0.0
 40
0.0
 40
0.20282613634317
 40
0.4049493550623106
 40
0.6098292338796419
 40
0.822690647343504
 40
1.0
 40
1.0
 40
1.0
 40
1.0
 10
118.3398075949419
 20
172.4066740553266
 30
0.0
 10
118.3291994252484
 20
172.2495220944096
 30
0.0
 10
118.3080198497106
 20
171.9357628010195
 30
0.0
 10
118.1433543799756
 20
171.5153979969007
 30
0.0
 10
117.8995841580081
 20
171.1883257606477
 30
0.0
 10
117.6077066607762
 20
170.9900641412682
 30
0.0
 10
117.4027441545938
 20
170.9671052907253
 30
0.0
 10
117.3096009146441
 20
170.9566718618757
 30
0.0
  0
LINE
  5
293
330
1F
100
AcDbEntity
  8
0
  6
Continuous
 62
     7
370
    15
100
AcDbLine
 10
118.3398075949
 20
172.4066740553
 30
0.0
 11
122.6147123229
 21
172.4066740553
 31
0.0
  0
LINE
  5
294
330
1F
100
AcDbEntity
  8
0
  6
Continuous
 62
     7
370
    15
100
AcDbLine
 10
121.4797206771
 20
170.9566718619
 30
0.0
 11
117.3096009146
 21
170.9566718619
 31
0.0
  0
LINE
  5
295
330
1F
100
AcDbEntity
  8
0
  6
Continuous
 62
     7
370
    15
100
AcDbLine
 10
122.6147123229
 20
172.4066740553
 30
0.0
 11
122.6147123229
 21
177.5066858809
 31
0.0
  0
LINE
  5
296
330
1F
100
AcDbEntity
  8
0
  6
Continuous
 62
     7
370
    15
100
AcDbLine
 10
118.3398075949
 20
177.5066858809
 30
0.0
 11
118.3398075949
 21
172.4066740553
 31
0.0
  0
LINE
  5
297
330
1F
100
AcDbEntity
  8
0
  6
Continuous
 62
     7
370
    15
100
AcDbLine
 10
122.6147123229
 20
177.5066858809
 30
0.0
 11
118.3398075949
 21
177.5066858809
 31
0.0
  0
LWPOLYLINE
  5
298
330
1F
100
AcDbEntity
  8
0
  6
Continuous
 62
     7
370
    15
100
AcDbPolyline
 90
        9
 70
   128
 43
0.0
 10
118.3398075949
 20
177.5066858809
 10
118.3375426184
 20
177.5554424803
 10
118.3307476889
 20
177.6023513358
 10
118.3197804343
 20
177.6455647032
 10
118.3049388777
 20
177.6834136526
 10
118.286938275
 20
177.7145272772
 10
118.2663746726
 20
177.7376538794
 10
118.2440229308
 20
177.7518397848
 10
118.220836724
 20
177.7566677611
  0
LINE
  5
299
330
1F
100
AcDbEntity
  8
0
  6
Continuous
 62
     7
370
    15
100
AcDbLine
 10
118.220836724
 20
177.7566677611
 30
0.0
 11
122.3908968817
 21
177.7566677611
 31
0.0
  0
ARC
  5
29A
330
1F
100
AcDbEntity
  8
0
  6
Continuous
 62
     7
370
    15
100
AcDbCircle
 10
122.3770261789
 20
177.5190640456
 30
0.0
 40
0.2380082393814855
100
AcDbArc
 50
357.0188565875
 51
86.65900941
  0
SPLINE
  5
29B
330
1F
100
AcDbEntity
  8
0
  6
Continuous
 62
     7
370
    15
100
AcDbSpline
210
0.0
220
0.0
230
1.0
 70
     8
 71
     3
 72
    12
 73
     8
 74
     0
 42
0.00000001
 43
0.00000001
 12
1.0
 22
0.0
 32
0.0
 13
1.0
 23
0.0
 33
0.0
 40
0.0
 40
0.0
 40
0.0
 40
0.0
 40
0.178967001371549
 40
0.3929087542953633
 40
0.5976920166068823
 40
0.7987855303421615
 40
1.0
 40
1.0
 40
1.0
 40
1.0
 10
117.1358533751237
 20
171.2066537420636
 30
0.0
 10
117.2188750378465
 20
171.2152711672479
 30
0.0
 10
117.40114292986
 20
171.2341900839667
 30
0.0
 10
117.6593468490861
 20
171.3976906320234
 30
0.0
 10
117.8743376710121
 20
171.6682642959699
 30
0.0
 10
118.0190088530747
 20
172.0164368357243
 30
0.0
 10
118.03772719807
 20
172.2765689121193
 30
0.0
 10
118.04708918445
 20
172.4066740553266
 30
0.0
  0
LINE
  5
29C
330
1F
100
AcDbEntity
  8
0
  6
Continuous
 62
     7
370
    15
100
AcDbLine
 10
118.0470891845
 20
172.4066740553
 30
0.0
 11
118.3398075949
 21
172.4066740553
 31
0.0
  0
ARC
  5
29D
330
1F
100
AcDbEntity
  8
0
  6
Continuous
 62
     7
370
    15
100
AcDbCircle
 10
117.3560836249
 20
171.1743509611
 30
0.0
 40
0.2225866855423789
100
AcDbArc
 50
171.6555113457
 51
257.9462216355
  0
LINE
  5
29E
330
1F
100
AcDbEntity
  8
0
  6
Continuous
 62
     7
370
    15
100
AcDbLine
 10
118.0470891845
 20
172.4066740553
 30
0.0
 11
118.0470891845
 21
177.5066858809
 31
0.0
  0
LINE
  5
29F
330
1F
100
AcDbEntity
  8
0
  6
Continuous
 62
     7
370
    15
100
AcDbLine
 10
118.0470891845
 20
177.5066858809
 30
0.0
 11
118.3398075949
 21
177.5066858809
 31
0.0
  0
ARC
  5
2A0
330
1F
100
AcDbEntity
  8
0
  6
Continuous
 62
     7
370
    15
100
AcDbCircle
 10
118.2672798312
 20
177.5390161876
 30
0.0
 40
0.2225514988596345
100
AcDbArc
 50
102.0452872438
 51
188.3529797749
  0
LINE
  5
2A1
330
1F
100
AcDbEntity
  8
0
  6
Continuous
 62
     7
370
    15
100
AcDbLine
 10
117.5172038924
 20
177.5066858809
 30
0.0
 11
117.5172038924
 21
172.4066740553
 31
0.0
  0
LINE
  5
2A2
330
1F
100
AcDbEntity
  8
0
  6
Continuous
 62
     7
370
    15
100
AcDbLine
 10
118.0470891845
 20
177.5066858809
 30
0.0
 11
117.5172038924
 21
177.5066858809
 31
0.0
  0
LINE
  5
2A3
330
1F
100
AcDbEntity
  8
0
  6
Continuous
 62
     7
370
    15
100
AcDbLine
 10
117.0283862006
 20
171.2066537421
 30
0.0
 11
117.1358533751
 21
171.2066537421
 31
0.0
  0
LINE
  5
2A4
330
1F
100
AcDbEntity
  8
0
  6
Continuous
 62
     7
370
    15
100
AcDbLine
 10
117.1358533751
 20
171.9066506903
 30
0.0
 11
117.0283862006
 21
171.9066506903
 31
0.0
  0
SPLINE
  5
2A5
330
1F
100
AcDbEntity
  8
0
  6
Continuous
 62
     7
370
    15
100
AcDbSpline
210
0.0
220
0.0
230
1.0
 70
     8
 71
     3
 72
    12
 73
     8
 74
     0
 42
0.00000001
 43
0.00000001
 12
1.0
 22
0.0
 32
0.0
 13
1.0
 23
0.0
 33
0.0
 40
0.0
 40
0.0
 40
0.0
 40
0.0
 40
0.1818732367861398
 40
0.3964738325599311
 40
0.6006019768537699
 40
0.8002352765985097
 40
1.0
 40
1.0
 40
1.0
 40
1.0
 10
117.1358533751238
 20
171.9066506903059
 30
0.0
 10
117.1710816334482
 20
171.9103786951537
 30
0.0
 10
117.2478773337894
 20
171.9185055443592
 30
0.0
 10
117.3560180524737
 20
171.987611773988
 30
0.0
 10
117.445444858709
 20
172.1004773724948
 30
0.0
 10
117.5055411482271
 20
172.2449220960472
 30
0.0
 10
117.5133154582833
 20
172.3527449090448
 30
0.0
 10
117.5172038923968
 20
172.4066740553266
 30
0.0
  0
ARC
  5
2A6
330
1F
100
AcDbEntity
  8
0
  6
Continuous
 62
     7
370
    15
100
AcDbCircle
 10
117.7374413068
 20
177.5389836822
 30
0.0
 40
0.2225930517078388
100
AcDbArc
 50
102.0553142113
 51
188.3429528075
  0
LINE
  5
2A7
330
1F
100
AcDbEntity
  8
0
  6
Continuous
 62
     7
370
    15
100
AcDbLine
 10
117.6909514319
 20
177.7566677611
 30
0.0
 11
118.220836724
 21
177.7566677611
 31
0.0
  0
ARC
  5
2A8
330
1F
100
AcDbEntity
  8
0
  6
Continuous
 62
     7
370
    15
100
AcDbCircle
 10
117.3560836249
 20
171.9389534713
 30
0.0
 40
0.222586685542383
100
AcDbArc
 50
102.0537783645
 51
188.3444886543
  0
LINE
  5
2A9
330
1F
100
AcDbEntity
  8
0
  6
Continuous
 62
     7
370
    15
100
AcDbLine
 10
117.0794673812
 20
172.1566325705
 30
0.0
 11
117.3096009146
 21
172.1566325705
 31
0.0
  0
LINE
  5
2AA
330
1F
100
AcDbEntity
  8
0
  6
Continuous
 62
     7
370
    15
100
AcDbLine
 10
117.3096009146
 20
170.9566718619
 30
0.0
 11
117.0794673812
 21
170.9566718619
 31
0.0
  0
LINE
  5
2AB
330
1F
100
AcDbEntity
  8
0
  6
Continuous
 62
     7
370
    15
100
AcDbLine
 10
122.6147123229
 20
172.4066740553
 30
0.0
 11
122.6409383666
 21
172.4066740553
 31
0.0
  0
LINE
  5
2AC
330
1F
100
AcDbEntity
  8
0
  6
Continuous
 62
     7
370
    15
100
AcDbLine
 10
121.9348021399
 20
170.9566718619
 30
0.0
 11
121.4797206771
 21
170.9566718619
 31
0.0
  0
LINE
  5
2AD
330
1F
100
AcDbEntity
  8
0
  6
Continuous
 62
     7
370
    15
100
AcDbLine
 10
104.4048972975
 20
177.5066858809
 30
0.0
 11
104.4048972975
 21
172.4066740553
 31
0.0
  0
LINE
  5
2AE
330
1F
100
AcDbEntity
  8
0
  6
Continuous
 62
     7
370
    15
100
AcDbLine
 10
104.9347825896
 20
177.5066858809
 30
0.0
 11
104.4048972975
 21
177.5066858809
 31
0.0
  0
SPLINE
  5
2AF
330
1F
100
AcDbEntity
  8
0
  6
Continuous
 62
     7
370
    15
100
AcDbSpline
210
0.0
220
0.0
230
1.0
 70
     8
 71
     3
 72
    11
 73
     7
 74
     0
 42
0.00000001
 43
0.00000001
 12
1.0
 22
0.0
 32
0.0
 13
1.0
 23
0.0
 33
0.0
 40
0.0
 40
0.0
 40
0.0
 40
0.0
 40
0.0796011534776661
 40
0.4594768228957909
 40
0.8207525311295956
 40
1.0
 40
1.0
 40
1.0
 40
1.0
 10
104.8171230208147
 20
171.2551719229108
 30
0.0
 10
104.7930796953098
 20
171.2721307835951
 30
0.0
 10
104.6542958921577
 20
171.3700213679231
 30
0.0
 10
104.4849310906306
 20
171.6883139069578
 30
0.0
 10
104.3673176305608
 20
172.0796433607076
 30
0.0
 10
104.357984153847
 20
172.3252322452428
 30
0.0
 10
104.3548890005816
 20
172.4066740553266
 30
0.0
  0
LINE
  5
2B0
330
1F
100
AcDbEntity
  8
0
  6
Continuous
 62
     7
370
    15
100
AcDbLine
 10
105.33490857
 20
177.5066858809
 30
0.0
 11
104.9347825896
 21
177.5066858809
 31
0.0
  0
ARC
  5
2B1
330
1F
100
AcDbEntity
  8
0
  6
Continuous
 62
     7
370
    15
100
AcDbCircle
 10
105.1550527359
 20
177.5389609322
 30
0.0
 40
0.2226221379189451
100
AcDbArc
 50
102.0623296946
 51
188.3359373242
  0
ARC
  5
2B2
330
1F
100
AcDbEntity
  8
0
  6
Continuous
 62
     7
370
    15
100
AcDbCircle
 10
105.0961446472
 20
177.5179589574
 30
0.0
 40
0.2390298999971601
100
AcDbArc
 50
357.2968260971
 51
87.0298537006
  0
LINE
  5
2B3
330
1F
100
AcDbEntity
  8
0
  6
Continuous
 62
     7
370
    15
100
AcDbLine
 10
104.5787044417
 20
177.7566677611
 30
0.0
 11
105.1085301291
 21
177.7566677611
 31
0.0
  0
ARC
  5
2B4
330
1F
100
AcDbEntity
  8
0
  6
Continuous
 62
     7
370
    15
100
AcDbCircle
 10
104.6251408024
 20
177.5389683698
 30
0.0
 40
0.2225968565435664
100
AcDbArc
 50
102.0410204271
 51
188.3388256978
  0
LINE
  5
2B5
330
1F
100
AcDbEntity
  8
0
  6
Continuous
 62
     7
370
    15
100
AcDbLine
 10
105.1085301291
 20
177.7566677611
 30
0.0
 11
107.8446217429
 21
177.7566677611
 31
0.0
  0
SPLINE
  5
2B6
330
1F
100
AcDbEntity
  8
0
  6
Continuous
 62
     7
370
    15
100
AcDbSpline
210
0.0
220
0.0
230
1.0
 70
     8
 71
     3
 72
    13
 73
     9
 74
     0
 42
0.00000001
 43
0.00000001
 12
1.0
 22
0.0
 32
0.0
 13
1.0
 23
0.0
 33
0.0
 40
0.0
 40
0.0
 40
0.0
 40
0.0
 40
0.1694653912580378
 40
0.3386574610978337
 40
0.5184792812402343
 40
0.7277481705600077
 40
0.9924608691919088
 40
1.0
 40
1.0
 40
1.0
 40
1.0
 10
110.7538052450884
 20
173.1066710035688
 30
0.0
 10
110.7530965868256
 20
173.1312680443671
 30
0.0
 10
110.7516804132556
 20
173.1804224547484
 30
0.0
 10
110.7410094486904
 20
173.2465629246419
 30
0.0
 10
110.7250594659758
 20
173.3022636955091
 30
0.0
 10
110.7022350804571
 20
173.3448885052958
 30
0.0
 10
110.6834776336562
 20
173.3567169164456
 30
0.0
 10
110.6734381710409
 20
173.356654609155
 30
0.0
 10
110.6731601607073
 20
173.3566528837568
 30
0.0
  0
LINE
  5
2B7
330
1F
100
AcDbEntity
  8
0
  6
Continuous
 62
     7
370
    15
100
AcDbLine
 10
110.6731601607
 20
173.3566528838
 30
0.0
 11
117.4409695517
 21
173.3566528838
 31
0.0
  0
SPLINE
  5
2B8
330
1F
100
AcDbEntity
  8
0
  6
Continuous
 62
     7
370
    15
100
AcDbSpline
210
0.0
220
0.0
230
1.0
 70
     8
 71
     3
 72
    13
 73
     9
 74
     0
 42
0.00000001
 43
0.00000001
 12
1.0
 22
0.0
 32
0.0
 13
1.0
 23
0.0
 33
0.0
 40
0.0
 40
0.0
 40
0.0
 40
0.0
 40
0.0075402591984163
 40
0.2722485367076339
 40
0.481513930904437
 40
0.6613327477367128
 40
0.8304020523400615
 40
0.9999999999999999
 40
0.9999999999999999
 40
0.9999999999999999
 40
0.9999999999999999
 10
110.6731601607073
 20
172.1566325704939
 30
0.0
 10
110.673438170286
 20
172.1566510344408
 30
0.0
 10
110.683475981855
 20
172.1573176935596
 30
0.0
 10
110.7022353678956
 20
172.1682102249638
 30
0.0
 10
110.7250600863719
 20
172.2111302097726
 30
0.0
 10
110.7410037756737
 20
172.2667628467642
 30
0.0
 10
110.7516866942871
 20
172.3328951659549
 30
0.0
 10
110.7530983269914
 20
172.3820555132349
 30
0.0
 10
110.7538052450884
 20
172.4066740553266
 30
0.0
  0
LINE
  5
2B9
330
1F
100
AcDbEntity
  8
0
  6
Continuous
 62
     7
370
    15
100
AcDbLine
 10
117.0956798445
 20
172.1566325705
 30
0.0
 11
110.6731601607
 21
172.1566325705
 31
0.0
  0
LINE
  5
2BA
330
1F
100
AcDbEntity
  8
0
  6
Continuous
 62
     7
370
    15
100
AcDbLine
 10
110.7538052451
 20
172.4066740553
 30
0.0
 11
110.7538052451
 21
173.1066710036
 31
0.0
  0
SPLINE
  5
2BB
330
1F
100
AcDbEntity
  8
0
  6
Continuous
 62
     7
370
    15
100
AcDbSpline
210
0.0
220
0.0
230
1.0
 70
     8
 71
     3
 72
    12
 73
     8
 74
     0
 42
0.00000001
 43
0.00000001
 12
1.0
 22
0.0
 32
0.0
 13
1.0
 23
0.0
 33
0.0
 40
0.0
 40
0.0
 40
0.0
 40
0.0
 40
0.2028287238861442
 40
0.4049496081330587
 40
0.6098231852371497
 40
0.8226986770143745
 40
0.9999999999999999
 40
0.9999999999999999
 40
0.9999999999999999
 40
0.9999999999999999
 10
109.5514603506792
 20
171.9066506903059
 30
0.0
 10
109.5608991493673
 20
172.0638020110733
 30
0.0
 10
109.5797438068538
 20
172.3775562197629
 30
0.0
 10
109.7261674021691
 20
172.7979217275279
 30
0.0
 10
109.9427273833892
 20
173.125015856322
 30
0.0
 10
110.2019888990163
 20
173.3232515998613
 30
0.0
 10
110.3837823735898
 20
173.3462170776346
 30
0.0
 10
110.4663916479815
 20
173.3566528837568
 30
0.0
  0
LINE
  5
2BC
330
1F
100
AcDbEntity
  8
0
  6
Continuous
 62
     7
370
    15
100
AcDbLine
 10
109.5514603507
 20
171.9066506903
 30
0.0
 11
104.8556276213
 21
171.9066506903
 31
0.0
  0
SPLINE
  5
2BD
330
1F
100
AcDbEntity
  8
0
  6
Continuous
 62
     7
370
    15
100
AcDbSpline
210
0.0
220
0.0
230
1.0
 70
     8
 71
     3
 72
    12
 73
     8
 74
     0
 42
0.00000001
 43
0.00000001
 12
1.0
 22
0.0
 32
0.0
 13
1.0
 23
0.0
 33
0.0
 40
0.0
 40
0.0
 40
0.0
 40
0.0
 40
0.2289474687785078
 40
0.4594186223315585
 40
0.6825249666143569
 40
0.8947211165196546
 40
1.0
 40
1.0
 40
1.0
 40
1.0
 10
105.8856554877032
 20
173.3566528837568
 30
0.0
 10
105.7638365520757
 20
173.3393379900103
 30
0.0
 10
105.5193879548562
 20
173.3045929689221
 30
0.0
 10
105.1994964408684
 20
173.0306535629116
 30
0.0
 10
104.9700541510587
 20
172.6336369993142
 30
0.0
 10
104.8672536883111
 20
172.2327568200076
 30
0.0
 10
104.8585228738757
 20
171.9878612666279
 30
0.0
 10
104.8556276213397
 20
171.9066506903059
 30
0.0
  0
LINE
  5
2BE
330
1F
100
AcDbEntity
  8
0
  6
Continuous
 62
     7
370
    15
100
AcDbLine
 10
105.8856554877
 20
173.3566528838
 30
0.0
 11
110.466391648
 21
173.3566528838
 31
0.0
  0
LINE
  5
2BF
330
1F
100
AcDbEntity
  8
0
  6
Continuous
 62
     7
370
    15
100
AcDbLine
 10
109.6478410613
 20
166.5566569846
 30
0.0
 11
105.0671645056
 21
166.5566569846
 31
0.0
  0
ARC
  5
2C0
330
1F
100
AcDbEntity
  8
0
  6
Continuous
 62
     7
370
    15
100
AcDbCircle
 10
105.088222808
 20
166.7889698408
 30
0.0
 40
0.2332653323229746
100
AcDbArc
 50
175.6558864811
 51
264.8205044748
  0
LINE
  5
2C1
330
1F
100
AcDbEntity
  8
0
  6
Continuous
 62
     7
370
    15
100
AcDbLine
 10
104.8556276213
 20
166.8066388647
 30
0.0
 11
109.5514603507
 21
166.8066388647
 31
0.0
  0
LWPOLYLINE
  5
2C2
330
1F
100
AcDbEntity
  8
0
  6
Continuous
 62
     7
370
    15
100
AcDbPolyline
 90
        9
 70
   128
 43
0.0
 10
109.6478410613
 20
166.5566569846
 10
109.6290655982
 20
166.5614849608
 10
109.6109457862
 20
166.5756708662
 10
109.5943160903
 20
166.5987974684
 10
109.5797129523
 20
166.629911093
 10
109.5677324187
 20
166.6677600424
 10
109.558791722
 20
166.7109734099
 10
109.5533080947
 20
166.7578822653
 10
109.5514603507
 20
166.8066388647
  0
LINE
  5
2C3
330
1F
100
AcDbEntity
  8
0
  6
Continuous
 62
     7
370
    15
100
AcDbLine
 10
109.5514603507
 20
166.8066388647
 30
0.0
 11
109.5514603507
 21
171.9066506903
 31
0.0
  0
LINE
  5
2C4
330
1F
100
AcDbEntity
  8
0
  6
Continuous
 62
     7
370
    15
100
AcDbLine
 10
104.8556276213
 20
171.9066506903
 30
0.0
 11
104.8556276213
 21
166.8066388647
 31
0.0
  0
SPLINE
  5
2C5
330
1F
100
AcDbEntity
  8
0
  6
Continuous
 62
     7
370
    15
100
AcDbSpline
210
0.0
220
0.0
230
1.0
 70
     8
 71
     3
 72
    12
 73
     8
 74
     0
 42
0.00000001
 43
0.00000001
 12
1.0
 22
0.0
 32
0.0
 13
1.0
 23
0.0
 33
0.0
 40
0.0
 40
0.0
 40
0.0
 40
0.0
 40
0.1789590472366716
 40
0.392894679950318
 40
0.597707209366751
 40
0.7987859575546575
 40
1.0
 40
1.0
 40
1.0
 40
1.0
 10
110.6572457205523
 20
173.1066710035688
 30
0.0
 10
110.582677599752
 20
173.0980528670997
 30
0.0
 10
110.4189674190781
 20
173.0791322256337
 30
0.0
 10
110.1870213814012
 20
172.9156323634202
 30
0.0
 10
109.9939665360583
 20
172.6450033063628
 30
0.0
 10
109.8638686889439
 20
172.2968931042068
 30
0.0
 10
109.8471279319954
 20
172.0367606564749
 30
0.0
 10
109.8387547384966
 20
171.9066506903059
 30
0.0
  0
LINE
  5
2C6
330
1F
100
AcDbEntity
  8
0
  6
Continuous
 62
     7
370
    15
100
AcDbLine
 10
109.8387547385
 20
171.9066506903
 30
0.0
 11
109.5514603507
 21
171.9066506903
 31
0.0
  0
ARC
  5
2C7
330
1F
100
AcDbEntity
  8
0
  6
Continuous
 62
     7
370
    15
100
AcDbCircle
 10
110.4322423764
 20
173.1327341092
 30
0.0
 40
0.2265078151782182
100
AcDbArc
 50
353.3926299384
 51
81.3287838385
  0
LINE
  5
2C8
330
1F
100
AcDbEntity
  8
0
  6
Continuous
 62
     7
370
    15
100
AcDbLine
 10
109.8387547385
 20
171.9066506903
 30
0.0
 11
109.8387547385
 21
166.8066388647
 31
0.0
  0
LINE
  5
2C9
330
1F
100
AcDbEntity
  8
0
  6
Continuous
 62
     7
370
    15
100
AcDbLine
 10
109.8387547385
 20
166.8066388647
 30
0.0
 11
109.5514603507
 21
166.8066388647
 31
0.0
  0
ARC
  5
2CA
330
1F
100
AcDbEntity
  8
0
  6
Continuous
 62
     7
370
    15
100
AcDbCircle
 10
109.6137313238
 20
166.7805992225
 30
0.0
 40
0.2265250540964914
100
AcDbArc
 50
278.6604362337
 51
6.600890664
  0
LINE
  5
2CB
330
1F
100
AcDbEntity
  8
0
  6
Continuous
 62
     7
370
    15
100
AcDbLine
 10
110.314697827
 20
166.8066388647
 30
0.0
 11
110.314697827
 21
171.9066506903
 31
0.0
  0
LINE
  5
2CC
330
1F
100
AcDbEntity
  8
0
  6
Continuous
 62
     7
370
    15
100
AcDbLine
 10
109.8387547385
 20
166.8066388647
 30
0.0
 11
110.314697827
 21
166.8066388647
 31
0.0
  0
LINE
  5
2CD
330
1F
100
AcDbEntity
  8
0
  6
Continuous
 62
     7
370
    15
100
AcDbLine
 10
110.7538052451
 20
173.1066710036
 30
0.0
 11
110.6572457206
 21
173.1066710036
 31
0.0
  0
LINE
  5
2CE
330
1F
100
AcDbEntity
  8
0
  6
Continuous
 62
     7
370
    15
100
AcDbLine
 10
110.6572457206
 20
172.4066740553
 30
0.0
 11
110.7538052451
 21
172.4066740553
 31
0.0
  0
SPLINE
  5
2CF
330
1F
100
AcDbEntity
  8
0
  6
Continuous
 62
     7
370
    15
100
AcDbSpline
210
0.0
220
0.0
230
1.0
 70
     8
 71
     3
 72
    12
 73
     8
 74
     0
 42
0.00000001
 43
0.00000001
 12
1.0
 22
0.0
 32
0.0
 13
1.0
 23
0.0
 33
0.0
 40
0.0
 40
0.0
 40
0.0
 40
0.0
 40
0.1818532393717139
 40
0.3965341302268575
 40
0.6005845917275693
 40
0.8002246731100437
 40
0.9999999999999999
 40
0.9999999999999999
 40
0.9999999999999999
 40
0.9999999999999999
 10
110.6572457205523
 20
172.4066740553266
 30
0.0
 10
110.6256162124531
 20
172.4029481318923
 30
0.0
 10
110.5566475235973
 20
172.3948236914732
 30
0.0
 10
110.4594706388478
 20
172.3256588850791
 30
0.0
 10
110.3791640924865
 20
172.2128372860949
 30
0.0
 10
110.3252210316954
 20
172.0683984306976
 30
0.0
 10
110.3182063536608
 20
171.9605787733254
 30
0.0
 10
110.314697827028
 20
171.9066506903058
 30
0.0
  0
ARC
  5
2D0
330
1F
100
AcDbEntity
  8
0
  6
Continuous
 62
     7
370
    15
100
AcDbCircle
 10
110.0896565981
 20
166.7806046831
 30
0.0
 40
0.2265421226559776
100
AcDbArc
 50
278.6795853779
 51
6.5990008452
  0
LINE
  5
2D1
330
1F
100
AcDbEntity
  8
0
  6
Continuous
 62
     7
370
    15
100
AcDbLine
 10
110.1238437545
 20
166.5566569846
 30
0.0
 11
109.6478410613
 21
166.5566569846
 31
0.0
  0
ARC
  5
2D2
330
1F
100
AcDbEntity
  8
0
  6
Continuous
 62
     7
370
    15
100
AcDbCircle
 10
110.4321057494
 20
172.380661851
 30
0.0
 40
0.2266376874381862
100
AcDbArc
 50
278.7011498673
 51
6.5906128917
  0
LINE
  5
2D3
330
1F
100
AcDbEntity
  8
0
  6
Continuous
 62
     7
370
    15
100
AcDbLine
 10
110.466391648
 20
173.3566528838
 30
0.0
 11
110.6731601607
 21
173.3566528838
 31
0.0
  0
LINE
  5
2D4
330
1F
100
AcDbEntity
  8
0
  6
Continuous
 62
     7
370
    15
100
AcDbLine
 10
110.6731601607
 20
172.1566325705
 30
0.0
 11
110.466391648
 21
172.1566325705
 31
0.0
  0
LINE
  5
2D5
330
1F
100
AcDbEntity
  8
0
  6
Continuous
 62
     7
370
    15
100
AcDbLine
 10
104.8556276213
 20
171.9066506903
 30
0.0
 11
104.8171230208
 21
171.9066506903
 31
0.0
  0
LINE
  5
2D6
330
1F
100
AcDbEntity
  8
0
  6
Continuous
 62
     7
370
    15
100
AcDbLine
 10
105.0347991835
 20
173.3566528838
 30
0.0
 11
105.8856554877
 21
173.3566528838
 31
0.0
  0
LINE
  5
2D7
330
1F
100
AcDbEntity
  8
0
  6
Continuous
 62
     7
370
    15
100
AcDbLine
 10
121.6173478019
 20
166.8066388647
 30
0.0
 11
122.0932908904
 21
166.8066388647
 31
0.0
  0
LINE
  5
2D8
330
1F
100
AcDbEntity
  8
0
  6
Continuous
 62
     7
370
    15
100
AcDbLine
 10
121.2117977988
 20
166.8066388647
 30
0.0
 11
121.6173478019
 21
166.8066388647
 31
0.0
  0
ARC
  5
2D9
330
1F
100
AcDbEntity
  8
0
  6
Continuous
 62
     7
370
    15
100
AcDbCircle
 10
121.3923065729
 20
166.7806046831
 30
0.0
 40
0.2265421226559776
100
AcDbArc
 50
278.6795853779
 51
6.5990008452
  0
ARC
  5
2DA
330
1F
100
AcDbEntity
  8
0
  6
Continuous
 62
     7
370
    15
100
AcDbCircle
 10
121.4456323096
 20
166.7902803846
 30
0.0
 40
0.2344060116907148
100
AcDbArc
 50
175.9982496955
 51
265.3167503482
  0
LINE
  5
2DB
330
1F
100
AcDbEntity
  8
0
  6
Continuous
 62
     7
370
    15
100
AcDbLine
 10
121.4264937293
 20
166.5566569846
 30
0.0
 11
119.2145653617
 21
166.5566569846
 31
0.0
  0
LINE
  5
2DC
330
1F
100
AcDbEntity
  8
0
  6
Continuous
 62
     7
370
    15
100
AcDbLine
 10
121.9024368178
 20
166.5566569846
 30
0.0
 11
121.4264937293
 21
166.5566569846
 31
0.0
  0
ARC
  5
2DD
330
1F
100
AcDbEntity
  8
0
  6
Continuous
 62
     7
370
    15
100
AcDbCircle
 10
121.8683574644
 20
166.7805223786
 30
0.0
 40
0.2264445119005609
100
AcDbArc
 50
278.6557637429
 51
6.6228224802
  0
LINE
  5
2DE
330
1F
100
AcDbEntity
  8
0
  6
Continuous
 62
     7
370
    15
100
AcDbLine
 10
109.5964022528
 20
178.1100636999
 30
0.0
 11
112.4165364157
 21
178.5566813033
 31
0.0
  0
SPLINE
  5
2DF
330
1F
100
AcDbEntity
  8
0
  6
Continuous
 62
     7
370
    15
100
AcDbSpline
210
0.0
220
0.0
230
1.0
 70
     8
 71
     3
 72
     9
 73
     5
 74
     0
 42
0.00000001
 43
0.00000001
 12
1.0
 22
0.0
 32
0.0
 13
1.0
 23
0.0
 33
0.0
 40
0.0
 40
0.0
 40
0.0
 40
0.0
 40
0.0701959656559379
 40
1.0
 40
1.0
 40
1.0
 40
1.0
 10
112.4165364157427
 20
178.5566813032514
 30
0.0
 10
112.4833845853999
 20
178.5562304304327
 30
0.0
 10
113.4356924428744
 20
178.5498073715782
 30
0.0
 10
114.3689056080849
 20
178.321937772488
 30
0.0
 10
115.2366109740008
 20
178.1100636999494
 30
0.0
  0
LINE
  5
2E0
330
1F
100
AcDbEntity
  8
0
  6
Continuous
 62
     7
370
    15
100
AcDbLine
 10
115.236610974
 20
178.1100636999
 30
0.0
 11
115.236610974
 21
173.8032108824
 31
0.0
  0
SPLINE
  5
2E1
330
1F
100
AcDbEntity
  8
0
  6
Continuous
 62
     7
370
    15
100
AcDbSpline
210
0.0
220
0.0
230
1.0
 70
     8
 71
     3
 72
     9
 73
     5
 74
     0
 42
0.00000001
 43
0.00000001
 12
1.0
 22
0.0
 32
0.0
 13
1.0
 23
0.0
 33
0.0
 40
0.0
 40
0.0
 40
0.0
 40
0.0
 40
0.0701961995312002
 40
1.0
 40
1.0
 40
1.0
 40
1.0
 10
112.4165364157427
 20
173.3566528837568
 30
0.0
 10
112.4833845772135
 20
173.3571038066037
 30
0.0
 10
113.4356891452272
 20
173.3635275567509
 30
0.0
 10
114.3689041323343
 20
173.5913659129383
 30
0.0
 10
115.2366109740008
 20
173.803210882414
 30
0.0
  0
LINE
  5
2E2
330
1F
100
AcDbEntity
  8
0
  6
Continuous
 62
     7
370
    15
100
AcDbLine
 10
109.5964022528
 20
173.8032108824
 30
0.0
 11
112.4165364157
 21
173.3566528838
 31
0.0
  0
LINE
  5
2E3
330
1F
100
AcDbEntity
  8
0
  6
Continuous
 62
     7
370
    15
100
AcDbLine
 10
109.5964022528
 20
178.1100636999
 30
0.0
 11
109.5964022528
 21
173.8032108824
 31
0.0
  0
LINE
  5
2E4
330
1F
100
AcDbEntity
  8
0
  6
Continuous
 62
     7
370
    15
100
AcDbLine
 10
115.236610974
 20
178.1100636999
 30
0.0
 11
117.1807952773
 21
178.5566813033
 31
0.0
  0
LINE
  5
2E5
330
1F
100
AcDbEntity
  8
0
  6
Continuous
 62
     7
370
    15
100
AcDbLine
 10
112.4165364157
 20
178.5566813033
 30
0.0
 11
117.1807952773
 21
178.5566813033
 31
0.0
  0
LINE
  5
2E6
330
1F
100
AcDbEntity
  8
0
  6
Continuous
 62
     7
370
    15
100
AcDbLine
 10
115.236610974
 20
173.8032108824
 30
0.0
 11
117.1807952773
 21
173.3566528838
 31
0.0
  0
SPLINE
  5
2E7
330
1F
100
AcDbEntity
  8
0
  6
Continuous
 62
     7
370
    15
100
AcDbSpline
210
0.0
220
0.0
230
1.0
 70
     8
 71
     3
 72
     9
 73
     5
 74
     0
 42
0.00000001
 43
0.00000001
 12
1.0
 22
0.0
 32
0.0
 13
1.0
 23
0.0
 33
0.0
 40
0.0
 40
0.0
 40
0.0
 40
0.0
 40
0.2575524366231681
 40
1.0
 40
1.0
 40
1.0
 40
1.0
 10
109.5964022528399
 20
178.1100636999494
 30
0.0
 10
109.5228787705942
 20
178.1774828638948
 30
0.0
 10
109.2374088165544
 20
178.4392515539113
 30
0.0
 10
108.9407589605971
 20
178.5066451167412
 30
0.0
 10
108.7205119978655
 20
178.5566813032514
 30
0.0
  0
LINE
  5
2E8
330
1F
100
AcDbEntity
  8
0
  6
Continuous
 62
     7
370
    15
100
AcDbLine
 10
108.7205119979
 20
178.5566813033
 30
0.0
 11
112.4165364157
 21
178.5566813033
 31
0.0
  0
SPLINE
  5
2E9
330
1F
100
AcDbEntity
  8
0
  6
Continuous
 62
     7
370
    15
100
AcDbSpline
210
0.0
220
0.0
230
1.0
 70
     8
 71
     3
 72
     9
 73
     5
 74
     0
 42
0.00000001
 43
0.00000001
 12
1.0
 22
0.0
 32
0.0
 13
1.0
 23
0.0
 33
0.0
 40
0.0
 40
0.0
 40
0.0
 40
0.0
 40
0.2575486373259456
 40
0.9999999999999999
 40
0.9999999999999999
 40
0.9999999999999999
 40
0.9999999999999999
 10
109.5964022528399
 20
173.803210882414
 30
0.0
 10
109.522878573288
 20
173.7358141324897
 30
0.0
 10
109.2374036419696
 20
173.4741286092273
 30
0.0
 10
108.9407574025525
 20
173.406708807454
 30
0.0
 10
108.7205119978654
 20
173.3566528837567
 30
0.0
  0
SPLINE
  5
2EA
330
1F
100
AcDbEntity
  8
0
  6
Continuous
 62
     7
370
    15
100
AcDbSpline
210
0.0
220
0.0
230
1.0
 70
     8
 71
     3
 72
     9
 73
     5
 74
     0
 42
0.00000001
 43
0.00000001
 12
1.0
 22
0.0
 32
0.0
 13
1.0
 23
0.0
 33
0.0
 40
0.0
 40
0.0
 40
0.0
 40
0.0
 40
0.0702037399247248
 40
1.0
 40
1.0
 40
1.0
 40
1.0
 10
117.1807952772845
 20
178.5566813032514
 30
0.0
 10
117.2268914905164
 20
178.5562305174505
 30
0.0
 10
117.8834977237624
 20
178.5498094093803
 30
0.0
 10
118.5268204840405
 20
178.3219378363398
 30
0.0
 10
119.1249795805682
 20
178.1100636999494
 30
0.0
  0
LINE
  5
2EB
330
1F
100
AcDbEntity
  8
0
  6
Continuous
 62
     7
370
    15
100
AcDbLine
 10
119.1249795806
 20
178.1100636999
 30
0.0
 11
119.1249795806
 21
177.7566677611
 31
0.0
  0
SPLINE
  5
2EC
330
1F
100
AcDbEntity
  8
0
  6
Continuous
 62
     7
370
    15
100
AcDbSpline
210
0.0
220
0.0
230
1.0
 70
     8
 71
     3
 72
     9
 73
     5
 74
     0
 42
0.00000001
 43
0.00000001
 12
1.0
 22
0.0
 32
0.0
 13
1.0
 23
0.0
 33
0.0
 40
0.0
 40
0.0
 40
0.0
 40
0.0
 40
0.5278855629781618
 40
1.0
 40
1.0
 40
1.0
 40
1.0
 10
117.1807952772845
 20
173.3566528837568
 30
0.0
 10
117.227033833091
 20
173.3547331184091
 30
0.0
 10
117.3146258398617
 20
173.3510964109818
 30
0.0
 10
117.4004504936317
 20
173.3768969863838
 30
0.0
 10
117.4409695517291
 20
173.3890778105146
 30
0.0
  0
LINE
  5
2ED
330
1F
100
AcDbEntity
  8
0
  6
Continuous
 62
     7
370
    15
100
AcDbLine
 10
108.2485624205
 20
173.5427385847
 30
0.0
 11
107.8446217429
 21
173.8032108824
 31
0.0
  0
LINE
  5
2EE
330
1F
100
AcDbEntity
  8
0
  6
Continuous
 62
     7
370
    15
100
AcDbLine
 10
107.8446217429
 20
178.1100636999
 30
0.0
 11
107.8446217429
 21
173.8032108824
 31
0.0
  0
SPLINE
  5
2EF
330
1F
100
AcDbEntity
  8
0
  6
Continuous
 62
     7
370
    15
100
AcDbSpline
210
0.0
220
0.0
230
1.0
 70
     8
 71
     3
 72
     9
 73
     5
 74
     0
 42
0.00000001
 43
0.00000001
 12
1.0
 22
0.0
 32
0.0
 13
1.0
 23
0.0
 33
0.0
 40
0.0
 40
0.0
 40
0.0
 40
0.0
 40
0.2686318467629776
 40
0.9999999999999999
 40
0.9999999999999999
 40
0.9999999999999999
 40
0.9999999999999999
 10
108.7205119978655
 20
178.5566813032514
 30
0.0
 10
108.6408712572263
 20
178.5500332001415
 30
0.0
 10
108.3444032784701
 20
178.5252851920775
 30
0.0
 10
108.0557405035168
 20
178.2854624303201
 30
0.0
 10
107.8446217428912
 20
178.1100636999494
 30
0.0
  0
SPLINE
  5
2F0
330
1F
100
AcDbEntity
  8
0
  6
Continuous
 62
     7
370
    15
100
AcDbSpline
210
0.0
220
0.0
230
1.0
 70
     8
 71
     3
 72
     9
 73
     5
 74
     0
 42
0.00000001
 43
0.00000001
 12
1.0
 22
0.0
 32
0.0
 13
1.0
 23
0.0
 33
0.0
 40
0.0
 40
0.0
 40
0.0
 40
0.0
 40
0.5569304399325223
 40
1.0
 40
1.0
 40
1.0
 40
1.0
 10
119.1249795805682
 20
178.1100636999494
 30
0.0
 10
119.0517450761647
 20
178.1824794358525
 30
0.0
 10
118.920248395157
 20
178.312505971863
 30
0.0
 10
118.7835657677824
 20
178.3526362733174
 30
0.0
 10
118.7230058562028
 20
178.3704167883282
 30
0.0
  0
LINE
  5
2F1
330
1F
100
AcDbEntity
  8
0
  6
Continuous
 62
     7
370
    15
100
AcDbLine
 10
117.1807952773
 20
178.5566813033
 30
0.0
 11
118.4848256957
 21
178.5566813033
 31
0.0
  0
LINE
  5
2F2
330
1F
100
AcDbEntity
  8
0
  6
Continuous
 62
     7
370
    15
100
AcDbLine
 10
108.7205119979
 20
178.5566813033
 30
0.0
 11
108.4847756278
 21
178.5566813033
 31
0.0
  0
LINE
  5
2F3
330
1F
100
AcDbEntity
  8
0
  6
Continuous
 62
     7
370
    15
100
AcDbLine
 10
112.4082513701
 20
183.5600739996
 30
0.0
 11
113.6079140555
 21
183.7566501181
 31
0.0
  0
LINE
  5
2F4
330
1F
100
AcDbEntity
  8
0
  6
Continuous
 62
     7
370
    15
100
AcDbLine
 10
116.7384096038
 20
183.7566501181
 30
0.0
 11
117.8588577162
 21
183.5600739996
 31
0.0
  0
LINE
  5
2F5
330
1F
100
AcDbEntity
  8
0
  6
Continuous
 62
     7
370
    15
100
AcDbLine
 10
117.8588577162
 20
183.5600739996
 30
0.0
 11
117.8588577162
 21
179.2532211821
 31
0.0
  0
SPLINE
  5
2F6
330
1F
100
AcDbEntity
  8
0
  6
Continuous
 62
     7
370
    15
100
AcDbSpline
210
0.0
220
0.0
230
1.0
 70
     8
 71
     3
 72
     9
 73
     5
 74
     0
 42
0.00000001
 43
0.00000001
 12
1.0
 22
0.0
 32
0.0
 13
1.0
 23
0.0
 33
0.0
 40
0.0
 40
0.0
 40
0.0
 40
0.0
 40
0.0701970832267478
 40
1.0
 40
1.0
 40
1.0
 40
1.0
 10
115.133554543184
 20
178.8066631834393
 30
0.0
 10
115.1981565254672
 20
178.8071140963969
 30
0.0
 10
116.1184509210987
 20
178.8135376247969
 30
0.0
 10
117.0203081936853
 20
179.0413762053474
 30
0.0
 10
117.8588577162493
 20
179.2532211820966
 30
0.0
  0
LINE
  5
2F7
330
1F
100
AcDbEntity
  8
0
  6
Continuous
 62
     7
370
    15
100
AcDbLine
 10
112.4082513701
 20
179.2532211821
 30
0.0
 11
115.1335545432
 21
178.8066631834
 31
0.0
  0
LINE
  5
2F8
330
1F
100
AcDbEntity
  8
0
  6
Continuous
 62
     7
370
    15
100
AcDbLine
 10
112.4082513701
 20
183.5600739996
 30
0.0
 11
112.4082513701
 21
179.2532211821
 31
0.0
  0
SPLINE
  5
2F9
330
1F
100
AcDbEntity
  8
0
  6
Continuous
 62
     7
370
    15
100
AcDbSpline
210
0.0
220
0.0
230
1.0
 70
     8
 71
     3
 72
     9
 73
     5
 74
     0
 42
0.00000001
 43
0.00000001
 12
1.0
 22
0.0
 32
0.0
 13
1.0
 23
0.0
 33
0.0
 40
0.0
 40
0.0
 40
0.0
 40
0.0
 40
0.0701958916678256
 40
1.0
 40
1.0
 40
1.0
 40
1.0
 10
110.2212377440202
 20
178.8066631834393
 30
0.0
 10
110.2730783271215
 20
178.8071141097316
 30
0.0
 10
111.0115913920547
 20
178.8135379371323
 30
0.0
 10
111.7353228692725
 20
179.0413762151555
 30
0.0
 10
112.4082513701189
 20
179.2532211820966
 30
0.0
  0
LINE
  5
2FA
330
1F
100
AcDbEntity
  8
0
  6
Continuous
 62
     7
370
    15
100
AcDbLine
 10
115.1335545432
 20
178.8066631834
 30
0.0
 11
110.221237744
 21
178.8066631834
 31
0.0
  0
LINE
  5
2FB
330
1F
100
AcDbEntity
  8
0
  6
Continuous
 62
     7
370
    15
100
AcDbLine
 10
111.5091153037
 20
183.7566501181
 30
0.0
 11
112.4082513701
 21
183.5600739996
 31
0.0
  0
LINE
  5
2FC
330
1F
100
AcDbEntity
  8
0
  6
Continuous
 62
     7
370
    15
100
AcDbLine
 10
108.0342241179
 20
183.5600739996
 30
0.0
 11
108.9969583403
 21
183.7566501181
 31
0.0
  0
LINE
  5
2FD
330
1F
100
AcDbEntity
  8
0
  6
Continuous
 62
     7
370
    15
100
AcDbLine
 10
108.0342241179
 20
179.2532211821
 30
0.0
 11
110.221237744
 21
178.8066631834
 31
0.0
  0
LINE
  5
2FE
330
1F
100
AcDbEntity
  8
0
  6
Continuous
 62
     7
370
    15
100
AcDbLine
 10
108.0342241179
 20
183.5600739996
 30
0.0
 11
108.0342241179
 21
179.2532211821
 31
0.0
  0
SPLINE
  5
2FF
330
1F
100
AcDbEntity
  8
0
  6
Continuous
 62
     7
370
    15
100
AcDbSpline
210
0.0
220
0.0
230
1.0
 70
     8
 71
     3
 72
     9
 73
     5
 74
     0
 42
0.00000001
 43
0.00000001
 12
1.0
 22
0.0
 32
0.0
 13
1.0
 23
0.0
 33
0.0
 40
0.0
 40
0.0
 40
0.0
 40
0.0
 40
0.2575505483281004
 40
1.0
 40
1.0
 40
1.0
 40
1.0
 10
117.8588577162493
 20
179.2532211820966
 30
0.0
 10
117.904046453249
 20
179.1858244385837
 30
0.0
 10
118.0795022513169
 20
178.9241408818979
 30
0.0
 10
118.2617660219814
 20
178.8567198738762
 30
0.0
 10
118.3970876585711
 20
178.8066631834394
 30
0.0
  0
LINE
  5
300
330
1F
100
AcDbEntity
  8
0
  6
Continuous
 62
     7
370
    15
100
AcDbLine
 10
118.3970876586
 20
178.8066631834
 30
0.0
 11
115.1335545432
 21
178.8066631834
 31
0.0
  0
SPLINE
  5
301
330
1F
100
AcDbEntity
  8
0
  6
Continuous
 62
     7
370
    15
100
AcDbSpline
210
0.0
220
0.0
230
1.0
 70
     8
 71
     3
 72
     9
 73
     5
 74
     0
 42
0.00000001
 43
0.00000001
 12
1.0
 22
0.0
 32
0.0
 13
1.0
 23
0.0
 33
0.0
 40
0.0
 40
0.0
 40
0.0
 40
0.0
 40
0.9250599395961058
 40
1.0
 40
1.0
 40
1.0
 40
1.0
 10
117.8588577162493
 20
183.560073999632
 30
0.0
 10
117.9036147306791
 20
183.6386649485005
 30
0.0
 10
117.9519975570385
 20
183.7236226312454
 30
0.0
 10
118.0024216161021
 20
183.7543475879872
 30
0.0
 10
118.0062003981341
 20
183.7566501181013
 30
0.0
  0
SPLINE
  5
302
330
1F
100
AcDbEntity
  8
0
  6
Continuous
 62
     7
370
    15
100
AcDbSpline
210
0.0
220
0.0
230
1.0
 70
     8
 71
     3
 72
     9
 73
     5
 74
     0
 42
0.00000001
 43
0.00000001
 12
1.0
 22
0.0
 32
0.0
 13
1.0
 23
0.0
 33
0.0
 40
0.0
 40
0.0
 40
0.0
 40
0.0
 40
0.9250421308130555
 40
0.9999999999999999
 40
0.9999999999999999
 40
0.9999999999999999
 40
0.9999999999999999
 10
108.0342241179217
 20
183.560073999632
 30
0.0
 10
108.0789866789347
 20
183.6386681758462
 30
0.0
 10
108.1273764327873
 20
183.7236309830485
 30
0.0
 10
108.1777880522306
 20
183.7543476613475
 30
0.0
 10
108.1815667998063
 20
183.7566501181012
 30
0.0
  0
SPLINE
  5
303
330
1F
100
AcDbEntity
  8
0
  6
Continuous
 62
     7
370
    15
100
AcDbSpline
210
0.0
220
0.0
230
1.0
 70
     8
 71
     3
 72
     9
 73
     5
 74
     0
 42
0.00000001
 43
0.00000001
 12
1.0
 22
0.0
 32
0.0
 13
1.0
 23
0.0
 33
0.0
 40
0.0
 40
0.0
 40
0.0
 40
0.0
 40
0.2575456734491203
 40
1.0
 40
1.0
 40
1.0
 40
1.0
 10
108.0342241179217
 20
179.2532211820966
 30
0.0
 10
108.0794130104517
 20
179.18582442223
 30
0.0
 10
108.2548727334783
 20
178.9241358488441
 30
0.0
 10
108.4371336524166
 20
178.8567179179321
 30
0.0
 10
108.5724540602433
 20
178.8066631834393
 30
0.0
  0
LINE
  5
304
330
1F
100
AcDbEntity
  8
0
  6
Continuous
 62
     7
370
    15
100
AcDbLine
 10
110.221237744
 20
178.8066631834
 30
0.0
 11
108.4928222548
 21
178.8066631834
 31
0.0
  0
LINE
  5
305
330
1F
100
AcDbEntity
  8
0
  6
Continuous
 62
     7
370
    15
100
AcDbLine
 10
118.748039807
 20
183.7566501181
 30
0.0
 11
118.9353772055
 21
183.5600739996
 31
0.0
  0
LINE
  5
306
330
1F
100
AcDbEntity
  8
0
  6
Continuous
 62
     7
370
    15
100
AcDbLine
 10
118.9353772055
 20
183.5600739996
 30
0.0
 11
118.9353772055
 21
179.2532211821
 31
0.0
  0
SPLINE
  5
307
330
1F
100
AcDbEntity
  8
0
  6
Continuous
 62
     7
370
    15
100
AcDbSpline
210
0.0
220
0.0
230
1.0
 70
     8
 71
     3
 72
     9
 73
     5
 74
     0
 42
0.00000001
 43
0.00000001
 12
1.0
 22
0.0
 32
0.0
 13
1.0
 23
0.0
 33
0.0
 40
0.0
 40
0.0
 40
0.0
 40
0.0
 40
0.2686378932330648
 40
1.0
 40
1.0
 40
1.0
 40
1.0
 10
118.3970876585711
 20
178.8066631834394
 30
0.0
 10
118.4460402450213
 20
178.8132884251192
 30
0.0
 10
118.6282654175797
 20
178.8379507748724
 30
0.0
 10
118.8056470217847
 20
179.0778026265453
 30
0.0
 10
118.9353772055376
 20
179.2532211820966
 30
0.0
  0
LINE
  5
308
330
1F
100
AcDbEntity
  8
0
  6
Continuous
 62
     7
370
    15
100
AcDbLine
 10
118.9353772055
 20
179.2532211821
 30
0.0
 11
116.7483635794
 21
178.8066631834
 31
0.0
  0
LINE
  5
309
330
1F
100
AcDbEntity
  8
0
  6
Continuous
 62
     7
370
    15
100
AcDbLine
 10
118.9353772055
 20
183.5600739996
 30
0.0
 11
117.9726429831
 21
183.7566501181
 31
0.0
  0
LINE
  5
30A
330
1F
100
AcDbEntity
  8
0
  6
Continuous
 62
     7
370
    15
100
AcDbLine
 10
111.234039868
 20
170.5100542586
 30
0.0
 11
114.0989371192
 21
170.9566718619
 31
0.0
  0
SPLINE
  5
30B
330
1F
100
AcDbEntity
  8
0
  6
Continuous
 62
     7
370
    15
100
AcDbSpline
210
0.0
220
0.0
230
1.0
 70
     8
 71
     3
 72
     9
 73
     5
 74
     0
 42
0.00000001
 43
0.00000001
 12
1.0
 22
0.0
 32
0.0
 13
1.0
 23
0.0
 33
0.0
 40
0.0
 40
0.0
 40
0.0
 40
0.0
 40
0.070186740108754
 40
1.0
 40
1.0
 40
1.0
 40
1.0
 10
114.0989371191729
 20
170.9566718618757
 30
0.0
 10
114.1668387917502
 20
170.9562208858094
 30
0.0
 10
115.134281822613
 20
170.9497955116488
 30
0.0
 10
116.0823282402194
 20
170.7219282551559
 30
0.0
 10
116.9638343703019
 20
170.5100542585736
 30
0.0
  0
LINE
  5
30C
330
1F
100
AcDbEntity
  8
0
  6
Continuous
 62
     7
370
    15
100
AcDbLine
 10
116.9638343703
 20
170.5100542586
 30
0.0
 11
116.9638343703
 21
166.2032610457
 31
0.0
  0
SPLINE
  5
30D
330
1F
100
AcDbEntity
  8
0
  6
Continuous
 62
     7
370
    15
100
AcDbSpline
210
0.0
220
0.0
230
1.0
 70
     8
 71
     3
 72
     9
 73
     5
 74
     0
 42
0.00000001
 43
0.00000001
 12
1.0
 22
0.0
 32
0.0
 13
1.0
 23
0.0
 33
0.0
 40
0.0
 40
0.0
 40
0.0
 40
0.0
 40
0.070186740108754
 40
1.0
 40
1.0
 40
1.0
 40
1.0
 10
114.0989371191729
 20
165.7566434423811
 30
0.0
 10
114.1668387917502
 20
165.7570944184473
 30
0.0
 10
115.134281822613
 20
165.7635197926077
 30
0.0
 10
116.0823282402194
 20
165.9913870491008
 30
0.0
 10
116.9638343703019
 20
166.203261045683
 30
0.0
  0
LINE
  5
30E
330
1F
100
AcDbEntity
  8
0
  6
Continuous
 62
     7
370
    15
100
AcDbLine
 10
111.234039868
 20
166.2032610457
 30
0.0
 11
114.0989371192
 21
165.7566434424
 31
0.0
  0
LINE
  5
30F
330
1F
100
AcDbEntity
  8
0
  6
Continuous
 62
     7
370
    15
100
AcDbLine
 10
111.234039868
 20
170.5100542586
 30
0.0
 11
111.234039868
 21
166.2032610457
 31
0.0
  0
SPLINE
  5
310
330
1F
100
AcDbEntity
  8
0
  6
Continuous
 62
     7
370
    15
100
AcDbSpline
210
0.0
220
0.0
230
1.0
 70
     8
 71
     3
 72
     9
 73
     5
 74
     0
 42
0.00000001
 43
0.00000001
 12
1.0
 22
0.0
 32
0.0
 13
1.0
 23
0.0
 33
0.0
 40
0.0
 40
0.0
 40
0.0
 40
0.0
 40
0.517402899643121
 40
1.0
 40
1.0
 40
1.0
 40
1.0
 10
111.2340398680438
 20
170.5100542585737
 30
0.0
 10
111.088493325444
 20
170.5818067931627
 30
0.0
 10
110.807191186047
 20
170.7204850546076
 30
0.0
 10
110.5148895544726
 20
170.7624390346563
 30
0.0
 10
110.3738256346453
 20
170.7826859037763
 30
0.0
  0
SPLINE
  5
311
330
1F
100
AcDbEntity
  8
0
  6
Continuous
 62
     7
370
    15
100
AcDbSpline
210
0.0
220
0.0
230
1.0
 70
     8
 71
     3
 72
     9
 73
     5
 74
     0
 42
0.00000001
 43
0.00000001
 12
1.0
 22
0.0
 32
0.0
 13
1.0
 23
0.0
 33
0.0
 40
0.0
 40
0.0
 40
0.0
 40
0.0
 40
0.2575582377274249
 40
1.0
 40
1.0
 40
1.0
 40
1.0
 10
111.2340398680438
 20
166.2032610456831
 30
0.0
 10
111.0879996962262
 20
166.1358419011498
 30
0.0
 10
110.5209816380729
 20
165.8740791824412
 30
0.0
 10
109.9318981201162
 20
165.8066819571206
 30
0.0
 10
109.4945379149186
 20
165.7566434423809
 30
0.0
  0
LINE
  5
312
330
1F
100
AcDbEntity
  8
0
  6
Continuous
 62
     7
370
    15
100
AcDbLine
 10
114.0989371192
 20
165.7566434424
 30
0.0
 11
109.4945379149
 21
165.7566434424
 31
0.0
  0
LINE
  5
313
330
1F
100
AcDbEntity
  8
0
  6
Continuous
 62
     7
370
    15
100
AcDbLine
 10
116.9638343703
 20
166.2032610457
 30
0.0
 11
118.0891700637
 21
165.7566434424
 31
0.0
  0
LINE
  5
314
330
1F
100
AcDbEntity
  8
0
  6
Continuous
 62
     7
370
    15
100
AcDbLine
 10
118.0891700637
 20
165.7566434424
 30
0.0
 11
114.0989371192
 21
165.7566434424
 31
0.0
  0
LINE
  5
315
330
1F
100
AcDbEntity
  8
0
  6
Continuous
 62
     7
370
    15
100
AcDbLine
 10
116.9638343703
 20
170.5100542586
 30
0.0
 11
118.0891700637
 21
170.9566718619
 31
0.0
  0
SPLINE
  5
316
330
1F
100
AcDbEntity
  8
0
  6
Continuous
 62
     7
370
    15
100
AcDbSpline
210
0.0
220
0.0
230
1.0
 70
     8
 71
     3
 72
     9
 73
     5
 74
     0
 42
0.00000001
 43
0.00000001
 12
1.0
 22
0.0
 32
0.0
 13
1.0
 23
0.0
 33
0.0
 40
0.0
 40
0.0
 40
0.0
 40
0.0
 40
0.2686424431062873
 40
1.0
 40
1.0
 40
1.0
 40
1.0
 10
109.4945379149188
 20
165.7566434423811
 30
0.0
 10
109.3363490596913
 20
165.763267459522
 30
0.0
 10
108.7475037030218
 20
165.7879248333317
 30
0.0
 10
108.1742727506537
 20
166.027815323137
 30
0.0
 10
107.7550359617938
 20
166.2032610456831
 30
0.0
  0
LINE
  5
317
330
1F
100
AcDbEntity
  8
0
  6
Continuous
 62
     7
370
    15
100
AcDbLine
 10
107.7550359618
 20
166.5566569846
 30
0.0
 11
107.7550359618
 21
166.2032610457
 31
0.0
  0
LINE
  5
318
330
1F
100
AcDbEntity
  8
0
  6
Continuous
 62
     7
370
    15
100
AcDbLine
 10
119.2145653617
 20
170.5100542586
 30
0.0
 11
119.2145653617
 21
166.2032610457
 31
0.0
  0
SPLINE
  5
319
330
1F
100
AcDbEntity
  8
0
  6
Continuous
 62
     7
370
    15
100
AcDbSpline
210
0.0
220
0.0
230
1.0
 70
     8
 71
     3
 72
     9
 73
     5
 74
     0
 42
0.00000001
 43
0.00000001
 12
1.0
 22
0.0
 32
0.0
 13
1.0
 23
0.0
 33
0.0
 40
0.0
 40
0.0
 40
0.0
 40
0.0
 40
0.0702102315790785
 40
1.0
 40
1.0
 40
1.0
 40
1.0
 10
118.0891700636614
 20
165.7566434423811
 30
0.0
 10
118.1158660992647
 20
165.7570941555121
 30
0.0
 10
118.4960960885818
 20
165.7635136348519
 30
0.0
 10
118.8684005151265
 20
165.9913868560841
 30
0.0
 10
119.2145653616656
 20
166.2032610456831
 30
0.0
  0
LINE
  5
31A
330
1F
100
AcDbEntity
  8
0
  6
Continuous
 62
     7
370
    15
100
AcDbLine
 10
108.0537744414
 20
166.0763031523
 30
0.0
 11
107.7550359618
 21
166.2032610457
 31
0.0
  0
LINE
  5
31B
330
1F
100
AcDbEntity
  8
0
  6
Continuous
 62
     7
370
    15
100
AcDbLine
 10
109.4945379149
 20
165.7566434424
 30
0.0
 11
108.4847756278
 21
165.7566434424
 31
0.0
  0
LINE
  5
31C
330
1F
100
AcDbEntity
  8
0
  6
Continuous
 62
     7
370
    15
100
AcDbLine
 10
118.4848256957
 20
165.7566434424
 30
0.0
 11
118.0891700637
 21
165.7566434424
 31
0.0
  0
LINE
  5
31D
330
1F
100
AcDbEntity
  8
0
  6
Continuous
 62
     8
370
    15
100
AcDbLine
 10
787.8847977694
 20
17.2566777747
 30
0.0
 11
730.8847986709
 21
17.2566777747
 31
0.0
  0
LINE
  5
31E
330
1F
100
AcDbEntity
  8
0
  6
Continuous
 62
     8
370
    15
100
AcDbLine
 10
208.8848062407
 20
17.2566777747
 30
0.0
 11
151.8848248374
 21
17.2566777747
 31
0.0
  0
LINE
  5
31F
330
1F
100
AcDbEntity
  8
0
  6
Continuous
 62
     8
370
    15
100
AcDbLine
 10
791.2847966503
 20
181.7566758673
 30
0.0
 11
727.484796996
 21
181.7566758673
 31
0.0
  0
LINE
  5
320
330
1F
100
AcDbEntity
  8
0
  6
Continuous
 62
     8
370
    15
100
AcDbLine
 10
791.2208837073
 20
94.5167547743
 30
0.0
 11
727.5487118017
 21
94.5167547743
 31
0.0
  0
LINE
  5
321
330
1F
100
AcDbEntity
  8
0
  6
Continuous
 62
     8
370
    15
100
AcDbLine
 10
791.2847966503
 20
95.2892309706
 30
0.0
 11
727.484796996
 21
95.2892309706
 31
0.0
  0
LINE
  5
322
330
1F
100
AcDbEntity
  8
0
  6
Continuous
 62
     8
370
    15
100
AcDbLine
 10
212.284774388
 20
181.7566758673
 30
0.0
 11
148.4847970855
 21
181.7566758673
 31
0.0
  0
LINE
  5
323
330
1F
100
AcDbEntity
  8
0
  6
Continuous
 62
     8
370
    15
100
AcDbLine
 10
212.284774388
 20
95.2892309706
 30
0.0
 11
148.4847970855
 21
95.2892309706
 31
0.0
  0
LINE
  5
324
330
1F
100
AcDbEntity
  8
0
  6
Continuous
 62
     8
370
    15
100
AcDbLine
 10
212.2208782088
 20
94.5167547743
 30
0.0
 11
148.5486932647
 21
94.5167547743
 31
0.0
  0
LINE
  5
325
330
1F
100
AcDbEntity
  8
0
  6
Continuous
 62
     8
370
    15
100
AcDbLine
 10
80.9605427634
 20
639.156655101
 30
0.0
 11
95.7348056685
 21
639.156655101
 31
0.0
  0
LINE
  5
326
330
1F
100
AcDbEntity
  8
0
  6
Continuous
 62
     8
370
    15
100
AcDbLine
 10
66.0348244559
 20
639.156655101
 30
0.0
 11
80.9605427634
 21
639.156655101
 31
0.0
  0
LWPOLYLINE
  5
327
330
1F
100
AcDbEntity
  8
0
  6
Continuous
 62
     8
370
    15
100
AcDbPolyline
 90
       27
 70
   128
 43
0.0
 10
908.4538229357
 20
806.8301087897
 10
908.4728368174
 20
806.7893317621
 10
908.6245157372
 20
806.4640841167
 10
908.9253552806
 20
805.8189308922
 10
909.3704231631
 20
804.8644668143
 10
909.9524178159
 20
803.6163604538
 10
910.6617875945
 20
802.0951083581
 10
911.4868797909
 20
800.3256923239
 10
912.4141492497
 20
798.3371621649
 10
913.4283669841
 20
796.1621663253
 10
914.5128883969
 20
793.8364228885
 10
915.6498767983
 20
791.3981235306
 10
916.8206908356
 20
788.8873002212
 10
918.0061080109
 20
786.3451770227
 10
919.1866525065
 20
783.8135032635
 10
920.3429230105
 20
781.3338457327
 10
921.4559652459
 20
778.946918128
 10
922.5074954879
 20
776.691917954
 10
923.4802432906
 20
774.6058708708
 10
924.3582197081
 20
772.7230271976
 10
925.1270302188
 20
771.0743031185
 10
925.774053539
 20
769.6867777686
 10
926.2886353385
 20
768.5832238476
 10
926.6623713624
 20
767.7817686181
 10
926.8890776288
 20
767.2955735307
 10
926.9650735509
 20
767.1326144318
 10
926.9650735509
 20
767.1326144318
  0
LWPOLYLINE
  5
328
330
1F
100
AcDbEntity
  8
0
  6
Continuous
 62
     8
370
    15
100
AcDbPolyline
 90
        6
 70
   128
 43
0.0
 10
952.8123446357
 20
781.5414785128
 10
952.7434863698
 20
781.6891601961
 10
952.5279857766
 20
782.1512973587
 10
952.1695830476
 20
782.9199029784
 10
951.6746111762
 20
783.981361119
 10
951.0518469464
 20
785.3168739657
  0
LINE
  5
329
330
1F
100
AcDbEntity
  8
0
  6
Continuous
 62
     8
370
    15
100
AcDbLine
 10
87.3964734923
 20
942.0566565077
 30
0.0
 11
68.3964796912
 21
942.0566565077
 31
0.0
  0
LINE
  5
32A
330
1F
100
AcDbEntity
  8
0
  6
Continuous
 62
     8
370
    15
100
AcDbLine
 10
117.0283862006
 20
171.9066506903
 30
0.0
 11
110.3738256346
 21
171.9066506903
 31
0.0
  0
LINE
  5
32B
330
1F
100
AcDbEntity
  8
0
  6
Continuous
 62
     8
370
    15
100
AcDbLine
 10
104.8171230208
 20
171.9066506903
 30
0.0
 11
104.7848173033
 21
171.9066506903
 31
0.0
  0
LINE
  5
32C
330
1F
100
AcDbEntity
  8
0
  6
Continuous
 62
     8
370
    15
100
AcDbLine
 10
104.7848173033
 20
171.2066537421
 30
0.0
 11
104.8171230208
 21
171.2066537421
 31
0.0
  0
LINE
  5
32D
330
1F
100
AcDbEntity
  8
0
  6
Continuous
 62
     8
370
    15
100
AcDbLine
 10
110.3738256346
 20
171.2066537421
 30
0.0
 11
117.0283862006
 21
171.2066537421
 31
0.0
  0
LINE
  5
32E
330
1F
100
AcDbEntity
  8
0
  6
Continuous
 62
     8
370
    15
100
AcDbLine
 10
117.5172038924
 20
172.4066740553
 30
0.0
 11
117.4409695517
 21
172.4066740553
 31
0.0
  0
LINE
  5
32F
330
1F
100
AcDbEntity
  8
0
  6
Continuous
 62
     8
370
    15
100
AcDbLine
 10
117.5172038924
 20
177.5066858809
 30
0.0
 11
117.4409695517
 21
177.5066858809
 31
0.0
  0
LINE
  5
330
330
1F
100
AcDbEntity
  8
0
  6
Continuous
 62
     8
370
    15
100
AcDbLine
 10
122.6147123229
 20
177.5066858809
 30
0.0
 11
122.6409383666
 21
177.5066858809
 31
0.0
  0
SPLINE
  5
331
330
1F
100
AcDbEntity
  8
0
  6
Continuous
 62
     8
370
    15
100
AcDbSpline
210
0.0
220
0.0
230
1.0
 70
     8
 71
     3
 72
    11
 73
     7
 74
     0
 42
0.00000001
 43
0.00000001
 12
1.0
 22
0.0
 32
0.0
 13
1.0
 23
0.0
 33
0.0
 40
0.0
 40
0.0
 40
0.0
 40
0.0
 40
0.1689444401826139
 40
0.5098489526040427
 40
0.869887271102515
 40
1.0
 40
1.0
 40
1.0
 40
1.0
 10
104.4048972975481
 20
172.4066740553266
 30
0.0
 10
104.407410251578
 20
172.3392901427952
 30
0.0
 10
104.414993969507
 20
172.1359356128123
 30
0.0
 10
104.5089915566181
 20
171.8098581815919
 30
0.0
 10
104.6580306289216
 20
171.5340621683151
 30
0.0
 10
104.7837502106536
 20
171.4456527914573
 30
0.0
 10
104.8171230208147
 20
171.4221841375715
 30
0.0
  0
LINE
  5
332
330
1F
100
AcDbEntity
  8
0
  6
Continuous
 62
     8
370
    15
100
AcDbLine
 10
104.9347825896
 20
173.3357912581
 30
0.0
 11
104.9347825896
 21
177.5066858809
 31
0.0
  0
LINE
  5
333
330
1F
100
AcDbEntity
  8
0
  6
Continuous
 62
     8
370
    15
100
AcDbLine
 10
104.3286629569
 20
172.4066740553
 30
0.0
 11
104.4048972975
 21
172.4066740553
 31
0.0
  0
LINE
  5
334
330
1F
100
AcDbEntity
  8
0
  6
Continuous
 62
     8
370
    15
100
AcDbLine
 10
105.33490857
 20
177.5066858809
 30
0.0
 11
105.33490857
 21
173.3566528838
 31
0.0
  0
LINE
  5
335
330
1F
100
AcDbEntity
  8
0
  6
Continuous
 62
     8
370
    15
100
AcDbLine
 10
107.8446217429
 20
177.5066858809
 30
0.0
 11
105.33490857
 21
177.5066858809
 31
0.0
  0
LINE
  5
336
330
1F
100
AcDbEntity
  8
0
  6
Continuous
 62
     8
370
    15
100
AcDbLine
 10
104.3286629569
 20
177.5066858809
 30
0.0
 11
104.4048972975
 21
177.5066858809
 31
0.0
  0
LINE
  5
337
330
1F
100
AcDbEntity
  8
0
  6
Continuous
 62
     8
370
    15
100
AcDbLine
 10
117.4409695517
 20
173.1066710036
 30
0.0
 11
110.7538052451
 21
173.1066710036
 31
0.0
  0
LINE
  5
338
330
1F
100
AcDbEntity
  8
0
  6
Continuous
 62
     8
370
    15
100
AcDbLine
 10
110.7538052451
 20
172.4066740553
 30
0.0
 11
117.4570628058
 21
172.4066740553
 31
0.0
  0
LINE
  5
339
330
1F
100
AcDbEntity
  8
0
  6
Continuous
 62
     8
370
    15
100
AcDbLine
 10
110.314697827
 20
171.9066506903
 30
0.0
 11
110.3738256346
 21
171.9066506903
 31
0.0
  0
LINE
  5
33A
330
1F
100
AcDbEntity
  8
0
  6
Continuous
 62
     8
370
    15
100
AcDbLine
 10
110.314697827
 20
166.8066388647
 30
0.0
 11
110.3738256346
 21
166.8066388647
 31
0.0
  0
LINE
  5
33B
330
1F
100
AcDbEntity
  8
0
  6
Continuous
 62
     8
370
    15
100
AcDbLine
 10
104.8556276213
 20
166.8066388647
 30
0.0
 11
104.8171230208
 21
166.8066388647
 31
0.0
  0
LINE
  5
33C
330
1F
100
AcDbEntity
  8
0
  6
Continuous
 62
     8
370
    15
100
AcDbLine
 10
105.1672407042
 20
173.1066710036
 30
0.0
 11
104.7848173033
 21
173.1066710036
 31
0.0
  0
LINE
  5
33D
330
1F
100
AcDbEntity
  8
0
  6
Continuous
 62
     8
370
    15
100
AcDbLine
 10
122.0932908904
 20
166.8066388647
 30
0.0
 11
122.0932908904
 21
171.0133558791
 31
0.0
  0
LINE
  5
33E
330
1F
100
AcDbEntity
  8
0
  6
Continuous
 62
     8
370
    15
100
AcDbLine
 10
121.6173478019
 20
170.9566718619
 30
0.0
 11
121.6173478019
 21
166.8066388647
 31
0.0
  0
LINE
  5
33F
330
1F
100
AcDbEntity
  8
0
  6
Continuous
 62
     8
370
    15
100
AcDbLine
 10
121.2117977988
 20
166.8066388647
 30
0.0
 11
121.2117977988
 21
170.9566718619
 31
0.0
  0
LINE
  5
340
330
1F
100
AcDbEntity
  8
0
  6
Continuous
 62
     8
370
    15
100
AcDbLine
 10
119.2145653617
 20
166.8066388647
 30
0.0
 11
121.2117977988
 21
166.8066388647
 31
0.0
  0
LINE
  5
341
330
1F
100
AcDbEntity
  8
0
  6
Continuous
 62
     8
370
    15
100
AcDbLine
 10
122.152418698
 20
166.8066388647
 30
0.0
 11
122.0932908904
 21
166.8066388647
 31
0.0
  0
ENDSEC
  0
SECTION
  2
OBJECTS
  0
DICTIONARY
  5
C
330
0
100
AcDbDictionary
281
     1
  3
ACAD_GROUP
350
D
  3
ACAD_LAYOUT
350
1A
  3
ACAD_MLINESTYLE
350
17
  3
ACAD_PLOTSETTINGS
350
19
  3
ACAD_PLOTSTYLENAME
350
E
  0
DICTIONARY
  5
D
102
{ACAD_REACTORS
330
C
102
}
330
C
100
AcDbDictionary
281
     1
  0
DICTIONARY
  5
1A
102
{ACAD_REACTORS
330
C
102
}
330
C
100
AcDbDictionary
281
     1
  3
Layout1
350
1E
  3
Layout2
350
26
  3
Model
350
22
  0
DICTIONARY
  5
17
102
{ACAD_REACTORS
330
C
102
}
330
C
100
AcDbDictionary
281
     1
  3
Standard
350
18
  0
DICTIONARY
  5
19
102
{ACAD_REACTORS
330
C
102
}
330
C
100
AcDbDictionary
281
     1
  0
ACDBDICTIONARYWDFLT
  5
E
102
{ACAD_REACTORS
330
C
102
}
330
C
100
AcDbDictionary
281
     1
  3
Normal
350
F
100
AcDbDictionaryWithDefault
340
F
  0
LAYOUT
  5
1E
102
{ACAD_REACTORS
330
1A
102
}
330
1A
100
AcDbPlotSettings
  1

  2
none_device
  4

  6

 40
0.0
 41
0.0
 42
0.0
 43
0.0
 44
0.0
 45
0.0
 46
0.0
 47
0.0
 48
0.0
 49
0.0
140
0.0
141
0.0
142
1.0
143
1.0
 70
   688
 72
     0
 73
     0
 74
     5
  7

 75
    16
147
1.0
148
0.0
149
0.0
100
AcDbLayout
  1
Layout1
 70
     1
 71
     1
 10
0.0
 20
0.0
 11
420.0
 21
297.0
 12
0.0
 22
0.0
 32
0.0
 14
1.0000000000E+20
 24
1.0000000000E+20
 34
1.0000000000E+20
 15
-1.0000000000E+20
 25
-1.0000000000E+20
 35
-1.0000000000E+20
146
0.0
 13
0.0
 23
0.0
 33
0.0
 16
1.0
 26
0.0
 36
0.0
 17
0.0
 27
1.0
 37
0.0
 76
     0
330
1B
  0
LAYOUT
  5
26
102
{ACAD_REACTORS
330
1A
102
}
330
1A
100
AcDbPlotSettings
  1

  2
none_device
  4

  6

 40
0.0
 41
0.0
 42
0.0
 43
0.0
 44
0.0
 45
0.0
 46
0.0
 47
0.0
 48
0.0
 49
0.0
140
0.0
141
0.0
142
1.0
143
1.0
 70
   688
 72
     0
 73
     0
 74
     5
  7

 75
    16
147
1.0
148
0.0
149
0.0
100
AcDbLayout
  1
Layout2
 70
     1
 71
     2
 10
0.0
 20
0.0
 11
0.0
 21
0.0
 12
0.0
 22
0.0
 32
0.0
 14
0.0
 24
0.0
 34
0.0
 15
0.0
 25
0.0
 35
0.0
146
0.0
 13
0.0
 23
0.0
 33
0.0
 16
1.0
 26
0.0
 36
0.0
 17
0.0
 27
1.0
 37
0.0
 76
     0
330
23
  0
LAYOUT
  5
22
102
{ACAD_REACTORS
330
1A
102
}
330
1A
100
AcDbPlotSettings
  1

  2
none_device
  4

  6

 40
0.0
 41
0.0
 42
0.0
 43
0.0
 44
0.0
 45
0.0
 46
0.0
 47
0.0
 48
0.0
 49
0.0
140
0.0
141
0.0
142
1.0
143
1.0
 70
  1712
 72
     0
 73
     0
 74
     0
  7

 75
     0
147
1.0
148
0.0
149
0.0
100
AcDbLayout
  1
Model
 70
     1
 71
     0
 10
0.0
 20
0.0
 11
1000.0
 21
1000.0
 12
0.0
 22
0.0
 32
0.0
 14
0.0
 24
0.0
 34
0.0
 15
1000.0
 25
1000.0
 35
0.0
146
0.0
 13
0.0
 23
0.0
 33
0.0
 16
1.0
 26
0.0
 36
0.0
 17
0.0
 27
1.0
 37
0.0
 76
     0
330
1F
331
29
  0
MLINESTYLE
  5
18
102
{ACAD_REACTORS
330
17
102
}
330
17
100
AcDbMlineStyle
  2
Standard
 70
     0
  3

 62
   256
 51
90.0
 52
90.0
 71
     2
 49
0.5
 62
   256
  6
BYLAYER
 49
-0.5
 62
   256
  6
BYLAYER
  0
ACDBPLACEHOLDER
  5
F
102
{ACAD_REACTORS
330
E
102
}
330
E
  0
ENDSEC
  0
EOF
