  0
SECTION
  2
HEADER
  9
$ACADVER
  1
AC1015
  9
$ACADMAINTVER
 70
     6
  9
$DWGCODEPAGE
  3
ANSI_1252
  9
$INSBASE
 10
0.0
 20
0.0
 30
0.0
  9
$EXTMIN
 10
0.0
 20
0.0
 30
0.0
  9
$EXTMAX
 10
431.8
 20
279.4
 30
0.0
  9
$LIMMIN
 10
0.0
 20
0.0
  9
$LIMMAX
 10
431.8
 20
279.4
  9
$ORTHOMODE
 70
     0
  9
$REGENMODE
 70
     1
  9
$FILLMODE
 70
     1
  9
$QTEXTMODE
 70
     0
  9
$MIRRTEXT
 70
     1
  9
$LTSCALE
 40
1.0
  9
$ATTMODE
 70
     1
  9
$TEXTSIZE
 40
3.5
  9
$TRACEWID
 40
1.0
  9
$TEXTSTYLE
  7
Standard
  9
$CLAYER
  8
0
  9
$CELTYPE
  6
ByLayer
  9
$CECOLOR
 62
   256
  9
$CELTSCALE
 40
1.0
  9
$DISPSILH
 70
     0
  9
$DIMSCALE
 40
1.0
  9
$DIMASZ
 40
3.302
  9
$DIMEXO
 40
1.0
  9
$DIMDLI
 40
3.75
  9
$DIMRND
 40
0.0
  9
$DIMDLE
 40
0.0
  9
$DIMEXE
 40
1.0
  9
$DIMTP
 40
0.0
  9
$DIMTM
 40
0.0
  9
$DIMTXT
 40
3.5
  9
$DIMCEN
 40
2.5
  9
$DIMTSZ
 40
0.0
  9
$DIMTOL
 70
     0
  9
$DIMLIM
 70
     0
  9
$DIMTIH
 70
     1
  9
$DIMTOH
 70
     1
  9
$DIMSE1
 70
     0
  9
$DIMSE2
 70
     0
  9
$DIMTAD
 70
     1
  9
$DIMZIN
 70
     0
  9
$DIMBLK
  1

  9
$DIMASO
 70
     1
  9
$DIMSHO
 70
     1
  9
$DIMPOST
  1

  9
$DIMAPOST
  1

  9
$DIMALT
 70
     0
  9
$DIMALTD
 70
     3
  9
$DIMALTF
 40
0.0393700787
  9
$DIMLFAC
 40
5.0
  9
$DIMTOFL
 70
     1
  9
$DIMTVP
 40
0.0
  9
$DIMTIX
 70
     0
  9
$DIMSOXD
 70
     0
  9
$DIMSAH
 70
     0
  9
$DIMBLK1
  1

  9
$DIMBLK2
  1

  9
$DIMSTYLE
  2
ISO-25
  9
$DIMCLRD
 70
     0
  9
$DIMCLRE
 70
     0
  9
$DIMCLRT
 70
     0
  9
$DIMTFAC
 40
1.0
  9
$DIMGAP
 40
1.524
  9
$DIMJUST
 70
     0
  9
$DIMSD1
 70
     0
  9
$DIMSD2
 70
     0
  9
$DIMTOLJ
 70
     0
  9
$DIMTZIN
 70
     0
  9
$DIMALTZ
 70
     0
  9
$DIMALTTZ
 70
     0
  9
$DIMUPT
 70
     0
  9
$DIMDEC
 70
     3
  9
$DIMTDEC
 70
     3
  9
$DIMALTU
 70
     2
  9
$DIMALTTD
 70
     3
  9
$DIMTXSTY
  7
Standard
  9
$DIMAUNIT
 70
     0
  9
$DIMADEC
 70
     2
  9
$DIMALTRND
 40
0.0
  9
$DIMAZIN
 70
     0
  9
$DIMDSEP
 70
    44
  9
$DIMATFIT
 70
     3
  9
$DIMFRAC
 70
     0
  9
$DIMLDRBLK
  1

  9
$DIMLUNIT
 70
     2
  9
$DIMLWD
 70
    -2
  9
$DIMLWE
 70
    -2
  9
$DIMTMOVE
 70
     0
  9
$LUNITS
 70
     2
  9
$LUPREC
 70
     8
  9
$SKETCHINC
 40
1.0
  9
$FILLETRAD
 40
10.0
  9
$AUNITS
 70
     0
  9
$AUPREC
 70
     8
  9
$MENU
  1
.
  9
$ELEVATION
 40
0.0
  9
$PELEVATION
 40
0.0
  9
$THICKNESS
 40
0.0
  9
$LIMCHECK
 70
     0
  9
$CHAMFERA
 40
10.0
  9
$CHAMFERB
 40
10.0
  9
$CHAMFERC
 40
20.0
  9
$CHAMFERD
 40
0.0
  9
$SKPOLY
 70
     0
  9
$TDCREATE
 40
2457604.604731667
  9
$TDUCREATE
 40
2457604.563065
  9
$TDUPDATE
 40
2457604.604732755
  9
$TDUUPDATE
 40
2457604.563066088
  9
$TDINDWG
 40
0.0000000116
  9
$TDUSRTIMER
 40
0.0000000116
  9
$USRTIMER
 70
     1
  9
$ANGBASE
 50
0.0
  9
$ANGDIR
 70
     0
  9
$PDMODE
 70
     0
  9
$PDSIZE
 40
-1.0
  9
$PLINEWID
 40
0.0
  9
$SPLFRAME
 70
     0
  9
$SPLINETYPE
 70
     6
  9
$SPLINESEGS
 70
     8
  9
$HANDSEED
  5
2BA
  9
$SURFTAB1
 70
     6
  9
$SURFTAB2
 70
     6
  9
$SURFTYPE
 70
     6
  9
$SURFU
 70
     6
  9
$SURFV
 70
     6
  9
$UCSBASE
  2

  9
$UCSNAME
  2

  9
$UCSORG
 10
0.0
 20
0.0
 30
0.0
  9
$UCSXDIR
 10
1.0
 20
0.0
 30
0.0
  9
$UCSYDIR
 10
0.0
 20
1.0
 30
0.0
  9
$UCSORTHOREF
  2

  9
$UCSORTHOVIEW
 70
     0
  9
$UCSORGTOP
 10
0.0
 20
0.0
 30
0.0
  9
$UCSORGBOTTOM
 10
0.0
 20
0.0
 30
0.0
  9
$UCSORGLEFT
 10
0.0
 20
0.0
 30
0.0
  9
$UCSORGRIGHT
 10
0.0
 20
0.0
 30
0.0
  9
$UCSORGFRONT
 10
0.0
 20
0.0
 30
0.0
  9
$UCSORGBACK
 10
0.0
 20
0.0
 30
0.0
  9
$PUCSBASE
  2

  9
$PUCSNAME
  2

  9
$PUCSORG
 10
0.0
 20
0.0
 30
0.0
  9
$PUCSXDIR
 10
1.0
 20
0.0
 30
0.0
  9
$PUCSYDIR
 10
0.0
 20
1.0
 30
0.0
  9
$PUCSORTHOREF
  2

  9
$PUCSORTHOVIEW
 70
     0
  9
$PUCSORGTOP
 10
0.0
 20
0.0
 30
0.0
  9
$PUCSORGBOTTOM
 10
0.0
 20
0.0
 30
0.0
  9
$PUCSORGLEFT
 10
0.0
 20
0.0
 30
0.0
  9
$PUCSORGRIGHT
 10
0.0
 20
0.0
 30
0.0
  9
$PUCSORGFRONT
 10
0.0
 20
0.0
 30
0.0
  9
$PUCSORGBACK
 10
0.0
 20
0.0
 30
0.0
  9
$USERI1
 70
     0
  9
$USERI2
 70
     0
  9
$USERI3
 70
     0
  9
$USERI4
 70
     0
  9
$USERI5
 70
     0
  9
$USERR1
 40
0.0
  9
$USERR2
 40
0.0
  9
$USERR3
 40
0.0
  9
$USERR4
 40
0.0
  9
$USERR5
 40
0.0
  9
$WORLDVIEW
 70
     1
  9
$SHADEDGE
 70
     3
  9
$SHADEDIF
 70
    70
  9
$TILEMODE
 70
     1
  9
$MAXACTVP
 70
    64
  9
$PINSBASE
 10
0.0
 20
0.0
 30
0.0
  9
$PLIMCHECK
 70
     0
  9
$PEXTMIN
 10
1.0000000000E+20
 20
1.0000000000E+20
 30
1.0000000000E+20
  9
$PEXTMAX
 10
-1.0000000000E+20
 20
-1.0000000000E+20
 30
-1.0000000000E+20
  9
$PLIMMIN
 10
0.0
 20
0.0
  9
$PLIMMAX
 10
420.0
 20
297.0
  9
$UNITMODE
 70
     0
  9
$VISRETAIN
 70
     1
  9
$PLINEGEN
 70
     0
  9
$PSLTSCALE
 70
     1
  9
$TREEDEPTH
 70
  3020
  9
$CMLSTYLE
  2
Standard
  9
$CMLJUST
 70
     0
  9
$CMLSCALE
 40
20.0
  9
$PROXYGRAPHICS
 70
     1
  9
$MEASUREMENT
 70
     1
  9
$CELWEIGHT
370
    -1
  9
$ENDCAPS
280
     0
  9
$JOINSTYLE
280
     0
  9
$LWDISPLAY
290
     1
  9
$INSUNITS
 70
     4
  9
$HYPERLINKBASE
  1

  9
$STYLESHEET
  1

  9
$XEDIT
290
     1
  9
$CEPSNTYPE
380
     0
  9
$PSTYLEMODE
290
     1
  9
$FINGERPRINTGUID
  2
{3EF6B23C-8FFF-4647-B595-7D5D62EB92AC}
  9
$VERSIONGUID
  2
{FAEB1C32-E019-11D5-929B-00C0DF256EC4}
  9
$EXTNAMES
290
     1
  9
$PSVPSCALE
 40
0.0
  9
$OLESTARTUP
290
     0
  0
ENDSEC
  0
SECTION
  2
CLASSES
  0
CLASS
  1
ACDBDICTIONARYWDFLT
  2
AcDbDictionaryWithDefault
  3
ObjectDBX Classes
 90
        0
280
     0
281
     0
  0
CLASS
  1
VISUALSTYLE
  2
AcDbVisualStyle
  3
ObjectDBX Classes
 90
     4095
280
     0
281
     0
  0
CLASS
  1
MATERIAL
  2
AcDbMaterial
  3
ObjectDBX Classes
 90
     1153
280
     0
281
     0
  0
CLASS
  1
ACDBPLACEHOLDER
  2
AcDbPlaceHolder
  3
ObjectDBX Classes
 90
        0
280
     0
281
     0
  0
CLASS
  1
LAYOUT
  2
AcDbLayout
  3
ObjectDBX Classes
 90
        0
280
     0
281
     0
  0
ENDSEC
  0
SECTION
  2
TABLES
  0
TABLE
  2
VPORT
  5
8
330
0
100
AcDbSymbolTable
 70
     1
  0
VPORT
  5
29
330
8
100
AcDbSymbolTableRecord
100
AcDbViewportTableRecord
  2
*Active
 70
     0
 10
0.0
 20
0.0
 11
1.0
 21
1.0
 12
215.9
 22
139.7
 13
0.0
 23
0.0
 14
10.0
 24
10.0
 15
10.0
 25
10.0
 16
0.0
 26
0.0
 36
1.0
 17
0.0
 27
0.0
 37
0.0
 40
279.4
 41
1.5454545455
 42
50.0
 43
0.0
 44
0.0
 50
0.0
 51
0.0
 71
     0
 72
  2000
 73
     1
 74
     3
 75
     0
 76
     0
 77
     0
 78
     0
281
     0
 65
     1
110
0.0
120
0.0
130
0.0
111
1.0
121
0.0
131
0.0
112
0.0
122
1.0
132
0.0
 79
     0
146
0.0
  0
ENDTAB
  0
TABLE
  2
LTYPE
  5
5
330
0
100
AcDbSymbolTable
 70
     6
  0
LTYPE
  5
14
330
5
100
AcDbSymbolTableRecord
100
AcDbLinetypeTableRecord
  2
ByBlock
 70
     0
  3

 72
    65
 73
     0
 40
0.0
  0
LTYPE
  5
15
330
5
100
AcDbSymbolTableRecord
100
AcDbLinetypeTableRecord
  2
ByLayer
 70
     0
  3

 72
    65
 73
     0
 40
0.0
  0
LTYPE
  5
16
330
5
100
AcDbSymbolTableRecord
100
AcDbLinetypeTableRecord
  2
Continuous
 70
     0
  3
Solid line
 72
    65
 73
     0
 40
0.0
  0
LTYPE
  5
3F
330
5
100
AcDbSymbolTableRecord
100
AcDbLinetypeTableRecord
  2
HIDDEN
 70
     0
  3
Hidden __ __ __ __ __ __ __ __ __ __ __ __ __ __
 72
    65
 73
     2
 40
1.905
 49
1.27
 74
     0
 49
-0.635
 74
     0
  0
LTYPE
  5
40
330
5
100
AcDbSymbolTableRecord
100
AcDbLinetypeTableRecord
  2
PHANTOM
 70
     0
  3
Phantom ______  __  __  ______  __  __  ______
 72
    65
 73
     6
 40
12.7
 49
6.35
 74
     0
 49
-1.27
 74
     0
 49
1.27
 74
     0
 49
-1.27
 74
     0
 49
1.27
 74
     0
 49
-1.27
 74
     0
  0
LTYPE
  5
41
330
5
100
AcDbSymbolTableRecord
100
AcDbLinetypeTableRecord
  2
CENTER
 70
     0
  3
Center ____ _ ____ _ ____ _ ____ _ ____ _ ____
 72
    65
 73
     4
 40
10.16
 49
6.35
 74
     0
 49
-1.27
 74
     0
 49
1.27
 74
     0
 49
-1.27
 74
     0
  0
LTYPE
  5
42
330
5
100
AcDbSymbolTableRecord
100
AcDbLinetypeTableRecord
  2
CENTERX2
 70
     0
  3
Center (2x) ________  __  ________  __  _____
 72
    65
 73
     4
 40
20.32
 49
12.7
 74
     0
 49
-2.54
 74
     0
 49
2.54
 74
     0
 49
-2.54
 74
     0
  0
LTYPE
  5
43
330
5
100
AcDbSymbolTableRecord
100
AcDbLinetypeTableRecord
  2
DOT2
 70
     0
  3
Dot (.5x) ........................................
 72
    65
 73
     2
 40
0.635
 49
0.0
 74
     0
 49
-0.635
 74
     0
  0
ENDTAB
  0
TABLE
  2
LAYER
  5
2
330
0
100
AcDbSymbolTable
 70
     1
  0
LAYER
  5
10
330
2
100
AcDbSymbolTableRecord
100
AcDbLayerTableRecord
  2
0
 70
     0
 62
     7
  6
Continuous
370
    -3
390
F
  0
ENDTAB
  0
TABLE
  2
STYLE
  5
3
330
0
100
AcDbSymbolTable
 70
     1
  0
STYLE
  5
11
330
3
100
AcDbSymbolTableRecord
100
AcDbTextStyleTableRecord
  2
Standard
 70
     0
 40
0.0
 41
1.0
 50
0.0
 71
     0
 42
3.5
  3
txt
  4

  0
ENDTAB
  0
TABLE
  2
VIEW
  5
6
330
0
100
AcDbSymbolTable
 70
     0
  0
ENDTAB
  0
TABLE
  2
UCS
  5
7
330
0
100
AcDbSymbolTable
 70
     0
  0
ENDTAB
  0
TABLE
  2
APPID
  5
9
330
0
100
AcDbSymbolTable
 70
     1
  0
APPID
  5
12
330
9
100
AcDbSymbolTableRecord
100
AcDbRegAppTableRecord
  2
ACAD
 70
     0
  0
ENDTAB
  0
TABLE
  2
DIMSTYLE
  5
A
330
0
100
AcDbSymbolTable
 70
     1
100
AcDbDimStyleTable
  0
DIMSTYLE
105
27
330
A
100
AcDbSymbolTableRecord
100
AcDbDimStyleTableRecord
  2
ISO-25
 70
     0
 41
2.5
 42
0.625
 43
3.75
 44
1.25
 73
     0
 74
     0
 77
     1
 78
     8
140
2.5
141
2.5
143
0.0393700787
147
0.625
171
     3
172
     1
178
     0
271
     2
272
     2
274
     3
278
    44
283
     0
284
     8
340
11
  0
ENDTAB
  0
TABLE
  2
BLOCK_RECORD
  5
1
330
0
100
AcDbSymbolTable
 70
     1
  0
BLOCK_RECORD
  5
1F
330
1
100
AcDbSymbolTableRecord
100
AcDbBlockTableRecord
  2
*Model_Space
340
22
  0
BLOCK_RECORD
  5
1B
330
1
100
AcDbSymbolTableRecord
100
AcDbBlockTableRecord
  2
*Paper_Space
340
1E
  0
BLOCK_RECORD
  5
23
330
1
100
AcDbSymbolTableRecord
100
AcDbBlockTableRecord
  2
*Paper_Space0
340
26
  0
ENDTAB
  0
ENDSEC
  0
SECTION
  2
BLOCKS
  0
BLOCK
  5
20
330
1F
100
AcDbEntity
  8
0
100
AcDbBlockBegin
  2
*Model_Space
 70
     0
 10
0.0
 20
0.0
 30
0.0
  3
*Model_Space
  1

  0
ENDBLK
  5
21
330
1F
100
AcDbEntity
  8
0
100
AcDbBlockEnd
  0
BLOCK
  5
1C
330
1B
100
AcDbEntity
 67
     1
  8
0
100
AcDbBlockBegin
  2
*Paper_Space
 70
     0
 10
0.0
 20
0.0
 30
0.0
  3
*Paper_Space
  1

  0
ENDBLK
  5
1D
330
1B
100
AcDbEntity
 67
     1
  8
0
100
AcDbBlockEnd
  0
BLOCK
  5
24
330
23
100
AcDbEntity
  8
0
100
AcDbBlockBegin
  2
*Paper_Space0
 70
     0
 10
0.0
 20
0.0
 30
0.0
  3
*Paper_Space0
  1

  0
ENDBLK
  5
25
330
23
100
AcDbEntity
  8
0
100
AcDbBlockEnd
  0
ENDSEC
  0
SECTION
  2
ENTITIES
  0
LINE
  5
44
330
1F
100
AcDbEntity
  8
0
  6
Continuous
 62
     7
370
    15
100
AcDbLine
 10
90.2581759838
 20
73.6882436989
 30
0.0
 11
90.1792117504
 21
73.5882509468
 31
0.0
  0
LINE
  5
45
330
1F
100
AcDbEntity
  8
0
  6
Continuous
 62
     7
370
    15
100
AcDbLine
 10
90.943736687
 20
73.5882509468
 30
0.0
 11
91.0227009204
 21
73.6882436989
 31
0.0
  0
SPLINE
  5
46
330
1F
100
AcDbEntity
  8
0
  6
Continuous
 62
     7
370
    15
100
AcDbSpline
210
0.0
220
0.0
230
1.0
 70
     8
 71
     3
 72
     9
 73
     5
 74
     0
 42
0.00000001
 43
0.00000001
 12
1.0
 22
0.0
 32
0.0
 13
1.0
 23
0.0
 33
0.0
 40
0.0
 40
0.0
 40
0.0
 40
0.0
 40
0.0528044716224806
 40
1.0
 40
1.0
 40
1.0
 40
1.0
 10
161.508173599568
 20
59.02809984669113
 30
0.0
 10
161.5091225925456
 20
59.03161665492725
 30
0.0
 10
161.5270944223637
 20
59.09821723112954
 30
0.0
 10
161.5629289587919
 20
59.16467342497185
 30
0.0
 10
161.5968712714582
 20
59.22762043461227
 30
0.0
  0
LINE
  5
47
330
1F
100
AcDbEntity
  8
0
  6
Continuous
 62
     7
370
    15
100
AcDbLine
 10
157.2931536582
 20
59.2276204346
 30
0.0
 11
157.3360868839
 21
59.1269005059
 31
0.0
  0
ARC
  5
48
330
1F
100
AcDbEntity
  8
0
  6
Continuous
 62
     7
370
    15
100
AcDbCircle
 10
161.5712728893
 20
56.9869819458
 30
0.0
 40
0.2000000000000056
100
AcDbArc
 50
286.1036910378
 51
349.3444562998
  0
ARC
  5
49
330
1F
100
AcDbEntity
  8
0
  6
Continuous
 62
     7
370
    15
100
AcDbCircle
 10
157.3173515851
 20
56.9869819458
 30
0.0
 40
0.2000000000000056
100
AcDbArc
 50
190.6555437002
 51
253.8963089622
  0
SPLINE
  5
4A
330
1F
100
AcDbEntity
  8
0
  6
Continuous
 62
     7
370
    15
100
AcDbSpline
210
0.0
220
0.0
230
1.0
 70
     8
 71
     3
 72
    17
 73
    13
 74
     0
 42
0.00000001
 43
0.00000001
 12
1.0
 22
0.0
 32
0.0
 13
1.0
 23
0.0
 33
0.0
 40
0.0
 40
0.0
 40
0.0
 40
0.0
 40
0.0568459798242858
 40
0.1651286843529374
 40
0.2731862236372953
 40
0.3810468980624181
 40
0.4887958269729809
 40
0.5965123788405723
 40
0.7042565545592916
 40
0.8120879804434851
 40
0.9200903202691751
 40
1.0
 40
1.0
 40
1.0
 40
1.0
 10
157.2618791011244
 20
56.7948330162468
 30
0.0
 10
157.3358321858118
 20
56.77440836823214
 30
0.0
 10
157.5506543353468
 20
56.71507795884427
 30
0.0
 10
157.9306981313423
 20
56.63523346979291
 30
0.0
 10
158.4041817918443
 20
56.56484514393925
 30
0.0
 10
158.8941228588202
 20
56.52135473035165
 30
0.0
 10
159.3922824797716
 20
56.50486006280524
 30
0.0
 10
159.8910940245014
 20
56.51567491783985
 30
0.0
 10
160.3829866735475
 20
56.55351282334257
 30
0.0
 10
160.8596381768827
 20
56.61833617354444
 30
0.0
 10
161.2765526387044
 20
56.69973536973931
 30
0.0
 10
161.5222627380083
 20
56.76645883112368
 30
0.0
 10
161.6267510798841
 20
56.7948330162468
 30
0.0
  0
SPLINE
  5
4B
330
1F
100
AcDbEntity
  8
0
  6
Continuous
 62
     7
370
    15
100
AcDbSpline
210
0.0
220
0.0
230
1.0
 70
     8
 71
     3
 72
     9
 73
     5
 74
     0
 42
0.00000001
 43
0.00000001
 12
1.0
 22
0.0
 32
0.0
 13
1.0
 23
0.0
 33
0.0
 40
0.0
 40
0.0
 40
0.0
 40
0.0
 40
0.5331108231481837
 40
1.0
 40
1.0
 40
1.0
 40
1.0
 10
161.7679962066084
 20
56.95006735309982
 30
0.0
 10
161.8458823955662
 20
57.35014945753139
 30
0.0
 10
161.9919799527268
 20
58.10061650314291
 30
0.0
 10
162.1783357965531
 20
58.86891171538802
 30
0.0
 10
162.2653433230787
 20
59.22762043461227
 30
0.0
  0
SPLINE
  5
4C
330
1F
100
AcDbEntity
  8
0
  6
Continuous
 62
     7
370
    15
100
AcDbSpline
210
0.0
220
0.0
230
1.0
 70
     8
 71
     3
 72
    10
 73
     6
 74
     0
 42
0.00000001
 43
0.00000001
 12
1.0
 22
0.0
 32
0.0
 13
1.0
 23
0.0
 33
0.0
 40
0.0
 40
0.0
 40
0.0
 40
0.0
 40
0.0959307551168046
 40
0.713449302575631
 40
1.0
 40
1.0
 40
1.0
 40
1.0
 10
156.6251286414533
 20
59.22762043461227
 30
0.0
 10
156.6436446488258
 20
59.15377552283327
 30
0.0
 10
156.7813505652478
 20
58.60458146360452
 30
0.0
 10
156.9519942743679
 20
57.8400582391575
 30
0.0
 10
157.0753851468429
 20
57.16663618786491
 30
0.0
 10
157.1144946959883
 20
56.95319063648604
 30
0.0
  0
ARC
  5
4D
330
1F
100
AcDbEntity
  8
0
  6
Continuous
 62
     7
370
    15
100
AcDbCircle
 10
187.3173515851
 20
57.2588742819
 30
0.0
 40
0.1999999999999965
100
AcDbArc
 50
190.6555437002
 51
253.8963089622
  0
ARC
  5
4E
330
1F
100
AcDbEntity
  8
0
  6
Continuous
 62
     7
370
    15
100
AcDbCircle
 10
191.5712728893
 20
57.2588742819
 30
0.0
 40
0.2000000000000056
100
AcDbArc
 50
286.1036910378
 51
349.3444562998
  0
SPLINE
  5
4F
330
1F
100
AcDbEntity
  8
0
  6
Continuous
 62
     7
370
    15
100
AcDbSpline
210
0.0
220
0.0
230
1.0
 70
     8
 71
     3
 72
    17
 73
    13
 74
     0
 42
0.00000001
 43
0.00000001
 12
1.0
 22
0.0
 32
0.0
 13
1.0
 23
0.0
 33
0.0
 40
0.0
 40
0.0
 40
0.0
 40
0.0
 40
0.0568453517760717
 40
0.1651281398557468
 40
0.2731857625173905
 40
0.3810463594353214
 40
0.4887960141639449
 40
0.5965120053865242
 40
0.7042562642407375
 40
0.8120883883745914
 40
0.9200908115349752
 40
1.0
 40
1.0
 40
1.0
 40
1.0
 10
187.261877312985
 20
57.0667255638542
 30
0.0
 10
187.3358317629194
 20
57.04630087982363
 30
0.0
 10
187.5506595433828
 20
56.98696990594932
 30
0.0
 10
187.9306980762009
 20
56.90712614672255
 30
0.0
 10
188.4041838472771
 20
56.83673771261525
 30
0.0
 10
188.8941213916407
 20
56.79324715470495
 30
0.0
 10
189.3922819339854
 20
56.77675264834783
 30
0.0
 10
189.8910931720124
 20
56.78756749639968
 30
0.0
 10
190.3829857563292
 20
56.82540557732582
 30
0.0
 10
190.8596384896966
 20
56.89022849933207
 30
0.0
 10
191.2765533498089
 20
56.9716275587874
 30
0.0
 10
191.5222619871202
 20
57.03835135092168
 30
0.0
 10
191.6267492917448
 20
57.06672556385421
 30
0.0
  0
SPLINE
  5
50
330
1F
100
AcDbEntity
  8
0
  6
Continuous
 62
     7
370
    15
100
AcDbSpline
210
0.0
220
0.0
230
1.0
 70
     8
 71
     3
 72
     9
 73
     5
 74
     0
 42
0.00000001
 43
0.00000001
 12
1.0
 22
0.0
 32
0.0
 13
1.0
 23
0.0
 33
0.0
 40
0.0
 40
0.0
 40
0.0
 40
0.0
 40
0.6047034644933394
 40
1.0
 40
1.0
 40
1.0
 40
1.0
 10
191.7680003789335
 20
57.22195990070725
 30
0.0
 10
191.8453718636733
 20
57.62181453667417
 30
0.0
 10
191.9733213286308
 20
58.28305539181282
 30
0.0
 10
192.1367672169882
 20
58.96001904703787
 30
0.0
 10
192.2013768103987
 20
59.22762043461227
 30
0.0
  0
SPLINE
  5
51
330
1F
100
AcDbEntity
  8
0
  6
Continuous
 62
     7
370
    15
100
AcDbSpline
210
0.0
220
0.0
230
1.0
 70
     8
 71
     3
 72
     9
 73
     5
 74
     0
 42
0.00000001
 43
0.00000001
 12
1.0
 22
0.0
 32
0.0
 13
1.0
 23
0.0
 33
0.0
 40
0.0
 40
0.0
 40
0.0
 40
0.0
 40
0.6751127653435325
 40
1.0
 40
1.0
 40
1.0
 40
1.0
 10
186.6915979531675
 20
59.22762043461227
 30
0.0
 10
186.7982957117671
 20
58.77121211262337
 30
0.0
 10
186.9563400623954
 20
58.09516457594754
 30
0.0
 10
187.075710859635
 20
57.43844348369571
 30
0.0
 10
187.1144929078489
 20
57.22508318409347
 30
0.0
  0
LINE
  5
52
330
1F
100
AcDbEntity
  8
0
  6
Continuous
 62
     7
370
    15
100
AcDbLine
 10
74.4443127063
 20
59.2164386033
 30
0.0
 11
96.6940828708
 21
59.2164386033
 31
0.0
  0
LINE
  5
53
330
1F
100
AcDbEntity
  8
0
  6
Continuous
 62
     7
370
    15
100
AcDbLine
 10
102.1987506297
 20
59.2164386033
 30
0.0
 11
126.6940900234
 21
59.2164386033
 31
0.0
  0
LINE
  5
54
330
1F
100
AcDbEntity
  8
0
  6
Continuous
 62
     7
370
    15
100
AcDbLine
 10
132.1987458614
 20
59.2164386033
 30
0.0
 11
156.6279181388
 21
59.2164386033
 31
0.0
  0
LINE
  5
55
330
1F
100
AcDbEntity
  8
0
  6
Continuous
 62
     7
370
    15
100
AcDbLine
 10
162.2627087978
 20
59.2164386033
 30
0.0
 11
186.6940864471
 21
59.2164386033
 31
0.0
  0
LINE
  5
56
330
1F
100
AcDbEntity
  8
0
  6
Continuous
 62
     7
370
    15
100
AcDbLine
 10
192.1987452653
 20
59.2164386033
 30
0.0
 11
216.6940846589
 21
59.2164386033
 31
0.0
  0
LINE
  5
57
330
1F
100
AcDbEntity
  8
0
  6
Continuous
 62
     7
370
    15
100
AcDbLine
 10
222.1987464574
 20
59.2164386033
 30
0.0
 11
246.694085106
 21
59.2164386033
 31
0.0
  0
LINE
  5
58
330
1F
100
AcDbEntity
  8
0
  6
Continuous
 62
     7
370
    15
100
AcDbLine
 10
252.1987461594
 20
59.2164386033
 30
0.0
 11
274.4443127063
 21
59.2164386033
 31
0.0
  0
ARC
  5
59
330
1F
100
AcDbEntity
  8
0
  6
Continuous
 62
     7
370
    15
100
AcDbCircle
 10
131.5712728893
 20
57.2588742819
 30
0.0
 40
0.2000000000000016
100
AcDbArc
 50
286.1036910378
 51
349.3444562998
  0
ARC
  5
5A
330
1F
100
AcDbEntity
  8
0
  6
Continuous
 62
     7
370
    15
100
AcDbCircle
 10
127.3173515851
 20
57.2588742819
 30
0.0
 40
0.2000000000000102
100
AcDbArc
 50
190.6555437002
 51
253.8963089622
  0
SPLINE
  5
5B
330
1F
100
AcDbEntity
  8
0
  6
Continuous
 62
     7
370
    15
100
AcDbSpline
210
0.0
220
0.0
230
1.0
 70
     8
 71
     3
 72
    17
 73
    13
 74
     0
 42
0.00000001
 43
0.00000001
 12
1.0
 22
0.0
 32
0.0
 13
1.0
 23
0.0
 33
0.0
 40
0.0
 40
0.0
 40
0.0
 40
0.0
 40
0.0568470046022112
 40
0.1651298069907642
 40
0.2731874439315316
 40
0.3810461613365355
 40
0.4887977583406739
 40
0.5965131200379653
 40
0.7042573931298934
 40
0.8120889164661478
 40
0.9200913538983609
 40
1.0
 40
1.0
 40
1.0
 40
1.0
 10
127.261871948567
 20
57.0667255638542
 30
0.0
 10
127.3358295072676
 20
57.04630097045797
 30
0.0
 10
127.5506622408339
 20
56.98697138591828
 30
0.0
 10
127.9307011524359
 20
56.90712574910165
 30
0.0
 10
128.4041848915583
 20
56.83673845400327
 30
0.0
 10
128.894121667344
 20
56.79324640412178
 30
0.0
 10
129.3922816296236
 20
56.77675281720506
 30
0.0
 10
129.8910946927868
 20
56.78756755543431
 30
0.0
 10
130.3829855546029
 20
56.82540535326079
 30
0.0
 10
130.8596367905745
 20
56.89022885287631
 30
0.0
 10
131.2765505144955
 20
56.97162715857951
 30
0.0
 10
131.5222576688605
 20
57.03835131068673
 30
0.0
 10
131.6267439273268
 20
57.06672556385421
 30
0.0
  0
SPLINE
  5
5C
330
1F
100
AcDbEntity
  8
0
  6
Continuous
 62
     7
370
    15
100
AcDbSpline
210
0.0
220
0.0
230
1.0
 70
     8
 71
     3
 72
     9
 73
     5
 74
     0
 42
0.00000001
 43
0.00000001
 12
1.0
 22
0.0
 32
0.0
 13
1.0
 23
0.0
 33
0.0
 40
0.0
 40
0.0
 40
0.0
 40
0.0
 40
0.6047031899575191
 40
0.9999999999999999
 40
0.9999999999999999
 40
0.9999999999999999
 40
0.9999999999999999
 10
131.7679950145155
 20
57.22195990070725
 30
0.0
 10
131.8453651561394
 20
57.62181467926131
 30
0.0
 10
131.97331245807
 20
58.2830560704009
 30
0.0
 10
132.1367672348357
 20
58.96001910608836
 30
0.0
 10
132.2013803866773
 20
59.22762043461227
 30
0.0
  0
SPLINE
  5
5D
330
1F
100
AcDbEntity
  8
0
  6
Continuous
 62
     7
370
    15
100
AcDbSpline
210
0.0
220
0.0
230
1.0
 70
     8
 71
     3
 72
     9
 73
     5
 74
     0
 42
0.00000001
 43
0.00000001
 12
1.0
 22
0.0
 32
0.0
 13
1.0
 23
0.0
 33
0.0
 40
0.0
 40
0.0
 40
0.0
 40
0.0
 40
0.6751128909097966
 40
1.0
 40
1.0
 40
1.0
 40
1.0
 10
126.691598549214
 20
59.22762043461227
 30
0.0
 10
126.7982983183472
 20
58.77121219802802
 30
0.0
 10
126.9563456176505
 20
58.09516491359652
 30
0.0
 10
127.0757126830856
 20
57.43844350425284
 30
0.0
 10
127.1144935038954
 20
57.22508318409347
 30
0.0
  0
ARC
  5
5E
330
1F
100
AcDbEntity
  8
0
  6
Continuous
 62
     7
370
    15
100
AcDbCircle
 10
251.5712728893
 20
57.2588742819
 30
0.0
 40
0.2000000000000102
100
AcDbArc
 50
286.1036910378
 51
349.3444562998
  0
ARC
  5
5F
330
1F
100
AcDbEntity
  8
0
  6
Continuous
 62
     7
370
    15
100
AcDbCircle
 10
247.3173515851
 20
57.2588742819
 30
0.0
 40
0.2000000000000043
100
AcDbArc
 50
190.6555437002
 51
253.8963089622
  0
SPLINE
  5
60
330
1F
100
AcDbEntity
  8
0
  6
Continuous
 62
     7
370
    15
100
AcDbSpline
210
0.0
220
0.0
230
1.0
 70
     8
 71
     3
 72
    17
 73
    13
 74
     0
 42
0.00000001
 43
0.00000001
 12
1.0
 22
0.0
 32
0.0
 13
1.0
 23
0.0
 33
0.0
 40
0.0
 40
0.0
 40
0.0
 40
0.0
 40
0.0568456187151206
 40
0.1651285375327216
 40
0.2731858415086597
 40
0.3810464246157312
 40
0.4887963868871172
 40
0.5965120424378015
 40
0.7042562874960516
 40
0.8120887053462036
 40
0.9200908217668357
 40
1.0
 40
1.0
 40
1.0
 40
1.0
 10
247.2618759718805
 20
57.06672556385421
 30
0.0
 10
247.335830932712
 20
57.04630088771457
 30
0.0
 10
247.5506597058246
 20
56.98697007248643
 30
0.0
 10
247.93069836847
 20
56.907126330667
 30
0.0
 10
248.4041836546147
 20
56.83673759362262
 30
0.0
 10
248.8941212976791
 20
56.79324712690418
 30
0.0
 10
249.3922818318206
 20
56.77675266171659
 30
0.0
 10
249.89109308791
 20
56.78756750456841
 30
0.0
 10
250.3829855465427
 20
56.82540571536791
 30
0.0
 10
250.8596386655372
 20
56.89022819742988
 30
0.0
 10
251.2765530730299
 20
56.97162772700151
 30
0.0
 10
251.5222613720571
 20
57.03835137007906
 30
0.0
 10
251.6267486956984
 20
57.06672556385421
 30
0.0
  0
SPLINE
  5
61
330
1F
100
AcDbEntity
  8
0
  6
Continuous
 62
     7
370
    15
100
AcDbSpline
210
0.0
220
0.0
230
1.0
 70
     8
 71
     3
 72
     9
 73
     5
 74
     0
 42
0.00000001
 43
0.00000001
 12
1.0
 22
0.0
 32
0.0
 13
1.0
 23
0.0
 33
0.0
 40
0.0
 40
0.0
 40
0.0
 40
0.0
 40
0.6047034187382355
 40
1.0
 40
1.0
 40
1.0
 40
1.0
 10
251.767999782887
 20
57.22195990070725
 30
0.0
 10
251.8453710437738
 20
57.62181456043825
 30
0.0
 10
251.973320148226
 20
58.28305550490867
 30
0.0
 10
252.136767517986
 20
58.96001905687945
 30
0.0
 10
252.2013777044683
 20
59.22762043461227
 30
0.0
  0
SPLINE
  5
62
330
1F
100
AcDbEntity
  8
0
  6
Continuous
 62
     7
370
    15
100
AcDbSpline
210
0.0
220
0.0
230
1.0
 70
     8
 71
     3
 72
     9
 73
     5
 74
     0
 42
0.00000001
 43
0.00000001
 12
1.0
 22
0.0
 32
0.0
 13
1.0
 23
0.0
 33
0.0
 40
0.0
 40
0.0
 40
0.0
 40
0.0
 40
0.675112722407485
 40
0.9999999999999999
 40
0.9999999999999999
 40
0.9999999999999999
 40
0.9999999999999999
 10
246.6915981021791
 20
59.22762043461227
 30
0.0
 10
246.7982950273414
 20
58.77121208342015
 30
0.0
 10
246.9563381535052
 20
58.09516446049208
 30
0.0
 10
247.0757099377861
 20
57.43844347666646
 30
0.0
 10
247.1144923118025
 20
57.22508318409347
 30
0.0
  0
ARC
  5
63
330
1F
100
AcDbEntity
  8
0
  6
Continuous
 62
     7
370
    15
100
AcDbCircle
 10
217.3173515851
 20
57.2588742819
 30
0.0
 40
0.2000000000000023
100
AcDbArc
 50
190.6555437002
 51
253.8963089622
  0
ARC
  5
64
330
1F
100
AcDbEntity
  8
0
  6
Continuous
 62
     7
370
    15
100
AcDbCircle
 10
221.5712728893
 20
57.2588742819
 30
0.0
 40
0.2000000000000102
100
AcDbArc
 50
286.1036910378
 51
349.3444562998
  0
SPLINE
  5
65
330
1F
100
AcDbEntity
  8
0
  6
Continuous
 62
     7
370
    15
100
AcDbSpline
210
0.0
220
0.0
230
1.0
 70
     8
 71
     3
 72
    12
 73
     8
 74
     0
 42
0.00000001
 43
0.00000001
 12
1.0
 22
0.0
 32
0.0
 13
1.0
 23
0.0
 33
0.0
 40
0.0
 40
0.0
 40
0.0
 40
0.0
 40
0.1293859838732123
 40
0.3758496269620427
 40
0.6217987239369288
 40
0.8673014757918641
 40
1.0
 40
1.0
 40
1.0
 40
1.0
 10
217.2618770149618
 20
57.06672556385421
 30
0.0
 10
217.3358315698219
 20
57.04630279525006
 30
0.0
 10
217.5506600313307
 20
56.98697728153042
 30
0.0
 10
217.9306942713557
 20
56.90706263432857
 30
0.0
 10
218.404197746025
 20
56.83697163788444
 30
0.0
 10
218.8192261238355
 20
56.79918914604121
 30
0.0
 10
219.0743000219219
 20
56.78903710718701
 30
0.0
 10
219.1637971547514
 20
56.78547508701706
 30
0.0
  0
SPLINE
  5
66
330
1F
100
AcDbEntity
  8
0
  6
Continuous
 62
     7
370
    15
100
AcDbSpline
210
0.0
220
0.0
230
1.0
 70
     8
 71
     3
 72
    12
 73
     8
 74
     0
 42
0.00000001
 43
0.00000001
 12
1.0
 22
0.0
 32
0.0
 13
1.0
 23
0.0
 33
0.0
 40
0.0
 40
0.0
 40
0.0
 40
0.0
 40
0.1289813584980667
 40
0.3741401789070285
 40
0.6196368718369871
 40
0.8655610338451188
 40
1.0
 40
1.0
 40
1.0
 40
1.0
 10
219.7248273638159
 20
56.78547508701703
 30
0.0
 10
219.8118199143878
 20
56.78891581686376
 30
0.0
 10
220.0641618715013
 20
56.7988964473628
 30
0.0
 10
220.4763678113708
 20
56.83604375361766
 30
0.0
 10
220.9493581741476
 20
56.9055552201003
 30
0.0
 10
221.3323498934545
 20
56.98556525102494
 30
0.0
 10
221.5498664831434
 20
57.0455308005267
 30
0.0
 10
221.6267475036055
 20
57.06672556385421
 30
0.0
  0
SPLINE
  5
67
330
1F
100
AcDbEntity
  8
0
  6
Continuous
 62
     7
370
    15
100
AcDbSpline
210
0.0
220
0.0
230
1.0
 70
     8
 71
     3
 72
     9
 73
     5
 74
     0
 42
0.00000001
 43
0.00000001
 12
1.0
 22
0.0
 32
0.0
 13
1.0
 23
0.0
 33
0.0
 40
0.0
 40
0.0
 40
0.0
 40
0.0
 40
0.6751127025598392
 40
1.0
 40
1.0
 40
1.0
 40
1.0
 10
216.6915976551443
 20
59.22762043461227
 30
0.0
 10
216.7982944084776
 20
58.77121206992069
 30
0.0
 10
216.9563372847688
 20
58.09516440712157
 30
0.0
 10
217.0757099479096
 20
57.43844347341709
 30
0.0
 10
217.1144926098257
 20
57.22508318409344
 30
0.0
  0
SPLINE
  5
68
330
1F
100
AcDbEntity
  8
0
  6
Continuous
 62
     7
370
    15
100
AcDbSpline
210
0.0
220
0.0
230
1.0
 70
     8
 71
     3
 72
     9
 73
     5
 74
     0
 42
0.00000001
 43
0.00000001
 12
1.0
 22
0.0
 32
0.0
 13
1.0
 23
0.0
 33
0.0
 40
0.0
 40
0.0
 40
0.0
 40
0.0
 40
0.6047034899454836
 40
1.0
 40
1.0
 40
1.0
 40
1.0
 10
221.7679985907942
 20
57.22195990070725
 30
0.0
 10
221.8453707191461
 20
57.6218145234549
 30
0.0
 10
221.9733212430615
 20
58.28305532890107
 30
0.0
 10
222.136766982136
 20
58.96001904156336
 30
0.0
 10
222.2013765123754
 20
59.22762043461227
 30
0.0
  0
ARC
  5
69
330
1F
100
AcDbEntity
  8
0
  6
Continuous
 62
     7
370
    15
100
AcDbCircle
 10
219.3443122372
 20
56.9321060472
 30
0.0
 40
0.2000000000000099
100
AcDbArc
 50
90.0
 51
180.0
  0
ARC
  5
6A
330
1F
100
AcDbEntity
  8
0
  6
Continuous
 62
     7
370
    15
100
AcDbCircle
 10
219.5443122372
 20
56.9321060472
 30
0.0
 40
0.2000000000000171
100
AcDbArc
 50
0.0
 51
90.0
  0
LINE
  5
6B
330
1F
100
AcDbEntity
  8
0
  6
Continuous
 62
     7
370
    15
100
AcDbLine
 10
219.3443128017
 20
57.1321118592
 30
0.0
 11
219.5443117169
 21
57.1321118592
 31
0.0
  0
ARC
  5
6C
330
1F
100
AcDbEntity
  8
0
  6
Continuous
 62
     7
370
    15
100
AcDbCircle
 10
101.5712728893
 20
57.2588742819
 30
0.0
 40
0.2000000000000056
100
AcDbArc
 50
286.1036910378
 51
349.3444562998
  0
ARC
  5
6D
330
1F
100
AcDbEntity
  8
0
  6
Continuous
 62
     7
370
    15
100
AcDbCircle
 10
97.3173515851
 20
57.2588742819
 30
0.0
 40
0.2000000000000142
100
AcDbArc
 50
190.6555437002
 51
253.8963089622
  0
SPLINE
  5
6E
330
1F
100
AcDbEntity
  8
0
  6
Continuous
 62
     7
370
    15
100
AcDbSpline
210
0.0
220
0.0
230
1.0
 70
     8
 71
     3
 72
    17
 73
    13
 74
     0
 42
0.00000001
 43
0.00000001
 12
1.0
 22
0.0
 32
0.0
 13
1.0
 23
0.0
 33
0.0
 40
0.0
 40
0.0
 40
0.0
 40
0.0
 40
0.0568447938854207
 40
0.1651275639513098
 40
0.2731851686366258
 40
0.3810463788664711
 40
0.488795372991208
 40
0.5965107025352178
 40
0.7042574814097371
 40
0.8120889725580354
 40
0.9200913777512744
 40
1.0
 40
1.0
 40
1.0
 40
1.0
 10
97.26187671693857
 20
57.06672556385421
 30
0.0
 10
97.33583013065285
 20
57.04630084950883
 30
0.0
 10
97.55065626015097
 20
56.98696941220871
 30
0.0
 10
97.93069466544503
 20
56.90712628273207
 30
0.0
 10
98.40418111927379
 20
56.83673745280012
 30
0.0
 10
98.89411889964066
 20
56.79324745206829
 30
0.0
 10
99.39227838807264
 20
56.77675246003292
 30
0.0
 10
99.89109132596468
 20
56.7875681239769
 30
0.0
 10
100.3829866785239
 20
56.82540456123111
 30
0.0
 10
100.8596415335461
 20
56.89022892942263
 30
0.0
 10
101.2765552873342
 20
56.9716271451172
 30
0.0
 10
101.5222624385649
 20
57.03835130667004
 30
0.0
 10
101.6267486956983
 20
57.06672556385421
 30
0.0
  0
SPLINE
  5
6F
330
1F
100
AcDbEntity
  8
0
  6
Continuous
 62
     7
370
    15
100
AcDbSpline
210
0.0
220
0.0
230
1.0
 70
     8
 71
     3
 72
     9
 73
     5
 74
     0
 42
0.00000001
 43
0.00000001
 12
1.0
 22
0.0
 32
0.0
 13
1.0
 23
0.0
 33
0.0
 40
0.0
 40
0.0
 40
0.0
 40
0.0
 40
0.604703556002508
 40
1.0
 40
1.0
 40
1.0
 40
1.0
 10
101.7679997828871
 20
57.22195990070725
 30
0.0
 10
101.8453717153335
 20
57.62181448914645
 30
0.0
 10
101.9733219013022
 20
58.28305516562356
 30
0.0
 10
102.1367648268532
 20
58.96001902735501
 30
0.0
 10
102.20137323412
 20
59.22762043461227
 30
0.0
  0
SPLINE
  5
70
330
1F
100
AcDbEntity
  8
0
  6
Continuous
 62
     7
370
    15
100
AcDbSpline
210
0.0
220
0.0
230
1.0
 70
     8
 71
     3
 72
     9
 73
     5
 74
     0
 42
0.00000001
 43
0.00000001
 12
1.0
 22
0.0
 32
0.0
 13
1.0
 23
0.0
 33
0.0
 40
0.0
 40
0.0
 40
0.0
 40
0.0
 40
0.6751123886357592
 40
0.9999999999999999
 40
0.9999999999999999
 40
0.9999999999999999
 40
0.9999999999999999
 10
96.69160331758555
 20
59.22762043461227
 30
0.0
 10
96.79829504459241
 20
58.77121185640388
 30
0.0
 10
96.95633054920292
 20
58.09516356297728
 30
0.0
 10
97.07571254183938
 20
57.43844342202289
 30
0.0
 10
97.11449827226694
 20
57.22508318409347
 30
0.0
  0
LINE
  5
71
330
1F
100
AcDbEntity
  8
0
  6
Continuous
 62
     7
370
    15
100
AcDbLine
 10
74.4443127063
 20
59.2276204346
 30
0.0
 11
274.4443127063
 21
59.2276204346
 31
0.0
  0
ARC
  5
72
330
1F
100
AcDbEntity
  8
0
  6
Continuous
 62
     7
370
    15
100
AcDbCircle
 10
154.4443122372
 20
238.9793962338
 30
0.0
 40
180.76
100
AcDbArc
 50
272.4194058289
 51
276.0206301457
  0
ARC
  5
73
330
1F
100
AcDbEntity
  8
0
  6
Continuous
 62
     7
370
    15
100
AcDbCircle
 10
154.4443122372
 20
238.9793962338
 30
0.0
 40
180.76
100
AcDbArc
 50
263.9793698543
 51
270.7608727633
  0
ARC
  5
74
330
1F
100
AcDbEntity
  8
0
  6
Continuous
 62
     7
370
    15
100
AcDbCircle
 10
154.4443122372
 20
238.9793962338
 30
0.0
 40
184.76
100
AcDbArc
 50
256.6440845457
 51
280.1984611762
  0
ARC
  5
75
330
1F
100
AcDbEntity
  8
0
  6
Continuous
 62
     7
370
    15
100
AcDbCircle
 10
154.4443122372
 20
238.9793962338
 30
0.0
 40
184.76
100
AcDbArc
 50
281.7127972604
 51
283.3559154543
  0
LINE
  5
76
330
1F
100
AcDbEntity
  8
0
  6
Continuous
 62
     7
370
    15
100
AcDbLine
 10
179.8043140319
 20
234.5077764212
 30
0.0
 11
179.6443113235
 21
234.5077764212
 31
0.0
  0
LINE
  5
77
330
1F
100
AcDbEntity
  8
0
  6
Continuous
 62
     7
370
    15
100
AcDbLine
 10
129.2443105129
 20
234.5077764212
 30
0.0
 11
129.0843078044
 21
234.5077764212
 31
0.0
  0
LINE
  5
78
330
1F
100
AcDbEntity
  8
0
  6
Continuous
 62
     7
370
    15
100
AcDbLine
 10
86.5743109134
 20
73.6882436989
 30
0.0
 11
86.5743109134
 21
73.5882509468
 31
0.0
  0
LINE
  5
79
330
1F
100
AcDbEntity
  8
0
  6
Continuous
 62
     7
370
    15
100
AcDbLine
 10
86.3143154529
 20
73.5882509468
 30
0.0
 11
86.3143154529
 21
73.6882436989
 31
0.0
  0
ARC
  5
7A
330
1F
100
AcDbEntity
  8
0
  6
Continuous
 62
     7
370
    15
100
AcDbCircle
 10
155.2228893968
 20
58.3008239291
 30
0.0
 40
2.28651133858389
100
AcDbArc
 50
341.0816176899
 51
22.7583120145
  0
ARC
  5
7B
330
1F
100
AcDbEntity
  8
0
  6
Continuous
 62
     7
370
    15
100
AcDbCircle
 10
163.6533502796
 20
58.3001465064
 30
0.0
 40
2.274436010068801
100
AcDbArc
 50
159.9571951479
 51
197.7095546035
  0
LWPOLYLINE
  5
7C
330
1F
100
AcDbEntity
  8
0
  6
Continuous
 62
     7
370
    15
100
AcDbPolyline
 90
        9
 70
   128
 43
0.0
 10
159.1443129924
 20
56.6846597908
 10
159.1671475318
 20
56.6361296891
 10
159.2321821597
 20
56.5950024842
 10
159.3295046237
 20
56.5675247429
 10
159.4443150905
 20
56.5578687905
 10
159.5591195968
 20
56.5675247429
 10
159.6564420608
 20
56.5950024842
 10
159.7214766887
 20
56.6361296891
 10
159.7443112281
 20
56.6846597908
  0
LINE
  5
7D
330
1F
100
AcDbEntity
  8
0
  6
Continuous
 62
     7
370
    15
100
AcDbLine
 10
159.1443129924
 20
59.2276204346
 30
0.0
 11
159.1443129924
 21
56.6846597908
 31
0.0
  0
LINE
  5
7E
330
1F
100
AcDbEntity
  8
0
  6
Continuous
 62
     7
370
    15
100
AcDbLine
 10
159.7443112281
 20
56.6846597908
 30
0.0
 11
159.7443112281
 21
59.2276204346
 31
0.0
  0
LINE
  5
7F
330
1F
100
AcDbEntity
  8
0
  6
Continuous
 62
     7
370
    15
100
AcDbLine
 10
157.1208008674
 20
56.9499958275
 30
0.0
 11
157.1201690582
 21
56.9536674736
 31
0.0
  0
ARC
  5
80
330
1F
100
AcDbEntity
  8
0
  6
Continuous
 62
     7
370
    15
100
AcDbCircle
 10
193.6448252191
 20
58.5714211253
 30
0.0
 40
2.266129566273796
100
AcDbArc
 50
163.1678868443
 51
197.7602244722
  0
ARC
  5
81
330
1F
100
AcDbEntity
  8
0
  6
Continuous
 62
     7
370
    15
100
AcDbCircle
 10
185.2400981279
 20
58.5711838584
 30
0.0
 40
2.269740176109515
100
AcDbArc
 50
340.9773825077
 51
16.8107981659
  0
LWPOLYLINE
  5
82
330
1F
100
AcDbEntity
  8
0
  6
Continuous
 62
     7
370
    15
100
AcDbPolyline
 90
        9
 70
   128
 43
0.0
 10
189.1443112043
 20
56.9565523385
 10
189.1671487239
 20
56.9080222367
 10
189.2321803716
 20
56.8668950318
 10
189.3295058158
 20
56.8394172905
 10
189.4443133024
 20
56.8297613381
 10
189.5591178087
 20
56.8394172905
 10
189.6564432529
 20
56.8668950318
 10
189.7214749006
 20
56.9080222367
 10
189.7443124202
 20
56.9565523385
  0
LINE
  5
83
330
1F
100
AcDbEntity
  8
0
  6
Continuous
 62
     7
370
    15
100
AcDbLine
 10
189.1443112043
 20
59.2276204346
 30
0.0
 11
189.1443112043
 21
56.9565523385
 31
0.0
  0
LINE
  5
84
330
1F
100
AcDbEntity
  8
0
  6
Continuous
 62
     7
370
    15
100
AcDbLine
 10
189.7443124202
 20
56.9565523385
 30
0.0
 11
189.7443124202
 21
59.2276204346
 31
0.0
  0
LINE
  5
85
330
1F
100
AcDbEntity
  8
0
  6
Continuous
 62
     7
370
    15
100
AcDbLine
 10
187.1207990793
 20
57.2218883751
 30
0.0
 11
187.1201732305
 21
57.2255600213
 31
0.0
  0
LINE
  5
86
330
1F
100
AcDbEntity
  8
0
  6
Continuous
 62
     7
370
    15
100
AcDbLine
 10
85.4443141368
 20
73.5882509468
 30
0.0
 11
85.4443141368
 21
73.6882436989
 31
0.0
  0
LINE
  5
87
330
1F
100
AcDbEntity
  8
0
  6
Continuous
 62
     7
370
    15
100
AcDbLine
 10
263.4443112758
 20
73.5882509468
 30
0.0
 11
263.4443112758
 21
73.6882436989
 31
0.0
  0
LINE
  5
88
330
1F
100
AcDbEntity
  8
0
  6
Continuous
 62
     7
370
    15
100
AcDbLine
 10
74.4443127063
 20
59.2164386033
 30
0.0
 11
74.4443127063
 21
59.2276204346
 31
0.0
  0
LINE
  5
89
330
1F
100
AcDbEntity
  8
0
  6
Continuous
 62
     7
370
    15
100
AcDbLine
 10
274.4443127063
 20
59.2164386033
 30
0.0
 11
274.4443127063
 21
59.2276204346
 31
0.0
  0
ARC
  5
8A
330
1F
100
AcDbEntity
  8
0
  6
Continuous
 62
     7
370
    15
100
AcDbCircle
 10
133.6408275283
 20
58.5713791642
 30
0.0
 40
2.262309340246582
100
AcDbArc
 50
163.1375038053
 51
197.7901006456
  0
ARC
  5
8B
330
1F
100
AcDbEntity
  8
0
  6
Continuous
 62
     7
370
    15
100
AcDbCircle
 10
125.2441422286
 20
58.5711057444
 30
0.0
 40
2.265889551280505
100
AcDbArc
 50
340.9458994274
 51
16.8422812462
  0
LWPOLYLINE
  5
8C
330
1F
100
AcDbEntity
  8
0
  6
Continuous
 62
     7
370
    15
100
AcDbPolyline
 90
        9
 70
   128
 43
0.0
 10
129.1443177608
 20
56.9565523385
 10
129.1671463397
 20
56.9080222367
 10
129.2321750072
 20
56.8668950318
 10
129.3295093921
 20
56.8394172905
 10
129.4443079379
 20
56.8297613381
 10
129.5591184047
 20
56.8394172905
 10
129.6564408687
 20
56.8668950318
 10
129.7214814571
 20
56.9080222367
 10
129.744310036
 20
56.9565523385
  0
LINE
  5
8D
330
1F
100
AcDbEntity
  8
0
  6
Continuous
 62
     7
370
    15
100
AcDbLine
 10
129.1443177608
 20
59.2276204346
 30
0.0
 11
129.1443177608
 21
56.9565523385
 31
0.0
  0
LINE
  5
8E
330
1F
100
AcDbEntity
  8
0
  6
Continuous
 62
     7
370
    15
100
AcDbLine
 10
129.744310036
 20
56.9565523385
 30
0.0
 11
129.744310036
 21
59.2276204346
 31
0.0
  0
LINE
  5
8F
330
1F
100
AcDbEntity
  8
0
  6
Continuous
 62
     7
370
    15
100
AcDbLine
 10
127.1207996753
 20
57.2218883751
 30
0.0
 11
127.1201678661
 21
57.2255600213
 31
0.0
  0
ARC
  5
90
330
1F
100
AcDbEntity
  8
0
  6
Continuous
 62
     7
370
    15
100
AcDbCircle
 10
245.2401251236
 20
58.5711844708
 30
0.0
 40
2.269713586433943
100
AcDbArc
 50
340.9771347399
 51
16.8109848083
  0
ARC
  5
91
330
1F
100
AcDbEntity
  8
0
  6
Continuous
 62
     7
370
    15
100
AcDbCircle
 10
253.6448261132
 20
58.5714211253
 30
0.0
 40
2.266129566311884
100
AcDbArc
 50
163.1678868446
 51
197.7602244719
  0
LWPOLYLINE
  5
92
330
1F
100
AcDbEntity
  8
0
  6
Continuous
 62
     7
370
    15
100
AcDbPolyline
 90
        9
 70
   128
 43
0.0
 10
249.1443120984
 20
56.9565523385
 10
249.1671481279
 20
56.9080222367
 10
249.2321797756
 20
56.8668950318
 10
249.3295067099
 20
56.8394172905
 10
249.4443127063
 20
56.8297613381
 10
249.5591172126
 20
56.8394172905
 10
249.656444147
 20
56.8668950318
 10
249.7214757946
 20
56.9080222367
 10
249.7443118242
 20
56.9565523385
  0
LINE
  5
93
330
1F
100
AcDbEntity
  8
0
  6
Continuous
 62
     7
370
    15
100
AcDbLine
 10
249.1443120984
 20
59.2276204346
 30
0.0
 11
249.1443120984
 21
56.9565523385
 31
0.0
  0
LINE
  5
94
330
1F
100
AcDbEntity
  8
0
  6
Continuous
 62
     7
370
    15
100
AcDbLine
 10
249.7443118242
 20
56.9565523385
 30
0.0
 11
249.7443118242
 21
59.2276204346
 31
0.0
  0
LINE
  5
95
330
1F
100
AcDbEntity
  8
0
  6
Continuous
 62
     7
370
    15
100
AcDbLine
 10
247.1207999733
 20
57.2218883751
 30
0.0
 11
247.1201718894
 21
57.2255600213
 31
0.0
  0
ARC
  5
96
330
1F
100
AcDbEntity
  8
0
  6
Continuous
 62
     7
370
    15
100
AcDbCircle
 10
215.2401429671
 20
58.5711852771
 30
0.0
 40
2.269696557588913
100
AcDbArc
 50
340.9769650011
 51
16.8110934218
  0
ARC
  5
97
330
1F
100
AcDbEntity
  8
0
  6
Continuous
 62
     7
370
    15
100
AcDbCircle
 10
223.6448264112
 20
58.5714211253
 30
0.0
 40
2.266129566273796
100
AcDbArc
 50
163.1678868443
 51
197.7602244722
  0
LINE
  5
98
330
1F
100
AcDbEntity
  8
0
  6
Continuous
 62
     7
370
    15
100
AcDbLine
 10
219.1443123964
 20
59.2276204346
 30
0.0
 11
219.1443123964
 21
56.804941964
 31
0.0
  0
LINE
  5
99
330
1F
100
AcDbEntity
  8
0
  6
Continuous
 62
     7
370
    15
100
AcDbLine
 10
219.7443121222
 20
56.804941964
 30
0.0
 11
219.7443121222
 21
59.2276204346
 31
0.0
  0
LINE
  5
9A
330
1F
100
AcDbEntity
  8
0
  6
Continuous
 62
     7
370
    15
100
AcDbLine
 10
217.1202027348
 20
57.2253692864
 30
0.0
 11
217.1208002714
 21
57.2218883751
 31
0.0
  0
SPLINE
  5
9B
330
1F
100
AcDbEntity
  8
0
  6
Continuous
 62
     7
370
    15
100
AcDbSpline
210
0.0
220
0.0
230
1.0
 70
    24
 71
     3
 72
     9
 73
     5
 74
     0
 42
0.00000001
 43
0.00000001
 12
1.0
 22
0.0
 32
0.0
 13
1.0
 23
0.0
 33
0.0
 40
0.0
 40
0.0
 40
0.0
 40
0.0
 40
0.7784521689598638
 40
1.0
 40
1.0
 40
1.0
 40
1.0
 10
219.1443123963743
 20
56.8049419640007
 30
0.0
 10
219.1443123963743
 20
56.79605295925519
 30
0.0
 10
219.1443123963743
 20
56.78463413983378
 30
0.0
 10
219.1443123963743
 20
56.78773300877612
 30
0.0
 10
219.1443123963743
 20
56.78841955646893
 30
0.0
  0
SPLINE
  5
9C
330
1F
100
AcDbEntity
  8
0
  6
Continuous
 62
     7
370
    15
100
AcDbSpline
210
0.0
220
0.0
230
1.0
 70
    24
 71
     3
 72
     9
 73
     5
 74
     0
 42
0.00000001
 43
0.00000001
 12
1.0
 22
0.0
 32
0.0
 13
1.0
 23
0.0
 33
0.0
 40
0.0
 40
0.0
 40
0.0
 40
0.0
 40
0.6849679608971665
 40
1.0
 40
1.0
 40
1.0
 40
1.0
 10
219.744312122193
 20
56.78725130543135
 30
0.0
 10
219.744312122193
 20
56.78830901495498
 30
0.0
 10
219.744312122193
 20
56.78985318867407
 30
0.0
 10
219.744312122193
 20
56.80132726297644
 30
0.0
 10
219.744312122193
 20
56.8049419640007
 30
0.0
  0
ARC
  5
9D
330
1F
100
AcDbEntity
  8
0
  6
Continuous
 62
     7
370
    15
100
AcDbCircle
 10
103.6488726501
 20
58.5714634767
 30
0.0
 40
2.26999222541387
100
AcDbArc
 50
163.1984964567
 51
197.7301217252
  0
ARC
  5
9E
330
1F
100
AcDbEntity
  8
0
  6
Continuous
 62
     7
370
    15
100
AcDbCircle
 10
95.2360129658
 20
58.5712627651
 30
0.0
 40
2.273630568223006
100
AcDbArc
 50
341.0090767818
 51
16.7791038917
  0
LWPOLYLINE
  5
9F
330
1F
100
AcDbEntity
  8
0
  6
Continuous
 62
     7
370
    15
100
AcDbPolyline
 90
        9
 70
   128
 43
0.0
 10
99.1443106082
 20
56.9565523385
 10
99.1671511081
 20
56.9080222367
 10
99.2321797756
 20
56.8668950318
 10
99.3295022396
 20
56.8394172905
 10
99.4443127063
 20
56.8297613381
 10
99.5591231731
 20
56.8394172905
 10
99.6564456371
 20
56.8668950318
 10
99.7214743045
 20
56.9080222367
 10
99.7443148044
 20
56.9565523385
  0
LINE
  5
A0
330
1F
100
AcDbEntity
  8
0
  6
Continuous
 62
     7
370
    15
100
AcDbLine
 10
99.1443106082
 20
59.2276204346
 30
0.0
 11
99.1443106082
 21
56.9565523385
 31
0.0
  0
LINE
  5
A1
330
1F
100
AcDbEntity
  8
0
  6
Continuous
 62
     7
370
    15
100
AcDbLine
 10
99.7443148044
 20
56.9565523385
 30
0.0
 11
99.7443148044
 21
59.2276204346
 31
0.0
  0
LINE
  5
A2
330
1F
100
AcDbEntity
  8
0
  6
Continuous
 62
     7
370
    15
100
AcDbLine
 10
97.1208044437
 20
57.2218883751
 30
0.0
 11
97.1201726344
 21
57.2255600213
 31
0.0
  0
CIRCLE
  5
A3
330
1F
100
AcDbEntity
  8
0
  6
Continuous
 62
     7
370
    15
100
AcDbCircle
 10
272.4443122366
 20
231.7282465411
 30
0.0
 40
1.900000000000006
  0
CIRCLE
  5
A4
330
1F
100
AcDbEntity
  8
0
  6
Continuous
 62
     7
370
    15
100
AcDbCircle
 10
76.4443122372
 20
231.7282465415
 30
0.0
 40
1.899999999999977
  0
ELLIPSE
  5
A5
330
1F
100
AcDbEntity
  8
0
  6
Continuous
 62
     7
370
    15
100
AcDbEllipse
 10
197.96019773
 20
226.1137168306
 30
0.0
 11
0.4003633600934506
 21
-0.3967897428677531
 31
0.0
210
0.0
220
0.0
230
1.0
 40
0.1263244604
 41
4.836937837527062
 42
6.069140289435282
  0
ELLIPSE
  5
A6
330
1F
100
AcDbEntity
  8
0
  6
Continuous
 62
     7
370
    15
100
AcDbEllipse
 10
197.9638806111
 20
225.7029619986
 30
0.0
 11
0.4000169540184118
 21
-0.0001140049012349209
 31
0.0
210
0.0
220
0.0
230
1.0
 40
0.0923977318
 41
0.0368939890403658
 42
0.3416783582805321
  0
ELLIPSE
  5
A7
330
1F
100
AcDbEntity
  8
0
  6
Continuous
 62
     7
370
    15
100
AcDbEllipse
 10
196.9247438633
 20
225.7029619986
 30
0.0
 11
0.4000169540183833
 21
0.0001140049012349209
 31
0.0
210
0.0
220
0.0
230
1.0
 40
0.0923977318
 41
2.799914295309235
 42
3.104698664549428
  0
ELLIPSE
  5
A8
330
1F
100
AcDbEntity
  8
0
  6
Continuous
 62
     7
370
    15
100
AcDbEllipse
 10
196.9284267444
 20
226.1137168306
 30
0.0
 11
0.4003633600934506
 21
0.3967897428677531
 31
0.0
210
0.0
220
0.0
230
1.0
 40
0.1263244604
 41
3.35563767133453
 42
4.58784012324236
  0
ELLIPSE
  5
A9
330
1F
100
AcDbEntity
  8
0
  6
Continuous
 62
     7
370
    15
100
AcDbEllipse
 10
134.96019773
 20
226.1137168306
 30
0.0
 11
0.4003633600934222
 21
-0.3967897428677531
 31
0.0
210
0.0
220
0.0
230
1.0
 40
0.1263244604
 41
4.836937837527075
 42
6.069140289435558
  0
ELLIPSE
  5
AA
330
1F
100
AcDbEntity
  8
0
  6
Continuous
 62
     7
370
    15
100
AcDbEllipse
 10
134.9638806111
 20
225.7029619986
 30
0.0
 11
0.4000169540183833
 21
-0.0001140049012349209
 31
0.0
210
0.0
220
0.0
230
1.0
 40
0.0923977318
 41
0.0368939890403658
 42
0.3416783582805336
  0
ELLIPSE
  5
AB
330
1F
100
AcDbEntity
  8
0
  6
Continuous
 62
     7
370
    15
100
AcDbEllipse
 10
133.9247438633
 20
225.7029619986
 30
0.0
 11
0.4000169540183833
 21
0.0001140049012349209
 31
0.0
210
0.0
220
0.0
230
1.0
 40
0.0923977318
 41
2.799914295309235
 42
3.104698664549428
  0
ELLIPSE
  5
AC
330
1F
100
AcDbEntity
  8
0
  6
Continuous
 62
     7
370
    15
100
AcDbEllipse
 10
133.9284267444
 20
226.1137168306
 30
0.0
 11
0.4003633600934222
 21
0.3967897428677531
 31
0.0
210
0.0
220
0.0
230
1.0
 40
0.1263244604
 41
3.355637671333975
 42
4.587840123242277
  0
ELLIPSE
  5
AD
330
1F
100
AcDbEntity
  8
0
  6
Continuous
 62
     7
370
    15
100
AcDbEllipse
 10
233.7427843022
 20
237.9267186065
 30
0.0
 11
0.2849994431560674
 21
0.2849994431560958
 31
0.0
210
0.0
220
0.0
230
1.0
 40
0.9924325091
 41
5.501585242055483
 42
7.064785372303676
  0
ELLIPSE
  5
AE
330
1F
100
AcDbEntity
  8
0
  6
Continuous
 62
     7
370
    15
100
AcDbEllipse
 10
115.1458401722
 20
237.9267186065
 30
0.0
 11
-0.28499944315611
 21
0.2849994431560958
 31
0.0
210
0.0
220
0.0
230
1.0
 40
0.9924325091
 41
5.501585242055388
 42
7.064785372303643
  0
LINE
  5
AF
330
1F
100
AcDbEntity
  8
0
  6
Continuous
 62
     7
370
    15
100
AcDbLine
 10
114.7443124202
 20
237.9297686709
 30
0.0
 11
114.7443124202
 21
225.5267251252
 31
0.0
  0
LINE
  5
B0
330
1F
100
AcDbEntity
  8
0
  6
Continuous
 62
     7
370
    15
100
AcDbLine
 10
234.1443122474
 20
225.5267251252
 30
0.0
 11
234.1443122474
 21
237.9297686709
 31
0.0
  0
LINE
  5
B1
330
1F
100
AcDbEntity
  8
0
  6
Continuous
 62
     7
370
    15
100
AcDbLine
 10
233.7458343354
 20
238.3282465422
 30
0.0
 11
115.1427933124
 21
238.3282465422
 31
0.0
  0
LINE
  5
B2
330
1F
100
AcDbEntity
  8
0
  6
Continuous
 62
     7
370
    15
100
AcDbLine
 10
175.5446323303
 20
235.0491598217
 30
0.0
 11
175.5446323303
 21
228.4073334156
 31
0.0
  0
LINE
  5
B3
330
1F
100
AcDbEntity
  8
0
  6
Continuous
 62
     7
370
    15
100
AcDbLine
 10
196.4325466302
 20
225.4725892065
 30
0.0
 11
196.5249993947
 21
225.704211366
 31
0.0
  0
LINE
  5
B4
330
1F
100
AcDbEntity
  8
0
  6
Continuous
 62
     7
370
    15
100
AcDbLine
 10
196.3439949897
 20
228.4862149476
 30
0.0
 11
196.3439949897
 21
234.9702782898
 31
0.0
  0
LINE
  5
B5
330
1F
100
AcDbEntity
  8
0
  6
Continuous
 62
     7
370
    15
100
AcDbLine
 10
135.544628754
 20
234.7879186241
 30
0.0
 11
135.544628754
 21
228.6685746132
 31
0.0
  0
LINE
  5
B6
330
1F
100
AcDbEntity
  8
0
  6
Continuous
 62
     7
370
    15
100
AcDbLine
 10
135.3636273292
 20
225.704211366
 30
0.0
 11
135.4560741332
 21
225.4725892065
 31
0.0
  0
LINE
  5
B7
330
1F
100
AcDbEntity
  8
0
  6
Continuous
 62
     7
370
    15
100
AcDbLine
 10
152.5446304229
 20
234.9702782898
 30
0.0
 11
152.5446304229
 21
228.4862149476
 31
0.0
  0
LINE
  5
B8
330
1F
100
AcDbEntity
  8
0
  6
Continuous
 62
     7
370
    15
100
AcDbLine
 10
198.5446312574
 20
234.9350385337
 30
0.0
 11
198.5446312574
 21
228.5214547037
 31
0.0
  0
LINE
  5
B9
330
1F
100
AcDbEntity
  8
0
  6
Continuous
 62
     7
370
    15
100
AcDbLine
 10
198.3636268524
 20
225.704211366
 30
0.0
 11
198.4560766366
 21
225.4725892065
 31
0.0
  0
LINE
  5
BA
330
1F
100
AcDbEntity
  8
0
  6
Continuous
 62
     7
370
    15
100
AcDbLine
 10
117.5446339992
 20
233.994867277
 30
0.0
 11
117.5446339992
 21
233.3821400969
 31
0.0
  0
LINE
  5
BB
330
1F
100
AcDbEntity
  8
0
  6
Continuous
 62
     7
370
    15
100
AcDbLine
 10
117.5446339992
 20
230.0743531404
 30
0.0
 11
117.5446339992
 21
229.4616255878
 31
0.0
  0
LINE
  5
BC
330
1F
100
AcDbEntity
  8
0
  6
Continuous
 62
     7
370
    15
100
AcDbLine
 10
150.343991175
 20
228.5214547037
 30
0.0
 11
150.343991175
 21
234.9350385337
 31
0.0
  0
LINE
  5
BD
330
1F
100
AcDbEntity
  8
0
  6
Continuous
 62
     7
370
    15
100
AcDbLine
 10
215.5446314362
 20
234.726627913
 30
0.0
 11
215.5446314362
 21
228.7298653243
 31
0.0
  0
LINE
  5
BE
330
1F
100
AcDbEntity
  8
0
  6
Continuous
 62
     7
370
    15
100
AcDbLine
 10
213.3439936784
 20
228.6685746132
 30
0.0
 11
213.3439936784
 21
234.7879186241
 31
0.0
  0
LINE
  5
BF
330
1F
100
AcDbEntity
  8
0
  6
Continuous
 62
     7
370
    15
100
AcDbLine
 10
133.4325500873
 20
225.4725892065
 30
0.0
 11
133.5249968913
 21
225.704211366
 31
0.0
  0
LINE
  5
C0
330
1F
100
AcDbEntity
  8
0
  6
Continuous
 62
     7
370
    15
100
AcDbLine
 10
133.3439895061
 20
228.7298653243
 30
0.0
 11
133.3439895061
 21
234.726627913
 31
0.0
  0
LINE
  5
C1
330
1F
100
AcDbEntity
  8
0
  6
Continuous
 62
     7
370
    15
100
AcDbLine
 10
173.3439930824
 20
228.4073334156
 30
0.0
 11
173.3439930824
 21
235.0491598217
 31
0.0
  0
LINE
  5
C2
330
1F
100
AcDbEntity
  8
0
  6
Continuous
 62
     7
370
    15
100
AcDbLine
 10
231.3439936486
 20
233.994867277
 30
0.0
 11
231.3439936486
 21
233.3821400969
 31
0.0
  0
LINE
  5
C3
330
1F
100
AcDbEntity
  8
0
  6
Continuous
 62
     7
370
    15
100
AcDbLine
 10
231.3439936486
 20
230.0743531404
 30
0.0
 11
231.3439936486
 21
229.4616255878
 31
0.0
  0
ELLIPSE
  5
C4
330
1F
100
AcDbEntity
  8
0
  6
Continuous
 62
     7
370
    15
100
AcDbEllipse
 10
115.1458401722
 20
225.5297744765
 30
0.0
 11
-0.28499944315611
 21
-0.2849994431560958
 31
0.0
210
0.0
220
0.0
230
1.0
 40
0.9924325091
 41
5.501585242055461
 42
7.064785372303776
  0
ELLIPSE
  5
C5
330
1F
100
AcDbEntity
  8
0
  6
Continuous
 62
     7
370
    15
100
AcDbEllipse
 10
233.7427843022
 20
225.5297744765
 30
0.0
 11
0.2849994431560674
 21
-0.2849994431560958
 31
0.0
210
0.0
220
0.0
230
1.0
 40
0.9924325091
 41
5.501585242055536
 42
7.06478537230375
  0
SPLINE
  5
C6
330
1F
100
AcDbEntity
  8
0
  6
Continuous
 62
     7
370
    15
100
AcDbSpline
210
0.0
220
0.0
230
1.0
 70
     8
 71
     3
 72
    13
 73
     9
 74
     0
 42
0.00000001
 43
0.00000001
 12
1.0
 22
0.0
 32
0.0
 13
1.0
 23
0.0
 33
0.0
 40
0.0
 40
0.0
 40
0.0
 40
0.0
 40
0.0016168780403095
 40
0.1076388828307069
 40
0.2135390892411311
 40
0.5545592474493289
 40
0.7768856813944561
 40
1.0
 40
1.0
 40
1.0
 40
1.0
 10
199.4990744737059
 20
225.3587666867676
 30
0.0
 10
199.4982608607936
 20
225.3588084114488
 30
0.0
 10
199.4440969827833
 20
225.3615861089378
 30
0.0
 10
199.3368949954693
 20
225.3670589214621
 30
0.0
 10
199.0639306900875
 20
225.3819616837251
 30
0.0
 10
198.7596062629913
 20
225.4039222462295
 30
0.0
 10
198.5109529180339
 20
225.4386467162871
 30
0.0
 10
198.474390287465
 20
225.4612617095121
 30
0.0
 10
198.4560766366392
 20
225.4725892065468
 30
0.0
  0
LINE
  5
C7
330
1F
100
AcDbEntity
  8
0
  6
Continuous
 62
     7
370
    15
100
AcDbLine
 10
115.1427933124
 20
225.1282472132
 30
0.0
 11
233.7458343354
 21
225.1282472132
 31
0.0
  0
SPLINE
  5
C8
330
1F
100
AcDbEntity
  8
0
  6
Continuous
 62
     7
370
    15
100
AcDbSpline
210
0.0
220
0.0
230
1.0
 70
     8
 71
     3
 72
    13
 73
     9
 74
     0
 42
0.00000001
 43
0.00000001
 12
1.0
 22
0.0
 32
0.0
 13
1.0
 23
0.0
 33
0.0
 40
0.0
 40
0.0
 40
0.0
 40
0.0
 40
0.223113952688402
 40
0.4454421049564972
 40
0.7864609678128472
 40
0.892364048880239
 40
0.9983816489831323
 40
1.0
 40
1.0
 40
1.0
 40
1.0
 10
133.4325500872999
 20
225.4725892065468
 30
0.0
 10
133.4142382934793
 20
225.4612616554058
 30
0.0
 10
133.3776791994077
 20
225.4386464484076
 30
0.0
 10
133.1290128810503
 20
225.4039228948051
 30
0.0
 10
132.8247047316351
 20
225.3819600203223
 30
0.0
 10
132.5517204859939
 20
225.3670604386016
 30
0.0
 10
132.4445461919169
 20
225.3615834817408
 30
0.0
 10
132.3903668589004
 20
225.3588084111017
 30
0.0
 10
132.3895522502332
 20
225.3587666867676
 30
0.0
  0
SPLINE
  5
C9
330
1F
100
AcDbEntity
  8
0
  6
Continuous
 62
     7
370
    15
100
AcDbSpline
210
0.0
220
0.0
230
1.0
 70
     8
 71
     3
 72
    13
 73
     9
 74
     0
 42
0.00000001
 43
0.00000001
 12
1.0
 22
0.0
 32
0.0
 13
1.0
 23
0.0
 33
0.0
 40
0.0
 40
0.0
 40
0.0
 40
0.0
 40
0.001615406940357
 40
0.1076389767482321
 40
0.2135392816043321
 40
0.5545584787115259
 40
0.7768851193330779
 40
1.0
 40
1.0
 40
1.0
 40
1.0
 10
136.4990719703108
 20
225.3587666867676
 30
0.0
 10
136.4982593530394
 20
225.3588084117792
 30
0.0
 10
136.444112444672
 20
225.3615886632717
 30
0.0
 10
136.3368856462208
 20
225.3670577428689
 30
0.0
 10
136.0639360858879
 20
225.381962746245
 30
0.0
 10
135.7596045503332
 20
225.4039220634994
 30
0.0
 10
135.5109543533332
 20
225.4386467943019
 30
0.0
 10
135.4743891081966
 20
225.4612617295599
 30
0.0
 10
135.4560741332441
 20
225.4725892065468
 30
0.0
  0
SPLINE
  5
CA
330
1F
100
AcDbEntity
  8
0
  6
Continuous
 62
     7
370
    15
100
AcDbSpline
210
0.0
220
0.0
230
1.0
 70
     8
 71
     3
 72
    13
 73
     9
 74
     0
 42
0.00000001
 43
0.00000001
 12
1.0
 22
0.0
 32
0.0
 13
1.0
 23
0.0
 33
0.0
 40
0.0
 40
0.0
 40
0.0
 40
0.0
 40
0.2231138081257076
 40
0.4454409515556705
 40
0.7864595934549488
 40
0.8923597258964515
 40
0.9983831230890436
 40
1.0
 40
1.0
 40
1.0
 40
1.0
 10
196.4325466302305
 20
225.4725892065468
 30
0.0
 10
196.4142344427029
 20
225.4612616923811
 30
0.0
 10
196.3776746335818
 20
225.4386466031085
 30
0.0
 10
196.1290158703632
 20
225.4039224272848
 30
0.0
 10
195.824694900149
 20
225.381961675617
 30
0.0
 10
195.5517308232509
 20
225.3670588352611
 30
0.0
 10
195.4445270192168
 20
225.3615861471964
 30
0.0
 10
195.3903624060348
 20
225.358808411455
 30
0.0
 10
195.3895487931639
 20
225.3587666867676
 30
0.0
  0
SPLINE
  5
CB
330
1F
100
AcDbEntity
  8
0
  6
Continuous
 62
     7
370
    15
100
AcDbSpline
210
0.0
220
0.0
230
1.0
 70
     8
 71
     3
 72
    19
 73
    15
 74
     0
 42
0.00000001
 43
0.00000001
 12
1.0
 22
0.0
 32
0.0
 13
1.0
 23
0.0
 33
0.0
 40
0.0
 40
0.0
 40
0.0
 40
0.0
 40
0.3243838480055172
 40
0.539241482031275
 40
0.6822258858708146
 40
0.7780859198019291
 40
0.8430863901248447
 40
0.8878417174738299
 40
0.9311148938485477
 40
0.9564438413536752
 40
0.9725849220110129
 40
0.9849248056834913
 40
0.9973165115071498
 40
1.0
 40
1.0
 40
1.0
 40
1.0
 10
117.6671096232801
 20
229.9976993320885
 30
0.0
 10
117.6536481715644
 20
230.0257151220256
 30
0.0
 10
117.6312704446273
 20
230.0722873424948
 30
0.0
 10
117.602820924511
 20
230.1214365509006
 30
0.0
 10
117.5837899496439
 20
230.1466074058561
 30
0.0
 10
117.5710100341399
 20
230.1566620669275
 30
0.0
 10
117.5623316502364
 20
230.1576285591461
 30
0.0
 10
117.5558771775731
 20
230.1527290076819
 30
0.0
 10
117.5511611773191
 20
230.14328108825
 30
0.0
 10
117.5477867706541
 20
230.1283345728129
 30
0.0
 10
117.5459433237339
 20
230.1126873776169
 30
0.0
 10
117.5449207184621
 20
230.0961689200882
 30
0.0
 10
117.5446509309468
 20
230.0829436731922
 30
0.0
 10
117.5446365577278
 20
230.0756512432381
 30
0.0
 10
117.5446339991957
 20
230.0743531404438
 30
0.0
  0
SPLINE
  5
CC
330
1F
100
AcDbEntity
  8
0
  6
Continuous
 62
     7
370
    15
100
AcDbSpline
210
0.0
220
0.0
230
1.0
 70
     8
 71
     3
 72
    14
 73
    10
 74
     0
 42
0.00000001
 43
0.00000001
 12
1.0
 22
0.0
 32
0.0
 13
1.0
 23
0.0
 33
0.0
 40
0.0
 40
0.0
 40
0.0
 40
0.0
 40
0.0119831309132852
 40
0.0239933162395774
 40
0.0398845601590171
 40
0.0687389250574471
 40
0.1675498690482149
 40
0.6411409912910686
 40
1.0
 40
1.0
 40
1.0
 40
1.0
 10
117.5446339991957
 20
233.3821400968733
 30
0.0
 10
117.5446764868662
 20
233.376305775151
 30
0.0
 10
117.544761558132
 20
233.3646239595105
 30
0.0
 10
117.5456424148493
 20
233.3474944548663
 30
0.0
 10
117.5474976462328
 20
233.3294984892749
 30
0.0
 10
117.5531986287309
 20
233.3037770217639
 30
0.0
 10
117.5788286355975
 20
233.2885294643939
 30
0.0
 10
117.6176813908913
 20
233.3587231066533
 30
0.0
 10
117.6522203171489
 20
233.4286492379095
 30
0.0
 10
117.6671096232801
 20
233.4587935326996
 30
0.0
  0
LINE
  5
CD
330
1F
100
AcDbEntity
  8
0
  6
Continuous
 62
     7
370
    15
100
AcDbLine
 10
117.6671096233
 20
233.4587935327
 30
0.0
 11
117.8861686138
 21
233.114266765
 31
0.0
  0
LINE
  5
CE
330
1F
100
AcDbEntity
  8
0
  6
Continuous
 62
     7
370
    15
100
AcDbLine
 10
117.8861686138
 20
230.3422260998
 30
0.0
 11
117.6671096233
 21
229.9976993321
 31
0.0
  0
LINE
  5
CF
330
1F
100
AcDbEntity
  8
0
  6
Continuous
 62
     7
370
    15
100
AcDbLine
 10
231.2215094564
 20
229.9976993321
 30
0.0
 11
231.0024564263
 21
230.3422260998
 31
0.0
  0
LINE
  5
D0
330
1F
100
AcDbEntity
  8
0
  6
Continuous
 62
     7
370
    15
100
AcDbLine
 10
231.0024564263
 20
233.114266765
 30
0.0
 11
231.2215094564
 21
233.4587935327
 31
0.0
  0
SPLINE
  5
D1
330
1F
100
AcDbEntity
  8
0
  6
Continuous
 62
     7
370
    15
100
AcDbSpline
210
0.0
220
0.0
230
1.0
 70
     8
 71
     3
 72
    19
 73
    15
 74
     0
 42
0.00000001
 43
0.00000001
 12
1.0
 22
0.0
 32
0.0
 13
1.0
 23
0.0
 33
0.0
 40
0.0
 40
0.0
 40
0.0
 40
0.0
 40
0.324383990753698
 40
0.5392416700856049
 40
0.6822256230693347
 40
0.7780859812962514
 40
0.8430863290180536
 40
0.8878414550755979
 40
0.9311150102467347
 40
0.9564436594761162
 40
0.972584802423165
 40
0.9849244532357837
 40
0.9973165136484184
 40
1.0
 40
1.0
 40
1.0
 40
1.0
 10
231.2215094563633
 20
233.4587935326996
 30
0.0
 10
231.2349720645909
 20
233.4307779190448
 30
0.0
 10
231.257351712019
 20
233.3842059958725
 30
0.0
 10
231.2858123496654
 20
233.3350566513686
 30
0.0
 10
231.3048267383995
 20
233.3098859925454
 30
0.0
 10
231.3176181911055
 20
233.2998307122389
 30
0.0
 10
231.3262966808838
 20
233.29886435402
 30
0.0
 10
231.3327410591039
 20
233.3037637682909
 30
0.0
 10
231.3374729414927
 20
233.3132121804898
 30
0.0
 10
231.3408347178671
 20
233.3281584483871
 30
0.0
 10
231.3426885841349
 20
233.3438052240412
 30
0.0
 10
231.3436934234598
 20
233.360324358914
 30
0.0
 10
231.3439782023891
 20
233.3735493756574
 30
0.0
 10
231.3439913146068
 20
233.3808419922421
 30
0.0
 10
231.3439936486154
 20
233.3821400968733
 30
0.0
  0
SPLINE
  5
D2
330
1F
100
AcDbEntity
  8
0
  6
Continuous
 62
     7
370
    15
100
AcDbSpline
210
0.0
220
0.0
230
1.0
 70
     8
 71
     3
 72
    14
 73
    10
 74
     0
 42
0.00000001
 43
0.00000001
 12
1.0
 22
0.0
 32
0.0
 13
1.0
 23
0.0
 33
0.0
 40
0.0
 40
0.0
 40
0.0
 40
0.0
 40
0.0127123429484205
 40
0.0254432730938653
 40
0.0421299608994415
 40
0.073603038611395
 40
0.1869928011171091
 40
0.6362602997021741
 40
1.0
 40
1.0
 40
1.0
 40
1.0
 10
231.3439936486154
 20
230.0743531404438
 30
0.0
 10
231.343942763564
 20
230.0805478382427
 30
0.0
 10
231.34384091906
 20
230.0929462913422
 30
0.0
 10
231.3428612503414
 20
230.1107375316948
 30
0.0
 10
231.3408147342606
 20
230.1291540214156
 30
0.0
 10
231.3343057053069
 20
230.1556135672762
 30
0.0
 10
231.3089788137864
 20
230.1631877518235
 30
0.0
 10
231.2703446607543
 20
230.0973778613912
 30
0.0
 10
231.2366047182429
 20
230.0285105782451
 30
0.0
 10
231.2215094563633
 20
229.9976993320885
 30
0.0
  0
ARC
  5
D3
330
1F
100
AcDbEntity
  8
0
  6
Continuous
 62
     7
370
    15
100
AcDbCircle
 10
116.4443122372
 20
231.7282465415
 30
0.0
 40
2.000000000000037
100
AcDbArc
 50
316.1311450389
 51
43.8688549611
  0
ARC
  5
D4
330
1F
100
AcDbEntity
  8
0
  6
Continuous
 62
     7
370
    15
100
AcDbCircle
 10
232.4443122372
 20
231.7282465415
 30
0.0
 40
2.000000000000006
100
AcDbArc
 50
136.1311450389
 51
223.8688549611
  0
SPLINE
  5
D5
330
1F
100
AcDbEntity
  8
0
  6
Continuous
 62
     7
370
    15
100
AcDbSpline
210
0.0
220
0.0
230
1.0
 70
     8
 71
     3
 72
    12
 73
     8
 74
     0
 42
0.00000001
 43
0.00000001
 12
1.0
 22
0.0
 32
0.0
 13
1.0
 23
0.0
 33
0.0
 40
0.0
 40
0.0
 40
0.0
 40
0.0
 40
0.2156113207699625
 40
0.4312487329932692
 40
0.6462101762202637
 40
0.8603647575703068
 40
1.0
 40
1.0
 40
1.0
 40
1.0
 10
175.5446323302656
 20
228.4073334155979
 30
0.0
 10
175.5556963437064
 20
228.2944534672789
 30
0.0
 10
175.577825709461
 20
228.068679910867
 30
0.0
 10
175.7507025480114
 20
227.7680028997728
 30
0.0
 10
176.0049633368043
 20
227.5419148220666
 30
0.0
 10
176.2854434859778
 20
227.4231644194755
 30
0.0
 10
176.470082421378
 20
227.4112628359518
 30
0.0
 10
176.5429564860731
 20
227.4065654693546
 30
0.0
  0
SPLINE
  5
D6
330
1F
100
AcDbEntity
  8
0
  6
Continuous
 62
     7
370
    15
100
AcDbSpline
210
0.0
220
0.0
230
1.0
 70
     8
 71
     3
 72
    12
 73
     8
 74
     0
 42
0.00000001
 43
0.00000001
 12
1.0
 22
0.0
 32
0.0
 13
1.0
 23
0.0
 33
0.0
 40
0.0
 40
0.0
 40
0.0
 40
0.0
 40
0.2138878551639663
 40
0.4277844573532673
 40
0.6416334063035399
 40
0.8559763718291673
 40
1.0
 40
1.0
 40
1.0
 40
1.0
 10
176.5429564860731
 20
236.049927581698
 30
0.0
 10
176.4309667540363
 20
236.0390144804067
 30
0.0
 10
176.2069827100999
 20
236.0171878315288
 30
0.0
 10
175.9083745950457
 20
235.8456838558318
 30
0.0
 10
175.6827589004632
 20
235.5929924556654
 30
0.0
 10
175.562077554657
 20
235.3113715272391
 30
0.0
 10
175.549633471613
 20
235.1243298380413
 30
0.0
 10
175.5446323302656
 20
235.0491598217192
 30
0.0
  0
SPLINE
  5
D7
330
1F
100
AcDbEntity
  8
0
  6
Continuous
 62
     7
370
    15
100
AcDbSpline
210
0.0
220
0.0
230
1.0
 70
     8
 71
     3
 72
    12
 73
     8
 74
     0
 42
0.00000001
 43
0.00000001
 12
1.0
 22
0.0
 32
0.0
 13
1.0
 23
0.0
 33
0.0
 40
0.0
 40
0.0
 40
0.0
 40
0.0
 40
0.2138907541969957
 40
0.4277865169473433
 40
0.6416348044197195
 40
0.8559768186775152
 40
1.0
 40
1.0
 40
1.0
 40
1.0
 10
172.3456629660994
 20
227.4065654693546
 30
0.0
 10
172.4576547501285
 20
227.4174782120379
 30
0.0
 10
172.6816409406323
 20
227.4393039529418
 30
0.0
 10
172.980250968033
 20
227.6108090264481
 30
0.0
 10
173.2058663393323
 20
227.8635007182398
 30
0.0
 10
173.3265479187194
 20
228.1451216233871
 30
0.0
 10
173.338991955587
 20
228.3321633315938
 30
0.0
 10
173.3439930823713
 20
228.4073334155979
 30
0.0
  0
SPLINE
  5
D8
330
1F
100
AcDbEntity
  8
0
  6
Continuous
 62
     7
370
    15
100
AcDbSpline
210
0.0
220
0.0
230
1.0
 70
     8
 71
     3
 72
    12
 73
     8
 74
     0
 42
0.00000001
 43
0.00000001
 12
1.0
 22
0.0
 32
0.0
 13
1.0
 23
0.0
 33
0.0
 40
0.0
 40
0.0
 40
0.0
 40
0.0
 40
0.2156104382039632
 40
0.4312469810167914
 40
0.6462076614242955
 40
0.8603614377802736
 40
1.0
 40
1.0
 40
1.0
 40
1.0
 10
173.3439930823713
 20
235.0491598217192
 30
0.0
 10
173.3329290717032
 20
235.1620397136613
 30
0.0
 10
173.3107997108138
 20
235.3878131642559
 30
0.0
 10
173.137922791542
 20
235.6884899631654
 30
0.0
 10
172.8836621334666
 20
235.9145781273687
 30
0.0
 10
172.6031799831956
 20
236.033328916674
 30
0.0
 10
172.4185390384257
 20
236.0452302396487
 30
0.0
 10
172.3456629660994
 20
236.049927581698
 30
0.0
  0
ARC
  5
D9
330
1F
100
AcDbEntity
  8
0
  6
Continuous
 62
     7
370
    15
100
AcDbCircle
 10
119.4949505404
 20
230.0793301642
 30
0.0
 40
2.122484128936287
100
AcDbArc
 50
213.2125857976
 51
268.8508071346
  0
LINE
  5
DA
330
1F
100
AcDbEntity
  8
0
  6
Continuous
 62
     7
370
    15
100
AcDbLine
 10
117.7191921619
 20
228.9167460023
 30
0.0
 11
117.6777192501
 21
228.9836574315
 31
0.0
  0
ARC
  5
DB
330
1F
100
AcDbEntity
  8
0
  6
Continuous
 62
     7
370
    15
100
AcDbCircle
 10
229.393673934
 20
233.3771629188
 30
0.0
 40
2.122484128936311
100
AcDbArc
 50
33.2125857976
 51
88.8508071346
  0
LINE
  5
DC
330
1F
100
AcDbEntity
  8
0
  6
Continuous
 62
     7
370
    15
100
AcDbLine
 10
231.1694377211
 20
234.539747235
 30
0.0
 11
231.2109098879
 21
234.4728361784
 31
0.0
  0
SPLINE
  5
DD
330
1F
100
AcDbEntity
  8
0
  6
Continuous
 62
     7
370
    15
100
AcDbSpline
210
0.0
220
0.0
230
1.0
 70
     8
 71
     3
 72
    12
 73
     8
 74
     0
 42
0.00000001
 43
0.00000001
 12
1.0
 22
0.0
 32
0.0
 13
1.0
 23
0.0
 33
0.0
 40
0.0
 40
0.0
 40
0.0
 40
0.0
 40
0.2167573963958731
 40
0.43354090978114
 40
0.6496491587294801
 40
0.8649513147556588
 40
0.9999999999999999
 40
0.9999999999999999
 40
0.9999999999999999
 40
0.9999999999999999
 10
152.544630422917
 20
228.4862149475517
 30
0.0
 10
152.5556949065775
 20
228.373338742226
 30
0.0
 10
152.5778252070528
 20
228.1475727311773
 30
0.0
 10
152.7506960455138
 20
227.8469136584307
 30
0.0
 10
153.0049545640833
 20
227.6207973362071
 30
0.0
 10
153.282804305549
 20
227.5032518677297
 30
0.0
 10
153.4645435337431
 20
227.4904324298891
 30
0.0
 10
153.5345980075269
 20
227.485490959734
 30
0.0
  0
SPLINE
  5
DE
330
1F
100
AcDbEntity
  8
0
  6
Continuous
 62
     7
370
    15
100
AcDbSpline
210
0.0
220
0.0
230
1.0
 70
     8
 71
     3
 72
    12
 73
     8
 74
     0
 42
0.00000001
 43
0.00000001
 12
1.0
 22
0.0
 32
0.0
 13
1.0
 23
0.0
 33
0.0
 40
0.0
 40
0.0
 40
0.0
 40
0.0
 40
0.2167569975232715
 40
0.4335401119878768
 40
0.6496478042262032
 40
0.864949699899775
 40
1.0
 40
1.0
 40
1.0
 40
1.0
 10
196.3439949897199
 20
234.9702782897654
 30
0.0
 10
196.3329304979506
 20
235.0831544819185
 30
0.0
 10
196.3108001812568
 20
235.3089204666201
 30
0.0
 10
196.1379295066383
 20
235.6095796631816
 30
0.0
 10
195.8836705673626
 20
235.8356952574392
 30
0.0
 10
195.6058203376786
 20
235.9532423268516
 30
0.0
 10
195.424079922896
 20
235.9660607760193
 30
0.0
 10
195.3540244248777
 20
235.9710019050541
 30
0.0
  0
SPLINE
  5
DF
330
1F
100
AcDbEntity
  8
0
  6
Continuous
 62
     7
370
    15
100
AcDbSpline
210
0.0
220
0.0
230
1.0
 70
     8
 71
     3
 72
    12
 73
     8
 74
     0
 42
0.00000001
 43
0.00000001
 12
1.0
 22
0.0
 32
0.0
 13
1.0
 23
0.0
 33
0.0
 40
0.0
 40
0.0
 40
0.0
 40
0.0
 40
0.2150348903598827
 40
0.4300749489082187
 40
0.6450761095587532
 40
0.8605853422365944
 40
1.0
 40
1.0
 40
1.0
 40
1.0
 10
153.5345980075269
 20
235.9710019050541
 30
0.0
 10
153.4227020206194
 20
235.9591490482707
 30
0.0
 10
153.1989073574755
 20
235.9354430498303
 30
0.0
 10
152.9017529088469
 20
235.7614367021926
 30
0.0
 10
152.6782295747972
 20
235.5068467170163
 30
0.0
 10
152.5611008013715
 20
235.2268709650529
 30
0.0
 10
152.5492754423754
 20
235.0426432310384
 30
0.0
 10
152.544630422917
 20
234.9702782897654
 30
0.0
  0
SPLINE
  5
E0
330
1F
100
AcDbEntity
  8
0
  6
Continuous
 62
     7
370
    15
100
AcDbSpline
210
0.0
220
0.0
230
1.0
 70
     8
 71
     3
 72
    12
 73
     8
 74
     0
 42
0.00000001
 43
0.00000001
 12
1.0
 22
0.0
 32
0.0
 13
1.0
 23
0.0
 33
0.0
 40
0.0
 40
0.0
 40
0.0
 40
0.0
 40
0.2150362698566382
 40
0.4300756617307206
 40
0.6450777171778888
 40
0.8605854600275129
 40
1.0
 40
1.0
 40
1.0
 40
1.0
 10
195.3540244248777
 20
227.485490959734
 30
0.0
 10
195.4659214900941
 20
227.4973438024196
 30
0.0
 10
195.6897172451114
 20
227.5210496598772
 30
0.0
 10
195.986872417914
 20
227.6950571127115
 30
0.0
 10
196.2103996354501
 20
227.9496446383071
 30
0.0
 10
196.3275241520203
 20
228.2296227615127
 30
0.0
 10
196.3393498284554
 20
228.4138499528202
 30
0.0
 10
196.3439949897199
 20
228.4862149475517
 30
0.0
  0
SPLINE
  5
E1
330
1F
100
AcDbEntity
  8
0
  6
Continuous
 62
     7
370
    15
100
AcDbSpline
210
0.0
220
0.0
230
1.0
 70
     8
 71
     3
 72
    12
 73
     8
 74
     0
 42
0.00000001
 43
0.00000001
 12
1.0
 22
0.0
 32
0.0
 13
1.0
 23
0.0
 33
0.0
 40
0.0
 40
0.0
 40
0.0
 40
0.0
 40
0.2127598361349081
 40
0.4255229902238062
 40
0.6382285407342838
 40
0.8514191233358515
 40
1.0
 40
1.0
 40
1.0
 40
1.0
 10
149.3373044875532
 20
227.5207128344479
 30
0.0
 10
149.4493838409714
 20
227.530684949785
 30
0.0
 10
149.6735442956667
 20
227.5506293359726
 30
0.0
 10
149.9735881437856
 20
227.719619041334
 30
0.0
 10
150.201267251455
 20
227.9704016295673
 30
0.0
 10
150.3255515620081
 20
228.2536203090712
 30
0.0
 10
150.3386227781835
 20
228.443479026177
 30
0.0
 10
150.3439911750227
 20
228.5214547036591
 30
0.0
  0
SPLINE
  5
E2
330
1F
100
AcDbEntity
  8
0
  6
Continuous
 62
     7
370
    15
100
AcDbSpline
210
0.0
220
0.0
230
1.0
 70
     8
 71
     3
 72
    12
 73
     8
 74
     0
 42
0.00000001
 43
0.00000001
 12
1.0
 22
0.0
 32
0.0
 13
1.0
 23
0.0
 33
0.0
 40
0.0
 40
0.0
 40
0.0
 40
0.0
 40
0.2144773496465647
 40
0.4289816845436917
 40
0.6428084343918873
 40
0.85582913773265
 40
1.0
 40
1.0
 40
1.0
 40
1.0
 10
198.544631257382
 20
228.5214547036591
 30
0.0
 10
198.5556945455762
 20
228.4085708448742
 30
0.0
 10
198.5778225139328
 20
228.1827889244098
 30
0.0
 10
198.7507097210824
 20
227.8820961356061
 30
0.0
 10
199.0049718507702
 20
227.6560330694219
 30
0.0
 10
199.2880854954496
 20
227.5360823075435
 30
0.0
 10
199.4756233034165
 20
227.5251324520052
 30
0.0
 10
199.5513179448515
 20
227.5207128344479
 30
0.0
  0
SPLINE
  5
E3
330
1F
100
AcDbEntity
  8
0
  6
Continuous
 62
     7
370
    15
100
AcDbSpline
210
0.0
220
0.0
230
1.0
 70
     8
 71
     3
 72
    12
 73
     8
 74
     0
 42
0.00000001
 43
0.00000001
 12
1.0
 22
0.0
 32
0.0
 13
1.0
 23
0.0
 33
0.0
 40
0.0
 40
0.0
 40
0.0
 40
0.0
 40
0.2144769166733739
 40
0.4289801331352009
 40
0.6428067629250827
 40
0.8558255130802523
 40
1.0
 40
1.0
 40
1.0
 40
1.0
 10
150.3439911750227
 20
234.9350385336581
 30
0.0
 10
150.3329276290334
 20
235.0479221229048
 30
0.0
 10
150.3107991804104
 20
235.2737031435149
 30
0.0
 10
150.1379161605119
 20
235.5743976238888
 30
0.0
 10
149.8836539825946
 20
235.8004589065766
 30
0.0
 10
149.6005402511804
 20
235.9204120026446
 30
0.0
 10
149.4130011854928
 20
235.9313607639974
 30
0.0
 10
149.3373044875532
 20
235.9357800303402
 30
0.0
  0
SPLINE
  5
E4
330
1F
100
AcDbEntity
  8
0
  6
Continuous
 62
     7
370
    15
100
AcDbSpline
210
0.0
220
0.0
230
1.0
 70
     8
 71
     3
 72
    12
 73
     8
 74
     0
 42
0.00000001
 43
0.00000001
 12
1.0
 22
0.0
 32
0.0
 13
1.0
 23
0.0
 33
0.0
 40
0.0
 40
0.0
 40
0.0
 40
0.0
 40
0.2127582762665251
 40
0.425521968198427
 40
0.638227711494411
 40
0.8514188814512546
 40
1.0
 40
1.0
 40
1.0
 40
1.0
 10
199.5513179448515
 20
235.9357800303402
 30
0.0
 10
199.4392395709191
 20
235.9258080571129
 30
0.0
 10
199.2150799701503
 20
235.9058638568264
 30
0.0
 10
198.9150376792332
 20
235.7368736674708
 30
0.0
 10
198.6873575373139
 20
235.4860916154811
 30
0.0
 10
198.5630751102649
 20
235.2028725035561
 30
0.0
 10
198.5500008860625
 20
235.0130140507855
 30
0.0
 10
198.544631257382
 20
234.9350385336581
 30
0.0
  0
ARC
  5
E5
330
1F
100
AcDbEntity
  8
0
  6
Continuous
 62
     7
370
    15
100
AcDbCircle
 10
174.4443122372
 20
2969.3447824194
 30
0.0
 40
2741.939020006851
100
AcDbArc
 50
269.5630647268
 51
269.9561464964
  0
ARC
  5
E6
330
1F
100
AcDbEntity
  8
0
  6
Continuous
 62
     7
370
    15
100
AcDbCircle
 10
174.4443122372
 20
-2505.8882893329
 30
0.0
 40
2741.939020003309
100
AcDbArc
 50
89.5630647268
 51
89.9561464964
  0
ARC
  5
E7
330
1F
100
AcDbEntity
  8
0
  6
Continuous
 62
     7
370
    15
100
AcDbCircle
 10
174.4443122372
 20
2969.3447824194
 30
0.0
 40
2741.939020006851
100
AcDbArc
 50
270.0438535036
 51
270.4369352732
  0
ARC
  5
E8
330
1F
100
AcDbEntity
  8
0
  6
Continuous
 62
     7
370
    15
100
AcDbCircle
 10
174.4443122372
 20
-2505.8882893329
 30
0.0
 40
2741.939020003309
100
AcDbArc
 50
90.0438535036
 51
90.4369352732
  0
ARC
  5
E9
330
1F
100
AcDbEntity
  8
0
  6
Continuous
 62
     7
370
    15
100
AcDbCircle
 10
229.393673934
 20
230.0793301642
 30
0.0
 40
2.122484128936217
100
AcDbArc
 50
271.1491928654
 51
326.7874142024
  0
LINE
  5
EA
330
1F
100
AcDbEntity
  8
0
  6
Continuous
 62
     7
370
    15
100
AcDbLine
 10
231.2109098879
 20
228.9836574315
 30
0.0
 11
231.1694377211
 21
228.9167460023
 31
0.0
  0
ARC
  5
EB
330
1F
100
AcDbEntity
  8
0
  6
Continuous
 62
     7
370
    15
100
AcDbCircle
 10
119.4949505404
 20
233.3771629188
 30
0.0
 40
2.122484128936201
100
AcDbArc
 50
91.1491928654
 51
146.7874142024
  0
LINE
  5
EC
330
1F
100
AcDbEntity
  8
0
  6
Continuous
 62
     7
370
    15
100
AcDbLine
 10
117.6777192501
 20
234.4728361784
 30
0.0
 11
117.7191921619
 21
234.539747235
 31
0.0
  0
ARC
  5
ED
330
1F
100
AcDbEntity
  8
0
  6
Continuous
 62
     7
370
    15
100
AcDbCircle
 10
174.4443122372
 20
-2505.8882893329
 30
0.0
 40
2741.939020003309
100
AcDbArc
 50
89.2076812253
 51
89.4753546315
  0
ARC
  5
EE
330
1F
100
AcDbEntity
  8
0
  6
Continuous
 62
     7
370
    15
100
AcDbCircle
 10
174.4443122372
 20
2969.3447824194
 30
0.0
 40
2741.939020006851
100
AcDbArc
 50
269.2076812253
 51
269.4753546315
  0
ARC
  5
EF
330
1F
100
AcDbEntity
  8
0
  6
Continuous
 62
     7
370
    15
100
AcDbCircle
 10
174.4443122372
 20
-2505.8882893329
 30
0.0
 40
2741.939020003308
100
AcDbArc
 50
90.5246453685
 51
90.7923187747
  0
ARC
  5
F0
330
1F
100
AcDbEntity
  8
0
  6
Continuous
 62
     7
370
    15
100
AcDbCircle
 10
174.4443122372
 20
2969.3447824194
 30
0.0
 40
2741.939020006851
100
AcDbArc
 50
270.5246453685
 51
270.7923187747
  0
SPLINE
  5
F1
330
1F
100
AcDbEntity
  8
0
  6
Continuous
 62
     7
370
    15
100
AcDbSpline
210
0.0
220
0.0
230
1.0
 70
     8
 71
     3
 72
    12
 73
     8
 74
     0
 42
0.00000001
 43
0.00000001
 12
1.0
 22
0.0
 32
0.0
 13
1.0
 23
0.0
 33
0.0
 40
0.0
 40
0.0
 40
0.0
 40
0.0
 40
0.2176130200904083
 40
0.4352509840554833
 40
0.6522136591497681
 40
0.8683719662141917
 40
1.0
 40
1.0
 40
1.0
 40
1.0
 10
135.5446287539869
 20
228.668574613184
 30
0.0
 10
135.5556936455447
 20
228.5557008337252
 30
0.0
 10
135.5778246969727
 20
228.3299403366599
 30
0.0
 10
135.750689036276
 20
228.0292938865498
 30
0.0
 10
136.0049450248014
 20
227.803156617141
 30
0.0
 10
136.2808516753796
 20
227.6865009710627
 30
0.0
 10
136.4604485700553
 20
227.6730274766466
 30
0.0
 10
136.5284212973982
 20
227.6679281114044
 30
0.0
  0
SPLINE
  5
F2
330
1F
100
AcDbEntity
  8
0
  6
Continuous
 62
     7
370
    15
100
AcDbSpline
210
0.0
220
0.0
230
1.0
 70
     8
 71
     3
 72
    12
 73
     8
 74
     0
 42
0.00000001
 43
0.00000001
 12
1.0
 22
0.0
 32
0.0
 13
1.0
 23
0.0
 33
0.0
 40
0.0
 40
0.0
 40
0.0
 40
0.0
 40
0.2158909175821329
 40
0.4317853048294421
 40
0.6476475179699258
 40
0.8640261411210054
 40
1.0
 40
1.0
 40
1.0
 40
1.0
 10
212.3602026251226
 20
227.6679281114044
 30
0.0
 10
212.4720245151854
 20
227.680475247596
 30
0.0
 10
212.6956700924431
 20
227.7055697216291
 30
0.0
 10
212.9917383496987
 20
227.8814176376308
 30
0.0
 10
213.2137100187915
 20
228.1373976860179
 30
0.0
 10
213.3282331980168
 20
228.4161346475094
 30
0.0
 10
213.3396051923617
 20
228.5982830204672
 30
0.0
 10
213.3439936784178
 20
228.668574613184
 30
0.0
  0
SPLINE
  5
F3
330
1F
100
AcDbEntity
  8
0
  6
Continuous
 62
     7
370
    15
100
AcDbSpline
210
0.0
220
0.0
230
1.0
 70
     8
 71
     3
 72
    12
 73
     8
 74
     0
 42
0.00000001
 43
0.00000001
 12
1.0
 22
0.0
 32
0.0
 13
1.0
 23
0.0
 33
0.0
 40
0.0
 40
0.0
 40
0.0
 40
0.0
 40
0.217612332445195
 40
0.43525172837841
 40
0.6522145162662739
 40
0.8683729016314127
 40
1.0
 40
1.0
 40
1.0
 40
1.0
 10
213.3439936784178
 20
234.7879186241331
 30
0.0
 10
213.3329309850868
 20
234.9007925417234
 30
0.0
 10
213.3108042226063
 20
235.1265544145364
 30
0.0
 10
213.1379322832896
 20
235.4271977230813
 30
0.0
 10
212.8836778675959
 20
235.6533366223754
 30
0.0
 10
212.6077711945962
 20
235.7699920388978
 30
0.0
 10
212.4281748345798
 20
235.7834657154199
 30
0.0
 10
212.3602026251226
 20
235.7885651259127
 30
0.0
  0
SPLINE
  5
F4
330
1F
100
AcDbEntity
  8
0
  6
Continuous
 62
     7
370
    15
100
AcDbSpline
210
0.0
220
0.0
230
1.0
 70
     8
 71
     3
 72
    12
 73
     8
 74
     0
 42
0.00000001
 43
0.00000001
 12
1.0
 22
0.0
 32
0.0
 13
1.0
 23
0.0
 33
0.0
 40
0.0
 40
0.0
 40
0.0
 40
0.0
 40
0.2158890122951865
 40
0.4317858905038872
 40
0.6476468305402847
 40
0.8640261495918702
 40
0.9999999999999999
 40
0.9999999999999999
 40
0.9999999999999999
 40
0.9999999999999999
 10
136.5284212973982
 20
235.7885651259127
 30
0.0
 10
136.4166006585241
 20
235.776017519879
 30
0.0
 10
136.1929553065924
 20
235.7509218506397
 30
0.0
 10
135.8968842652101
 20
235.5750782097362
 30
0.0
 10
135.6749165705709
 20
235.3190935820635
 30
0.0
 10
135.5603886686131
 20
235.0403592523309
 30
0.0
 10
135.549017076129
 20
234.8582102992175
 30
0.0
 10
135.5446287539869
 20
234.7879186241331
 30
0.0
  0
SPLINE
  5
F5
330
1F
100
AcDbEntity
  8
0
  6
Continuous
 62
     7
370
    15
100
AcDbSpline
210
0.0
220
0.0
230
1.0
 70
     8
 71
     3
 72
    12
 73
     8
 74
     0
 42
0.00000001
 43
0.00000001
 12
1.0
 22
0.0
 32
0.0
 13
1.0
 23
0.0
 33
0.0
 40
0.0
 40
0.0
 40
0.0
 40
0.0
 40
0.2119304369784308
 40
0.4238653068246179
 40
0.6357346427520951
 40
0.848082829668687
 40
1.0
 40
1.0
 40
1.0
 40
1.0
 10
132.3311277774244
 20
227.7291875301304
 30
0.0
 10
132.4432659945979
 20
227.7384638365619
 30
0.0
 10
132.6675447744972
 20
227.757016643454
 30
0.0
 10
132.9686338920435
 20
227.924140054252
 30
0.0
 10
133.1978311076357
 20
228.1734990957725
 30
0.0
 10
133.3247994556531
 20
228.4578739325476
 30
0.0
 10
133.3383417012842
 20
228.6498158062242
 30
0.0
 10
133.3439895060926
 20
228.7298653243485
 30
0.0
  0
SPLINE
  5
F6
330
1F
100
AcDbEntity
  8
0
  6
Continuous
 62
     7
370
    15
100
AcDbSpline
210
0.0
220
0.0
230
1.0
 70
     8
 71
     3
 72
    12
 73
     8
 74
     0
 42
0.00000001
 43
0.00000001
 12
1.0
 22
0.0
 32
0.0
 13
1.0
 23
0.0
 33
0.0
 40
0.0
 40
0.0
 40
0.0
 40
0.0
 40
0.2136476997047263
 40
0.4273219859969885
 40
0.6403191771051652
 40
0.8525077530649979
 40
1.0
 40
1.0
 40
1.0
 40
1.0
 10
215.5446314361959
 20
228.7298653243485
 30
0.0
 10
215.555694965389
 20
228.6169785900846
 30
0.0
 10
215.5778234005346
 20
228.3911910737902
 30
0.0
 10
215.7507150979413
 20
228.0904845681033
 30
0.0
 10
216.0049789168337
 20
227.8644418896985
 30
0.0
 10
216.2900381405262
 20
227.7436023874721
 30
0.0
 10
216.4797170822178
 20
227.7333795502219
 30
0.0
 10
216.5574976352125
 20
227.7291875301304
 30
0.0
  0
SPLINE
  5
F7
330
1F
100
AcDbEntity
  8
0
  6
Continuous
 62
     7
370
    15
100
AcDbSpline
210
0.0
220
0.0
230
1.0
 70
     8
 71
     3
 72
    12
 73
     8
 74
     0
 42
0.00000001
 43
0.00000001
 12
1.0
 22
0.0
 32
0.0
 13
1.0
 23
0.0
 33
0.0
 40
0.0
 40
0.0
 40
0.0
 40
0.0
 40
0.2136467139986253
 40
0.4273206839649882
 40
0.6403234837545335
 40
0.8525077267066683
 40
1.0
 40
1.0
 40
1.0
 40
1.0
 10
133.3439895060926
 20
234.7266279129686
 30
0.0
 10
133.3329287641554
 20
234.8395143597221
 30
0.0
 10
133.3108058692075
 20
235.0653016547114
 30
0.0
 10
133.1379148838719
 20
235.3660135869922
 30
0.0
 10
132.8836411442626
 20
235.5920449827069
 30
0.0
 10
132.5985855949107
 20
235.7128917650417
 30
0.0
 10
132.4089085129996
 20
235.7231136529281
 30
0.0
 10
132.3311277774244
 20
235.7273053346577
 30
0.0
  0
SPLINE
  5
F8
330
1F
100
AcDbEntity
  8
0
  6
Continuous
 62
     7
370
    15
100
AcDbSpline
210
0.0
220
0.0
230
1.0
 70
     8
 71
     3
 72
    12
 73
     8
 74
     0
 42
0.00000001
 43
0.00000001
 12
1.0
 22
0.0
 32
0.0
 13
1.0
 23
0.0
 33
0.0
 40
0.0
 40
0.0
 40
0.0
 40
0.0
 40
0.2119303439090679
 40
0.4238661187973159
 40
0.6357355026300822
 40
0.8480825297085094
 40
1.0
 40
1.0
 40
1.0
 40
1.0
 10
216.5574976352125
 20
235.7273053346577
 30
0.0
 10
216.4453593879596
 20
235.7180292187302
 30
0.0
 10
216.2210800197714
 20
235.6994767491631
 30
0.0
 10
215.9199908970281
 20
235.5323532060667
 30
0.0
 10
215.6907909397465
 20
235.2829949525408
 30
0.0
 10
215.5638325396559
 20
234.9986174731994
 30
0.0
 10
215.5502825112958
 20
234.8066771369335
 30
0.0
 10
215.5446314361959
 20
234.7266279129686
 30
0.0
  0
ARC
  5
F9
330
1F
100
AcDbEntity
  8
0
  6
Continuous
 62
     7
370
    15
100
AcDbCircle
 10
174.4443122372
 20
-2505.8882893329
 30
0.0
 40
2741.939020003309
100
AcDbArc
 50
90.880035123
 51
91.1491928654
  0
ARC
  5
FA
330
1F
100
AcDbEntity
  8
0
  6
Continuous
 62
     7
370
    15
100
AcDbCircle
 10
174.4443122372
 20
2969.3447824194
 30
0.0
 40
2741.939020006851
100
AcDbArc
 50
270.880035123
 51
271.1491928654
  0
ARC
  5
FB
330
1F
100
AcDbEntity
  8
0
  6
Continuous
 62
     7
370
    15
100
AcDbCircle
 10
174.4443122372
 20
-2505.8882893329
 30
0.0
 40
2741.939020003309
100
AcDbArc
 50
88.8508071346
 51
89.119964877
  0
ARC
  5
FC
330
1F
100
AcDbEntity
  8
0
  6
Continuous
 62
     7
370
    15
100
AcDbCircle
 10
174.4443122372
 20
2969.3447824194
 30
0.0
 40
2741.939020006851
100
AcDbArc
 50
268.8508071346
 51
269.119964877
  0
SPLINE
  5
FD
330
1F
100
AcDbEntity
  8
0
  6
Continuous
 62
     7
370
    15
100
AcDbSpline
210
0.0
220
0.0
230
1.0
 70
     8
 71
     3
 72
    12
 73
     8
 74
     0
 42
0.00000001
 43
0.00000001
 12
1.0
 22
0.0
 32
0.0
 13
1.0
 23
0.0
 33
0.0
 40
0.0
 40
0.0
 40
0.0
 40
0.0
 40
0.2406671897549983
 40
0.4814813164336862
 40
0.7183683780132425
 40
0.9505655999659258
 40
0.9999999999999999
 40
0.9999999999999999
 40
0.9999999999999999
 40
0.9999999999999999
 10
117.5765463260084
 20
229.3151918767395
 30
0.0
 10
117.5756129510187
 20
229.3072275108451
 30
0.0
 10
117.5737456311767
 20
229.2912939164932
 30
0.0
 10
117.5845486618421
 20
229.2168034862011
 30
0.0
 10
117.6122867789928
 20
229.1173819301279
 30
0.0
 10
117.6484874785761
 20
229.0347603423998
 30
0.0
 10
117.6733543953425
 20
228.9912880597109
 30
0.0
 10
117.6777192500501
 20
228.9836574314537
 30
0.0
  0
SPLINE
  5
FE
330
1F
100
AcDbEntity
  8
0
  6
Continuous
 62
     7
370
    15
100
AcDbSpline
210
0.0
220
0.0
230
1.0
 70
     8
 71
     3
 72
    12
 73
     8
 74
     0
 42
0.00000001
 43
0.00000001
 12
1.0
 22
0.0
 32
0.0
 13
1.0
 23
0.0
 33
0.0
 40
0.0
 40
0.0
 40
0.0
 40
0.0
 40
0.0403610697741026
 40
0.0805363591922522
 40
0.1538231576005777
 40
0.3585387093681532
 40
1.0
 40
1.0
 40
1.0
 40
1.0
 10
117.5446339991957
 20
229.4616255877914
 30
0.0
 10
117.5446845516021
 20
229.4560498785877
 30
0.0
 10
117.5447854237243
 20
229.4449241249419
 30
0.0
 10
117.5457285479358
 20
229.426160198931
 30
0.0
 10
117.5485359624423
 20
229.3961081682275
 30
0.0
 10
117.5588943927775
 20
229.3458882495276
 30
0.0
 10
117.5689349105566
 20
229.328427981992
 30
0.0
 10
117.5765463260084
 20
229.3151918767395
 30
0.0
  0
SPLINE
  5
FF
330
1F
100
AcDbEntity
  8
0
  6
Continuous
 62
     7
370
    15
100
AcDbSpline
210
0.0
220
0.0
230
1.0
 70
     8
 71
     3
 72
    12
 73
     8
 74
     0
 42
0.00000001
 43
0.00000001
 12
1.0
 22
0.0
 32
0.0
 13
1.0
 23
0.0
 33
0.0
 40
0.0
 40
0.0
 40
0.0
 40
0.0
 40
0.2406673190361014
 40
0.4814817673629019
 40
0.7183698148770457
 40
0.9505659449627877
 40
0.9999999999999999
 40
0.9999999999999999
 40
0.9999999999999999
 40
0.9999999999999999
 10
231.3120802042156
 20
234.1413013605776
 30
0.0
 10
231.3130126918621
 20
234.1492655395779
 30
0.0
 10
231.314878237221
 20
234.1651987663909
 30
0.0
 10
231.3040795349323
 20
234.2396898916382
 30
0.0
 10
231.2763401208083
 20
234.3391115827651
 30
0.0
 10
231.2401390494306
 20
234.4217322456308
 30
0.0
 10
231.2152743459056
 20
234.465205409743
 30
0.0
 10
231.2109098878771
 20
234.4728361783924
 30
0.0
  0
SPLINE
  5
100
330
1F
100
AcDbEntity
  8
0
  6
Continuous
 62
     7
370
    15
100
AcDbSpline
210
0.0
220
0.0
230
1.0
 70
     8
 71
     3
 72
    12
 73
     8
 74
     0
 42
0.00000001
 43
0.00000001
 12
1.0
 22
0.0
 32
0.0
 13
1.0
 23
0.0
 33
0.0
 40
0.0
 40
0.0
 40
0.0
 40
0.0
 40
0.0402781335758352
 40
0.0803777910359509
 40
0.1535301236247326
 40
0.357554957755283
 40
1.0
 40
1.0
 40
1.0
 40
1.0
 10
231.3439936486154
 20
233.9948672769966
 30
0.0
 10
231.3439433065903
 20
234.0004315807039
 30
0.0
 10
231.3438428456103
 20
234.0115355321768
 30
0.0
 10
231.3429068509155
 20
234.0302694940942
 30
0.0
 10
231.3400854975274
 20
234.0602703638866
 30
0.0
 10
231.3297587602533
 20
234.1105971236015
 30
0.0
 10
231.3197082429561
 20
234.1280529307482
 30
0.0
 10
231.3120802042156
 20
234.1413013605776
 30
0.0
  0
SPLINE
  5
101
330
1F
100
AcDbEntity
  8
0
  6
Continuous
 62
     7
370
    15
100
AcDbSpline
210
0.0
220
0.0
230
1.0
 70
     8
 71
     3
 72
    15
 73
    11
 74
     0
 42
0.00000001
 43
0.00000001
 12
1.0
 22
0.0
 32
0.0
 13
1.0
 23
0.0
 33
0.0
 40
0.0
 40
0.0
 40
0.0
 40
0.0
 40
0.3098041311686813
 40
0.5224513278560178
 40
0.6700722588690812
 40
0.8213297184438518
 40
0.8850041477992167
 40
0.9493275773238069
 40
0.9897454933188511
 40
1.0
 40
1.0
 40
1.0
 40
1.0
 10
117.5765463260084
 20
234.1413013605776
 30
0.0
 10
117.5728700420535
 20
234.1349233747126
 30
0.0
 10
117.5666703847844
 20
234.1241675879139
 30
0.0
 10
117.5588132175941
 20
234.1033413974918
 30
0.0
 10
117.5529863077898
 20
234.0819305964968
 30
0.0
 10
117.5489679772627
 20
234.0610381026218
 30
0.0
 10
117.5463066202801
 20
234.0375916710469
 30
0.0
 10
117.5450293670701
 20
234.0188607675515
 30
0.0
 10
117.5446445690023
 20
234.0032568335129
 30
0.0
 10
117.5446357781816
 20
233.9962793088232
 30
0.0
 10
117.5446339991957
 20
233.9948672769966
 30
0.0
  0
SPLINE
  5
102
330
1F
100
AcDbEntity
  8
0
  6
Continuous
 62
     7
370
    15
100
AcDbSpline
210
0.0
220
0.0
230
1.0
 70
     8
 71
     3
 72
    12
 73
     8
 74
     0
 42
0.00000001
 43
0.00000001
 12
1.0
 22
0.0
 32
0.0
 13
1.0
 23
0.0
 33
0.0
 40
0.0
 40
0.0
 40
0.0
 40
0.0
 40
0.2431799349664812
 40
0.4869832145225245
 40
0.7196854889473309
 40
0.9552506144342521
 40
1.0
 40
1.0
 40
1.0
 40
1.0
 10
117.6777192500501
 20
234.4728361783924
 30
0.0
 10
117.6577504307526
 20
234.4345768475785
 30
0.0
 10
117.6177616059629
 20
234.3579601155779
 30
0.0
 10
117.5876532465487
 20
234.2527729530068
 30
0.0
 10
117.5749602337949
 20
234.1767499799392
 30
0.0
 10
117.5744235940304
 20
234.1475666177678
 30
0.0
 10
117.5762541036093
 20
234.1421638568824
 30
0.0
 10
117.5765463260084
 20
234.1413013605776
 30
0.0
  0
SPLINE
  5
103
330
1F
100
AcDbEntity
  8
0
  6
Continuous
 62
     7
370
    15
100
AcDbSpline
210
0.0
220
0.0
230
1.0
 70
     8
 71
     3
 72
    12
 73
     8
 74
     0
 42
0.00000001
 43
0.00000001
 12
1.0
 22
0.0
 32
0.0
 13
1.0
 23
0.0
 33
0.0
 40
0.0
 40
0.0
 40
0.0
 40
0.0
 40
0.2431753222805997
 40
0.4869795767374587
 40
0.7196843889564035
 40
0.9552503876115223
 40
1.0
 40
1.0
 40
1.0
 40
1.0
 10
231.2109098878771
 20
228.9836574314537
 30
0.0
 10
231.2308760621989
 20
229.0219168715434
 30
0.0
 10
231.270860050003
 20
229.0985347033462
 30
0.0
 10
231.3009680596239
 20
229.203719780533
 30
0.0
 10
231.3136719427482
 20
229.2797435577534
 30
0.0
 10
231.3141997619154
 20
229.3089256255978
 30
0.0
 10
231.3123719899209
 20
229.3143292427525
 30
0.0
 10
231.3120802042156
 20
229.3151918767395
 30
0.0
  0
SPLINE
  5
104
330
1F
100
AcDbEntity
  8
0
  6
Continuous
 62
     7
370
    15
100
AcDbSpline
210
0.0
220
0.0
230
1.0
 70
     8
 71
     3
 72
    15
 73
    11
 74
     0
 42
0.00000001
 43
0.00000001
 12
1.0
 22
0.0
 32
0.0
 13
1.0
 23
0.0
 33
0.0
 40
0.0
 40
0.0
 40
0.0
 40
0.0
 40
0.3098040461975526
 40
0.5224513782521469
 40
0.6700739423009766
 40
0.8213297895906791
 40
0.8850044858549851
 40
0.9493281418525392
 40
0.9897454456661059
 40
1.0
 40
1.0
 40
1.0
 40
1.0
 10
231.3120802042156
 20
229.3151918767395
 30
0.0
 10
231.3157570244774
 20
229.3215695887411
 30
0.0
 10
231.3219575884692
 20
229.3323249176861
 30
0.0
 10
231.3298032749839
 20
229.3531522143579
 30
0.0
 10
231.3356517521981
 20
229.3745620929838
 30
0.0
 10
231.3396452924106
 20
229.3954558347516
 30
0.0
 10
231.342321476618
 20
229.4189008987337
 30
0.0
 10
231.3435896271712
 20
229.4376325348179
 30
0.0
 10
231.3439743746909
 20
229.4532361329581
 30
0.0
 10
231.3439904046118
 20
229.4602135545383
 30
0.0
 10
231.3439936486154
 20
229.4616255877914
 30
0.0
  0
LINE
  5
105
330
1F
100
AcDbEntity
  8
0
  6
Continuous
 62
     7
370
    15
100
AcDbLine
 10
117.6511474994
 20
234.0667035399
 30
0.0
 11
117.5765820888
 21
234.1412693231
 31
0.0
  0
ELLIPSE
  5
106
330
1F
100
AcDbEntity
  8
0
  6
Continuous
 62
     7
370
    15
100
AcDbEllipse
 10
117.6496172511
 20
233.8674644356
 30
0.0
 11
0.0
 21
0.2000000000000171
 31
0.0
210
0.0
220
0.0
230
1.0
 40
0.0874886635
 41
4.712388980384691
 42
6.195918844579881
  0
LINE
  5
107
330
1F
100
AcDbEntity
  8
0
  6
Continuous
 62
     7
370
    15
100
AcDbLine
 10
117.6671096233
 20
233.4587935327
 30
0.0
 11
117.6671096233
 21
233.867464584
 31
0.0
  0
ELLIPSE
  5
108
330
1F
100
AcDbEntity
  8
0
  6
Continuous
 62
     7
370
    15
100
AcDbEllipse
 10
117.5796263202
 20
234.539747269
 30
0.0
 11
0.0
 21
0.4000000000000057
 31
0.0
210
0.0
220
0.0
230
1.0
 40
0.0874886635
 41
3.053409736768851
 42
3.054326190989451
  0
LINE
  5
109
330
1F
100
AcDbEntity
  8
0
  6
Continuous
 62
     7
370
    15
100
AcDbLine
 10
231.237482011
 20
229.3897900699
 30
0.0
 11
231.3120481667
 21
229.3152239142
 31
0.0
  0
ELLIPSE
  5
10A
330
1F
100
AcDbEntity
  8
0
  6
Continuous
 62
     7
370
    15
100
AcDbEllipse
 10
231.2390072233
 20
229.5890286474
 30
0.0
 11
0.0
 21
0.2000000000000171
 31
0.0
210
0.0
220
0.0
230
1.0
 40
0.0874886635
 41
1.570796326794897
 42
3.054326190991465
  0
LINE
  5
10B
330
1F
100
AcDbEntity
  8
0
  6
Continuous
 62
     7
370
    15
100
AcDbLine
 10
231.2215094564
 20
229.5890282808
 30
0.0
 11
231.2215094564
 21
229.9976993321
 31
0.0
  0
ELLIPSE
  5
10C
330
1F
100
AcDbEntity
  8
0
  6
Continuous
 62
     7
370
    15
100
AcDbEllipse
 10
231.3089981542
 20
228.916745814
 30
0.0
 11
0.0
 21
0.4000000000000057
 31
0.0
210
0.0
220
0.0
230
1.0
 40
0.0874886635
 41
6.195002390360512
 42
6.195918844580693
  0
LINE
  5
10D
330
1F
100
AcDbEntity
  8
0
  6
Continuous
 62
     7
370
    15
100
AcDbLine
 10
231.2215094564
 20
233.4587935327
 30
0.0
 11
231.2215094564
 21
233.867464584
 31
0.0
  0
ELLIPSE
  5
10E
330
1F
100
AcDbEntity
  8
0
  6
Continuous
 62
     7
370
    15
100
AcDbEllipse
 10
231.2390072233
 20
233.8674644356
 30
0.0
 11
0.0
 21
0.2000000000000171
 31
0.0
210
0.0
220
0.0
230
1.0
 40
0.0874886635
 41
0.0872664625983149
 42
1.570796326794897
  0
LINE
  5
10F
330
1F
100
AcDbEntity
  8
0
  6
Continuous
 62
     7
370
    15
100
AcDbLine
 10
231.237482011
 20
234.0667035399
 30
0.0
 11
231.3120481667
 21
234.1412693231
 31
0.0
  0
ELLIPSE
  5
110
330
1F
100
AcDbEntity
  8
0
  6
Continuous
 62
     7
370
    15
100
AcDbEllipse
 10
231.3089981542
 20
234.539747269
 30
0.0
 11
0.0
 21
0.4000000000000057
 31
0.0
210
0.0
220
0.0
230
1.0
 40
0.0874886635
 41
3.228859116189009
 42
3.2297755704092
  0
LINE
  5
111
330
1F
100
AcDbEntity
  8
0
  6
Continuous
 62
     7
370
    15
100
AcDbLine
 10
117.6671096233
 20
229.5890282808
 30
0.0
 11
117.6671096233
 21
229.9976993321
 31
0.0
  0
ELLIPSE
  5
112
330
1F
100
AcDbEntity
  8
0
  6
Continuous
 62
     7
370
    15
100
AcDbEllipse
 10
117.6496172511
 20
229.5890286474
 30
0.0
 11
0.0
 21
0.2000000000000171
 31
0.0
210
0.0
220
0.0
230
1.0
 40
0.0874886635
 41
3.228859116189016
 42
4.712388980384691
  0
LINE
  5
113
330
1F
100
AcDbEntity
  8
0
  6
Continuous
 62
     7
370
    15
100
AcDbLine
 10
117.6511474994
 20
229.3897900699
 30
0.0
 11
117.5765820888
 21
229.3152239142
 31
0.0
  0
ELLIPSE
  5
114
330
1F
100
AcDbEntity
  8
0
  6
Continuous
 62
     7
370
    15
100
AcDbEllipse
 10
117.5796263202
 20
228.916745814
 30
0.0
 11
0.0
 21
0.4000000000000057
 31
0.0
210
0.0
220
0.0
230
1.0
 40
0.0874886635
 41
0.0872664626003375
 42
0.0881829168193071
  0
ARC
  5
115
330
1F
100
AcDbEntity
  8
0
  6
Continuous
 62
     7
370
    15
100
AcDbCircle
 10
145.2794845157
 20
173.5618849395
 30
0.0
 40
1.000000000000016
100
AcDbArc
 50
48.7886371786
 51
133.8432074607
  0
LINE
  5
116
330
1F
100
AcDbEntity
  8
0
  6
Continuous
 62
     7
370
    15
100
AcDbLine
 10
150.0331469921
 20
170.7279909371
 30
0.0
 11
145.9383257774
 21
174.3141699551
 31
0.0
  0
ARC
  5
117
330
1F
100
AcDbEntity
  8
0
  6
Continuous
 62
     7
370
    15
100
AcDbCircle
 10
137.2443122372
 20
181.9282465415
 30
0.0
 40
17.00000000000006
100
AcDbArc
 50
314.0648114194
 51
318.7886371786
  0
LINE
  5
118
330
1F
100
AcDbEntity
  8
0
  6
Continuous
 62
     7
370
    15
100
AcDbLine
 10
145.9335276035
 20
172.4573720215
 30
0.0
 11
149.0673312095
 21
169.7128344296
 31
0.0
  0
ARC
  5
119
330
1F
100
AcDbEntity
  8
0
  6
Continuous
 62
     7
370
    15
100
AcDbCircle
 10
145.274690182
 20
171.70508509
 30
0.0
 40
1.000000000000016
100
AcDbArc
 50
48.7886371786
 51
128.1499278636
  0
ARC
  5
11A
330
1F
100
AcDbEntity
  8
0
  6
Continuous
 62
     7
370
    15
100
AcDbCircle
 10
137.2443122372
 20
181.9282465415
 30
0.0
 40
12.00000000000001
100
AcDbArc
 50
231.8500721364
 51
308.1499278636
  0
ARC
  5
11B
330
1F
100
AcDbEntity
  8
0
  6
Continuous
 62
     7
370
    15
100
AcDbCircle
 10
129.2139342924
 20
171.70508509
 30
0.0
 40
1.000000000000019
100
AcDbArc
 50
51.8500721364
 51
131.2113628214
  0
LINE
  5
11C
330
1F
100
AcDbEntity
  8
0
  6
Continuous
 62
     7
370
    15
100
AcDbLine
 10
125.4212924388
 20
169.7128344296
 30
0.0
 11
128.5550900844
 21
172.4573720215
 31
0.0
  0
ARC
  5
11D
330
1F
100
AcDbEntity
  8
0
  6
Continuous
 62
     7
370
    15
100
AcDbCircle
 10
137.2443122372
 20
181.9282465415
 30
0.0
 40
17.00000000000007
100
AcDbArc
 50
221.2113628214
 51
225.9351885806
  0
LINE
  5
11E
330
1F
100
AcDbEntity
  8
0
  6
Continuous
 62
     7
370
    15
100
AcDbLine
 10
128.550297871
 20
174.3141699551
 30
0.0
 11
124.4554826167
 21
170.7279909371
 31
0.0
  0
ARC
  5
11F
330
1F
100
AcDbEntity
  8
0
  6
Continuous
 62
     7
370
    15
100
AcDbCircle
 10
129.2091399587
 20
173.5618849395
 30
0.0
 40
0.9999999999999961
100
AcDbArc
 50
46.1567925393
 51
131.2113628214
  0
ARC
  5
120
330
1F
100
AcDbEntity
  8
0
  6
Continuous
 62
     7
370
    15
100
AcDbCircle
 10
137.2443122372
 20
181.9282465415
 30
0.0
 40
10.59999999999994
100
AcDbArc
 50
226.1567925393
 51
313.8432074607
  0
ARC
  5
121
330
1F
100
AcDbEntity
  8
0
  6
Continuous
 62
     7
370
    15
100
AcDbCircle
 10
211.6443122372
 20
108.7282465415
 30
0.0
 40
25.60000000000002
100
AcDbArc
 50
315.5875134113
 51
44.4124865887
  0
ARC
  5
122
330
1F
100
AcDbEntity
  8
0
  6
Continuous
 62
     7
370
    15
100
AcDbCircle
 10
230.6452291203
 20
127.3434327506
 30
0.0
 40
1.000000000000081
100
AcDbArc
 50
136.566970957
 51
224.4124865887
  0
LINE
  5
123
330
1F
100
AcDbEntity
  8
0
  6
Continuous
 62
     7
370
    15
100
AcDbLine
 10
233.6445119341
 20
131.9659579514
 30
0.0
 11
229.9190507379
 21
128.0309427498
 31
0.0
  0
ARC
  5
124
330
1F
100
AcDbEntity
  8
0
  6
Continuous
 62
     7
370
    15
100
AcDbCircle
 10
211.6443122372
 20
108.7282465415
 30
0.0
 40
32.00000000000004
100
AcDbArc
 50
44.0594802535
 51
46.566970957
  0
LINE
  5
125
330
1F
100
AcDbEntity
  8
0
  6
Continuous
 62
     7
370
    15
100
AcDbLine
 10
231.8402917233
 20
128.0239094017
 30
0.0
 11
234.6400968839
 21
130.9811938523
 31
0.0
  0
ARC
  5
126
330
1F
100
AcDbEntity
  8
0
  6
Continuous
 62
     7
370
    15
100
AcDbCircle
 10
232.5664700415
 20
127.3363983254
 30
0.0
 40
1.000000000000038
100
AcDbArc
 50
136.566970957
 51
221.6498706215
  0
ARC
  5
127
330
1F
100
AcDbEntity
  8
0
  6
Continuous
 62
     7
370
    15
100
AcDbCircle
 10
211.6443122372
 20
108.7282465415
 30
0.0
 40
27.00000000000005
100
AcDbArc
 50
318.3501293785
 51
41.6498706215
  0
ARC
  5
128
330
1F
100
AcDbEntity
  8
0
  6
Continuous
 62
     7
370
    15
100
AcDbCircle
 10
232.5664700415
 20
90.1200947576
 30
0.0
 40
0.9999999999999907
100
AcDbArc
 50
138.3501293785
 51
223.433029043
  0
LINE
  5
129
330
1F
100
AcDbEntity
  8
0
  6
Continuous
 62
     7
370
    15
100
AcDbLine
 10
234.6400968839
 20
86.4752996682
 30
0.0
 11
231.8402917233
 21
89.4325841187
 31
0.0
  0
ARC
  5
12A
330
1F
100
AcDbEntity
  8
0
  6
Continuous
 62
     7
370
    15
100
AcDbCircle
 10
211.6443122372
 20
108.7282465415
 30
0.0
 40
31.99999999999989
100
AcDbArc
 50
313.433029043
 51
315.9405197465
  0
LINE
  5
12B
330
1F
100
AcDbEntity
  8
0
  6
Continuous
 62
     7
370
    15
100
AcDbLine
 10
229.9190507379
 20
89.4255507706
 30
0.0
 11
233.6445119341
 21
85.490535569
 31
0.0
  0
ARC
  5
12C
330
1F
100
AcDbEntity
  8
0
  6
Continuous
 62
     7
370
    15
100
AcDbCircle
 10
230.6452291203
 20
90.1130603324
 30
0.0
 40
1.0
100
AcDbArc
 50
135.5875134113
 51
223.433029043
  0
LINE
  5
12D
330
1F
100
AcDbEntity
  8
0
  6
Continuous
 62
     7
370
    15
100
AcDbLine
 10
220.3335293678
 20
99.2573726891
 30
0.0
 11
223.4673299936
 21
96.5128410576
 31
0.0
  0
ARC
  5
12E
330
1F
100
AcDbEntity
  8
0
  6
Continuous
 62
     7
370
    15
100
AcDbCircle
 10
219.674690182
 20
98.50508509
 30
0.0
 40
1.000000000000008
100
AcDbArc
 50
48.7886371786
 51
128.1499278636
  0
ARC
  5
12F
330
1F
100
AcDbEntity
  8
0
  6
Continuous
 62
     7
370
    15
100
AcDbCircle
 10
211.6443122372
 20
108.7282465415
 30
0.0
 40
11.99999999999993
100
AcDbArc
 50
231.8500721364
 51
308.1499278636
  0
ARC
  5
130
330
1F
100
AcDbEntity
  8
0
  6
Continuous
 62
     7
370
    15
100
AcDbCircle
 10
203.6139342924
 20
98.50508509
 30
0.0
 40
1.000000000000008
100
AcDbArc
 50
51.8500721364
 51
131.2113628214
  0
LINE
  5
131
330
1F
100
AcDbEntity
  8
0
  6
Continuous
 62
     7
370
    15
100
AcDbLine
 10
199.8212942031
 20
96.5128410576
 30
0.0
 11
202.9550948289
 21
99.2573726891
 31
0.0
  0
ARC
  5
132
330
1F
100
AcDbEntity
  8
0
  6
Continuous
 62
     7
370
    15
100
AcDbCircle
 10
211.6443122372
 20
108.7282465415
 30
0.0
 40
17.0
100
AcDbArc
 50
221.2113628214
 51
225.9351885806
  0
LINE
  5
133
330
1F
100
AcDbEntity
  8
0
  6
Continuous
 62
     7
370
    15
100
AcDbLine
 10
202.9503026155
 20
101.1141646622
 30
0.0
 11
198.8554784206
 21
97.5279916047
 31
0.0
  0
ARC
  5
134
330
1F
100
AcDbEntity
  8
0
  6
Continuous
 62
     7
370
    15
100
AcDbCircle
 10
203.6091399587
 20
100.3618849395
 30
0.0
 40
1.000000000000016
100
AcDbArc
 50
46.1567925393
 51
131.2113628214
  0
LINE
  5
135
330
1F
100
AcDbEntity
  8
0
  6
Continuous
 62
     7
370
    15
100
AcDbLine
 10
224.4331450311
 20
97.5279916047
 30
0.0
 11
220.3383230713
 21
101.1141646622
 31
0.0
  0
ARC
  5
136
330
1F
100
AcDbEntity
  8
0
  6
Continuous
 62
     7
370
    15
100
AcDbCircle
 10
211.6443122372
 20
108.7282465415
 30
0.0
 40
10.59999999999986
100
AcDbArc
 50
226.1567925393
 51
313.8432074607
  0
ARC
  5
137
330
1F
100
AcDbEntity
  8
0
  6
Continuous
 62
     7
370
    15
100
AcDbCircle
 10
219.6794845157
 20
100.3618849395
 30
0.0
 40
0.9999999999999971
100
AcDbArc
 50
48.7886371786
 51
133.8432074607
  0
ARC
  5
138
330
1F
100
AcDbEntity
  8
0
  6
Continuous
 62
     7
370
    15
100
AcDbCircle
 10
211.6443122372
 20
108.7282465415
 30
0.0
 40
17.00000000000001
100
AcDbArc
 50
314.0648114194
 51
318.7886371786
  0
ARC
  5
139
330
1F
100
AcDbEntity
  8
0
  6
Continuous
 62
     7
370
    15
100
AcDbCircle
 10
137.2443122372
 20
108.7282465415
 30
0.0
 40
25.59999999999999
100
AcDbArc
 50
135.5875134113
 51
224.4124865887
  0
ARC
  5
13A
330
1F
100
AcDbEntity
  8
0
  6
Continuous
 62
     7
370
    15
100
AcDbCircle
 10
118.2433953541
 20
90.1130603324
 30
0.0
 40
0.9999999999999901
100
AcDbArc
 50
316.566970957
 51
44.4124865887
  0
LINE
  5
13B
330
1F
100
AcDbEntity
  8
0
  6
Continuous
 62
     7
370
    15
100
AcDbLine
 10
115.2441092876
 20
85.490535569
 30
0.0
 11
118.9695784
 21
89.4255507706
 31
0.0
  0
ARC
  5
13C
330
1F
100
AcDbEntity
  8
0
  6
Continuous
 62
     7
370
    15
100
AcDbCircle
 10
137.2443122372
 20
108.7282465415
 30
0.0
 40
31.99999999999995
100
AcDbArc
 50
224.0594802535
 51
226.566970957
  0
LINE
  5
13D
330
1F
100
AcDbEntity
  8
0
  6
Continuous
 62
     7
370
    15
100
AcDbLine
 10
117.048329964
 20
89.4325841187
 30
0.0
 11
114.2485329059
 21
86.4752996682
 31
0.0
  0
ARC
  5
13E
330
1F
100
AcDbEntity
  8
0
  6
Continuous
 62
     7
370
    15
100
AcDbCircle
 10
116.3221544329
 20
90.1200947576
 30
0.0
 40
1.0
100
AcDbArc
 50
316.566970957
 51
41.6498706215
  0
LINE
  5
13F
330
1F
100
AcDbEntity
  8
0
  6
Continuous
 62
     7
370
    15
100
AcDbLine
 10
118.9695784
 20
128.0309427498
 30
0.0
 11
115.2441092876
 21
131.9659579514
 31
0.0
  0
ARC
  5
140
330
1F
100
AcDbEntity
  8
0
  6
Continuous
 62
     7
370
    15
100
AcDbCircle
 10
118.2433953541
 20
127.3434327506
 30
0.0
 40
1.0
100
AcDbArc
 50
315.5875134113
 51
43.433029043
  0
ARC
  5
141
330
1F
100
AcDbEntity
  8
0
  6
Continuous
 62
     7
370
    15
100
AcDbCircle
 10
137.2443122372
 20
108.7282465415
 30
0.0
 40
27.0
100
AcDbArc
 50
138.3501293785
 51
221.6498706215
  0
ARC
  5
142
330
1F
100
AcDbEntity
  8
0
  6
Continuous
 62
     7
370
    15
100
AcDbCircle
 10
116.3221544329
 20
127.3363983254
 30
0.0
 40
1.000000000000021
100
AcDbArc
 50
318.3501293785
 51
43.433029043
  0
LINE
  5
143
330
1F
100
AcDbEntity
  8
0
  6
Continuous
 62
     7
370
    15
100
AcDbLine
 10
114.2485329059
 20
130.9811938523
 30
0.0
 11
117.048329964
 21
128.0239094017
 31
0.0
  0
ARC
  5
144
330
1F
100
AcDbEntity
  8
0
  6
Continuous
 62
     7
370
    15
100
AcDbCircle
 10
137.2443122372
 20
108.7282465415
 30
0.0
 40
31.99999999999998
100
AcDbArc
 50
133.433029043
 51
135.9405197465
  0
ARC
  5
145
330
1F
100
AcDbEntity
  8
0
  6
Continuous
 62
     7
370
    15
100
AcDbCircle
 10
203.6091399587
 20
117.0946081435
 30
0.0
 40
0.9999999999999961
100
AcDbArc
 50
228.7886371786
 51
313.8432074607
  0
LINE
  5
146
330
1F
100
AcDbEntity
  8
0
  6
Continuous
 62
     7
370
    15
100
AcDbLine
 10
198.8554784206
 20
119.9285019158
 30
0.0
 11
202.9503026155
 21
116.3423288582
 31
0.0
  0
ARC
  5
147
330
1F
100
AcDbEntity
  8
0
  6
Continuous
 62
     7
370
    15
100
AcDbCircle
 10
211.6443122372
 20
108.7282465415
 30
0.0
 40
17.00000000000014
100
AcDbArc
 50
134.0648114194
 51
138.7886371786
  0
LINE
  5
148
330
1F
100
AcDbEntity
  8
0
  6
Continuous
 62
     7
370
    15
100
AcDbLine
 10
202.9550948289
 20
118.1991208313
 30
0.0
 11
199.8212942031
 21
120.9436524628
 31
0.0
  0
ARC
  5
149
330
1F
100
AcDbEntity
  8
0
  6
Continuous
 62
     7
370
    15
100
AcDbCircle
 10
219.6794845157
 20
117.0946081435
 30
0.0
 40
1.000000000000016
100
AcDbArc
 50
226.1567925393
 51
311.2113628214
  0
LINE
  5
14A
330
1F
100
AcDbEntity
  8
0
  6
Continuous
 62
     7
370
    15
100
AcDbLine
 10
220.3383230713
 20
116.3423288582
 30
0.0
 11
224.4331450311
 21
119.9285019158
 31
0.0
  0
ARC
  5
14B
330
1F
100
AcDbEntity
  8
0
  6
Continuous
 62
     7
370
    15
100
AcDbCircle
 10
211.6443122372
 20
108.7282465415
 30
0.0
 40
10.59999999999999
100
AcDbArc
 50
46.1567925393
 51
133.8432074607
  0
LINE
  5
14C
330
1F
100
AcDbEntity
  8
0
  6
Continuous
 62
     7
370
    15
100
AcDbLine
 10
223.4673299936
 20
120.9436524628
 30
0.0
 11
220.3335293678
 21
118.1991208313
 31
0.0
  0
ARC
  5
14D
330
1F
100
AcDbEntity
  8
0
  6
Continuous
 62
     7
370
    15
100
AcDbCircle
 10
203.6139342924
 20
118.951407993
 30
0.0
 40
1.000000000000008
100
AcDbArc
 50
228.7886371786
 51
308.1499278636
  0
ARC
  5
14E
330
1F
100
AcDbEntity
  8
0
  6
Continuous
 62
     7
370
    15
100
AcDbCircle
 10
211.6443122372
 20
108.7282465415
 30
0.0
 40
17.00000000000014
100
AcDbArc
 50
41.2113628214
 51
45.9351885806
  0
ARC
  5
14F
330
1F
100
AcDbEntity
  8
0
  6
Continuous
 62
     7
370
    15
100
AcDbCircle
 10
219.674690182
 20
118.951407993
 30
0.0
 40
0.9999999999999906
100
AcDbArc
 50
231.8500721364
 51
311.2113628214
  0
ARC
  5
150
330
1F
100
AcDbEntity
  8
0
  6
Continuous
 62
     7
370
    15
100
AcDbCircle
 10
211.6443122372
 20
108.7282465415
 30
0.0
 40
12.0000000000001
100
AcDbArc
 50
51.8500721364
 51
128.1499278636
  0
LINE
  5
151
330
1F
100
AcDbEntity
  8
0
  6
Continuous
 62
     7
370
    15
100
AcDbLine
 10
145.9335276035
 20
99.2573726891
 30
0.0
 11
149.0673312095
 21
96.5128410576
 31
0.0
  0
LINE
  5
152
330
1F
100
AcDbEntity
  8
0
  6
Continuous
 62
     7
370
    15
100
AcDbLine
 10
128.550297871
 20
101.1141646622
 30
0.0
 11
124.4554826167
 21
97.5279916047
 31
0.0
  0
ARC
  5
153
330
1F
100
AcDbEntity
  8
0
  6
Continuous
 62
     7
370
    15
100
AcDbCircle
 10
129.2091399587
 20
100.3618849395
 30
0.0
 40
0.9999999999999971
100
AcDbArc
 50
46.1567925393
 51
131.2113628214
  0
ARC
  5
154
330
1F
100
AcDbEntity
  8
0
  6
Continuous
 62
     7
370
    15
100
AcDbCircle
 10
137.2443122372
 20
108.7282465415
 30
0.0
 40
10.59999999999991
100
AcDbArc
 50
226.1567925393
 51
313.8432074607
  0
ARC
  5
155
330
1F
100
AcDbEntity
  8
0
  6
Continuous
 62
     7
370
    15
100
AcDbCircle
 10
145.2794845157
 20
100.3618849395
 30
0.0
 40
1.000000000000026
100
AcDbArc
 50
48.7886371786
 51
133.8432074607
  0
LINE
  5
156
330
1F
100
AcDbEntity
  8
0
  6
Continuous
 62
     7
370
    15
100
AcDbLine
 10
150.0331469921
 20
97.5279916047
 30
0.0
 11
145.9383257774
 21
101.1141646622
 31
0.0
  0
ARC
  5
157
330
1F
100
AcDbEntity
  8
0
  6
Continuous
 62
     7
370
    15
100
AcDbCircle
 10
137.2443122372
 20
108.7282465415
 30
0.0
 40
17.00000000000007
100
AcDbArc
 50
314.0648114194
 51
318.7886371786
  0
ARC
  5
158
330
1F
100
AcDbEntity
  8
0
  6
Continuous
 62
     7
370
    15
100
AcDbCircle
 10
145.274690182
 20
98.50508509
 30
0.0
 40
1.000000000000008
100
AcDbArc
 50
48.7886371786
 51
128.1499278636
  0
ARC
  5
159
330
1F
100
AcDbEntity
  8
0
  6
Continuous
 62
     7
370
    15
100
AcDbCircle
 10
137.2443122372
 20
108.7282465415
 30
0.0
 40
11.99999999999999
100
AcDbArc
 50
231.8500721364
 51
308.1499278636
  0
ARC
  5
15A
330
1F
100
AcDbEntity
  8
0
  6
Continuous
 62
     7
370
    15
100
AcDbCircle
 10
129.2139342924
 20
98.50508509
 30
0.0
 40
0.9999999999999971
100
AcDbArc
 50
51.8500721364
 51
131.2113628214
  0
LINE
  5
15B
330
1F
100
AcDbEntity
  8
0
  6
Continuous
 62
     7
370
    15
100
AcDbLine
 10
125.4212924388
 20
96.5128410576
 30
0.0
 11
128.5550900844
 21
99.2573726891
 31
0.0
  0
ARC
  5
15C
330
1F
100
AcDbEntity
  8
0
  6
Continuous
 62
     7
370
    15
100
AcDbCircle
 10
137.2443122372
 20
108.7282465415
 30
0.0
 40
17.00000000000004
100
AcDbArc
 50
221.2113628214
 51
225.9351885806
  0
CIRCLE
  5
15D
330
1F
100
AcDbEntity
  8
0
  6
Continuous
 62
     7
370
    15
100
AcDbCircle
 10
137.2443122372
 20
108.7282465415
 30
0.0
 40
2.0
  0
ARC
  5
15E
330
1F
100
AcDbEntity
  8
0
  6
Continuous
 62
     7
370
    15
100
AcDbCircle
 10
211.6443122372
 20
181.9282465415
 30
0.0
 40
32.00000000000005
100
AcDbArc
 50
224.0594802535
 51
226.566970957
  0
LINE
  5
15F
330
1F
100
AcDbEntity
  8
0
  6
Continuous
 62
     7
370
    15
100
AcDbLine
 10
191.4483317283
 20
162.6325894116
 30
0.0
 11
188.6485287097
 21
159.6752930401
 31
0.0
  0
ARC
  5
160
330
1F
100
AcDbEntity
  8
0
  6
Continuous
 62
     7
370
    15
100
AcDbCircle
 10
211.6443122372
 20
181.9282465415
 30
0.0
 40
27.00000000000009
100
AcDbArc
 50
138.3501293785
 51
221.6498706215
  0
ARC
  5
161
330
1F
100
AcDbEntity
  8
0
  6
Continuous
 62
     7
370
    15
100
AcDbCircle
 10
190.7221544329
 20
200.5363983254
 30
0.0
 40
1.000000000000031
100
AcDbArc
 50
318.3501293785
 51
43.433029043
  0
LINE
  5
162
330
1F
100
AcDbEntity
  8
0
  6
Continuous
 62
     7
370
    15
100
AcDbLine
 10
188.6485287097
 20
204.1811991452
 30
0.0
 11
191.4483317283
 21
201.2239057539
 31
0.0
  0
ARC
  5
163
330
1F
100
AcDbEntity
  8
0
  6
Continuous
 62
     7
370
    15
100
AcDbCircle
 10
211.6443122372
 20
181.9282465415
 30
0.0
 40
31.99999999999989
100
AcDbArc
 50
133.433029043
 51
135.9405197465
  0
ARC
  5
164
330
1F
100
AcDbEntity
  8
0
  6
Continuous
 62
     7
370
    15
100
AcDbCircle
 10
192.6433953541
 20
200.5434327506
 30
0.0
 40
0.9999999999999711
100
AcDbArc
 50
315.5875134113
 51
43.433029043
  0
ARC
  5
165
330
1F
100
AcDbEntity
  8
0
  6
Continuous
 62
     7
370
    15
100
AcDbCircle
 10
190.7221544329
 20
163.3200947576
 30
0.0
 40
0.9999999999999958
100
AcDbArc
 50
316.5669709571
 51
41.6498706215
  0
LINE
  5
166
330
1F
100
AcDbEntity
  8
0
  6
Continuous
 62
     7
370
    15
100
AcDbLine
 10
193.3695742038
 20
201.230939102
 30
0.0
 11
189.6441110519
 21
205.1659572838
 31
0.0
  0
ARC
  5
167
330
1F
100
AcDbEntity
  8
0
  6
Continuous
 62
     7
370
    15
100
AcDbCircle
 10
211.6443122372
 20
181.9282465415
 30
0.0
 40
25.6
100
AcDbArc
 50
135.5875134113
 51
224.4124865887
  0
LINE
  5
168
330
1F
100
AcDbEntity
  8
0
  6
Continuous
 62
     7
370
    15
100
AcDbLine
 10
189.6441110519
 20
158.6905349015
 30
0.0
 11
193.3695742038
 21
162.6255560635
 31
0.0
  0
ARC
  5
169
330
1F
100
AcDbEntity
  8
0
  6
Continuous
 62
     7
370
    15
100
AcDbCircle
 10
192.6433953541
 20
163.3130603324
 30
0.0
 40
1.000000000000081
100
AcDbArc
 50
316.566970957
 51
44.4124865887
  0
ARC
  5
16A
330
1F
100
AcDbEntity
  8
0
  6
Continuous
 62
     7
370
    15
100
AcDbCircle
 10
211.6443122372
 20
108.7282465415
 30
0.0
 40
25.59999999999996
100
AcDbArc
 50
135.5875134113
 51
224.4124865887
  0
LINE
  5
16B
330
1F
100
AcDbEntity
  8
0
  6
Continuous
 62
     7
370
    15
100
AcDbLine
 10
189.6441110519
 20
85.490535569
 30
0.0
 11
193.3695742038
 21
89.4255507706
 31
0.0
  0
ARC
  5
16C
330
1F
100
AcDbEntity
  8
0
  6
Continuous
 62
     7
370
    15
100
AcDbCircle
 10
211.6443122372
 20
108.7282465415
 30
0.0
 40
31.99999999999989
100
AcDbArc
 50
224.0594802535
 51
226.566970957
  0
LINE
  5
16D
330
1F
100
AcDbEntity
  8
0
  6
Continuous
 62
     7
370
    15
100
AcDbLine
 10
191.4483317283
 20
89.4325841187
 30
0.0
 11
188.6485287097
 21
86.4752996682
 31
0.0
  0
ARC
  5
16E
330
1F
100
AcDbEntity
  8
0
  6
Continuous
 62
     7
370
    15
100
AcDbCircle
 10
190.7221544329
 20
90.1200947576
 30
0.0
 40
0.9999999999999907
100
AcDbArc
 50
316.566970957
 51
41.6498706215
  0
ARC
  5
16F
330
1F
100
AcDbEntity
  8
0
  6
Continuous
 62
     7
370
    15
100
AcDbCircle
 10
192.6433953541
 20
90.1130603324
 30
0.0
 40
1.000000000000021
100
AcDbArc
 50
316.5669709571
 51
44.4124865887
  0
ARC
  5
170
330
1F
100
AcDbEntity
  8
0
  6
Continuous
 62
     7
370
    15
100
AcDbCircle
 10
211.6443122372
 20
108.7282465415
 30
0.0
 40
27.00000000000005
100
AcDbArc
 50
138.3501293785
 51
221.6498706215
  0
LINE
  5
171
330
1F
100
AcDbEntity
  8
0
  6
Continuous
 62
     7
370
    15
100
AcDbLine
 10
188.6485287097
 20
130.9811938523
 30
0.0
 11
191.4483317283
 21
128.0239094017
 31
0.0
  0
ARC
  5
172
330
1F
100
AcDbEntity
  8
0
  6
Continuous
 62
     7
370
    15
100
AcDbCircle
 10
192.6433953541
 20
127.3434327506
 30
0.0
 40
1.000000000000101
100
AcDbArc
 50
315.5875134113
 51
43.433029043
  0
LINE
  5
173
330
1F
100
AcDbEntity
  8
0
  6
Continuous
 62
     7
370
    15
100
AcDbLine
 10
193.3695742038
 20
128.0309427498
 30
0.0
 11
189.6441110519
 21
131.9659579514
 31
0.0
  0
ARC
  5
174
330
1F
100
AcDbEntity
  8
0
  6
Continuous
 62
     7
370
    15
100
AcDbCircle
 10
190.7221544329
 20
127.3363983254
 30
0.0
 40
1.0
100
AcDbArc
 50
318.3501293785
 51
43.433029043
  0
ARC
  5
175
330
1F
100
AcDbEntity
  8
0
  6
Continuous
 62
     7
370
    15
100
AcDbCircle
 10
211.6443122372
 20
108.7282465415
 30
0.0
 40
32.00000000000005
100
AcDbArc
 50
133.433029043
 51
135.9405197465
  0
CIRCLE
  5
176
330
1F
100
AcDbEntity
  8
0
  6
Continuous
 62
     7
370
    15
100
AcDbCircle
 10
137.2443122372
 20
181.9282465415
 30
0.0
 40
2.0
  0
ARC
  5
177
330
1F
100
AcDbEntity
  8
0
  6
Continuous
 62
     7
370
    15
100
AcDbCircle
 10
137.2443122372
 20
181.9282465415
 30
0.0
 40
17.00000000000007
100
AcDbArc
 50
134.0648114194
 51
138.7886371786
  0
ARC
  5
178
330
1F
100
AcDbEntity
  8
0
  6
Continuous
 62
     7
370
    15
100
AcDbCircle
 10
129.2139342924
 20
192.151407993
 30
0.0
 40
0.9999999999999921
100
AcDbArc
 50
228.7886371786
 51
308.1499278636
  0
ARC
  5
179
330
1F
100
AcDbEntity
  8
0
  6
Continuous
 62
     7
370
    15
100
AcDbCircle
 10
137.2443122372
 20
181.9282465415
 30
0.0
 40
12.0
100
AcDbArc
 50
51.8500721364
 51
128.1499278636
  0
ARC
  5
17A
330
1F
100
AcDbEntity
  8
0
  6
Continuous
 62
     7
370
    15
100
AcDbCircle
 10
145.274690182
 20
192.151407993
 30
0.0
 40
0.9999999999999971
100
AcDbArc
 50
231.8500721364
 51
311.2113628214
  0
LINE
  5
17B
330
1F
100
AcDbEntity
  8
0
  6
Continuous
 62
     7
370
    15
100
AcDbLine
 10
149.0673312095
 20
194.1436577557
 30
0.0
 11
145.9335276035
 21
191.399123144
 31
0.0
  0
LINE
  5
17C
330
1F
100
AcDbEntity
  8
0
  6
Continuous
 62
     7
370
    15
100
AcDbLine
 10
145.9383257774
 20
189.5423252104
 30
0.0
 11
150.0331469921
 21
193.1285042284
 31
0.0
  0
ARC
  5
17D
330
1F
100
AcDbEntity
  8
0
  6
Continuous
 62
     7
370
    15
100
AcDbCircle
 10
145.2794845157
 20
190.2946081435
 30
0.0
 40
1.000000000000016
100
AcDbArc
 50
226.1567925393
 51
311.2113628214
  0
ARC
  5
17E
330
1F
100
AcDbEntity
  8
0
  6
Continuous
 62
     7
370
    15
100
AcDbCircle
 10
137.2443122372
 20
181.9282465415
 30
0.0
 40
10.59999999999992
100
AcDbArc
 50
46.1567925393
 51
133.8432074607
  0
ARC
  5
17F
330
1F
100
AcDbEntity
  8
0
  6
Continuous
 62
     7
370
    15
100
AcDbCircle
 10
129.2091399587
 20
190.2946081435
 30
0.0
 40
0.9999999999999757
100
AcDbArc
 50
228.7886371786
 51
313.8432074607
  0
ARC
  5
180
330
1F
100
AcDbEntity
  8
0
  6
Continuous
 62
     7
370
    15
100
AcDbCircle
 10
137.2443122372
 20
181.9282465415
 30
0.0
 40
17.00000000000008
100
AcDbArc
 50
41.2113628214
 51
45.9351885806
  0
LINE
  5
181
330
1F
100
AcDbEntity
  8
0
  6
Continuous
 62
     7
370
    15
100
AcDbLine
 10
128.5550900844
 20
191.399123144
 30
0.0
 11
125.4212924388
 21
194.1436577557
 31
0.0
  0
LINE
  5
182
330
1F
100
AcDbEntity
  8
0
  6
Continuous
 62
     7
370
    15
100
AcDbLine
 10
124.4554826167
 20
193.1285042284
 30
0.0
 11
128.550297871
 21
189.5423252104
 31
0.0
  0
LINE
  5
183
330
1F
100
AcDbEntity
  8
0
  6
Continuous
 62
     7
370
    15
100
AcDbLine
 10
115.2441092876
 20
158.6905349015
 30
0.0
 11
118.9695784
 21
162.6255560635
 31
0.0
  0
LINE
  5
184
330
1F
100
AcDbEntity
  8
0
  6
Continuous
 62
     7
370
    15
100
AcDbLine
 10
117.048329964
 20
162.6325894116
 30
0.0
 11
114.2485329059
 21
159.6752930401
 31
0.0
  0
ARC
  5
185
330
1F
100
AcDbEntity
  8
0
  6
Continuous
 62
     7
370
    15
100
AcDbCircle
 10
137.2443122372
 20
181.9282465415
 30
0.0
 40
27.00000000000002
100
AcDbArc
 50
138.3501293785
 51
221.6498706215
  0
ARC
  5
186
330
1F
100
AcDbEntity
  8
0
  6
Continuous
 62
     7
370
    15
100
AcDbCircle
 10
116.3221544329
 20
200.5363983254
 30
0.0
 40
0.9999999999999803
100
AcDbArc
 50
318.3501293785
 51
43.433029043
  0
LINE
  5
187
330
1F
100
AcDbEntity
  8
0
  6
Continuous
 62
     7
370
    15
100
AcDbLine
 10
114.2485329059
 20
204.1811991452
 30
0.0
 11
117.048329964
 21
201.2239057539
 31
0.0
  0
ARC
  5
188
330
1F
100
AcDbEntity
  8
0
  6
Continuous
 62
     7
370
    15
100
AcDbCircle
 10
137.2443122372
 20
181.9282465415
 30
0.0
 40
31.99999999999996
100
AcDbArc
 50
133.433029043
 51
135.9405197465
  0
LINE
  5
189
330
1F
100
AcDbEntity
  8
0
  6
Continuous
 62
     7
370
    15
100
AcDbLine
 10
118.9695784
 20
201.230939102
 30
0.0
 11
115.2441092876
 21
205.1659572838
 31
0.0
  0
ARC
  5
18A
330
1F
100
AcDbEntity
  8
0
  6
Continuous
 62
     7
370
    15
100
AcDbCircle
 10
118.2433953541
 20
200.5434327506
 30
0.0
 40
1.00000000000003
100
AcDbArc
 50
315.5875134113
 51
43.4330290429
  0
ARC
  5
18B
330
1F
100
AcDbEntity
  8
0
  6
Continuous
 62
     7
370
    15
100
AcDbCircle
 10
137.2443122372
 20
181.9282465415
 30
0.0
 40
25.60000000000003
100
AcDbArc
 50
135.5875134113
 51
224.4124865887
  0
ARC
  5
18C
330
1F
100
AcDbEntity
  8
0
  6
Continuous
 62
     7
370
    15
100
AcDbCircle
 10
118.2433953541
 20
163.3130603324
 30
0.0
 40
0.9999999999999901
100
AcDbArc
 50
316.566970957
 51
44.4124865887
  0
ARC
  5
18D
330
1F
100
AcDbEntity
  8
0
  6
Continuous
 62
     7
370
    15
100
AcDbCircle
 10
137.2443122372
 20
181.9282465415
 30
0.0
 40
31.99999999999998
100
AcDbArc
 50
224.0594802535
 51
226.566970957
  0
ARC
  5
18E
330
1F
100
AcDbEntity
  8
0
  6
Continuous
 62
     7
370
    15
100
AcDbCircle
 10
116.3221544329
 20
163.3200947576
 30
0.0
 40
1.000000000000031
100
AcDbArc
 50
316.566970957
 51
41.6498706215
  0
ARC
  5
18F
330
1F
100
AcDbEntity
  8
0
  6
Continuous
 62
     7
370
    15
100
AcDbCircle
 10
137.2443122372
 20
181.9282465415
 30
0.0
 40
27.00000000000001
100
AcDbArc
 50
318.3501293785
 51
41.6498706215
  0
LINE
  5
190
330
1F
100
AcDbEntity
  8
0
  6
Continuous
 62
     7
370
    15
100
AcDbLine
 10
160.2400967029
 20
159.6752930401
 30
0.0
 11
157.4402936843
 21
162.6325894116
 31
0.0
  0
ARC
  5
191
330
1F
100
AcDbEntity
  8
0
  6
Continuous
 62
     7
370
    15
100
AcDbCircle
 10
137.2443122372
 20
181.9282465415
 30
0.0
 40
31.99999999999996
100
AcDbArc
 50
313.433029043
 51
315.9405197465
  0
LINE
  5
192
330
1F
100
AcDbEntity
  8
0
  6
Continuous
 62
     7
370
    15
100
AcDbLine
 10
155.5190512088
 20
162.6255560635
 30
0.0
 11
159.2445143608
 21
158.6905349015
 31
0.0
  0
ARC
  5
193
330
1F
100
AcDbEntity
  8
0
  6
Continuous
 62
     7
370
    15
100
AcDbCircle
 10
156.2452291203
 20
163.3130603324
 30
0.0
 40
1.0
100
AcDbArc
 50
135.5875134113
 51
223.433029043
  0
ARC
  5
194
330
1F
100
AcDbEntity
  8
0
  6
Continuous
 62
     7
370
    15
100
AcDbCircle
 10
137.2443122372
 20
181.9282465415
 30
0.0
 40
25.6
100
AcDbArc
 50
315.5875134113
 51
44.4124865887
  0
ARC
  5
195
330
1F
100
AcDbEntity
  8
0
  6
Continuous
 62
     7
370
    15
100
AcDbCircle
 10
156.2452291203
 20
200.5434327506
 30
0.0
 40
1.00000000000002
100
AcDbArc
 50
136.566970957
 51
224.4124865887
  0
LINE
  5
196
330
1F
100
AcDbEntity
  8
0
  6
Continuous
 62
     7
370
    15
100
AcDbLine
 10
159.2445143608
 20
205.1659572838
 30
0.0
 11
155.5190512088
 21
201.230939102
 31
0.0
  0
LINE
  5
197
330
1F
100
AcDbEntity
  8
0
  6
Continuous
 62
     7
370
    15
100
AcDbLine
 10
157.4402936843
 20
201.2239057539
 30
0.0
 11
160.2400967029
 21
204.1811991452
 31
0.0
  0
ARC
  5
198
330
1F
100
AcDbEntity
  8
0
  6
Continuous
 62
     7
370
    15
100
AcDbCircle
 10
158.1664700415
 20
200.5363983254
 30
0.0
 40
1.00000000000003
100
AcDbArc
 50
136.566970957
 51
221.6498706215
  0
ARC
  5
199
330
1F
100
AcDbEntity
  8
0
  6
Continuous
 62
     7
370
    15
100
AcDbCircle
 10
158.1664700415
 20
163.3200947576
 30
0.0
 40
0.9999999999999958
100
AcDbArc
 50
138.3501293785
 51
223.4330290429
  0
ARC
  5
19A
330
1F
100
AcDbEntity
  8
0
  6
Continuous
 62
     7
370
    15
100
AcDbCircle
 10
137.2443122372
 20
181.9282465415
 30
0.0
 40
31.99999999999994
100
AcDbArc
 50
44.0594802535
 51
46.566970957
  0
ARC
  5
19B
330
1F
100
AcDbEntity
  8
0
  6
Continuous
 62
     7
370
    15
100
AcDbCircle
 10
137.2443122372
 20
108.7282465415
 30
0.0
 40
31.99999999999999
100
AcDbArc
 50
44.0594802535
 51
46.566970957
  0
ARC
  5
19C
330
1F
100
AcDbEntity
  8
0
  6
Continuous
 62
     7
370
    15
100
AcDbCircle
 10
158.1664700415
 20
127.3363983254
 30
0.0
 40
1.00000000000002
100
AcDbArc
 50
136.566970957
 51
221.6498706215
  0
ARC
  5
19D
330
1F
100
AcDbEntity
  8
0
  6
Continuous
 62
     7
370
    15
100
AcDbCircle
 10
158.1664700415
 20
90.1200947576
 30
0.0
 40
0.9999999999999958
100
AcDbArc
 50
138.3501293785
 51
223.433029043
  0
LINE
  5
19E
330
1F
100
AcDbEntity
  8
0
  6
Continuous
 62
     7
370
    15
100
AcDbLine
 10
160.2400967029
 20
86.4752996682
 30
0.0
 11
157.4402936843
 21
89.4325841187
 31
0.0
  0
ARC
  5
19F
330
1F
100
AcDbEntity
  8
0
  6
Continuous
 62
     7
370
    15
100
AcDbCircle
 10
137.2443122372
 20
108.7282465415
 30
0.0
 40
31.99999999999995
100
AcDbArc
 50
313.433029043
 51
315.9405197465
  0
ARC
  5
1A0
330
1F
100
AcDbEntity
  8
0
  6
Continuous
 62
     7
370
    15
100
AcDbCircle
 10
137.2443122372
 20
108.7282465415
 30
0.0
 40
25.60000000000002
100
AcDbArc
 50
315.5875134113
 51
44.4124865887
  0
ARC
  5
1A1
330
1F
100
AcDbEntity
  8
0
  6
Continuous
 62
     7
370
    15
100
AcDbCircle
 10
156.2452291203
 20
90.1130603324
 30
0.0
 40
1.0
100
AcDbArc
 50
135.5875134113
 51
223.433029043
  0
LINE
  5
1A2
330
1F
100
AcDbEntity
  8
0
  6
Continuous
 62
     7
370
    15
100
AcDbLine
 10
159.2445143608
 20
131.9659579514
 30
0.0
 11
155.5190512088
 21
128.0309427498
 31
0.0
  0
LINE
  5
1A3
330
1F
100
AcDbEntity
  8
0
  6
Continuous
 62
     7
370
    15
100
AcDbLine
 10
155.5190512088
 20
89.4255507706
 30
0.0
 11
159.2445143608
 21
85.490535569
 31
0.0
  0
LINE
  5
1A4
330
1F
100
AcDbEntity
  8
0
  6
Continuous
 62
     7
370
    15
100
AcDbLine
 10
157.4402936843
 20
128.0239094017
 30
0.0
 11
160.2400967029
 21
130.9811938523
 31
0.0
  0
ARC
  5
1A5
330
1F
100
AcDbEntity
  8
0
  6
Continuous
 62
     7
370
    15
100
AcDbCircle
 10
137.2443122372
 20
108.7282465415
 30
0.0
 40
27.00000000000001
100
AcDbArc
 50
318.3501293785
 51
41.6498706215
  0
ARC
  5
1A6
330
1F
100
AcDbEntity
  8
0
  6
Continuous
 62
     7
370
    15
100
AcDbCircle
 10
156.2452291203
 20
127.3434327506
 30
0.0
 40
1.00000000000001
100
AcDbArc
 50
136.5669709571
 51
224.4124865887
  0
ARC
  5
1A7
330
1F
100
AcDbEntity
  8
0
  6
Continuous
 62
     7
370
    15
100
AcDbCircle
 10
230.6452291203
 20
200.5434327506
 30
0.0
 40
1.00000000000002
100
AcDbArc
 50
136.566970957
 51
224.4124865887
  0
ARC
  5
1A8
330
1F
100
AcDbEntity
  8
0
  6
Continuous
 62
     7
370
    15
100
AcDbCircle
 10
211.6443122372
 20
181.9282465415
 30
0.0
 40
25.60000000000002
100
AcDbArc
 50
315.5875134113
 51
44.4124865887
  0
ARC
  5
1A9
330
1F
100
AcDbEntity
  8
0
  6
Continuous
 62
     7
370
    15
100
AcDbCircle
 10
232.5664700415
 20
200.5363983254
 30
0.0
 40
0.9999999999999907
100
AcDbArc
 50
136.566970957
 51
221.6498706215
  0
LINE
  5
1AA
330
1F
100
AcDbEntity
  8
0
  6
Continuous
 62
     7
370
    15
100
AcDbLine
 10
234.6400968839
 20
159.6752930401
 30
0.0
 11
231.8402917233
 21
162.6325894116
 31
0.0
  0
LINE
  5
1AB
330
1F
100
AcDbEntity
  8
0
  6
Continuous
 62
     7
370
    15
100
AcDbLine
 10
229.9190507379
 20
162.6255560635
 30
0.0
 11
233.6445119341
 21
158.6905349015
 31
0.0
  0
ARC
  5
1AC
330
1F
100
AcDbEntity
  8
0
  6
Continuous
 62
     7
370
    15
100
AcDbCircle
 10
230.6452291203
 20
163.3130603324
 30
0.0
 40
1.000000000000081
100
AcDbArc
 50
135.5875134113
 51
223.433029043
  0
LINE
  5
1AD
330
1F
100
AcDbEntity
  8
0
  6
Continuous
 62
     7
370
    15
100
AcDbLine
 10
233.6445119341
 20
205.1659572838
 30
0.0
 11
229.9190507379
 21
201.230939102
 31
0.0
  0
ARC
  5
1AE
330
1F
100
AcDbEntity
  8
0
  6
Continuous
 62
     7
370
    15
100
AcDbCircle
 10
211.6443122372
 20
181.9282465415
 30
0.0
 40
31.99999999999987
100
AcDbArc
 50
44.0594802535
 51
46.566970957
  0
LINE
  5
1AF
330
1F
100
AcDbEntity
  8
0
  6
Continuous
 62
     7
370
    15
100
AcDbLine
 10
231.8402917233
 20
201.2239057539
 30
0.0
 11
234.6400968839
 21
204.1811991452
 31
0.0
  0
ARC
  5
1B0
330
1F
100
AcDbEntity
  8
0
  6
Continuous
 62
     7
370
    15
100
AcDbCircle
 10
232.5664700415
 20
163.3200947576
 30
0.0
 40
1.000000000000019
100
AcDbArc
 50
138.3501293785
 51
223.433029043
  0
ARC
  5
1B1
330
1F
100
AcDbEntity
  8
0
  6
Continuous
 62
     7
370
    15
100
AcDbCircle
 10
211.6443122372
 20
181.9282465415
 30
0.0
 40
27.00000000000007
100
AcDbArc
 50
318.3501293785
 51
41.6498706215
  0
ARC
  5
1B2
330
1F
100
AcDbEntity
  8
0
  6
Continuous
 62
     7
370
    15
100
AcDbCircle
 10
211.6443122372
 20
181.9282465415
 30
0.0
 40
32.00000000000005
100
AcDbArc
 50
313.433029043
 51
315.9405197465
  0
ARC
  5
1B3
330
1F
100
AcDbEntity
  8
0
  6
Continuous
 62
     7
370
    15
100
AcDbCircle
 10
211.6443122372
 20
181.9282465415
 30
0.0
 40
12.0000000000001
100
AcDbArc
 50
231.8500721364
 51
308.1499278636
  0
LINE
  5
1B4
330
1F
100
AcDbEntity
  8
0
  6
Continuous
 62
     7
370
    15
100
AcDbLine
 10
199.8212942031
 20
169.7128344296
 30
0.0
 11
202.9550948289
 21
172.4573720215
 31
0.0
  0
LINE
  5
1B5
330
1F
100
AcDbEntity
  8
0
  6
Continuous
 62
     7
370
    15
100
AcDbLine
 10
224.4331450311
 20
170.7279909371
 30
0.0
 11
220.3383230713
 21
174.3141699551
 31
0.0
  0
ARC
  5
1B6
330
1F
100
AcDbEntity
  8
0
  6
Continuous
 62
     7
370
    15
100
AcDbCircle
 10
203.6139342924
 20
171.70508509
 30
0.0
 40
1.000000000000016
100
AcDbArc
 50
51.8500721364
 51
131.2113628214
  0
ARC
  5
1B7
330
1F
100
AcDbEntity
  8
0
  6
Continuous
 62
     7
370
    15
100
AcDbCircle
 10
219.6794845157
 20
173.5618849395
 30
0.0
 40
1.000000000000017
100
AcDbArc
 50
48.7886371786
 51
133.8432074607
  0
ARC
  5
1B8
330
1F
100
AcDbEntity
  8
0
  6
Continuous
 62
     7
370
    15
100
AcDbCircle
 10
211.6443122372
 20
181.9282465415
 30
0.0
 40
17.00000000000014
100
AcDbArc
 50
314.0648114194
 51
318.7886371786
  0
LINE
  5
1B9
330
1F
100
AcDbEntity
  8
0
  6
Continuous
 62
     7
370
    15
100
AcDbLine
 10
220.3335293678
 20
172.4573720215
 30
0.0
 11
223.4673299936
 21
169.7128344296
 31
0.0
  0
ARC
  5
1BA
330
1F
100
AcDbEntity
  8
0
  6
Continuous
 62
     7
370
    15
100
AcDbCircle
 10
219.674690182
 20
171.70508509
 30
0.0
 40
1.000000000000019
100
AcDbArc
 50
48.7886371786
 51
128.1499278636
  0
ARC
  5
1BB
330
1F
100
AcDbEntity
  8
0
  6
Continuous
 62
     7
370
    15
100
AcDbCircle
 10
211.6443122372
 20
181.9282465415
 30
0.0
 40
17.00000000000016
100
AcDbArc
 50
221.2113628214
 51
225.9351885806
  0
LINE
  5
1BC
330
1F
100
AcDbEntity
  8
0
  6
Continuous
 62
     7
370
    15
100
AcDbLine
 10
202.9503026155
 20
174.3141699551
 30
0.0
 11
198.8554784206
 21
170.7279909371
 31
0.0
  0
ARC
  5
1BD
330
1F
100
AcDbEntity
  8
0
  6
Continuous
 62
     7
370
    15
100
AcDbCircle
 10
203.6091399587
 20
173.5618849395
 30
0.0
 40
1.000000000000013
100
AcDbArc
 50
46.1567925393
 51
131.2113628214
  0
ARC
  5
1BE
330
1F
100
AcDbEntity
  8
0
  6
Continuous
 62
     7
370
    15
100
AcDbCircle
 10
211.6443122372
 20
181.9282465415
 30
0.0
 40
10.6
100
AcDbArc
 50
226.1567925393
 51
313.8432074607
  0
LINE
  5
1BF
330
1F
100
AcDbEntity
  8
0
  6
Continuous
 62
     7
370
    15
100
AcDbLine
 10
124.4554826167
 20
119.9285019158
 30
0.0
 11
128.550297871
 21
116.3423288582
 31
0.0
  0
ARC
  5
1C0
330
1F
100
AcDbEntity
  8
0
  6
Continuous
 62
     7
370
    15
100
AcDbCircle
 10
137.2443122372
 20
108.7282465415
 30
0.0
 40
17.00000000000007
100
AcDbArc
 50
134.0648114194
 51
138.7886371786
  0
LINE
  5
1C1
330
1F
100
AcDbEntity
  8
0
  6
Continuous
 62
     7
370
    15
100
AcDbLine
 10
128.5550900844
 20
118.1991208313
 30
0.0
 11
125.4212924388
 21
120.9436524628
 31
0.0
  0
ARC
  5
1C2
330
1F
100
AcDbEntity
  8
0
  6
Continuous
 62
     7
370
    15
100
AcDbCircle
 10
129.2139342924
 20
118.951407993
 30
0.0
 40
0.9999999999999906
100
AcDbArc
 50
228.7886371786
 51
308.1499278636
  0
ARC
  5
1C3
330
1F
100
AcDbEntity
  8
0
  6
Continuous
 62
     7
370
    15
100
AcDbCircle
 10
145.274690182
 20
118.951407993
 30
0.0
 40
1.00000000000003
100
AcDbArc
 50
231.8500721364
 51
311.2113628214
  0
LINE
  5
1C4
330
1F
100
AcDbEntity
  8
0
  6
Continuous
 62
     7
370
    15
100
AcDbLine
 10
149.0673312095
 20
120.9436524628
 30
0.0
 11
145.9335276035
 21
118.1991208313
 31
0.0
  0
ARC
  5
1C5
330
1F
100
AcDbEntity
  8
0
  6
Continuous
 62
     7
370
    15
100
AcDbCircle
 10
137.2443122372
 20
108.7282465415
 30
0.0
 40
10.59999999999993
100
AcDbArc
 50
46.1567925393
 51
133.8432074607
  0
ARC
  5
1C6
330
1F
100
AcDbEntity
  8
0
  6
Continuous
 62
     7
370
    15
100
AcDbCircle
 10
137.2443122372
 20
108.7282465415
 30
0.0
 40
12.00000000000003
100
AcDbArc
 50
51.8500721364
 51
128.1499278636
  0
ARC
  5
1C7
330
1F
100
AcDbEntity
  8
0
  6
Continuous
 62
     7
370
    15
100
AcDbCircle
 10
129.2091399587
 20
117.0946081435
 30
0.0
 40
0.9999999999999859
100
AcDbArc
 50
228.7886371786
 51
313.8432074607
  0
ARC
  5
1C8
330
1F
100
AcDbEntity
  8
0
  6
Continuous
 62
     7
370
    15
100
AcDbCircle
 10
137.2443122372
 20
108.7282465415
 30
0.0
 40
17.00000000000009
100
AcDbArc
 50
41.2113628214
 51
45.9351885806
  0
LINE
  5
1C9
330
1F
100
AcDbEntity
  8
0
  6
Continuous
 62
     7
370
    15
100
AcDbLine
 10
145.9383257774
 20
116.3423288582
 30
0.0
 11
150.0331469921
 21
119.9285019158
 31
0.0
  0
ARC
  5
1CA
330
1F
100
AcDbEntity
  8
0
  6
Continuous
 62
     7
370
    15
100
AcDbCircle
 10
145.2794845157
 20
117.0946081435
 30
0.0
 40
1.000000000000016
100
AcDbArc
 50
226.1567925393
 51
311.2113628214
  0
CIRCLE
  5
1CB
330
1F
100
AcDbEntity
  8
0
  6
Continuous
 62
     7
370
    15
100
AcDbCircle
 10
211.6443122372
 20
108.7282465415
 30
0.0
 40
2.000000000000014
  0
CIRCLE
  5
1CC
330
1F
100
AcDbEntity
  8
0
  6
Continuous
 62
     7
370
    15
100
AcDbCircle
 10
211.6443122372
 20
181.9282465415
 30
0.0
 40
2.0
  0
ARC
  5
1CD
330
1F
100
AcDbEntity
  8
0
  6
Continuous
 62
     7
370
    15
100
AcDbCircle
 10
203.6091399587
 20
190.2946081435
 30
0.0
 40
1.000000000000016
100
AcDbArc
 50
228.7886371786
 51
313.8432074607
  0
LINE
  5
1CE
330
1F
100
AcDbEntity
  8
0
  6
Continuous
 62
     7
370
    15
100
AcDbLine
 10
198.8554784206
 20
193.1285042284
 30
0.0
 11
202.9503026155
 21
189.5423252104
 31
0.0
  0
ARC
  5
1CF
330
1F
100
AcDbEntity
  8
0
  6
Continuous
 62
     7
370
    15
100
AcDbCircle
 10
211.6443122372
 20
181.9282465415
 30
0.0
 40
10.59999999999984
100
AcDbArc
 50
46.1567925393
 51
133.8432074607
  0
ARC
  5
1D0
330
1F
100
AcDbEntity
  8
0
  6
Continuous
 62
     7
370
    15
100
AcDbCircle
 10
211.6443122372
 20
181.9282465415
 30
0.0
 40
16.99999999999999
100
AcDbArc
 50
134.0648114194
 51
138.7886371786
  0
LINE
  5
1D1
330
1F
100
AcDbEntity
  8
0
  6
Continuous
 62
     7
370
    15
100
AcDbLine
 10
202.9550948289
 20
191.399123144
 30
0.0
 11
199.8212942031
 21
194.1436577557
 31
0.0
  0
ARC
  5
1D2
330
1F
100
AcDbEntity
  8
0
  6
Continuous
 62
     7
370
    15
100
AcDbCircle
 10
219.6794845157
 20
190.2946081435
 30
0.0
 40
0.9999999999999757
100
AcDbArc
 50
226.1567925393
 51
311.2113628214
  0
LINE
  5
1D3
330
1F
100
AcDbEntity
  8
0
  6
Continuous
 62
     7
370
    15
100
AcDbLine
 10
220.3383230713
 20
189.5423252104
 30
0.0
 11
224.4331450311
 21
193.1285042284
 31
0.0
  0
LINE
  5
1D4
330
1F
100
AcDbEntity
  8
0
  6
Continuous
 62
     7
370
    15
100
AcDbLine
 10
223.4673299936
 20
194.1436577557
 30
0.0
 11
220.3335293678
 21
191.399123144
 31
0.0
  0
ARC
  5
1D5
330
1F
100
AcDbEntity
  8
0
  6
Continuous
 62
     7
370
    15
100
AcDbCircle
 10
211.6443122372
 20
181.9282465415
 30
0.0
 40
16.99999999999998
100
AcDbArc
 50
41.2113628214
 51
45.9351885806
  0
ARC
  5
1D6
330
1F
100
AcDbEntity
  8
0
  6
Continuous
 62
     7
370
    15
100
AcDbCircle
 10
203.6139342924
 20
192.151407993
 30
0.0
 40
0.9999999999999971
100
AcDbArc
 50
228.7886371786
 51
308.1499278636
  0
ARC
  5
1D7
330
1F
100
AcDbEntity
  8
0
  6
Continuous
 62
     7
370
    15
100
AcDbCircle
 10
211.6443122372
 20
181.9282465415
 30
0.0
 40
11.99999999999993
100
AcDbArc
 50
51.8500721364
 51
128.1499278636
  0
ARC
  5
1D8
330
1F
100
AcDbEntity
  8
0
  6
Continuous
 62
     7
370
    15
100
AcDbCircle
 10
219.674690182
 20
192.151407993
 30
0.0
 40
0.9999999999999944
100
AcDbArc
 50
231.8500721364
 51
311.2113628214
  0
LINE
  5
1D9
330
1F
100
AcDbEntity
  8
0
  6
Continuous
 62
     7
370
    15
100
AcDbLine
 10
268.8443132785
 20
216.4282459734
 30
0.0
 11
80.0443121341
 21
216.4282459734
 31
0.0
  0
LINE
  5
1DA
330
1F
100
AcDbEntity
  8
0
  6
Continuous
 62
     7
370
    15
100
AcDbLine
 10
268.8443132785
 20
74.2282498597
 30
0.0
 11
268.8443132785
 21
216.4282459734
 31
0.0
  0
LINE
  5
1DB
330
1F
100
AcDbEntity
  8
0
  6
Continuous
 62
     7
370
    15
100
AcDbLine
 10
80.0443121341
 20
74.2282498597
 30
0.0
 11
268.8443132785
 21
74.2282498597
 31
0.0
  0
LINE
  5
1DC
330
1F
100
AcDbEntity
  8
0
  6
Continuous
 62
     7
370
    15
100
AcDbLine
 10
80.0443121341
 20
216.4282459734
 30
0.0
 11
80.0443121341
 21
74.2282498597
 31
0.0
  0
SPLINE
  5
1DD
330
1F
100
AcDbEntity
  8
0
  6
Continuous
 62
     7
370
    15
100
AcDbSpline
210
0.0
220
0.0
230
1.0
 70
     8
 71
     3
 72
    12
 73
     8
 74
     0
 42
0.00000001
 43
0.00000001
 12
1.0
 22
0.0
 32
0.0
 13
1.0
 23
0.0
 33
0.0
 40
0.0
 40
0.0
 40
0.0
 40
0.0
 40
0.2265909125309947
 40
0.4532360935032783
 40
0.6798726262637875
 40
0.9065215168059242
 40
1.0
 40
1.0
 40
1.0
 40
1.0
 10
268.904311313954
 20
216.4282459734383
 30
0.0
 10
268.9683855378169
 20
216.4498442495141
 30
0.0
 10
269.0965493312961
 20
216.493045974445
 30
0.0
 10
269.264864527726
 20
216.5578586127549
 30
0.0
 10
269.387198956897
 20
216.6226399155702
 30
0.0
 10
269.4391194468191
 20
216.6748574227885
 30
0.0
 10
269.4431380623084
 20
216.7052338501227
 30
0.0
 10
269.4443115142255
 20
216.7141038893166
 30
0.0
  0
SPLINE
  5
1DE
330
1F
100
AcDbEntity
  8
0
  6
Continuous
 62
     7
370
    15
100
AcDbSpline
210
0.0
220
0.0
230
1.0
 70
     8
 71
     3
 72
    12
 73
     8
 74
     0
 42
0.00000001
 43
0.00000001
 12
1.0
 22
0.0
 32
0.0
 13
1.0
 23
0.0
 33
0.0
 40
0.0
 40
0.0
 40
0.0
 40
0.0
 40
0.2265896237583576
 40
0.4532269293566052
 40
0.6798696095741111
 40
0.9065137241416927
 40
1.0
 40
1.0
 40
1.0
 40
1.0
 10
269.4443115142255
 20
73.94238598331833
 30
0.0
 10
269.4376573307436
 20
73.96398759374888
 30
0.0
 10
269.4243475635227
 20
74.00719536029258
 30
0.0
 10
269.3209320593269
 20
74.0719938223338
 30
0.0
 10
269.1702284719012
 20
74.13677955440608
 30
0.0
 10
269.0207514016814
 20
74.18899875941598
 30
0.0
 10
268.9306292818928
 20
74.21937826553938
 30
0.0
 10
268.904311313954
 20
74.2282498596611
 30
0.0
  0
LINE
  5
1DF
330
1F
100
AcDbEntity
  8
0
  6
Continuous
 62
     7
370
    15
100
AcDbLine
 10
269.4443115142
 20
73.9423859833
 30
0.0
 11
269.204313412
 21
73.9423859833
 31
0.0
  0
SPLINE
  5
1E0
330
1F
100
AcDbEntity
  8
0
  6
Continuous
 62
     7
370
    15
100
AcDbSpline
210
0.0
220
0.0
230
1.0
 70
     8
 71
     3
 72
    11
 73
     7
 74
     0
 42
0.00000001
 43
0.00000001
 12
1.0
 22
0.0
 32
0.0
 13
1.0
 23
0.0
 33
0.0
 40
0.0
 40
0.0
 40
0.0
 40
0.0
 40
0.2253976817035661
 40
0.4768284252937784
 40
0.7283321415719456
 40
1.0
 40
1.0
 40
1.0
 40
1.0
 10
269.2043134120374
 20
73.94238598331833
 30
0.0
 10
269.2006427796498
 20
73.96383861598731
 30
0.0
 10
269.1928775628648
 20
74.00922162514988
 30
0.0
 10
269.1293313019779
 20
74.07864530293654
 30
0.0
 10
269.029400521362
 20
74.15242968208261
 30
0.0
 10
268.9470655051433
 20
74.20233531087335
 30
0.0
 10
268.904311313954
 20
74.2282498596611
 30
0.0
  0
SPLINE
  5
1E1
330
1F
100
AcDbEntity
  8
0
  6
Continuous
 62
     7
370
    15
100
AcDbSpline
210
0.0
220
0.0
230
1.0
 70
     8
 71
     3
 72
    11
 73
     7
 74
     0
 42
0.00000001
 43
0.00000001
 12
1.0
 22
0.0
 32
0.0
 13
1.0
 23
0.0
 33
0.0
 40
0.0
 40
0.0
 40
0.0
 40
0.0
 40
0.2500085060297202
 40
0.499999575490873
 40
0.7500088974824783
 40
0.9999999999999999
 40
0.9999999999999999
 40
0.9999999999999999
 40
0.9999999999999999
 10
268.904311313954
 20
74.2282498596611
 30
0.0
 10
268.9281330581599
 20
74.18893678165786
 30
0.0
 10
268.9757748851503
 20
74.1103133674988
 30
0.0
 10
269.0472429526504
 20
74.01114827986437
 30
0.0
 10
269.1187037125494
 20
73.94178472193713
 30
0.0
 10
269.1663479694397
 20
73.93275997208005
 30
0.0
 10
269.1901692298322
 20
73.92824776157758
 30
0.0
  0
LINE
  5
1E2
330
1F
100
AcDbEntity
  8
0
  6
Continuous
 62
     7
370
    15
100
AcDbLine
 10
269.1901692298
 20
73.6882436989
 30
0.0
 11
269.1901692298
 21
73.9282477616
 31
0.0
  0
SPLINE
  5
1E3
330
1F
100
AcDbEntity
  8
0
  6
Continuous
 62
     7
370
    15
100
AcDbSpline
210
0.0
220
0.0
230
1.0
 70
     8
 71
     3
 72
    11
 73
     7
 74
     0
 42
0.00000001
 43
0.00000001
 12
1.0
 22
0.0
 32
0.0
 13
1.0
 23
0.0
 33
0.0
 40
0.0
 40
0.0
 40
0.0
 40
0.0
 40
0.2499998080199005
 40
0.4999964762507498
 40
0.7500012676244012
 40
1.0
 40
1.0
 40
1.0
 40
1.0
 10
268.904311313954
 20
74.22824985966108
 30
0.0
 10
268.9281335127064
 20
74.15749000037424
 30
0.0
 10
268.9757776110245
 20
74.01597117048534
 30
0.0
 10
269.0472406199369
 20
73.83747258827154
 30
0.0
 10
269.1187060821973
 20
73.71259223787322
 30
0.0
 10
269.1663483730623
 20
73.69635981300674
 30
0.0
 10
269.1901692298322
 20
73.68824369892502
 30
0.0
  0
SPLINE
  5
1E4
330
1F
100
AcDbEntity
  8
0
  6
Continuous
 62
     7
370
    15
100
AcDbSpline
210
0.0
220
0.0
230
1.0
 70
     8
 71
     3
 72
    12
 73
     8
 74
     0
 42
0.00000001
 43
0.00000001
 12
1.0
 22
0.0
 32
0.0
 13
1.0
 23
0.0
 33
0.0
 40
0.0
 40
0.0
 40
0.0
 40
0.0
 40
0.1618018609650872
 40
0.3233291110883332
 40
0.4936901225178352
 40
0.7687054275154008
 40
1.0
 40
1.0
 40
1.0
 40
1.0
 10
247.0257260945707
 20
73.92824776157761
 30
0.0
 10
247.0308051053494
 20
73.93099919152857
 30
0.0
 10
247.0409545067868
 20
73.93649738169132
 30
0.0
 10
247.0764407694133
 20
73.9770612923165
 30
0.0
 10
247.1380575538929
 20
74.04322688055174
 30
0.0
 10
247.2262164327962
 20
74.12862926104057
 30
0.0
 10
247.2935520480567
 20
74.19701129572668
 30
0.0
 10
247.3243125823408
 20
74.22824985966108
 30
0.0
  0
LWPOLYLINE
  5
1E5
330
1F
100
AcDbEntity
  8
0
  6
Continuous
 62
     7
370
    15
100
AcDbPolyline
 90
        2
 70
   128
 43
0.0
 10
247.3243125823
 20
74.2282498597
 10
247.3243125823
 20
74.2282498597
  0
SPLINE
  5
1E6
330
1F
100
AcDbEntity
  8
0
  6
Continuous
 62
     7
370
    15
100
AcDbSpline
210
0.0
220
0.0
230
1.0
 70
     8
 71
     3
 72
    12
 73
     8
 74
     0
 42
0.00000001
 43
0.00000001
 12
1.0
 22
0.0
 32
0.0
 13
1.0
 23
0.0
 33
0.0
 40
0.0
 40
0.0
 40
0.0
 40
0.0
 40
0.1928975400678611
 40
0.3859769507102253
 40
0.5823052975726937
 40
0.7895758072860497
 40
1.0
 40
1.0
 40
1.0
 40
1.0
 10
247.0257260945707
 20
73.68824369892502
 30
0.0
 10
247.0312170047238
 20
73.69376886193535
 30
0.0
 10
247.042204002053
 20
73.70482439727364
 30
0.0
 10
247.0826931090908
 20
73.78958845899211
 30
0.0
 10
247.1479590212429
 20
73.91145874741514
 30
0.0
 10
247.2329905788488
 20
74.06161566061705
 30
0.0
 10
247.2937190768588
 20
74.17242624555935
 30
0.0
 10
247.3243125823408
 20
74.2282498596611
 30
0.0
  0
LINE
  5
1E7
330
1F
100
AcDbEntity
  8
0
  6
Continuous
 62
     7
370
    15
100
AcDbLine
 10
247.0257260946
 20
73.6882436989
 30
0.0
 11
247.0257260946
 21
73.9282477616
 31
0.0
  0
LINE
  5
1E8
330
1F
100
AcDbEntity
  8
0
  6
Continuous
 62
     7
370
    15
100
AcDbLine
 10
269.1901692298
 20
73.6882436989
 30
0.0
 11
247.0257260946
 21
73.6882436989
 31
0.0
  0
SPLINE
  5
1E9
330
1F
100
AcDbEntity
  8
0
  6
Continuous
 62
     7
370
    15
100
AcDbSpline
210
0.0
220
0.0
230
1.0
 70
     8
 71
     3
 72
    13
 73
     9
 74
     0
 42
0.00000001
 43
0.00000001
 12
1.0
 22
0.0
 32
0.0
 13
1.0
 23
0.0
 33
0.0
 40
0.0
 40
0.0
 40
0.0
 40
0.0
 40
0.2980597955309719
 40
0.4995082152290093
 40
0.6262761388679711
 40
0.7504313641946019
 40
0.8742544945985204
 40
0.9999999999999999
 40
0.9999999999999999
 40
0.9999999999999999
 40
0.9999999999999999
 10
247.3243125823408
 20
74.2282498596611
 30
0.0
 10
247.2838577180577
 20
74.18845558592268
 30
0.0
 10
247.2160607948953
 20
74.12176572385664
 30
0.0
 10
247.1390462264356
 20
74.04233004778489
 30
0.0
 10
247.0883683648067
 20
73.99435906883521
 30
0.0
 10
247.0536533254413
 20
73.96329874019928
 30
0.0
 10
247.0292237300609
 20
73.94063843105995
 30
0.0
 10
247.0259576123431
 20
73.93334244492047
 30
0.0
 10
247.0243119743734
 20
73.92966635212326
 30
0.0
  0
LINE
  5
1EA
330
1F
100
AcDbEntity
  8
0
  6
Continuous
 62
     7
370
    15
100
AcDbLine
 10
247.0243119744
 20
73.9296663521
 30
0.0
 11
246.7843123821
 21
73.9296663521
 31
0.0
  0
SPLINE
  5
1EB
330
1F
100
AcDbEntity
  8
0
  6
Continuous
 62
     7
370
    15
100
AcDbSpline
210
0.0
220
0.0
230
1.0
 70
     8
 71
     3
 72
    13
 73
     9
 74
     0
 42
0.00000001
 43
0.00000001
 12
1.0
 22
0.0
 32
0.0
 13
1.0
 23
0.0
 33
0.0
 40
0.0
 40
0.0
 40
0.0
 40
0.0
 40
0.2746552563086506
 40
0.4661728387363764
 40
0.5934784520050796
 40
0.7242503854196293
 40
0.8594689338599476
 40
1.0
 40
1.0
 40
1.0
 40
1.0
 10
247.3243125823408
 20
74.2282498596611
 30
0.0
 10
247.2511189273227
 20
74.18822766396585
 30
0.0
 10
247.1268872108215
 20
74.12029792240382
 30
0.0
 10
246.9878314938887
 20
74.04067790385653
 30
0.0
 10
246.8979341149458
 20
73.99351335747247
 30
0.0
 10
246.8361679546767
 20
73.96282820177598
 30
0.0
 10
246.7929086469356
 20
73.94046379736223
 30
0.0
 10
246.7872143718142
 20
73.93331143238112
 30
0.0
 10
246.7843123820692
 20
73.92966635212323
 30
0.0
  0
LINE
  5
1EC
330
1F
100
AcDbEntity
  8
0
  6
Continuous
 62
     7
370
    15
100
AcDbLine
 10
246.7843123821
 20
74.2282498597
 30
0.0
 11
246.7843123821
 21
73.9296663521
 31
0.0
  0
LINE
  5
1ED
330
1F
100
AcDbEntity
  8
0
  6
Continuous
 62
     7
370
    15
100
AcDbLine
 10
246.7843123821
 20
216.7268324612
 30
0.0
 11
246.7843123821
 21
216.4282459734
 31
0.0
  0
SPLINE
  5
1EE
330
1F
100
AcDbEntity
  8
0
  6
Continuous
 62
     7
370
    15
100
AcDbSpline
210
0.0
220
0.0
230
1.0
 70
     8
 71
     3
 72
    12
 73
     8
 74
     0
 42
0.00000001
 43
0.00000001
 12
1.0
 22
0.0
 32
0.0
 13
1.0
 23
0.0
 33
0.0
 40
0.0
 40
0.0
 40
0.0
 40
0.0
 40
0.1547748763079195
 40
0.2948795127238567
 40
0.5319035713865109
 40
0.7313637194789997
 40
1.0
 40
1.0
 40
1.0
 40
1.0
 10
246.7843123820692
 20
216.7268324612083
 30
0.0
 10
246.787800630743
 20
216.7209323613781
 30
0.0
 10
246.7944464966208
 20
216.7096913989915
 30
0.0
 10
246.8543948973541
 20
216.6797215194073
 30
0.0
 10
246.9629987772756
 20
216.6309063763411
 30
0.0
 10
247.1295952990886
 20
216.537316384575
 30
0.0
 10
247.2533124406646
 20
216.4680165295699
 30
0.0
 10
247.3243125823408
 20
216.4282459734383
 30
0.0
  0
LWPOLYLINE
  5
1EF
330
1F
100
AcDbEntity
  8
0
  6
Continuous
 62
     7
370
    15
100
AcDbPolyline
 90
        2
 70
   128
 43
0.0
 10
247.3243125823
 20
216.4282459734
 10
247.3243125823
 20
216.4282459734
  0
SPLINE
  5
1F0
330
1F
100
AcDbEntity
  8
0
  6
Continuous
 62
     7
370
    15
100
AcDbSpline
210
0.0
220
0.0
230
1.0
 70
     8
 71
     3
 72
    12
 73
     8
 74
     0
 42
0.00000001
 43
0.00000001
 12
1.0
 22
0.0
 32
0.0
 13
1.0
 23
0.0
 33
0.0
 40
0.0
 40
0.0
 40
0.0
 40
0.0
 40
0.3438936804564932
 40
0.5689521261379399
 40
0.7498637564702496
 40
0.9315257765181517
 40
0.9999999999999999
 40
0.9999999999999999
 40
0.9999999999999999
 40
0.9999999999999999
 10
247.3243125823408
 20
216.4282459734383
 30
0.0
 10
247.2783443409126
 20
216.4748112171212
 30
0.0
 10
247.2022925546143
 20
216.5518507089848
 30
0.0
 10
247.1098787663267
 20
216.642080574287
 30
0.0
 10
247.0577081691295
 20
216.7010417269694
 30
0.0
 10
247.0340723191889
 20
216.7258865861946
 30
0.0
 10
247.0275198248744
 20
216.7277393826277
 30
0.0
 10
247.0257260945707
 20
216.7282465814057
 30
0.0
  0
LINE
  5
1F1
330
1F
100
AcDbEntity
  8
0
  6
Continuous
 62
     7
370
    15
100
AcDbLine
 10
247.0257260946
 20
216.9682461737
 30
0.0
 11
247.0257260946
 21
216.7282465814
 31
0.0
  0
SPLINE
  5
1F2
330
1F
100
AcDbEntity
  8
0
  6
Continuous
 62
     7
370
    15
100
AcDbSpline
210
0.0
220
0.0
230
1.0
 70
     8
 71
     3
 72
    12
 73
     8
 74
     0
 42
0.00000001
 43
0.00000001
 12
1.0
 22
0.0
 32
0.0
 13
1.0
 23
0.0
 33
0.0
 40
0.0
 40
0.0
 40
0.0
 40
0.0
 40
0.2601265408423578
 40
0.5181434608800217
 40
0.7503378354135201
 40
0.9504984469374758
 40
1.0
 40
1.0
 40
1.0
 40
1.0
 10
247.3243125823408
 20
216.4282459734383
 30
0.0
 10
247.2865363374752
 20
216.4972717807598
 30
0.0
 10
247.2112902122996
 20
216.6347635975494
 30
0.0
 10
247.1106900407082
 20
216.8104334281541
 30
0.0
 10
247.0535020998225
 20
216.9283873415815
 30
0.0
 10
247.0323385522292
 20
216.9659225027147
 30
0.0
 10
247.0268202343489
 20
216.9678616841602
 30
0.0
 10
247.0257260945707
 20
216.9682461737098
 30
0.0
  0
SPLINE
  5
1F3
330
1F
100
AcDbEntity
  8
0
  6
Continuous
 62
     7
370
    15
100
AcDbSpline
210
0.0
220
0.0
230
1.0
 70
     8
 71
     3
 72
    11
 73
     7
 74
     0
 42
0.00000001
 43
0.00000001
 12
1.0
 22
0.0
 32
0.0
 13
1.0
 23
0.0
 33
0.0
 40
0.0
 40
0.0
 40
0.0
 40
0.0
 40
0.2254020892868932
 40
0.476839095718758
 40
0.7283503206147864
 40
1.0
 40
1.0
 40
1.0
 40
1.0
 10
268.904311313954
 20
216.4282459734383
 30
0.0
 10
268.9397159888369
 20
216.4496975377333
 30
0.0
 10
269.014614731829
 20
216.4950784148696
 30
0.0
 10
269.1133218560636
 20
216.5645107395316
 30
0.0
 10
269.1887302191765
 20
216.6382875914558
 30
0.0
 10
269.1989874017509
 20
216.6881914600796
 30
0.0
 10
269.2043134120374
 20
216.7141038893166
 30
0.0
  0
LINE
  5
1F4
330
1F
100
AcDbEntity
  8
0
  6
Continuous
 62
     7
370
    15
100
AcDbLine
 10
269.4443115142
 20
216.7141038893
 30
0.0
 11
269.204313412
 21
216.7141038893
 31
0.0
  0
SPLINE
  5
1F5
330
1F
100
AcDbEntity
  8
0
  6
Continuous
 62
     7
370
    15
100
AcDbSpline
210
0.0
220
0.0
230
1.0
 70
     8
 71
     3
 72
    11
 73
     7
 74
     0
 42
0.00000001
 43
0.00000001
 12
1.0
 22
0.0
 32
0.0
 13
1.0
 23
0.0
 33
0.0
 40
0.0
 40
0.0
 40
0.0
 40
0.0
 40
0.2499897003851813
 40
0.5000015532047382
 40
0.7499983606450134
 40
1.0
 40
1.0
 40
1.0
 40
1.0
 10
269.1901692298322
 20
216.7282465814057
 30
0.0
 10
269.1663479123476
 20
216.7237364013603
 30
0.0
 10
269.1187031664907
 20
216.7147156416073
 30
0.0
 10
269.0472422080082
 20
216.6453469850757
 30
0.0
 10
268.9757770967413
 20
216.5461789886481
 30
0.0
 10
268.9281333950237
 20
216.4675572317714
 30
0.0
 10
268.904311313954
 20
216.4282459734383
 30
0.0
  0
SPLINE
  5
1F6
330
1F
100
AcDbEntity
  8
0
  6
Continuous
 62
     7
370
    15
100
AcDbSpline
210
0.0
220
0.0
230
1.0
 70
     8
 71
     3
 72
    11
 73
     7
 74
     0
 42
0.00000001
 43
0.00000001
 12
1.0
 22
0.0
 32
0.0
 13
1.0
 23
0.0
 33
0.0
 40
0.0
 40
0.0
 40
0.0
 40
0.0
 40
0.2500001749437566
 40
0.5000025757472011
 40
0.7499990587472336
 40
0.9999999999999999
 40
0.9999999999999999
 40
0.9999999999999999
 40
0.9999999999999999
 10
269.1901692298322
 20
216.9682461737098
 30
0.0
 10
269.1663484836623
 20
216.9601290133819
 30
0.0
 10
269.1187067792358
 20
216.9438946204555
 30
0.0
 10
269.0472401783468
 20
216.8190227030649
 30
0.0
 10
268.9757774490357
 20
216.6405240657458
 30
0.0
 10
268.9281335005878
 20
216.4990057581592
 30
0.0
 10
268.904311313954
 20
216.4282459734383
 30
0.0
  0
LINE
  5
1F7
330
1F
100
AcDbEntity
  8
0
  6
Continuous
 62
     7
370
    15
100
AcDbLine
 10
269.1901692298
 20
216.9682461737
 30
0.0
 11
269.1901692298
 21
216.7282465814
 31
0.0
  0
LINE
  5
1F8
330
1F
100
AcDbEntity
  8
0
  6
Continuous
 62
     7
370
    15
100
AcDbLine
 10
247.0257260946
 20
216.9682461737
 30
0.0
 11
269.1901692298
 21
216.9682461737
 31
0.0
  0
LINE
  5
1F9
330
1F
100
AcDbEntity
  8
0
  6
Continuous
 62
     7
370
    15
100
AcDbLine
 10
247.0243119744
 20
216.7268324612
 30
0.0
 11
246.7843123821
 21
216.7268324612
 31
0.0
  0
SPLINE
  5
1FA
330
1F
100
AcDbEntity
  8
0
  6
Continuous
 62
     7
370
    15
100
AcDbSpline
210
0.0
220
0.0
230
1.0
 70
     8
 71
     3
 72
    13
 73
     9
 74
     0
 42
0.00000001
 43
0.00000001
 12
1.0
 22
0.0
 32
0.0
 13
1.0
 23
0.0
 33
0.0
 40
0.0
 40
0.0
 40
0.0
 40
0.0
 40
0.1397382521459751
 40
0.2685282227836721
 40
0.387526940537082
 40
0.4982940238635157
 40
0.7071321812126854
 40
1.0
 40
1.0
 40
1.0
 40
1.0
 10
247.0243119743734
 20
216.7268324612083
 30
0.0
 10
247.0262686959493
 20
216.7209202692134
 30
0.0
 10
247.0300288329138
 20
216.7095590965581
 30
0.0
 10
247.0568454538469
 20
216.6854667921678
 30
0.0
 10
247.0915302758924
 20
216.6570180053003
 30
0.0
 10
247.14180257417
 20
216.6125358884337
 30
0.0
 10
247.2180293875156
 20
216.5353810950206
 30
0.0
 10
247.2851382128347
 20
216.467734350193
 30
0.0
 10
247.3243125823408
 20
216.4282459734383
 30
0.0
  0
SPLINE
  5
1FB
330
1F
100
AcDbEntity
  8
0
  6
Continuous
 62
     7
370
    15
100
AcDbSpline
210
0.0
220
0.0
230
1.0
 70
     8
 71
     3
 72
    12
 73
     8
 74
     0
 42
0.00000001
 43
0.00000001
 12
1.0
 22
0.0
 32
0.0
 13
1.0
 23
0.0
 33
0.0
 40
0.0
 40
0.0
 40
0.0
 40
0.0
 40
0.2265885325614942
 40
0.4532372637421487
 40
0.6798714674415832
 40
0.9065204946648051
 40
0.9999999999999999
 40
0.9999999999999999
 40
0.9999999999999999
 40
0.9999999999999999
 10
79.98431409868296
 20
74.2282498596611
 30
0.0
 10
79.92024179733242
 20
74.20664775396504
 30
0.0
 10
79.79208017230452
 20
74.16343780346105
 30
0.0
 10
79.62375284786143
 20
74.09864628405678
 30
0.0
 10
79.50142563448783
 20
74.0338527221472
 30
0.0
 10
79.44949942734434
 20
73.98163985429458
 30
0.0
 10
79.44548126587175
 20
73.95125774620773
 30
0.0
 10
79.44430793794685
 20
73.9423859833183
 30
0.0
  0
SPLINE
  5
1FC
330
1F
100
AcDbEntity
  8
0
  6
Continuous
 62
     7
370
    15
100
AcDbSpline
210
0.0
220
0.0
230
1.0
 70
     8
 71
     3
 72
    12
 73
     8
 74
     0
 42
0.00000001
 43
0.00000001
 12
1.0
 22
0.0
 32
0.0
 13
1.0
 23
0.0
 33
0.0
 40
0.0
 40
0.0
 40
0.0
 40
0.0
 40
0.2265896284286612
 40
0.453225759413228
 40
0.6798708085165183
 40
0.9065082895453949
 40
1.0
 40
1.0
 40
1.0
 40
1.0
 10
79.44430793794687
 20
216.7141038893166
 30
0.0
 10
79.45096815335053
 20
216.6925065608414
 30
0.0
 10
79.46428995102103
 20
216.6493074715127
 30
0.0
 10
79.56768645842655
 20
216.5844893643969
 30
0.0
 10
79.71839699574576
 20
216.5197137664698
 30
0.0
 10
79.86787019363673
 20
216.467489687134
 30
0.0
 10
79.95799400749853
 20
216.4371163228351
 30
0.0
 10
79.98431409868296
 20
216.4282459734383
 30
0.0
  0
LWPOLYLINE
  5
1FD
330
1F
100
AcDbEntity
  8
0
  6
Continuous
 62
     7
370
    15
100
AcDbPolyline
 90
        2
 70
   128
 43
0.0
 10
101.5643068698
 20
74.2282498597
 10
101.5643068698
 20
74.2282498597
  0
SPLINE
  5
1FE
330
1F
100
AcDbEntity
  8
0
  6
Continuous
 62
     7
370
    15
100
AcDbSpline
210
0.0
220
0.0
230
1.0
 70
     8
 71
     3
 72
    12
 73
     8
 74
     0
 42
0.00000001
 43
0.00000001
 12
1.0
 22
0.0
 32
0.0
 13
1.0
 23
0.0
 33
0.0
 40
0.0
 40
0.0
 40
0.0
 40
0.0
 40
0.3439043822520867
 40
0.5689501913284842
 40
0.7498602412860687
 40
0.9315254068367577
 40
1.0
 40
1.0
 40
1.0
 40
1.0
 10
101.5643068698316
 20
74.2282498596611
 30
0.0
 10
101.6102776733735
 20
74.18168302766666
 30
0.0
 10
101.6863310731567
 20
74.1046435674559
 30
0.0
 10
101.7787438708429
 20
74.0144141421215
 30
0.0
 10
101.8309170914043
 20
73.9554610289509
 30
0.0
 10
101.8545438945547
 20
73.93059337713137
 30
0.0
 10
101.8611059627207
 20
73.92875186652395
 30
0.0
 10
101.8629022982984
 20
73.92824776157761
 30
0.0
  0
LINE
  5
1FF
330
1F
100
AcDbEntity
  8
0
  6
Continuous
 62
     7
370
    15
100
AcDbLine
 10
101.8629022983
 20
73.6882436989
 30
0.0
 11
101.8629022983
 21
73.9282477616
 31
0.0
  0
SPLINE
  5
200
330
1F
100
AcDbEntity
  8
0
  6
Continuous
 62
     7
370
    15
100
AcDbSpline
210
0.0
220
0.0
230
1.0
 70
     8
 71
     3
 72
    12
 73
     8
 74
     0
 42
0.00000001
 43
0.00000001
 12
1.0
 22
0.0
 32
0.0
 13
1.0
 23
0.0
 33
0.0
 40
0.0
 40
0.0
 40
0.0
 40
0.0
 40
0.2601307458807083
 40
0.518146845105402
 40
0.750339752726852
 40
0.9504977296040025
 40
1.0
 40
1.0
 40
1.0
 40
1.0
 10
101.5643068698316
 20
74.2282498596611
 30
0.0
 10
101.6020854502188
 20
74.15922311607258
 30
0.0
 10
101.6773355025487
 20
74.02173075892271
 30
0.0
 10
101.7779308312334
 20
73.84605940779643
 30
0.0
 10
101.8351257841866
 20
73.72809889081736
 30
0.0
 10
101.8562715329018
 20
73.69058086850703
 30
0.0
 10
101.861805108904
 20
73.6886304291929
 30
0.0
 10
101.8629022982984
 20
73.68824369892502
 30
0.0
  0
SPLINE
  5
201
330
1F
100
AcDbEntity
  8
0
  6
Continuous
 62
     7
370
    15
100
AcDbSpline
210
0.0
220
0.0
230
1.0
 70
     8
 71
     3
 72
    11
 73
     7
 74
     0
 42
0.00000001
 43
0.00000001
 12
1.0
 22
0.0
 32
0.0
 13
1.0
 23
0.0
 33
0.0
 40
0.0
 40
0.0
 40
0.0
 40
0.0
 40
0.2499925180431022
 40
0.5000004245065363
 40
0.7499929094938311
 40
1.0
 40
1.0
 40
1.0
 40
1.0
 10
79.69845022234018
 20
73.92824776157761
 30
0.0
 10
79.72227273459036
 20
73.93275986199495
 30
0.0
 10
79.76991922549793
 20
73.9417843405743
 30
0.0
 10
79.84137881903483
 20
74.01114897192893
 30
0.0
 10
79.9128510331294
 20
74.11031257101094
 30
0.0
 10
79.96049261294473
 20
74.18893666454662
 30
0.0
 10
79.98431409868296
 20
74.2282498596611
 30
0.0
  0
SPLINE
  5
202
330
1F
100
AcDbEntity
  8
0
  6
Continuous
 62
     7
370
    15
100
AcDbSpline
210
0.0
220
0.0
230
1.0
 70
     8
 71
     3
 72
    11
 73
     7
 74
     0
 42
0.00000001
 43
0.00000001
 12
1.0
 22
0.0
 32
0.0
 13
1.0
 23
0.0
 33
0.0
 40
0.0
 40
0.0
 40
0.0
 40
0.0
 40
0.2499992701970993
 40
0.5000035237372289
 40
0.7500007298029007
 40
1.0
 40
1.0
 40
1.0
 40
1.0
 10
79.69845022234018
 20
73.68824369892502
 30
0.0
 10
79.72227239070403
 20
73.69635973770471
 30
0.0
 10
79.76991720228926
 20
73.71259197704465
 30
0.0
 10
79.8413807694695
 20
73.83747306161192
 30
0.0
 10
79.91284865367469
 20
74.01597062575311
 30
0.0
 10
79.96049221811802
 20
74.15748992028081
 30
0.0
 10
79.98431409868296
 20
74.2282498596611
 30
0.0
  0
LINE
  5
203
330
1F
100
AcDbEntity
  8
0
  6
Continuous
 62
     7
370
    15
100
AcDbLine
 10
79.6984502223
 20
73.6882436989
 30
0.0
 11
79.6984502223
 21
73.9282477616
 31
0.0
  0
LINE
  5
204
330
1F
100
AcDbEntity
  8
0
  6
Continuous
 62
     7
370
    15
100
AcDbLine
 10
101.8643089679
 20
73.9296663521
 30
0.0
 11
102.1043130306
 21
73.9296663521
 31
0.0
  0
SPLINE
  5
205
330
1F
100
AcDbEntity
  8
0
  6
Continuous
 62
     7
370
    15
100
AcDbSpline
210
0.0
220
0.0
230
1.0
 70
     8
 71
     3
 72
    13
 73
     9
 74
     0
 42
0.00000001
 43
0.00000001
 12
1.0
 22
0.0
 32
0.0
 13
1.0
 23
0.0
 33
0.0
 40
0.0
 40
0.0
 40
0.0
 40
0.0
 40
0.1397370708662471
 40
0.2685196579409267
 40
0.3875253761003846
 40
0.4982811669040348
 40
0.707113788072143
 40
1.0
 40
1.0
 40
1.0
 40
1.0
 10
101.8643089679151
 20
73.92966635212326
 30
0.0
 10
101.8623521700483
 20
73.93557912321532
 30
0.0
 10
101.8585919746283
 20
73.9469411423365
 30
0.0
 10
101.831784685764
 20
73.97102572051077
 30
0.0
 10
101.7970884835711
 20
73.99947486281746
 30
0.0
 10
101.7468279483873
 20
74.04395618809345
 30
0.0
 10
101.6705964359561
 20
74.12111239796997
 30
0.0
 10
101.6034845073065
 20
74.18875969343726
 30
0.0
 10
101.5643068698316
 20
74.2282498596611
 30
0.0
  0
SPLINE
  5
206
330
1F
100
AcDbEntity
  8
0
  6
Continuous
 62
     7
370
    15
100
AcDbSpline
210
0.0
220
0.0
230
1.0
 70
     8
 71
     3
 72
    12
 73
     8
 74
     0
 42
0.00000001
 43
0.00000001
 12
1.0
 22
0.0
 32
0.0
 13
1.0
 23
0.0
 33
0.0
 40
0.0
 40
0.0
 40
0.0
 40
0.0
 40
0.1547731554048496
 40
0.2948772308645002
 40
0.5318974917249728
 40
0.7313541252476793
 40
1.0
 40
1.0
 40
1.0
 40
1.0
 10
102.1043130305677
 20
73.92966635212326
 30
0.0
 10
102.1008268859544
 20
73.9355671907476
 30
0.0
 10
102.0941850063126
 20
73.94680959870114
 30
0.0
 10
102.0342267552142
 20
73.97676752884189
 30
0.0
 10
101.9256292673586
 20
74.02558606333494
 30
0.0
 10
101.759029393191
 20
74.11917462215219
 30
0.0
 10
101.6353099474453
 20
74.18847696939157
 30
0.0
 10
101.5643068698316
 20
74.2282498596611
 30
0.0
  0
LINE
  5
207
330
1F
100
AcDbEntity
  8
0
  6
Continuous
 62
     7
370
    15
100
AcDbLine
 10
101.8629022983
 20
73.6882436989
 30
0.0
 11
79.6984502223
 21
73.6882436989
 31
0.0
  0
SPLINE
  5
208
330
1F
100
AcDbEntity
  8
0
  6
Continuous
 62
     7
370
    15
100
AcDbSpline
210
0.0
220
0.0
230
1.0
 70
     8
 71
     3
 72
    11
 73
     7
 74
     0
 42
0.00000001
 43
0.00000001
 12
1.0
 22
0.0
 32
0.0
 13
1.0
 23
0.0
 33
0.0
 40
0.0
 40
0.0
 40
0.0
 40
0.0
 40
0.2253971297611801
 40
0.4768357738537549
 40
0.7283463973031187
 40
1.0
 40
1.0
 40
1.0
 40
1.0
 10
79.98431409868294
 20
74.22824985966108
 30
0.0
 10
79.9489109977479
 20
74.20679706420539
 30
0.0
 10
79.87401445825294
 20
74.16141290011551
 30
0.0
 10
79.77529911003253
 20
74.09199050410409
 30
0.0
 10
79.69989152847518
 20
74.01820968557053
 30
0.0
 10
79.68963678663489
 20
73.96830108126802
 30
0.0
 10
79.68431200059946
 20
73.94238598331833
 30
0.0
  0
LINE
  5
209
330
1F
100
AcDbEntity
  8
0
  6
Continuous
 62
     7
370
    15
100
AcDbLine
 10
79.4443079379
 20
73.9423859833
 30
0.0
 11
79.6843120006
 21
73.9423859833
 31
0.0
  0
LINE
  5
20A
330
1F
100
AcDbEntity
  8
0
  6
Continuous
 62
     7
370
    15
100
AcDbLine
 10
102.1043130306
 20
73.9296663521
 30
0.0
 11
102.1043130306
 21
74.2282498597
 31
0.0
  0
LINE
  5
20B
330
1F
100
AcDbEntity
  8
0
  6
Continuous
 62
     7
370
    15
100
AcDbLine
 10
79.4443079379
 20
216.7141038893
 30
0.0
 11
79.6843120006
 21
216.7141038893
 31
0.0
  0
SPLINE
  5
20C
330
1F
100
AcDbEntity
  8
0
  6
Continuous
 62
     7
370
    15
100
AcDbSpline
210
0.0
220
0.0
230
1.0
 70
     8
 71
     3
 72
    11
 73
     7
 74
     0
 42
0.00000001
 43
0.00000001
 12
1.0
 22
0.0
 32
0.0
 13
1.0
 23
0.0
 33
0.0
 40
0.0
 40
0.0
 40
0.0
 40
0.0
 40
0.2253962569772871
 40
0.4768352420307013
 40
0.7283315862676861
 40
1.0
 40
1.0
 40
1.0
 40
1.0
 10
79.68431200059946
 20
216.7141038893166
 30
0.0
 10
79.68798253636645
 20
216.6926526283084
 30
0.0
 10
79.69574770884222
 20
216.6472715852872
 30
0.0
 10
79.75929705785143
 20
216.577844194586
 30
0.0
 10
79.85922110429956
 20
216.5040579696559
 30
0.0
 10
79.941558188936
 20
216.4541579830116
 30
0.0
 10
79.98431409868296
 20
216.4282459734383
 30
0.0
  0
SPLINE
  5
20D
330
1F
100
AcDbEntity
  8
0
  6
Continuous
 62
     7
370
    15
100
AcDbSpline
210
0.0
220
0.0
230
1.0
 70
     8
 71
     3
 72
    11
 73
     7
 74
     0
 42
0.00000001
 43
0.00000001
 12
1.0
 22
0.0
 32
0.0
 13
1.0
 23
0.0
 33
0.0
 40
0.0
 40
0.0
 40
0.0
 40
0.0
 40
0.2500002238830985
 40
0.4999984467638161
 40
0.7500088840536576
 40
0.9999999999999999
 40
0.9999999999999999
 40
0.9999999999999999
 40
0.9999999999999999
 10
79.98431409868296
 20
216.4282459734383
 30
0.0
 10
79.96049227606846
 20
216.4675573488753
 30
0.0
 10
79.91284882150946
 20
216.5461797851012
 30
0.0
 10
79.84137956365456
 20
216.6453462930133
 30
0.0
 10
79.76991977156135
 20
216.7147160229612
 30
0.0
 10
79.72227279167998
 20
216.7237365114491
 30
0.0
 10
79.69845022234017
 20
216.7282465814057
 30
0.0
  0
LINE
  5
20E
330
1F
100
AcDbEntity
  8
0
  6
Continuous
 62
     7
370
    15
100
AcDbLine
 10
79.6984502223
 20
216.9682461737
 30
0.0
 11
79.6984502223
 21
216.7282465814
 31
0.0
  0
SPLINE
  5
20F
330
1F
100
AcDbEntity
  8
0
  6
Continuous
 62
     7
370
    15
100
AcDbSpline
210
0.0
220
0.0
230
1.0
 70
     8
 71
     3
 72
    11
 73
     7
 74
     0
 42
0.00000001
 43
0.00000001
 12
1.0
 22
0.0
 32
0.0
 13
1.0
 23
0.0
 33
0.0
 40
0.0
 40
0.0
 40
0.0
 40
0.0
 40
0.2500004034240039
 40
0.4999974242662827
 40
0.7499992872378247
 40
1.0
 40
1.0
 40
1.0
 40
1.0
 10
79.98431409868296
 20
216.4282459734383
 30
0.0
 10
79.96049223023888
 20
216.4990058382535
 30
0.0
 10
79.91284881566793
 20
216.6405246104815
 30
0.0
 10
79.84138121107561
 20
216.8190222297325
 30
0.0
 10
79.76991650523802
 20
216.9438948812793
 30
0.0
 10
79.72227228010577
 20
216.9601290886814
 30
0.0
 10
79.69845022234018
 20
216.9682461737098
 30
0.0
  0
SPLINE
  5
210
330
1F
100
AcDbEntity
  8
0
  6
Continuous
 62
     7
370
    15
100
AcDbSpline
210
0.0
220
0.0
230
1.0
 70
     8
 71
     3
 72
    12
 73
     8
 74
     0
 42
0.00000001
 43
0.00000001
 12
1.0
 22
0.0
 32
0.0
 13
1.0
 23
0.0
 33
0.0
 40
0.0
 40
0.0
 40
0.0
 40
0.0
 40
0.161803720729314
 40
0.3233329879555026
 40
0.493679460406637
 40
0.7687011304375987
 40
1.0
 40
1.0
 40
1.0
 40
1.0
 10
101.8629022982984
 20
216.7282465814057
 30
0.0
 10
101.8578187464547
 20
216.7254973614635
 30
0.0
 10
101.8476602655515
 20
216.7200035848406
 30
0.0
 10
101.8121853186926
 20
216.6794254905955
 30
0.0
 10
101.7505656770694
 20
216.6132753580201
 30
0.0
 10
101.6624180485761
 20
216.5278554202675
 30
0.0
 10
101.5950720645287
 20
216.4594809872724
 30
0.0
 10
101.5643068698316
 20
216.4282459734383
 30
0.0
  0
LWPOLYLINE
  5
211
330
1F
100
AcDbEntity
  8
0
  6
Continuous
 62
     7
370
    15
100
AcDbPolyline
 90
        2
 70
   128
 43
0.0
 10
101.5643068698
 20
216.4282459734
 10
101.5643068698
 20
216.4282459734
  0
SPLINE
  5
212
330
1F
100
AcDbEntity
  8
0
  6
Continuous
 62
     7
370
    15
100
AcDbSpline
210
0.0
220
0.0
230
1.0
 70
     8
 71
     3
 72
    12
 73
     8
 74
     0
 42
0.00000001
 43
0.00000001
 12
1.0
 22
0.0
 32
0.0
 13
1.0
 23
0.0
 33
0.0
 40
0.0
 40
0.0
 40
0.0
 40
0.0
 40
0.1928961328700384
 40
0.3859786938124288
 40
0.5823099939658191
 40
0.7895726194536631
 40
1.0
 40
1.0
 40
1.0
 40
1.0
 10
101.8629022982984
 20
216.9682461737098
 30
0.0
 10
101.8574110102858
 20
216.9627245993556
 30
0.0
 10
101.8464231271025
 20
216.9516761142183
 30
0.0
 10
101.805934321859
 20
216.8669007531699
 30
0.0
 10
101.7406618231658
 20
216.7450337578162
 30
0.0
 10
101.6556317361552
 20
216.5948789830057
 30
0.0
 10
101.5949018713549
 20
216.4840701688275
 30
0.0
 10
101.5643068698316
 20
216.4282459734383
 30
0.0
  0
LINE
  5
213
330
1F
100
AcDbEntity
  8
0
  6
Continuous
 62
     7
370
    15
100
AcDbLine
 10
101.8629022983
 20
216.9682461737
 30
0.0
 11
101.8629022983
 21
216.7282465814
 31
0.0
  0
SPLINE
  5
214
330
1F
100
AcDbEntity
  8
0
  6
Continuous
 62
     7
370
    15
100
AcDbSpline
210
0.0
220
0.0
230
1.0
 70
     8
 71
     3
 72
    13
 73
     9
 74
     0
 42
0.00000001
 43
0.00000001
 12
1.0
 22
0.0
 32
0.0
 13
1.0
 23
0.0
 33
0.0
 40
0.0
 40
0.0
 40
0.0
 40
0.0
 40
0.2980582167049412
 40
0.4995135423748481
 40
0.6262717332550167
 40
0.7504292154497475
 40
0.87425203122448
 40
1.0
 40
1.0
 40
1.0
 40
1.0
 10
101.5643068698316
 20
216.4282459734383
 30
0.0
 10
101.604763544735
 20
216.4680372605134
 30
0.0
 10
101.6725645844685
 20
216.5347231817482
 30
0.0
 10
101.7495845574182
 20
216.6141576927321
 30
0.0
 10
101.8002536565148
 20
216.6621292431752
 30
0.0
 10
101.8349660673379
 20
216.6931962070894
 30
0.0
 10
101.8593977541812
 20
216.7158503695005
 30
0.0
 10
101.8626634995079
 20
216.7231529868604
 30
0.0
 10
101.8643089679151
 20
216.7268324612083
 30
0.0
  0
LINE
  5
215
330
1F
100
AcDbEntity
  8
0
  6
Continuous
 62
     7
370
    15
100
AcDbLine
 10
101.8643089679
 20
216.7268324612
 30
0.0
 11
102.1043130306
 21
216.7268324612
 31
0.0
  0
SPLINE
  5
216
330
1F
100
AcDbEntity
  8
0
  6
Continuous
 62
     7
370
    15
100
AcDbSpline
210
0.0
220
0.0
230
1.0
 70
     8
 71
     3
 72
    13
 73
     9
 74
     0
 42
0.00000001
 43
0.00000001
 12
1.0
 22
0.0
 32
0.0
 13
1.0
 23
0.0
 33
0.0
 40
0.0
 40
0.0
 40
0.0
 40
0.0
 40
0.2746527894238225
 40
0.4661736219634572
 40
0.5934749118015364
 40
0.7242494191061417
 40
0.8594674088525539
 40
1.0
 40
1.0
 40
1.0
 40
1.0
 10
101.5643068698316
 20
216.4282459734383
 30
0.0
 10
101.6375009143056
 20
216.4682648269828
 30
0.0
 10
101.7617346163925
 20
216.5361896201108
 30
0.0
 10
101.9007925707236
 20
216.6158120311798
 30
0.0
 10
101.9906843625197
 20
216.6629739709301
 30
0.0
 10
102.0524537698951
 20
216.6936668823795
 30
0.0
 10
102.0957100407434
 20
216.7160248952217
 30
0.0
 10
102.1014087564274
 20
216.7231839465575
 30
0.0
 10
102.1043130305677
 20
216.7268324612083
 30
0.0
  0
LINE
  5
217
330
1F
100
AcDbEntity
  8
0
  6
Continuous
 62
     7
370
    15
100
AcDbLine
 10
102.1043130306
 20
216.4282459734
 30
0.0
 11
102.1043130306
 21
216.7268324612
 31
0.0
  0
LINE
  5
218
330
1F
100
AcDbEntity
  8
0
  6
Continuous
 62
     7
370
    15
100
AcDbLine
 10
79.6984502223
 20
216.9682461737
 30
0.0
 11
101.8629022983
 21
216.9682461737
 31
0.0
  0
LINE
  5
219
330
1F
100
AcDbEntity
  8
0
  6
Continuous
 62
     7
370
    15
100
AcDbLine
 10
246.6443122474
 20
74.1282451867
 30
0.0
 11
246.6443122474
 21
74.2282498597
 31
0.0
  0
LINE
  5
21A
330
1F
100
AcDbEntity
  8
0
  6
Continuous
 62
     7
370
    15
100
AcDbLine
 10
102.2443124202
 20
74.2282498597
 30
0.0
 11
102.2443124202
 21
74.1282451867
 31
0.0
  0
LINE
  5
21B
330
1F
100
AcDbEntity
  8
0
  6
Continuous
 62
     7
370
    15
100
AcDbLine
 10
246.6443122474
 20
74.1282451867
 30
0.0
 11
246.6443122474
 21
73.5882509468
 31
0.0
  0
LINE
  5
21C
330
1F
100
AcDbEntity
  8
0
  6
Continuous
 62
     7
370
    15
100
AcDbLine
 10
102.2443124202
 20
73.5882509468
 30
0.0
 11
102.2443124202
 21
74.1282451867
 31
0.0
  0
LINE
  5
21D
330
1F
100
AcDbEntity
  8
0
  6
Continuous
 62
     7
370
    15
100
AcDbLine
 10
102.2443124202
 20
216.5282461761
 30
0.0
 11
102.2443124202
 21
216.4282459734
 31
0.0
  0
LINE
  5
21E
330
1F
100
AcDbEntity
  8
0
  6
Continuous
 62
     7
370
    15
100
AcDbLine
 10
246.6443122474
 20
216.4282459734
 30
0.0
 11
246.6443122474
 21
216.5282461761
 31
0.0
  0
LINE
  5
21F
330
1F
100
AcDbEntity
  8
0
  6
Continuous
 62
     7
370
    15
100
AcDbLine
 10
102.2443124202
 20
216.5282461761
 30
0.0
 11
102.2443124202
 21
217.0682463764
 31
0.0
  0
LINE
  5
220
330
1F
100
AcDbEntity
  8
0
  6
Continuous
 62
     7
370
    15
100
AcDbLine
 10
246.6443122474
 20
217.0682463764
 30
0.0
 11
246.6443122474
 21
216.5282461761
 31
0.0
  0
LINE
  5
221
330
1F
100
AcDbEntity
  8
0
  6
Continuous
 62
     7
370
    15
100
AcDbLine
 10
74.4443127063
 20
73.1882441758
 30
0.0
 11
78.5943099407
 21
73.1882441758
 31
0.0
  0
LINE
  5
222
330
1F
100
AcDbEntity
  8
0
  6
Continuous
 62
     7
370
    15
100
AcDbLine
 10
74.4443127063
 20
217.468247187
 30
0.0
 11
74.4443127063
 21
73.1882441758
 31
0.0
  0
LINE
  5
223
330
1F
100
AcDbEntity
  8
0
  6
Continuous
 62
     7
370
    15
100
AcDbLine
 10
78.5943099407
 20
217.468247187
 30
0.0
 11
74.4443127063
 21
217.468247187
 31
0.0
  0
LINE
  5
224
330
1F
100
AcDbEntity
  8
0
  6
Continuous
 62
     7
370
    15
100
AcDbLine
 10
79.4443079379
 20
217.468247187
 30
0.0
 11
79.4443079379
 21
73.1882441758
 31
0.0
  0
LINE
  5
225
330
1F
100
AcDbEntity
  8
0
  6
Continuous
 62
     7
370
    15
100
AcDbLine
 10
79.4343062786
 20
217.468247187
 30
0.0
 11
79.4443079379
 21
217.468247187
 31
0.0
  0
LINE
  5
226
330
1F
100
AcDbEntity
  8
0
  6
Continuous
 62
     7
370
    15
100
AcDbLine
 10
79.4443079379
 20
73.1882441758
 30
0.0
 11
79.4343062786
 21
73.1882441758
 31
0.0
  0
LINE
  5
227
330
1F
100
AcDbEntity
  8
0
  6
Continuous
 62
     7
370
    15
100
AcDbLine
 10
270.2943124917
 20
73.1882441758
 30
0.0
 11
274.4443127063
 21
73.1882441758
 31
0.0
  0
LINE
  5
228
330
1F
100
AcDbEntity
  8
0
  6
Continuous
 62
     7
370
    15
100
AcDbLine
 10
274.4443127063
 20
73.1882441758
 30
0.0
 11
274.4443127063
 21
217.468247187
 31
0.0
  0
LINE
  5
229
330
1F
100
AcDbEntity
  8
0
  6
Continuous
 62
     7
370
    15
100
AcDbLine
 10
274.4443127063
 20
217.468247187
 30
0.0
 11
270.2943124917
 21
217.468247187
 31
0.0
  0
LINE
  5
22A
330
1F
100
AcDbEntity
  8
0
  6
Continuous
 62
     7
370
    15
100
AcDbLine
 10
269.4543131736
 20
73.1882441758
 30
0.0
 11
269.4443115142
 21
73.1882441758
 31
0.0
  0
LINE
  5
22B
330
1F
100
AcDbEntity
  8
0
  6
Continuous
 62
     7
370
    15
100
AcDbLine
 10
269.4443115142
 20
73.1882441758
 30
0.0
 11
269.4443115142
 21
217.468247187
 31
0.0
  0
LINE
  5
22C
330
1F
100
AcDbEntity
  8
0
  6
Continuous
 62
     7
370
    15
100
AcDbLine
 10
269.4443115142
 20
217.468247187
 30
0.0
 11
269.4543131736
 21
217.468247187
 31
0.0
  0
LINE
  5
22D
330
1F
100
AcDbEntity
  8
0
  6
Continuous
 62
     7
370
    15
100
AcDbLine
 10
118.4443065074
 20
228.2351236759
 30
0.0
 11
118.4443065074
 21
235.2213695614
 31
0.0
  0
LINE
  5
22E
330
1F
100
AcDbEntity
  8
0
  6
Continuous
 62
     7
370
    15
100
AcDbLine
 10
74.4443127063
 20
225.0782463668
 30
0.0
 11
74.4443127063
 21
238.3782465416
 31
0.0
  0
LINE
  5
22F
330
1F
100
AcDbEntity
  8
0
  6
Continuous
 62
     7
370
    15
100
AcDbLine
 10
274.4443127063
 20
238.3782465416
 30
0.0
 11
274.4443127063
 21
225.0782463668
 31
0.0
  0
LINE
  5
230
330
1F
100
AcDbEntity
  8
0
  6
Continuous
 62
     7
370
    15
100
AcDbLine
 10
230.4443121997
 20
235.2213695614
 30
0.0
 11
230.4443121997
 21
228.2351236759
 31
0.0
  0
LINE
  5
231
330
1F
100
AcDbEntity
  8
0
  6
Continuous
 62
     7
370
    15
100
AcDbLine
 10
274.4443127063
 20
224.2282468794
 30
0.0
 11
74.4443127063
 21
224.2282468794
 31
0.0
  0
LINE
  5
232
330
1F
100
AcDbEntity
  8
0
  6
Continuous
 62
     7
370
    15
100
AcDbLine
 10
274.4443127063
 20
225.0782463668
 30
0.0
 11
274.4443127063
 21
224.2282468794
 31
0.0
  0
LINE
  5
233
330
1F
100
AcDbEntity
  8
0
  6
Continuous
 62
     7
370
    15
100
AcDbLine
 10
74.4443127063
 20
224.2282468794
 30
0.0
 11
74.4443127063
 21
225.0782463668
 31
0.0
  0
LINE
  5
234
330
1F
100
AcDbEntity
  8
0
  6
Continuous
 62
     7
370
    15
100
AcDbLine
 10
74.4443127063
 20
239.2282465442
 30
0.0
 11
274.4443127063
 21
239.2282465442
 31
0.0
  0
LINE
  5
235
330
1F
100
AcDbEntity
  8
0
  6
Continuous
 62
     7
370
    15
100
AcDbLine
 10
274.4443127063
 20
239.2282465442
 30
0.0
 11
274.4443127063
 21
238.3782465416
 31
0.0
  0
LINE
  5
236
330
1F
100
AcDbEntity
  8
0
  6
Continuous
 62
     7
370
    15
100
AcDbLine
 10
74.4443127063
 20
238.3782465416
 30
0.0
 11
74.4443127063
 21
239.2282465442
 31
0.0
  0
LINE
  5
237
330
1F
100
AcDbEntity
  8
0
  6
Continuous
 62
     7
370
    15
100
AcDbLine
 10
274.4443127063
 20
223.7782467125
 30
0.0
 11
274.4443127063
 21
224.2282468794
 31
0.0
  0
LINE
  5
238
330
1F
100
AcDbEntity
  8
0
  6
Continuous
 62
     7
370
    15
100
AcDbLine
 10
74.4443127063
 20
224.2282468794
 30
0.0
 11
74.4443127063
 21
223.7782467125
 31
0.0
  0
LINE
  5
239
330
1F
100
AcDbEntity
  8
0
  6
Continuous
 62
     7
370
    15
100
AcDbLine
 10
269.4043108371
 20
217.9182458638
 30
0.0
 11
269.4043108371
 21
217.0682463764
 31
0.0
  0
LINE
  5
23A
330
1F
100
AcDbEntity
  8
0
  6
Continuous
 62
     7
370
    15
100
AcDbLine
 10
79.4843145755
 20
217.0682463764
 30
0.0
 11
269.4043108371
 21
217.0682463764
 31
0.0
  0
LINE
  5
23B
330
1F
100
AcDbEntity
  8
0
  6
Continuous
 62
     7
370
    15
100
AcDbLine
 10
79.4843145755
 20
217.0682463764
 30
0.0
 11
79.4843145755
 21
217.9182458638
 31
0.0
  0
LINE
  5
23C
330
1F
100
AcDbEntity
  8
0
  6
Continuous
 62
     7
370
    15
100
AcDbLine
 10
74.4443127063
 20
217.468247187
 30
0.0
 11
79.4343062786
 21
217.468247187
 31
0.0
  0
LINE
  5
23D
330
1F
100
AcDbEntity
  8
0
  6
Continuous
 62
     7
370
    15
100
AcDbLine
 10
74.4443127063
 20
223.7782467125
 30
0.0
 11
74.4443127063
 21
217.468247187
 31
0.0
  0
LINE
  5
23E
330
1F
100
AcDbEntity
  8
0
  6
Continuous
 62
     7
370
    15
100
AcDbLine
 10
274.4443127063
 20
217.468247187
 30
0.0
 11
274.4443127063
 21
223.7782467125
 31
0.0
  0
LINE
  5
23F
330
1F
100
AcDbEntity
  8
0
  6
Continuous
 62
     7
370
    15
100
AcDbLine
 10
269.4543131736
 20
217.468247187
 30
0.0
 11
274.4443127063
 21
217.468247187
 31
0.0
  0
LINE
  5
240
330
1F
100
AcDbEntity
  8
0
  6
Continuous
 62
     7
370
    15
100
AcDbLine
 10
269.4543131736
 20
217.468247187
 30
0.0
 11
269.4543131736
 21
217.9182458638
 31
0.0
  0
ARC
  5
241
330
1F
100
AcDbEntity
  8
0
  6
Continuous
 62
     7
370
    15
100
AcDbCircle
 10
269.4293122372
 20
217.9182465415
 30
0.0
 40
0.0250000000000341
100
AcDbArc
 50
0.0
 51
180.0
  0
LINE
  5
242
330
1F
100
AcDbEntity
  8
0
  6
Continuous
 62
     7
370
    15
100
AcDbLine
 10
79.4343062786
 20
217.9182458638
 30
0.0
 11
79.4343062786
 21
217.468247187
 31
0.0
  0
ARC
  5
243
330
1F
100
AcDbEntity
  8
0
  6
Continuous
 62
     7
370
    15
100
AcDbCircle
 10
79.4593122372
 20
217.9182465415
 30
0.0
 40
0.0250000000000199
100
AcDbArc
 50
0.0000000003
 51
180.0
  0
LINE
  5
244
330
1F
100
AcDbEntity
  8
0
  6
Continuous
 62
     7
370
    15
100
AcDbLine
 10
79.4843145755
 20
72.7382410286
 30
0.0
 11
79.4843145755
 21
73.5882509468
 31
0.0
  0
LINE
  5
245
330
1F
100
AcDbEntity
  8
0
  6
Continuous
 62
     7
370
    15
100
AcDbLine
 10
79.4843145755
 20
73.5882509468
 30
0.0
 11
269.4043108371
 21
73.5882509468
 31
0.0
  0
LINE
  5
246
330
1F
100
AcDbEntity
  8
0
  6
Continuous
 62
     7
370
    15
100
AcDbLine
 10
269.4043108371
 20
73.5882509468
 30
0.0
 11
269.4043108371
 21
72.7382410286
 31
0.0
  0
LINE
  5
247
330
1F
100
AcDbEntity
  8
0
  6
Continuous
 62
     7
370
    15
100
AcDbLine
 10
274.4443127063
 20
61.6276133774
 30
0.0
 11
274.4443127063
 21
59.2276204346
 31
0.0
  0
LINE
  5
248
330
1F
100
AcDbEntity
  8
0
  6
Continuous
 62
     7
370
    15
100
AcDbLine
 10
74.4443127063
 20
59.2276204346
 30
0.0
 11
74.4443127063
 21
61.6276133774
 31
0.0
  0
LINE
  5
249
330
1F
100
AcDbEntity
  8
0
  6
Continuous
 62
     7
370
    15
100
AcDbLine
 10
274.4443127063
 20
61.6276133774
 30
0.0
 11
274.4443127063
 21
73.1882441758
 31
0.0
  0
LINE
  5
24A
330
1F
100
AcDbEntity
  8
0
  6
Continuous
 62
     7
370
    15
100
AcDbLine
 10
79.4343062786
 20
73.1882441758
 30
0.0
 11
74.4443127063
 21
73.1882441758
 31
0.0
  0
LINE
  5
24B
330
1F
100
AcDbEntity
  8
0
  6
Continuous
 62
     7
370
    15
100
AcDbLine
 10
274.4443127063
 20
73.1882441758
 30
0.0
 11
269.4543131736
 21
73.1882441758
 31
0.0
  0
LINE
  5
24C
330
1F
100
AcDbEntity
  8
0
  6
Continuous
 62
     7
370
    15
100
AcDbLine
 10
269.4543131736
 20
73.1882441758
 30
0.0
 11
269.4543131736
 21
72.7382410286
 31
0.0
  0
ARC
  5
24D
330
1F
100
AcDbEntity
  8
0
  6
Continuous
 62
     7
370
    15
100
AcDbCircle
 10
79.4593122372
 20
72.7382465415
 30
0.0
 40
0.0249999999999915
100
AcDbArc
 50
180.0
 51
0.0
  0
ARC
  5
24E
330
1F
100
AcDbEntity
  8
0
  6
Continuous
 62
     7
370
    15
100
AcDbCircle
 10
269.4293122372
 20
72.7382465415
 30
0.0
 40
0.0250000000000341
100
AcDbArc
 50
180.0
 51
0.0
  0
LINE
  5
24F
330
1F
100
AcDbEntity
  8
0
  6
Continuous
 62
     7
370
    15
100
AcDbLine
 10
74.4443127063
 20
73.1882441758
 30
0.0
 11
74.4443127063
 21
61.6276133774
 31
0.0
  0
LINE
  5
250
330
1F
100
AcDbEntity
  8
0
  6
Continuous
 62
     7
370
    15
100
AcDbLine
 10
79.4343062786
 20
72.7382410286
 30
0.0
 11
79.4343062786
 21
73.1882441758
 31
0.0
  0
LINE
  5
251
330
1F
100
AcDbEntity
  8
0
  6
Continuous
 62
     7
370
    15
100
AcDbLine
 10
124.3643113521
 20
239.2282465442
 30
0.0
 11
124.3643113521
 21
254.2470622776
 31
0.0
  0
LINE
  5
252
330
1F
100
AcDbEntity
  8
0
  6
Continuous
 62
     7
370
    15
100
AcDbLine
 10
184.3643137363
 20
254.2470622776
 30
0.0
 11
184.3643137363
 21
239.2282465442
 31
0.0
  0
LINE
  5
253
330
1F
100
AcDbEntity
  8
0
  6
Continuous
 62
     7
370
    15
100
AcDbLine
 10
124.3643113521
 20
254.7370616315
 30
0.0
 11
184.3643137363
 21
254.7370616315
 31
0.0
  0
LINE
  5
254
330
1F
100
AcDbEntity
  8
0
  6
Continuous
 62
     7
370
    15
100
AcDbLine
 10
124.3643113521
 20
254.2470622776
 30
0.0
 11
124.3643113521
 21
254.7370616315
 31
0.0
  0
LINE
  5
255
330
1F
100
AcDbEntity
  8
0
  6
Continuous
 62
     7
370
    15
100
AcDbLine
 10
184.3643137363
 20
254.7370616315
 30
0.0
 11
184.3643137363
 21
254.2470622776
 31
0.0
  0
LINE
  5
256
330
1F
100
AcDbEntity
  8
0
  6
Continuous
 62
     7
370
    15
100
AcDbLine
 10
205.1243134883
 20
227.8470624207
 30
0.0
 11
210.1243117002
 21
227.8470624207
 31
0.0
  0
ARC
  5
257
330
1F
100
AcDbEntity
  8
0
  6
Continuous
 62
     7
370
    15
100
AcDbCircle
 10
205.1243122372
 20
227.5970621777
 30
0.0
 40
0.25
100
AcDbArc
 50
90.0
 51
185.1469296859
  0
ARC
  5
258
330
1F
100
AcDbEntity
  8
0
  6
Continuous
 62
     7
370
    15
100
AcDbCircle
 10
210.1243122372
 20
227.5970621777
 30
0.0
 40
0.2499999999999874
100
AcDbArc
 50
10.1531504391
 51
90.0
  0
LINE
  5
259
330
1F
100
AcDbEntity
  8
0
  6
Continuous
 62
     7
370
    15
100
AcDbLine
 10
189.1243108657
 20
227.8470624207
 30
0.0
 11
194.1243120578
 21
227.8470624207
 31
0.0
  0
ARC
  5
25A
330
1F
100
AcDbEntity
  8
0
  6
Continuous
 62
     7
370
    15
100
AcDbCircle
 10
189.1243122372
 20
227.5970621777
 30
0.0
 40
0.2500000000000258
100
AcDbArc
 50
90.0
 51
217.7496884323
  0
ARC
  5
25B
330
1F
100
AcDbEntity
  8
0
  6
Continuous
 62
     7
370
    15
100
AcDbCircle
 10
194.1243122372
 20
227.5970621777
 30
0.0
 40
0.250000000000005
100
AcDbArc
 50
331.5529324866
 51
90.0
  0
LINE
  5
25C
330
1F
100
AcDbEntity
  8
0
  6
Continuous
 62
     7
370
    15
100
AcDbLine
 10
180.1843115238
 20
231.1970625041
 30
0.0
 11
180.1843115238
 21
227.411770445
 31
0.0
  0
LINE
  5
25D
330
1F
100
AcDbEntity
  8
0
  6
Continuous
 62
     7
370
    15
100
AcDbLine
 10
230.4443121997
 20
231.1970625041
 30
0.0
 11
215.5446314362
 21
231.1970625041
 31
0.0
  0
LINE
  5
25E
330
1F
100
AcDbEntity
  8
0
  6
Continuous
 62
     7
370
    15
100
AcDbLine
 10
213.3439936784
 20
231.1970625041
 30
0.0
 11
198.5446312574
 21
231.1970625041
 31
0.0
  0
LINE
  5
25F
330
1F
100
AcDbEntity
  8
0
  6
Continuous
 62
     7
370
    15
100
AcDbLine
 10
196.3439949897
 20
231.1970625041
 30
0.0
 11
180.1843115238
 21
231.1970625041
 31
0.0
  0
LINE
  5
260
330
1F
100
AcDbEntity
  8
0
  6
Continuous
 62
     7
370
    15
100
AcDbLine
 10
181.1243125347
 20
227.8470624207
 30
0.0
 11
186.1243137267
 21
227.8470624207
 31
0.0
  0
ARC
  5
261
330
1F
100
AcDbEntity
  8
0
  6
Continuous
 62
     7
370
    15
100
AcDbCircle
 10
181.1243122372
 20
227.5970621777
 30
0.0
 40
0.25
100
AcDbArc
 50
90.0
 51
227.2467298347
  0
ARC
  5
262
330
1F
100
AcDbEntity
  8
0
  6
Continuous
 62
     7
370
    15
100
AcDbCircle
 10
186.1243122372
 20
227.5970621777
 30
0.0
 40
0.2499999999999931
100
AcDbArc
 50
318.5111640026
 51
90.0
  0
LINE
  5
263
330
1F
100
AcDbEntity
  8
0
  6
Continuous
 62
     7
370
    15
100
AcDbLine
 10
198.8176413921
 20
227.8470624207
 30
0.0
 11
202.1243133691
 21
227.8470624207
 31
0.0
  0
ARC
  5
264
330
1F
100
AcDbEntity
  8
0
  6
Continuous
 62
     7
370
    15
100
AcDbCircle
 10
202.1243122372
 20
227.5970621777
 30
0.0
 40
0.2500000000000023
100
AcDbArc
 50
348.6746335042
 51
90.0
  0
LINE
  5
265
330
1F
100
AcDbEntity
  8
0
  6
Continuous
 62
     7
370
    15
100
AcDbLine
 10
128.6643096355
 20
231.1970625041
 30
0.0
 11
118.4443065074
 21
231.1970625041
 31
0.0
  0
LINE
  5
266
330
1F
100
AcDbEntity
  8
0
  6
Continuous
 62
     7
370
    15
100
AcDbLine
 10
128.6643096355
 20
227.7879651605
 30
0.0
 11
128.6643096355
 21
231.1970625041
 31
0.0
  0
LWPOLYLINE
  5
267
330
1F
100
AcDbEntity
  8
0
  6
Continuous
 62
     7
370
    15
100
AcDbPolyline
 90
        3
 70
   128
 43
0.0
 10
127.8683849719
 20
227.8013717352
 10
127.8199860004
 20
227.8280321477
 10
127.7243086246
 20
227.8470624207
  0
LINE
  5
268
330
1F
100
AcDbEntity
  8
0
  6
Continuous
 62
     7
370
    15
100
AcDbLine
 10
127.7243086246
 20
227.8470624207
 30
0.0
 11
125.2524444011
 21
227.8470624207
 31
0.0
  0
LINE
  5
269
330
1F
100
AcDbEntity
  8
0
  6
Continuous
 62
     7
370
    15
100
AcDbLine
 10
203.473187342
 20
235.8970621569
 30
0.0
 11
199.3105330614
 21
235.8970621569
 31
0.0
  0
LINE
  5
26A
330
1F
100
AcDbEntity
  8
0
  6
Continuous
 62
     7
370
    15
100
AcDbLine
 10
195.68568553
 20
235.8970621569
 30
0.0
 11
176.0378607658
 21
235.8970621569
 31
0.0
  0
LINE
  5
26B
330
1F
100
AcDbEntity
  8
0
  6
Continuous
 62
     7
370
    15
100
AcDbLine
 10
172.8755422977
 20
235.8970621569
 30
0.0
 11
153.178203955
 21
235.8970621569
 31
0.0
  0
LINE
  5
26C
330
1F
100
AcDbEntity
  8
0
  6
Continuous
 62
     7
370
    15
100
AcDbLine
 10
149.5994695571
 20
235.8970621569
 30
0.0
 11
145.4154380706
 21
235.8970621569
 31
0.0
  0
LINE
  5
26D
330
1F
100
AcDbEntity
  8
0
  6
Continuous
 62
     7
370
    15
100
AcDbLine
 10
218.4823610929
 20
235.6970621242
 30
0.0
 11
216.361669555
 21
235.6970621242
 31
0.0
  0
LINE
  5
26E
330
1F
100
AcDbEntity
  8
0
  6
Continuous
 62
     7
370
    15
100
AcDbLine
 10
212.7288484124
 20
235.6970621242
 30
0.0
 11
198.9033349899
 21
235.6970621242
 31
0.0
  0
LINE
  5
26F
330
1F
100
AcDbEntity
  8
0
  6
Continuous
 62
     7
370
    15
100
AcDbLine
 10
196.0119404939
 20
235.6970621242
 30
0.0
 11
175.8000084308
 21
235.6970621242
 31
0.0
  0
LINE
  5
270
330
1F
100
AcDbEntity
  8
0
  6
Continuous
 62
     7
370
    15
100
AcDbLine
 10
173.1008001712
 20
235.6970621242
 30
0.0
 11
152.8693267253
 21
235.6970621242
 31
0.0
  0
LINE
  5
271
330
1F
100
AcDbEntity
  8
0
  6
Continuous
 62
     7
370
    15
100
AcDbLine
 10
149.9722846893
 20
235.6970621242
 30
0.0
 11
136.1456641105
 21
235.6970621242
 31
0.0
  0
LINE
  5
272
330
1F
100
AcDbEntity
  8
0
  6
Continuous
 62
     7
370
    15
100
AcDbLine
 10
132.5789042858
 20
235.6970621242
 30
0.0
 11
130.4062673
 21
235.6970621242
 31
0.0
  0
LINE
  5
273
330
1F
100
AcDbEntity
  8
0
  6
Continuous
 62
     7
370
    15
100
AcDbLine
 10
267.2643133548
 20
73.5882509468
 30
0.0
 11
267.2643133548
 21
73.6882436989
 31
0.0
  0
LINE
  5
274
330
1F
100
AcDbEntity
  8
0
  6
Continuous
 62
     7
370
    15
100
AcDbLine
 10
81.6243120578
 20
73.6882436989
 30
0.0
 11
81.6243120578
 21
73.5882509468
 31
0.0
  0
LINE
  5
275
330
1F
100
AcDbEntity
  8
0
  6
Continuous
 62
     7
370
    15
100
AcDbLine
 10
246.6443122474
 20
73.9593971489
 30
0.0
 11
246.7658476082
 21
73.9593971489
 31
0.0
  0
LINE
  5
276
330
1F
100
AcDbEntity
  8
0
  6
Continuous
 62
     7
370
    15
100
AcDbLine
 10
247.0498704461
 20
73.9593971489
 30
0.0
 11
247.0605270115
 21
73.9593971489
 31
0.0
  0
LINE
  5
277
330
1F
100
AcDbEntity
  8
0
  6
Continuous
 62
     7
370
    15
100
AcDbLine
 10
101.8277713207
 20
73.9593971489
 30
0.0
 11
101.843328133
 21
73.9593971489
 31
0.0
  0
LINE
  5
278
330
1F
100
AcDbEntity
  8
0
  6
Continuous
 62
     7
370
    15
100
AcDbLine
 10
102.1227785495
 20
73.9593971489
 30
0.0
 11
102.2443124202
 21
73.9593971489
 31
0.0
  0
LINE
  5
279
330
1F
100
AcDbEntity
  8
0
  6
Continuous
 62
     7
370
    15
100
AcDbLine
 10
129.0843078044
 20
227.950767052
 30
0.0
 11
129.0843078044
 21
227.7809839664
 31
0.0
  0
ARC
  5
27A
330
1F
100
AcDbEntity
  8
0
  6
Continuous
 62
     7
370
    15
100
AcDbCircle
 10
129.4806446195
 20
227.9509046305
 30
0.0
 40
0.3963368389959077
100
AcDbArc
 50
180.0198888101
 51
205.4889533132
  0
LINE
  5
27B
330
1F
100
AcDbEntity
  8
0
  6
Continuous
 62
     7
370
    15
100
AcDbLine
 10
146.486491814
 20
227.5483000992
 30
0.0
 11
149.5088704971
 21
227.5483000992
 31
0.0
  0
LINE
  5
27C
330
1F
100
AcDbEntity
  8
0
  6
Continuous
 62
     7
370
    15
100
AcDbLine
 10
153.2301970867
 20
227.5483000992
 30
0.0
 11
172.8306421188
 21
227.5483000992
 31
0.0
  0
LINE
  5
27D
330
1F
100
AcDbEntity
  8
0
  6
Continuous
 62
     7
370
    15
100
AcDbLine
 10
176.0370024589
 20
227.5483000992
 30
0.0
 11
179.3943115619
 21
227.5483000992
 31
0.0
  0
LINE
  5
27E
330
1F
100
AcDbEntity
  8
0
  6
Continuous
 62
     7
370
    15
100
AcDbLine
 10
136.2921663669
 20
227.7053605734
 30
0.0
 11
149.9101110843
 21
227.7053605734
 31
0.0
  0
LINE
  5
27F
330
1F
100
AcDbEntity
  8
0
  6
Continuous
 62
     7
370
    15
100
AcDbLine
 10
152.9375800041
 20
227.7053605734
 30
0.0
 11
173.0403789428
 21
227.7053605734
 31
0.0
  0
LINE
  5
280
330
1F
100
AcDbEntity
  8
0
  6
Continuous
 62
     7
370
    15
100
AcDbLine
 10
175.848723307
 20
227.7053605734
 30
0.0
 11
179.3943115619
 21
227.7053605734
 31
0.0
  0
ARC
  5
281
330
1F
100
AcDbEntity
  8
0
  6
Continuous
 62
     7
370
    15
100
AcDbCircle
 10
179.3980465353
 20
227.9545682097
 30
0.0
 40
0.4062852786244492
100
AcDbArc
 50
269.4732734939
 51
359.4639395476
  0
LINE
  5
282
330
1F
100
AcDbEntity
  8
0
  6
Continuous
 62
     7
370
    15
100
AcDbLine
 10
179.8043140319
 20
227.411001545
 30
0.0
 11
179.8043140319
 21
227.950767052
 31
0.0
  0
ARC
  5
283
330
1F
100
AcDbEntity
  8
0
  6
Continuous
 62
     7
370
    15
100
AcDbCircle
 10
129.4877278053
 20
227.951274595
 30
0.0
 40
0.2434178215607073
100
AcDbArc
 50
180.1194657474
 51
225.6759831593
  0
ARC
  5
284
330
1F
100
AcDbEntity
  8
0
  6
Continuous
 62
     7
370
    15
100
AcDbCircle
 10
179.3965847207
 20
227.9530876157
 30
0.0
 40
0.2477374714054095
100
AcDbArc
 50
269.4742651055
 51
359.4633010205
  0
LINE
  5
285
330
1F
100
AcDbEntity
  8
0
  6
Continuous
 62
     7
370
    15
100
AcDbLine
 10
129.2443105129
 20
234.1841001032
 30
0.0
 11
129.2443105129
 21
227.950767052
 31
0.0
  0
LINE
  5
286
330
1F
100
AcDbEntity
  8
0
  6
Continuous
 62
     7
370
    15
100
AcDbLine
 10
129.0843078044
 20
234.1841001032
 30
0.0
 11
129.0843078044
 21
227.950767052
 31
0.0
  0
LINE
  5
287
330
1F
100
AcDbEntity
  8
0
  6
Continuous
 62
     7
370
    15
100
AcDbLine
 10
179.6443113235
 20
234.1841001032
 30
0.0
 11
179.6443113235
 21
227.950767052
 31
0.0
  0
LINE
  5
288
330
1F
100
AcDbEntity
  8
0
  6
Continuous
 62
     7
370
    15
100
AcDbLine
 10
179.8043140319
 20
234.1841001032
 30
0.0
 11
179.8043140319
 21
227.950767052
 31
0.0
  0
LINE
  5
289
330
1F
100
AcDbEntity
  8
0
  6
Continuous
 62
     7
370
    15
100
AcDbLine
 10
179.6443113235
 20
234.1841001032
 30
0.0
 11
179.6443113235
 21
234.5077764212
 31
0.0
  0
LINE
  5
28A
330
1F
100
AcDbEntity
  8
0
  6
Continuous
 62
     7
370
    15
100
AcDbLine
 10
179.8043140319
 20
234.5077764212
 30
0.0
 11
179.8043140319
 21
234.1841001032
 31
0.0
  0
LINE
  5
28B
330
1F
100
AcDbEntity
  8
0
  6
Continuous
 62
     7
370
    15
100
AcDbLine
 10
129.2443105129
 20
234.5077764212
 30
0.0
 11
129.2443105129
 21
234.1841001032
 31
0.0
  0
LINE
  5
28C
330
1F
100
AcDbEntity
  8
0
  6
Continuous
 62
     7
370
    15
100
AcDbLine
 10
129.0843078044
 20
234.1841001032
 30
0.0
 11
129.0843078044
 21
234.5077764212
 31
0.0
  0
SPLINE
  5
28D
330
1F
100
AcDbEntity
  8
0
  6
Continuous
 62
     7
370
    15
100
AcDbSpline
210
0.0
220
0.0
230
1.0
 70
     8
 71
     3
 72
    11
 73
     7
 74
     0
 42
0.00000001
 43
0.00000001
 12
1.0
 22
0.0
 32
0.0
 13
1.0
 23
0.0
 33
0.0
 40
0.0
 40
0.0
 40
0.0
 40
0.0
 40
0.2500047400021059
 40
0.5000048915230298
 40
0.7499996797355628
 40
1.0
 40
1.0
 40
1.0
 40
1.0
 10
129.6843120005994
 20
235.4598460687699
 30
0.0
 10
129.6305858933695
 20
235.4530237419035
 30
0.0
 10
129.5231346649758
 20
235.4393792133849
 30
0.0
 10
129.387609064037
 20
235.3439920277374
 30
0.0
 10
129.292805024085
 20
235.2086370701951
 30
0.0
 10
129.280478714187
 20
235.1016169578446
 30
0.0
 10
129.2743154910474
 20
235.0481063096228
 30
0.0
  0
LINE
  5
28E
330
1F
100
AcDbEntity
  8
0
  6
Continuous
 62
     7
370
    15
100
AcDbLine
 10
129.6843120006
 20
235.3027855946
 30
0.0
 11
129.6843120006
 21
235.4598460688
 31
0.0
  0
SPLINE
  5
28F
330
1F
100
AcDbEntity
  8
0
  6
Continuous
 62
     7
370
    15
100
AcDbSpline
210
0.0
220
0.0
230
1.0
 70
     8
 71
     3
 72
    11
 73
     7
 74
     0
 42
0.00000001
 43
0.00000001
 12
1.0
 22
0.0
 32
0.0
 13
1.0
 23
0.0
 33
0.0
 40
0.0
 40
0.0
 40
0.0
 40
0.0
 40
0.2499872791343895
 40
0.4999961414603597
 40
0.7499957091344646
 40
1.0
 40
1.0
 40
1.0
 40
1.0
 10
129.6843120005994
 20
235.3027855946126
 30
0.0
 10
129.6515548811107
 20
235.2983234919469
 30
0.0
 10
129.5860378139767
 20
235.2893989013704
 30
0.0
 10
129.5033988198902
 20
235.2303346216687
 30
0.0
 10
129.4455895269122
 20
235.1468954756758
 30
0.0
 10
129.4380673850252
 20
235.081036239016
 30
0.0
 10
129.4343062785536
 20
235.0481063096228
 30
0.0
  0
LINE
  5
290
330
1F
100
AcDbEntity
  8
0
  6
Continuous
 62
     7
370
    15
100
AcDbLine
 10
129.4343062786
 20
235.0481063096
 30
0.0
 11
129.274315491
 21
235.0481063096
 31
0.0
  0
SPLINE
  5
291
330
1F
100
AcDbEntity
  8
0
  6
Continuous
 62
     7
370
    15
100
AcDbSpline
210
0.0
220
0.0
230
1.0
 70
     8
 71
     3
 72
    11
 73
     7
 74
     0
 42
0.00000001
 43
0.00000001
 12
1.0
 22
0.0
 32
0.0
 13
1.0
 23
0.0
 33
0.0
 40
0.0
 40
0.0
 40
0.0
 40
0.0
 40
0.2500015278154354
 40
0.5000012678322722
 40
0.7499977947771259
 40
1.0
 40
1.0
 40
1.0
 40
1.0
 10
179.434312239018
 20
235.0481063096228
 30
0.0
 10
179.4305536336445
 20
235.0810363969253
 30
0.0
 10
179.4230364497758
 20
235.1468963360424
 30
0.0
 10
179.3652256415892
 20
235.2303322849395
 30
0.0
 10
179.2825901994091
 20
235.2894015436119
 30
0.0
 10
179.2170719661152
 20
235.298324210502
 30
0.0
 10
179.1843124774366
 20
235.3027855946126
 30
0.0
  0
LINE
  5
292
330
1F
100
AcDbEntity
  8
0
  6
Continuous
 62
     7
370
    15
100
AcDbLine
 10
179.1843124774
 20
235.3027855946
 30
0.0
 11
179.1843124774
 21
235.4598460688
 31
0.0
  0
SPLINE
  5
293
330
1F
100
AcDbEntity
  8
0
  6
Continuous
 62
     7
370
    15
100
AcDbSpline
210
0.0
220
0.0
230
1.0
 70
     8
 71
     3
 72
    11
 73
     7
 74
     0
 42
0.00000001
 43
0.00000001
 12
1.0
 22
0.0
 32
0.0
 13
1.0
 23
0.0
 33
0.0
 40
0.0
 40
0.0
 40
0.0
 40
0.0
 40
0.2500026600181897
 40
0.5000031262213622
 40
0.7500038105571957
 40
0.9999999999999999
 40
0.9999999999999999
 40
0.9999999999999999
 40
0.9999999999999999
 10
179.5943149474531
 20
235.0481063096228
 30
0.0
 10
179.5881496915362
 20
235.1016171602718
 30
0.0
 10
179.5758192338035
 20
235.2086383920033
 30
0.0
 10
179.4810092196604
 20
235.3439904214491
 30
0.0
 10
179.345485797591
 20
235.4393782236157
 30
0.0
 10
179.2380365955043
 20
235.4530234946081
 30
0.0
 10
179.1843124774366
 20
235.4598460687699
 30
0.0
  0
LINE
  5
294
330
1F
100
AcDbEntity
  8
0
  6
Continuous
 62
     7
370
    15
100
AcDbLine
 10
179.434312239
 20
235.0481063096
 30
0.0
 11
179.5943149475
 21
235.0481063096
 31
0.0
  0
LINE
  5
295
330
1F
100
AcDbEntity
  8
0
  6
Continuous
 62
     7
370
    15
100
AcDbLine
 10
179.434312239
 20
228.5015035389
 30
0.0
 11
179.434312239
 21
235.0481063096
 31
0.0
  0
LINE
  5
296
330
1F
100
AcDbEntity
  8
0
  6
Continuous
 62
     7
370
    15
100
AcDbLine
 10
179.5943149475
 20
228.5015035389
 30
0.0
 11
179.5943149475
 21
235.0481063096
 31
0.0
  0
LINE
  5
297
330
1F
100
AcDbEntity
  8
0
  6
Continuous
 62
     7
370
    15
100
AcDbLine
 10
179.1843124774
 20
235.3027855946
 30
0.0
 11
175.5821713355
 21
235.3027855946
 31
0.0
  0
LINE
  5
298
330
1F
100
AcDbEntity
  8
0
  6
Continuous
 62
     7
370
    15
100
AcDbLine
 10
173.3008810428
 20
235.3027855946
 30
0.0
 11
152.6152202037
 21
235.3027855946
 31
0.0
  0
LINE
  5
299
330
1F
100
AcDbEntity
  8
0
  6
Continuous
 62
     7
370
    15
100
AcDbLine
 10
150.2678879646
 20
235.3027855946
 30
0.0
 11
135.6878229526
 21
235.3027855946
 31
0.0
  0
LINE
  5
29A
330
1F
100
AcDbEntity
  8
0
  6
Continuous
 62
     7
370
    15
100
AcDbLine
 10
133.152384415
 20
235.3027855946
 30
0.0
 11
129.6843120006
 21
235.3027855946
 31
0.0
  0
LINE
  5
29B
330
1F
100
AcDbEntity
  8
0
  6
Continuous
 62
     7
370
    15
100
AcDbLine
 10
179.1843124774
 20
235.4598460688
 30
0.0
 11
175.6471403984
 21
235.4598460688
 31
0.0
  0
LINE
  5
29C
330
1F
100
AcDbEntity
  8
0
  6
Continuous
 62
     7
370
    15
100
AcDbLine
 10
173.2440837768
 20
235.4598460688
 30
0.0
 11
152.6786514667
 21
235.4598460688
 31
0.0
  0
LINE
  5
29D
330
1F
100
AcDbEntity
  8
0
  6
Continuous
 62
     7
370
    15
100
AcDbLine
 10
150.1808353809
 20
235.4598460688
 30
0.0
 11
135.8209737686
 21
235.4598460688
 31
0.0
  0
LINE
  5
29E
330
1F
100
AcDbEntity
  8
0
  6
Continuous
 62
     7
370
    15
100
AcDbLine
 10
133.0047437099
 20
235.4598460688
 30
0.0
 11
129.6843120006
 21
235.4598460688
 31
0.0
  0
LINE
  5
29F
330
1F
100
AcDbEntity
  8
0
  6
Continuous
 62
     7
370
    15
100
AcDbLine
 10
129.4343062786
 20
228.5015035389
 30
0.0
 11
129.4343062786
 21
235.0481063096
 31
0.0
  0
LINE
  5
2A0
330
1F
100
AcDbEntity
  8
0
  6
Continuous
 62
     7
370
    15
100
AcDbLine
 10
129.274315491
 20
228.5015035389
 30
0.0
 11
129.274315491
 21
235.0481063096
 31
0.0
  0
LINE
  5
2A1
330
1F
100
AcDbEntity
  8
0
  6
Continuous
 62
     7
370
    15
100
AcDbLine
 10
179.434312239
 20
228.1088527261
 30
0.0
 11
179.434312239
 21
228.5015035389
 31
0.0
  0
LINE
  5
2A2
330
1F
100
AcDbEntity
  8
0
  6
Continuous
 62
     7
370
    15
100
AcDbLine
 10
179.5943149475
 20
228.5015035389
 30
0.0
 11
179.5943149475
 21
228.1088527261
 31
0.0
  0
LINE
  5
2A3
330
1F
100
AcDbEntity
  8
0
  6
Continuous
 62
     7
370
    15
100
AcDbLine
 10
129.274315491
 20
228.1088527261
 30
0.0
 11
129.274315491
 21
228.5015035389
 31
0.0
  0
LINE
  5
2A4
330
1F
100
AcDbEntity
  8
0
  6
Continuous
 62
     7
370
    15
100
AcDbLine
 10
129.4343062786
 20
228.5015035389
 30
0.0
 11
129.4343062786
 21
228.1088527261
 31
0.0
  0
LINE
  5
2A5
330
1F
100
AcDbEntity
  8
0
  6
Continuous
 62
     7
370
    15
100
AcDbLine
 10
179.434312239
 20
227.7085218547
 30
0.0
 11
179.434312239
 21
228.1088527261
 31
0.0
  0
LINE
  5
2A6
330
1F
100
AcDbEntity
  8
0
  6
Continuous
 62
     7
370
    15
100
AcDbLine
 10
179.5943149475
 20
227.8035234629
 30
0.0
 11
179.5943149475
 21
228.1088527261
 31
0.0
  0
LINE
  5
2A7
330
1F
100
AcDbEntity
  8
0
  6
Continuous
 62
     7
370
    15
100
AcDbLine
 10
129.274315491
 20
227.8342056988
 30
0.0
 11
129.274315491
 21
228.1088527261
 31
0.0
  0
LINE
  5
2A8
330
1F
100
AcDbEntity
  8
0
  6
Continuous
 62
     7
370
    15
100
AcDbLine
 10
129.4343062786
 20
227.7752157269
 30
0.0
 11
129.4343062786
 21
228.1088527261
 31
0.0
  0
CIRCLE
  5
2A9
330
1F
100
AcDbEntity
  8
0
  6
Continuous
 62
     7
370
    15
100
AcDbCircle
 10
187.1843122372
 20
228.7970621777
 30
0.0
 40
0.6500000000000057
  0
CIRCLE
  5
2AA
330
1F
100
AcDbEntity
  8
0
  6
Continuous
 62
     7
370
    15
100
AcDbCircle
 10
187.1843122372
 20
228.7970621777
 30
0.0
 40
0.6999999999999886
  0
CIRCLE
  5
2AB
330
1F
100
AcDbEntity
  8
0
  6
Continuous
 62
     7
370
    15
100
AcDbCircle
 10
187.1843122372
 20
228.7970621777
 30
0.0
 40
0.4199999999999875
  0
CIRCLE
  5
2AC
330
1F
100
AcDbEntity
  8
0
  6
Continuous
 62
     7
370
    15
100
AcDbCircle
 10
187.1843122372
 20
228.7970621777
 30
0.0
 40
0.5500000000000114
  0
CIRCLE
  5
2AD
330
1F
100
AcDbEntity
  8
0
  6
Continuous
 62
     7
370
    15
100
AcDbCircle
 10
187.1843122372
 20
228.7970621777
 30
0.0
 40
0.9700000000000273
  0
CIRCLE
  5
2AE
330
1F
100
AcDbEntity
  8
0
  6
Continuous
 62
     7
370
    15
100
AcDbCircle
 10
227.1843122372
 20
228.7970621777
 30
0.0
 40
0.6500000000000057
  0
CIRCLE
  5
2AF
330
1F
100
AcDbEntity
  8
0
  6
Continuous
 62
     7
370
    15
100
AcDbCircle
 10
227.1843122372
 20
228.7970621777
 30
0.0
 40
0.5500000000000114
  0
CIRCLE
  5
2B0
330
1F
100
AcDbEntity
  8
0
  6
Continuous
 62
     7
370
    15
100
AcDbCircle
 10
227.1843122372
 20
228.7970621777
 30
0.0
 40
0.6999999999999886
  0
CIRCLE
  5
2B1
330
1F
100
AcDbEntity
  8
0
  6
Continuous
 62
     7
370
    15
100
AcDbCircle
 10
227.1843122372
 20
228.7970621777
 30
0.0
 40
0.4199999999999875
  0
ARC
  5
2B2
330
1F
100
AcDbEntity
  8
0
  6
Continuous
 62
     7
370
    15
100
AcDbCircle
 10
227.1843122372
 20
228.7970621777
 30
0.0
 40
0.9700000000000273
100
AcDbArc
 50
295.4335398061
 51
90.0
  0
ARC
  5
2B3
330
1F
100
AcDbEntity
  8
0
  6
Continuous
 62
     7
370
    15
100
AcDbCircle
 10
227.1843122372
 20
228.7970621777
 30
0.0
 40
0.9700000000000273
100
AcDbArc
 50
90.0
 51
246.7714256023
  0
CIRCLE
  5
2B4
330
1F
100
AcDbEntity
  8
0
  6
Continuous
 62
     7
370
    15
100
AcDbCircle
 10
121.8243122372
 20
228.7970621777
 30
0.0
 40
0.6500000000000057
  0
CIRCLE
  5
2B5
330
1F
100
AcDbEntity
  8
0
  6
Continuous
 62
     7
370
    15
100
AcDbCircle
 10
121.8243122372
 20
228.7970621777
 30
0.0
 40
0.6999999999999886
  0
CIRCLE
  5
2B6
330
1F
100
AcDbEntity
  8
0
  6
Continuous
 62
     7
370
    15
100
AcDbCircle
 10
121.8243122372
 20
228.7970621777
 30
0.0
 40
0.549999999999983
  0
CIRCLE
  5
2B7
330
1F
100
AcDbEntity
  8
0
  6
Continuous
 62
     7
370
    15
100
AcDbCircle
 10
121.8243122372
 20
228.7970621777
 30
0.0
 40
0.4199999999999875
  0
ARC
  5
2B8
330
1F
100
AcDbEntity
  8
0
  6
Continuous
 62
     7
370
    15
100
AcDbCircle
 10
121.8243122372
 20
228.7970621777
 30
0.0
 40
0.9699999999999989
100
AcDbArc
 50
292.8981958215
 51
90.0
  0
ARC
  5
2B9
330
1F
100
AcDbEntity
  8
0
  6
Continuous
 62
     7
370
    15
100
AcDbCircle
 10
121.8243122372
 20
228.7970621777
 30
0.0
 40
0.9700000000000136
100
AcDbArc
 50
90.0
 51
244.9018545222
  0
ENDSEC
  0
SECTION
  2
OBJECTS
  0
DICTIONARY
  5
C
330
0
100
AcDbDictionary
281
     1
  3
ACAD_GROUP
350
D
  3
ACAD_LAYOUT
350
1A
  3
ACAD_MLINESTYLE
350
17
  3
ACAD_PLOTSETTINGS
350
19
  3
ACAD_PLOTSTYLENAME
350
E
  0
DICTIONARY
  5
D
102
{ACAD_REACTORS
330
C
102
}
330
C
100
AcDbDictionary
281
     1
  0
DICTIONARY
  5
1A
102
{ACAD_REACTORS
330
C
102
}
330
C
100
AcDbDictionary
281
     1
  3
Layout1
350
1E
  3
Layout2
350
26
  3
Model
350
22
  0
DICTIONARY
  5
17
102
{ACAD_REACTORS
330
C
102
}
330
C
100
AcDbDictionary
281
     1
  3
Standard
350
18
  0
DICTIONARY
  5
19
102
{ACAD_REACTORS
330
C
102
}
330
C
100
AcDbDictionary
281
     1
  0
ACDBDICTIONARYWDFLT
  5
E
102
{ACAD_REACTORS
330
C
102
}
330
C
100
AcDbDictionary
281
     1
  3
Normal
350
F
100
AcDbDictionaryWithDefault
340
F
  0
LAYOUT
  5
1E
102
{ACAD_REACTORS
330
1A
102
}
330
1A
100
AcDbPlotSettings
  1

  2
none_device
  4

  6

 40
0.0
 41
0.0
 42
0.0
 43
0.0
 44
0.0
 45
0.0
 46
0.0
 47
0.0
 48
0.0
 49
0.0
140
0.0
141
0.0
142
1.0
143
1.0
 70
   688
 72
     0
 73
     0
 74
     5
  7

 75
    16
147
1.0
148
0.0
149
0.0
100
AcDbLayout
  1
Layout1
 70
     1
 71
     1
 10
0.0
 20
0.0
 11
420.0
 21
297.0
 12
0.0
 22
0.0
 32
0.0
 14
1.0000000000E+20
 24
1.0000000000E+20
 34
1.0000000000E+20
 15
-1.0000000000E+20
 25
-1.0000000000E+20
 35
-1.0000000000E+20
146
0.0
 13
0.0
 23
0.0
 33
0.0
 16
1.0
 26
0.0
 36
0.0
 17
0.0
 27
1.0
 37
0.0
 76
     0
330
1B
  0
LAYOUT
  5
26
102
{ACAD_REACTORS
330
1A
102
}
330
1A
100
AcDbPlotSettings
  1

  2
none_device
  4

  6

 40
0.0
 41
0.0
 42
0.0
 43
0.0
 44
0.0
 45
0.0
 46
0.0
 47
0.0
 48
0.0
 49
0.0
140
0.0
141
0.0
142
1.0
143
1.0
 70
   688
 72
     0
 73
     0
 74
     5
  7

 75
    16
147
1.0
148
0.0
149
0.0
100
AcDbLayout
  1
Layout2
 70
     1
 71
     2
 10
0.0
 20
0.0
 11
0.0
 21
0.0
 12
0.0
 22
0.0
 32
0.0
 14
0.0
 24
0.0
 34
0.0
 15
0.0
 25
0.0
 35
0.0
146
0.0
 13
0.0
 23
0.0
 33
0.0
 16
1.0
 26
0.0
 36
0.0
 17
0.0
 27
1.0
 37
0.0
 76
     0
330
23
  0
LAYOUT
  5
22
102
{ACAD_REACTORS
330
1A
102
}
330
1A
100
AcDbPlotSettings
  1

  2
none_device
  4

  6

 40
0.0
 41
0.0
 42
0.0
 43
0.0
 44
0.0
 45
0.0
 46
0.0
 47
0.0
 48
0.0
 49
0.0
140
0.0
141
0.0
142
1.0
143
1.0
 70
  1712
 72
     0
 73
     0
 74
     0
  7

 75
     0
147
1.0
148
0.0
149
0.0
100
AcDbLayout
  1
Model
 70
     1
 71
     0
 10
0.0
 20
0.0
 11
431.8
 21
279.4
 12
0.0
 22
0.0
 32
0.0
 14
0.0
 24
0.0
 34
0.0
 15
431.8
 25
279.4
 35
0.0
146
0.0
 13
0.0
 23
0.0
 33
0.0
 16
1.0
 26
0.0
 36
0.0
 17
0.0
 27
1.0
 37
0.0
 76
     0
330
1F
331
29
  0
MLINESTYLE
  5
18
102
{ACAD_REACTORS
330
17
102
}
330
17
100
AcDbMlineStyle
  2
Standard
 70
     0
  3

 62
   256
 51
90.0
 52
90.0
 71
     2
 49
0.5
 62
   256
  6
BYLAYER
 49
-0.5
 62
   256
  6
BYLAYER
  0
ACDBPLACEHOLDER
  5
F
102
{ACAD_REACTORS
330
E
102
}
330
E
  0
ENDSEC
  0
EOF
