  0
SECTION
  2
HEADER
  9
$ACADVER
  1
AC1015
  9
$ACADMAINTVER
 70
     6
  9
$DWGCODEPAGE
  3
ANSI_1252
  9
$INSBASE
 10
0.0
 20
0.0
 30
0.0
  9
$EXTMIN
 10
0.0
 20
0.0
 30
0.0
  9
$EXTMAX
 10
420.0
 20
297.0
 30
0.0
  9
$LIMMIN
 10
0.0
 20
0.0
  9
$LIMMAX
 10
420.0
 20
297.0
  9
$ORTHOMODE
 70
     0
  9
$REGENMODE
 70
     1
  9
$FILLMODE
 70
     1
  9
$QTEXTMODE
 70
     0
  9
$MIRRTEXT
 70
     1
  9
$LTSCALE
 40
1.0
  9
$ATTMODE
 70
     1
  9
$TEXTSIZE
 40
3.5
  9
$TRACEWID
 40
1.0
  9
$TEXTSTYLE
  7
Standard
  9
$CLAYER
  8
0
  9
$CELTYPE
  6
ByLayer
  9
$CECOLOR
 62
   256
  9
$CELTSCALE
 40
1.0
  9
$DISPSILH
 70
     0
  9
$DIMSCALE
 40
1.0
  9
$DIMASZ
 40
3.302
  9
$DIMEXO
 40
1.0
  9
$DIMDLI
 40
3.75
  9
$DIMRND
 40
0.0
  9
$DIMDLE
 40
0.0
  9
$DIMEXE
 40
1.0
  9
$DIMTP
 40
0.0
  9
$DIMTM
 40
0.0
  9
$DIMTXT
 40
3.5
  9
$DIMCEN
 40
2.5
  9
$DIMTSZ
 40
0.0
  9
$DIMTOL
 70
     0
  9
$DIMLIM
 70
     0
  9
$DIMTIH
 70
     1
  9
$DIMTOH
 70
     1
  9
$DIMSE1
 70
     0
  9
$DIMSE2
 70
     0
  9
$DIMTAD
 70
     1
  9
$DIMZIN
 70
     0
  9
$DIMBLK
  1

  9
$DIMASO
 70
     1
  9
$DIMSHO
 70
     1
  9
$DIMPOST
  1

  9
$DIMAPOST
  1

  9
$DIMALT
 70
     0
  9
$DIMALTD
 70
     3
  9
$DIMALTF
 40
0.0393700787
  9
$DIMLFAC
 40
10.0
  9
$DIMTOFL
 70
     1
  9
$DIMTVP
 40
0.0
  9
$DIMTIX
 70
     0
  9
$DIMSOXD
 70
     0
  9
$DIMSAH
 70
     0
  9
$DIMBLK1
  1

  9
$DIMBLK2
  1

  9
$DIMSTYLE
  2
ISO-25
  9
$DIMCLRD
 70
     0
  9
$DIMCLRE
 70
     0
  9
$DIMCLRT
 70
     0
  9
$DIMTFAC
 40
1.0
  9
$DIMGAP
 40
1.524
  9
$DIMJUST
 70
     0
  9
$DIMSD1
 70
     0
  9
$DIMSD2
 70
     0
  9
$DIMTOLJ
 70
     0
  9
$DIMTZIN
 70
     0
  9
$DIMALTZ
 70
     0
  9
$DIMALTTZ
 70
     0
  9
$DIMUPT
 70
     0
  9
$DIMDEC
 70
     3
  9
$DIMTDEC
 70
     3
  9
$DIMALTU
 70
     2
  9
$DIMALTTD
 70
     3
  9
$DIMTXSTY
  7
Standard
  9
$DIMAUNIT
 70
     0
  9
$DIMADEC
 70
     2
  9
$DIMALTRND
 40
0.0
  9
$DIMAZIN
 70
     0
  9
$DIMDSEP
 70
    44
  9
$DIMATFIT
 70
     3
  9
$DIMFRAC
 70
     0
  9
$DIMLDRBLK
  1

  9
$DIMLUNIT
 70
     2
  9
$DIMLWD
 70
    -2
  9
$DIMLWE
 70
    -2
  9
$DIMTMOVE
 70
     0
  9
$LUNITS
 70
     2
  9
$LUPREC
 70
     8
  9
$SKETCHINC
 40
1.0
  9
$FILLETRAD
 40
10.0
  9
$AUNITS
 70
     0
  9
$AUPREC
 70
     8
  9
$MENU
  1
.
  9
$ELEVATION
 40
0.0
  9
$PELEVATION
 40
0.0
  9
$THICKNESS
 40
0.0
  9
$LIMCHECK
 70
     0
  9
$CHAMFERA
 40
10.0
  9
$CHAMFERB
 40
10.0
  9
$CHAMFERC
 40
20.0
  9
$CHAMFERD
 40
0.0
  9
$SKPOLY
 70
     0
  9
$TDCREATE
 40
2455855.51807669
  9
$TDUCREATE
 40
2455855.476410023
  9
$TDUPDATE
 40
2455855.518076702
  9
$TDUUPDATE
 40
2455855.476410035
  9
$TDINDWG
 40
0.0000000116
  9
$TDUSRTIMER
 40
0.0000000116
  9
$USRTIMER
 70
     1
  9
$ANGBASE
 50
0.0
  9
$ANGDIR
 70
     0
  9
$PDMODE
 70
     0
  9
$PDSIZE
 40
-1.0
  9
$PLINEWID
 40
0.0
  9
$SPLFRAME
 70
     0
  9
$SPLINETYPE
 70
     6
  9
$SPLINESEGS
 70
     8
  9
$HANDSEED
  5
185
  9
$SURFTAB1
 70
     6
  9
$SURFTAB2
 70
     6
  9
$SURFTYPE
 70
     6
  9
$SURFU
 70
     6
  9
$SURFV
 70
     6
  9
$UCSBASE
  2

  9
$UCSNAME
  2

  9
$UCSORG
 10
0.0
 20
0.0
 30
0.0
  9
$UCSXDIR
 10
1.0
 20
0.0
 30
0.0
  9
$UCSYDIR
 10
0.0
 20
1.0
 30
0.0
  9
$UCSORTHOREF
  2

  9
$UCSORTHOVIEW
 70
     0
  9
$UCSORGTOP
 10
0.0
 20
0.0
 30
0.0
  9
$UCSORGBOTTOM
 10
0.0
 20
0.0
 30
0.0
  9
$UCSORGLEFT
 10
0.0
 20
0.0
 30
0.0
  9
$UCSORGRIGHT
 10
0.0
 20
0.0
 30
0.0
  9
$UCSORGFRONT
 10
0.0
 20
0.0
 30
0.0
  9
$UCSORGBACK
 10
0.0
 20
0.0
 30
0.0
  9
$PUCSBASE
  2

  9
$PUCSNAME
  2

  9
$PUCSORG
 10
0.0
 20
0.0
 30
0.0
  9
$PUCSXDIR
 10
1.0
 20
0.0
 30
0.0
  9
$PUCSYDIR
 10
0.0
 20
1.0
 30
0.0
  9
$PUCSORTHOREF
  2

  9
$PUCSORTHOVIEW
 70
     0
  9
$PUCSORGTOP
 10
0.0
 20
0.0
 30
0.0
  9
$PUCSORGBOTTOM
 10
0.0
 20
0.0
 30
0.0
  9
$PUCSORGLEFT
 10
0.0
 20
0.0
 30
0.0
  9
$PUCSORGRIGHT
 10
0.0
 20
0.0
 30
0.0
  9
$PUCSORGFRONT
 10
0.0
 20
0.0
 30
0.0
  9
$PUCSORGBACK
 10
0.0
 20
0.0
 30
0.0
  9
$USERI1
 70
     0
  9
$USERI2
 70
     0
  9
$USERI3
 70
     0
  9
$USERI4
 70
     0
  9
$USERI5
 70
     0
  9
$USERR1
 40
0.0
  9
$USERR2
 40
0.0
  9
$USERR3
 40
0.0
  9
$USERR4
 40
0.0
  9
$USERR5
 40
0.0
  9
$WORLDVIEW
 70
     1
  9
$SHADEDGE
 70
     3
  9
$SHADEDIF
 70
    70
  9
$TILEMODE
 70
     1
  9
$MAXACTVP
 70
    64
  9
$PINSBASE
 10
0.0
 20
0.0
 30
0.0
  9
$PLIMCHECK
 70
     0
  9
$PEXTMIN
 10
1.0000000000E+20
 20
1.0000000000E+20
 30
1.0000000000E+20
  9
$PEXTMAX
 10
-1.0000000000E+20
 20
-1.0000000000E+20
 30
-1.0000000000E+20
  9
$PLIMMIN
 10
0.0
 20
0.0
  9
$PLIMMAX
 10
420.0
 20
297.0
  9
$UNITMODE
 70
     0
  9
$VISRETAIN
 70
     1
  9
$PLINEGEN
 70
     0
  9
$PSLTSCALE
 70
     1
  9
$TREEDEPTH
 70
  3020
  9
$CMLSTYLE
  2
Standard
  9
$CMLJUST
 70
     0
  9
$CMLSCALE
 40
20.0
  9
$PROXYGRAPHICS
 70
     1
  9
$MEASUREMENT
 70
     1
  9
$CELWEIGHT
370
    -1
  9
$ENDCAPS
280
     0
  9
$JOINSTYLE
280
     0
  9
$LWDISPLAY
290
     1
  9
$INSUNITS
 70
     4
  9
$HYPERLINKBASE
  1

  9
$STYLESHEET
  1

  9
$XEDIT
290
     1
  9
$CEPSNTYPE
380
     0
  9
$PSTYLEMODE
290
     1
  9
$FINGERPRINTGUID
  2
{AA1C0378-DE70-4CC0-8D5D-8A29754D0AC7}
  9
$VERSIONGUID
  2
{FAEB1C32-E019-11D5-929B-00C0DF256EC4}
  9
$EXTNAMES
290
     1
  9
$PSVPSCALE
 40
0.0
  9
$OLESTARTUP
290
     0
  0
ENDSEC
  0
SECTION
  2
CLASSES
  0
CLASS
  1
ACDBDICTIONARYWDFLT
  2
AcDbDictionaryWithDefault
  3
ObjectDBX Classes
 90
        0
280
     0
281
     0
  0
CLASS
  1
VISUALSTYLE
  2
AcDbVisualStyle
  3
ObjectDBX Classes
 90
     4095
280
     0
281
     0
  0
CLASS
  1
MATERIAL
  2
AcDbMaterial
  3
ObjectDBX Classes
 90
     1153
280
     0
281
     0
  0
CLASS
  1
ACDBPLACEHOLDER
  2
AcDbPlaceHolder
  3
ObjectDBX Classes
 90
        0
280
     0
281
     0
  0
CLASS
  1
LAYOUT
  2
AcDbLayout
  3
ObjectDBX Classes
 90
        0
280
     0
281
     0
  0
ENDSEC
  0
SECTION
  2
TABLES
  0
TABLE
  2
VPORT
  5
8
330
0
100
AcDbSymbolTable
 70
     1
  0
VPORT
  5
29
330
8
100
AcDbSymbolTableRecord
100
AcDbViewportTableRecord
  2
*Active
 70
     0
 10
0.0
 20
0.0
 11
1.0
 21
1.0
 12
210.0
 22
148.5
 13
0.0
 23
0.0
 14
10.0
 24
10.0
 15
10.0
 25
10.0
 16
0.0
 26
0.0
 36
1.0
 17
0.0
 27
0.0
 37
0.0
 40
297.0
 41
1.4141414141
 42
50.0
 43
0.0
 44
0.0
 50
0.0
 51
0.0
 71
     0
 72
  2000
 73
     1
 74
     3
 75
     0
 76
     0
 77
     0
 78
     0
281
     0
 65
     1
110
0.0
120
0.0
130
0.0
111
1.0
121
0.0
131
0.0
112
0.0
122
1.0
132
0.0
 79
     0
146
0.0
  0
ENDTAB
  0
TABLE
  2
LTYPE
  5
5
330
0
100
AcDbSymbolTable
 70
     6
  0
LTYPE
  5
14
330
5
100
AcDbSymbolTableRecord
100
AcDbLinetypeTableRecord
  2
ByBlock
 70
     0
  3

 72
    65
 73
     0
 40
0.0
  0
LTYPE
  5
15
330
5
100
AcDbSymbolTableRecord
100
AcDbLinetypeTableRecord
  2
ByLayer
 70
     0
  3

 72
    65
 73
     0
 40
0.0
  0
LTYPE
  5
16
330
5
100
AcDbSymbolTableRecord
100
AcDbLinetypeTableRecord
  2
Continuous
 70
     0
  3
Solid line
 72
    65
 73
     0
 40
0.0
  0
LTYPE
  5
3F
330
5
100
AcDbSymbolTableRecord
100
AcDbLinetypeTableRecord
  2
HIDDEN
 70
     0
  3
Hidden __ __ __ __ __ __ __ __ __ __ __ __ __ __
 72
    65
 73
     2
 40
1.905
 49
1.27
 74
     0
 49
-0.635
 74
     0
  0
LTYPE
  5
40
330
5
100
AcDbSymbolTableRecord
100
AcDbLinetypeTableRecord
  2
PHANTOM
 70
     0
  3
Phantom ______  __  __  ______  __  __  ______
 72
    65
 73
     6
 40
12.7
 49
6.35
 74
     0
 49
-1.27
 74
     0
 49
1.27
 74
     0
 49
-1.27
 74
     0
 49
1.27
 74
     0
 49
-1.27
 74
     0
  0
LTYPE
  5
41
330
5
100
AcDbSymbolTableRecord
100
AcDbLinetypeTableRecord
  2
CENTER
 70
     0
  3
Center ____ _ ____ _ ____ _ ____ _ ____ _ ____
 72
    65
 73
     4
 40
10.16
 49
6.35
 74
     0
 49
-1.27
 74
     0
 49
1.27
 74
     0
 49
-1.27
 74
     0
  0
LTYPE
  5
42
330
5
100
AcDbSymbolTableRecord
100
AcDbLinetypeTableRecord
  2
CENTERX2
 70
     0
  3
Center (2x) ________  __  ________  __  _____
 72
    65
 73
     4
 40
20.32
 49
12.7
 74
     0
 49
-2.54
 74
     0
 49
2.54
 74
     0
 49
-2.54
 74
     0
  0
LTYPE
  5
43
330
5
100
AcDbSymbolTableRecord
100
AcDbLinetypeTableRecord
  2
DOT2
 70
     0
  3
Dot (.5x) ........................................
 72
    65
 73
     2
 40
0.635
 49
0.0
 74
     0
 49
-0.635
 74
     0
  0
ENDTAB
  0
TABLE
  2
LAYER
  5
2
330
0
100
AcDbSymbolTable
 70
     4
  0
LAYER
  5
10
330
2
100
AcDbSymbolTableRecord
100
AcDbLayerTableRecord
  2
0
 70
     0
 62
     7
  6
Continuous
370
    -3
390
F
  0
LAYER
  5
44
330
2
100
AcDbSymbolTableRecord
100
AcDbLayerTableRecord
  2
FORMAT
 70
     0
 62
     7
  6
Continuous
370
    -3
390
F
  0
LAYER
  5
45
330
2
100
AcDbSymbolTableRecord
100
AcDbLayerTableRecord
  2
SLD-0
 70
     0
 62
     1
  6
Continuous
370
    -3
390
F
  0
LAYER
  5
46
330
2
100
AcDbSymbolTableRecord
100
AcDbLayerTableRecord
  2
WATERMARK
 70
     0
 62
    20
  6
Continuous
370
    -3
390
F
  0
ENDTAB
  0
TABLE
  2
STYLE
  5
3
330
0
100
AcDbSymbolTable
 70
     1
  0
STYLE
  5
11
330
3
100
AcDbSymbolTableRecord
100
AcDbTextStyleTableRecord
  2
Standard
 70
     0
 40
0.0
 41
1.0
 50
0.0
 71
     0
 42
2.5
  3
txt
  4

  0
ENDTAB
  0
TABLE
  2
VIEW
  5
6
330
0
100
AcDbSymbolTable
 70
     0
  0
ENDTAB
  0
TABLE
  2
UCS
  5
7
330
0
100
AcDbSymbolTable
 70
     0
  0
ENDTAB
  0
TABLE
  2
APPID
  5
9
330
0
100
AcDbSymbolTable
 70
     1
  0
APPID
  5
12
330
9
100
AcDbSymbolTableRecord
100
AcDbRegAppTableRecord
  2
ACAD
 70
     0
  0
ENDTAB
  0
TABLE
  2
DIMSTYLE
  5
A
330
0
100
AcDbSymbolTable
 70
     1
100
AcDbDimStyleTable
  0
DIMSTYLE
105
27
330
A
100
AcDbSymbolTableRecord
100
AcDbDimStyleTableRecord
  2
ISO-25
 70
     0
 41
2.5
 42
0.625
 43
3.75
 44
1.25
 73
     0
 74
     0
 77
     1
 78
     8
140
2.5
141
2.5
143
0.0393700787
147
0.625
171
     3
172
     1
178
     0
271
     2
272
     2
274
     3
278
    44
283
     0
284
     8
340
11
  0
ENDTAB
  0
TABLE
  2
BLOCK_RECORD
  5
1
330
0
100
AcDbSymbolTable
 70
     1
  0
BLOCK_RECORD
  5
1F
330
1
100
AcDbSymbolTableRecord
100
AcDbBlockTableRecord
  2
*Model_Space
340
22
  0
BLOCK_RECORD
  5
1B
330
1
100
AcDbSymbolTableRecord
100
AcDbBlockTableRecord
  2
*Paper_Space
340
1E
  0
BLOCK_RECORD
  5
23
330
1
100
AcDbSymbolTableRecord
100
AcDbBlockTableRecord
  2
*Paper_Space0
340
26
  0
ENDTAB
  0
ENDSEC
  0
SECTION
  2
BLOCKS
  0
BLOCK
  5
20
330
1F
100
AcDbEntity
  8
0
100
AcDbBlockBegin
  2
*Model_Space
 70
     0
 10
0.0
 20
0.0
 30
0.0
  3
*Model_Space
  1

  0
ENDBLK
  5
21
330
1F
100
AcDbEntity
  8
0
100
AcDbBlockEnd
  0
BLOCK
  5
1C
330
1B
100
AcDbEntity
 67
     1
  8
0
100
AcDbBlockBegin
  2
*Paper_Space
 70
     0
 10
0.0
 20
0.0
 30
0.0
  3
*Paper_Space
  1

  0
ENDBLK
  5
1D
330
1B
100
AcDbEntity
 67
     1
  8
0
100
AcDbBlockEnd
  0
BLOCK
  5
24
330
23
100
AcDbEntity
  8
0
100
AcDbBlockBegin
  2
*Paper_Space0
 70
     0
 10
0.0
 20
0.0
 30
0.0
  3
*Paper_Space0
  1

  0
ENDBLK
  5
25
330
23
100
AcDbEntity
  8
0
100
AcDbBlockEnd
  0
ENDSEC
  0
SECTION
  2
ENTITIES
  0
LINE
  5
47
330
1F
100
AcDbEntity
  8
0
  6
Continuous
 62
     7
370
    15
100
AcDbLine
 10
200.3452107082
 20
219.4519245616
 30
0.0
 11
200.3602102171
 21
219.4519245616
 31
0.0
  0
SPLINE
  5
48
330
1F
100
AcDbEntity
  8
0
  6
Continuous
 62
     7
370
    15
100
AcDbSpline
210
0.0
220
0.0
230
1.0
 70
     8
 71
     3
 72
    13
 73
     9
 74
     0
 42
0.00000001
 43
0.00000001
 40
0.0
 40
0.0
 40
0.0
 40
0.0
 40
0.1560213264914483
 40
0.4086734564140725
 40
0.5953449255192017
 40
0.7561012174801601
 40
0.9248965665236775
 40
1.0
 40
1.0
 40
1.0
 40
1.0
 10
194.0653130183829
 20
150.6325319028142
 30
0.0
 10
194.065288368631
 20
150.6327537428907
 30
0.0
 10
194.065223802462
 20
150.6333348182658
 30
0.0
 10
194.0662560887889
 20
150.6356399764887
 30
0.0
 10
194.070831155593
 20
150.6396151522755
 30
0.0
 10
194.0776064957815
 20
150.6426695026415
 30
0.0
 10
194.084492271022
 20
150.6443289529827
 30
0.0
 10
194.0888637688808
 20
150.6442143213127
 30
0.0
 10
194.0902098785056
 20
150.6441790229323
 30
0.0
  0
ARC
  5
49
330
1F
100
AcDbEntity
  8
0
  6
Continuous
 62
     7
370
    15
100
AcDbCircle
 10
194.600209733
 20
150.6693681756
 30
0.0
 40
0.0250000000000057
100
AcDbArc
 50
270.0
 51
0.0
  0
LINE
  5
4A
330
1F
100
AcDbEntity
  8
0
  6
Continuous
 62
     7
370
    15
100
AcDbLine
 10
194.0902098785
 20
150.6443681745
 30
0.0
 11
194.6002110611
 21
150.6443681745
 31
0.0
  0
ARC
  5
4B
330
1F
100
AcDbEntity
  8
0
  6
Continuous
 62
     7
370
    15
100
AcDbCircle
 10
194.600209733
 20
151.1519848728
 30
0.0
 40
0.0250000000000341
100
AcDbArc
 50
0.0
 51
90.0
  0
LINE
  5
4C
330
1F
100
AcDbEntity
  8
0
  6
Continuous
 62
     7
370
    15
100
AcDbLine
 10
194.6002110611
 20
151.1769849426
 30
0.0
 11
194.0902098785
 21
151.1769849426
 31
0.0
  0
ARC
  5
4D
330
1F
100
AcDbEntity
  8
0
  6
Continuous
 62
     7
370
    15
100
AcDbCircle
 10
193.970209733
 20
151.121927242
 30
0.0
 40
0.0250000000000057
100
AcDbArc
 50
90.0
 51
180.0
  0
LINE
  5
4E
330
1F
100
AcDbEntity
  8
0
  6
Continuous
 62
     7
370
    15
100
AcDbLine
 10
193.9965322385
 20
151.1469272515
 30
0.0
 11
193.9702108274
 21
151.1469272515
 31
0.0
  0
LINE
  5
4F
330
1F
100
AcDbEntity
  8
0
  6
Continuous
 62
     7
370
    15
100
AcDbLine
 10
194.1473617921
 20
149.3768696112
 30
0.0
 11
194.6002110611
 21
149.3768696112
 31
0.0
  0
ARC
  5
50
330
1F
100
AcDbEntity
  8
0
  6
Continuous
 62
     7
370
    15
100
AcDbCircle
 10
194.600209733
 20
149.4018696112
 30
0.0
 40
0.0250000000000057
100
AcDbArc
 50
270.0
 51
0.0
  0
SPLINE
  5
51
330
1F
100
AcDbEntity
  8
0
  6
Continuous
 62
     7
370
    15
100
AcDbSpline
210
0.0
220
0.0
230
1.0
 70
     8
 71
     3
 72
    13
 73
     9
 74
     0
 42
0.00000001
 43
0.00000001
 40
0.0
 40
0.0
 40
0.0
 40
0.0
 40
0.1537037584943983
 40
0.4677905620506889
 40
0.6522780034991116
 40
0.8142410188908369
 40
0.9818150610683659
 40
1.0
 40
1.0
 40
1.0
 40
1.0
 10
194.0649702916755
 20
149.8431325508895
 30
0.0
 10
194.0650069537479
 20
149.84242468545
 30
0.0
 10
194.065118533137
 20
149.8402703284254
 30
0.0
 10
194.0628912886335
 20
149.8362113563534
 30
0.0
 10
194.056676994972
 20
149.8314016468621
 30
0.0
 10
194.0495312815212
 20
149.8286395428268
 30
0.0
 10
194.0436598518089
 20
149.8275227682394
 30
0.0
 10
194.0405452313885
 20
149.8277108967873
 30
0.0
 10
194.0402403245582
 20
149.8277293136957
 30
0.0
  0
LINE
  5
52
330
1F
100
AcDbEntity
  8
0
  6
Continuous
 62
     7
370
    15
100
AcDbLine
 10
194.0402105222
 20
149.8276654715
 30
0.0
 11
193.5302093397
 21
149.8276654715
 31
0.0
  0
ARC
  5
53
330
1F
100
AcDbEntity
  8
0
  6
Continuous
 62
     7
370
    15
100
AcDbCircle
 10
193.530209733
 20
149.8026654525
 30
0.0
 40
0.0250000000000057
100
AcDbArc
 50
90.0
 51
180.0
  0
ARC
  5
54
330
1F
100
AcDbEntity
  8
0
  6
Continuous
 62
     7
370
    15
100
AcDbCircle
 10
193.530209733
 20
149.358883331
 30
0.0
 40
0.0250000000000057
100
AcDbArc
 50
180.0
 51
270.0
  0
LINE
  5
55
330
1F
100
AcDbEntity
  8
0
  6
Continuous
 62
     7
370
    15
100
AcDbLine
 10
193.5302093397
 20
149.3338833298
 30
0.0
 11
194.0402105222
 21
149.3338833298
 31
0.0
  0
ARC
  5
56
330
1F
100
AcDbEntity
  8
0
  6
Continuous
 62
     7
370
    15
100
AcDbCircle
 10
194.160209733
 20
149.431927242
 30
0.0
 40
0.0250000000000057
100
AcDbArc
 50
301.0756875734
 51
0.0
  0
LINE
  5
57
330
1F
100
AcDbEntity
  8
0
  6
Continuous
 62
     7
370
    15
100
AcDbLine
 10
194.0402105222
 20
151.2199710673
 30
0.0
 11
193.5302093397
 21
151.2199710673
 31
0.0
  0
ARC
  5
58
330
1F
100
AcDbEntity
  8
0
  6
Continuous
 62
     7
370
    15
100
AcDbCircle
 10
193.530209733
 20
151.194971153
 30
0.0
 40
0.0250000000000057
100
AcDbArc
 50
90.0
 51
180.0
  0
LINE
  5
59
330
1F
100
AcDbEntity
  8
0
  6
Continuous
 62
     7
370
    15
100
AcDbLine
 10
194.7302087913
 20
149.7769272505
 30
0.0
 11
194.7498455415
 21
149.7429172127
 31
0.0
  0
LINE
  5
5A
330
1F
100
AcDbEntity
  8
0
  6
Continuous
 62
     7
370
    15
100
AcDbLine
 10
194.7498455415
 20
150.8109372659
 30
0.0
 11
194.7302087913
 21
150.7769272281
 31
0.0
  0
LINE
  5
5B
330
1F
100
AcDbEntity
  8
0
  6
Continuous
 62
     7
370
    15
100
AcDbLine
 10
194.7052106033
 20
150.7769272281
 30
0.0
 11
194.6963891159
 21
150.7922050162
 31
0.0
  0
LINE
  5
5C
330
1F
100
AcDbEntity
  8
0
  6
Continuous
 62
     7
370
    15
100
AcDbLine
 10
194.1852107416
 20
149.7769272505
 30
0.0
 11
194.1940292488
 21
149.7616494857
 31
0.0
  0
LINE
  5
5D
330
1F
100
AcDbEntity
  8
0
  6
Continuous
 62
     7
370
    15
100
AcDbLine
 10
194.6963891159
 20
149.7616494857
 30
0.0
 11
194.7052106033
 21
149.7769272505
 31
0.0
  0
LINE
  5
5E
330
1F
100
AcDbEntity
  8
0
  6
Continuous
 62
     7
370
    15
100
AcDbLine
 10
194.7302087913
 20
150.5769272885
 30
0.0
 11
194.7052106033
 21
150.5769272885
 31
0.0
  0
LINE
  5
5F
330
1F
100
AcDbEntity
  8
0
  6
Continuous
 62
     7
370
    15
100
AcDbLine
 10
194.7052106033
 20
149.9769272367
 30
0.0
 11
194.7302087913
 21
149.9769272367
 31
0.0
  0
ARC
  5
60
330
1F
100
AcDbEntity
  8
0
  6
Continuous
 62
     7
370
    15
100
AcDbCircle
 10
205.105209733
 20
130.526927242
 30
0.0
 40
0.2000000000000171
100
AcDbArc
 50
270.0
 51
0.0
  0
ARC
  5
61
330
1F
100
AcDbEntity
  8
0
  6
Continuous
 62
     7
370
    15
100
AcDbCircle
 10
199.805209733
 20
130.526927242
 30
0.0
 40
0.2000000000000171
100
AcDbArc
 50
180.0
 51
270.0
  0
LINE
  5
62
330
1F
100
AcDbEntity
  8
0
  6
Continuous
 62
     7
370
    15
100
AcDbLine
 10
205.3052097331
 20
130.5269265166
 30
0.0
 11
205.3052097331
 21
130.9269273272
 31
0.0
  0
LINE
  5
63
330
1F
100
AcDbEntity
  8
0
  6
Continuous
 62
     7
370
    15
100
AcDbLine
 10
199.6052101026
 20
130.9269273272
 30
0.0
 11
199.6052101026
 21
130.5269265166
 31
0.0
  0
LINE
  5
64
330
1F
100
AcDbEntity
  8
0
  6
Continuous
 62
     7
370
    15
100
AcDbLine
 10
263.8052090774
 20
130.5269265166
 30
0.0
 11
263.8052090774
 21
130.9269273272
 31
0.0
  0
LINE
  5
65
330
1F
100
AcDbEntity
  8
0
  6
Continuous
 62
     7
370
    15
100
AcDbLine
 10
258.1052109371
 20
130.9269273272
 30
0.0
 11
258.1052109371
 21
130.5269265166
 31
0.0
  0
ARC
  5
66
330
1F
100
AcDbEntity
  8
0
  6
Continuous
 62
     7
370
    15
100
AcDbCircle
 10
263.605209733
 20
130.526927242
 30
0.0
 40
0.2000000000000455
100
AcDbArc
 50
270.0
 51
0.0
  0
ARC
  5
67
330
1F
100
AcDbEntity
  8
0
  6
Continuous
 62
     7
370
    15
100
AcDbCircle
 10
258.305209733
 20
130.526927242
 30
0.0
 40
0.2000000000000171
100
AcDbArc
 50
180.0
 51
270.0
  0
LINE
  5
68
330
1F
100
AcDbEntity
  8
0
  6
Continuous
 62
     7
370
    15
100
AcDbLine
 10
205.2852093945
 20
130.9269273272
 30
0.0
 11
205.2852093945
 21
137.7269269517
 31
0.0
  0
LINE
  5
69
330
1F
100
AcDbEntity
  8
0
  6
Continuous
 62
     7
370
    15
100
AcDbLine
 10
199.6252104412
 20
137.7269269517
 30
0.0
 11
199.6252104412
 21
130.9269273272
 31
0.0
  0
LINE
  5
6A
330
1F
100
AcDbEntity
  8
0
  6
Continuous
 62
     7
370
    15
100
AcDbLine
 10
263.7852087389
 20
130.9269273272
 30
0.0
 11
263.7852087389
 21
137.7269269517
 31
0.0
  0
LINE
  5
6B
330
1F
100
AcDbEntity
  8
0
  6
Continuous
 62
     7
370
    15
100
AcDbLine
 10
258.1252082954
 20
137.7269269517
 30
0.0
 11
258.1252082954
 21
130.9269273272
 31
0.0
  0
ARC
  5
6C
330
1F
100
AcDbEntity
  8
0
  6
Continuous
 62
     7
370
    15
100
AcDbCircle
 10
205.795209733
 20
146.976927242
 30
0.0
 40
0.1500000000000341
100
AcDbArc
 50
90.0
 51
180.0
  0
ARC
  5
6D
330
1F
100
AcDbEntity
  8
0
  6
Continuous
 62
     7
370
    15
100
AcDbCircle
 10
199.115209733
 20
146.976927242
 30
0.0
 40
0.1500000000000057
100
AcDbArc
 50
0.0
 51
90.0
  0
LINE
  5
6E
330
1F
100
AcDbEntity
  8
0
  6
Continuous
 62
     7
370
    15
100
AcDbLine
 10
205.645209528
 20
138.3301840714
 30
0.0
 11
205.645209528
 21
146.9769272572
 31
0.0
  0
LINE
  5
6F
330
1F
100
AcDbEntity
  8
0
  6
Continuous
 62
     7
370
    15
100
AcDbLine
 10
199.2652103077
 20
146.9769272572
 30
0.0
 11
199.2652103077
 21
138.3301840714
 31
0.0
  0
ARC
  5
70
330
1F
100
AcDbEntity
  8
0
  6
Continuous
 62
     7
370
    15
100
AcDbCircle
 10
205.175209733
 20
138.3301838366
 30
0.0
 40
0.4700000000000281
100
AcDbArc
 50
350.5402980318
 51
0.0
  0
ARC
  5
71
330
1F
100
AcDbEntity
  8
0
  6
Continuous
 62
     7
370
    15
100
AcDbCircle
 10
199.735209733
 20
138.3301838366
 30
0.0
 40
0.4700000000000001
100
AcDbArc
 50
180.0
 51
189.4597019682
  0
LINE
  5
72
330
1F
100
AcDbEntity
  8
0
  6
Continuous
 62
     7
370
    15
100
AcDbLine
 10
199.2715999256
 20
138.2529371968
 30
0.0
 11
199.3592455755
 21
137.7269269517
 31
0.0
  0
LINE
  5
73
330
1F
100
AcDbEntity
  8
0
  6
Continuous
 62
     7
370
    15
100
AcDbLine
 10
205.5511742602
 20
137.7269269517
 30
0.0
 11
205.63881842
 21
138.2529371968
 31
0.0
  0
ARC
  5
74
330
1F
100
AcDbEntity
  8
0
  6
Continuous
 62
     7
370
    15
100
AcDbCircle
 10
264.295209733
 20
146.976927242
 30
0.0
 40
0.1500000000000341
100
AcDbArc
 50
90.0
 51
180.0
  0
ARC
  5
75
330
1F
100
AcDbEntity
  8
0
  6
Continuous
 62
     7
370
    15
100
AcDbCircle
 10
257.615209733
 20
146.976927242
 30
0.0
 40
0.1500000000000341
100
AcDbArc
 50
0.0
 51
90.0
  0
LINE
  5
76
330
1F
100
AcDbEntity
  8
0
  6
Continuous
 62
     7
370
    15
100
AcDbLine
 10
264.1452088724
 20
138.3301840714
 30
0.0
 11
264.1452088724
 21
146.9769272572
 31
0.0
  0
LINE
  5
77
330
1F
100
AcDbEntity
  8
0
  6
Continuous
 62
     7
370
    15
100
AcDbLine
 10
257.7652111421
 20
146.9769272572
 30
0.0
 11
257.7652111421
 21
138.3301840714
 31
0.0
  0
ARC
  5
78
330
1F
100
AcDbEntity
  8
0
  6
Continuous
 62
     7
370
    15
100
AcDbCircle
 10
263.675209733
 20
138.3301838366
 30
0.0
 40
0.4700000000000047
100
AcDbArc
 50
350.5402980318
 51
0.0
  0
ARC
  5
79
330
1F
100
AcDbEntity
  8
0
  6
Continuous
 62
     7
370
    15
100
AcDbCircle
 10
258.235209733
 20
138.3301838366
 30
0.0
 40
0.4700000000000047
100
AcDbArc
 50
180.0
 51
189.4597019682
  0
LINE
  5
7A
330
1F
100
AcDbEntity
  8
0
  6
Continuous
 62
     7
370
    15
100
AcDbLine
 10
257.77160076
 20
138.2529371968
 30
0.0
 11
257.8592434297
 21
137.7269269517
 31
0.0
  0
LINE
  5
7B
330
1F
100
AcDbEntity
  8
0
  6
Continuous
 62
     7
370
    15
100
AcDbLine
 10
264.0511736045
 20
137.7269269517
 30
0.0
 11
264.1388192545
 21
138.2529371968
 31
0.0
  0
LINE
  5
7C
330
1F
100
AcDbEntity
  8
0
  6
Continuous
 62
     7
370
    15
100
AcDbLine
 10
265.9352108608
 20
146.8349335334
 30
0.0
 11
265.9252092014
 21
146.8349335334
 31
0.0
  0
LINE
  5
7D
330
1F
100
AcDbEntity
  8
0
  6
Continuous
 62
     7
370
    15
100
AcDbLine
 10
265.9352108608
 20
145.8349333695
 30
0.0
 11
265.9252092014
 21
145.8349333695
 31
0.0
  0
LINE
  5
7E
330
1F
100
AcDbEntity
  8
0
  6
Continuous
 62
     7
370
    15
100
AcDbLine
 10
265.9352108608
 20
146.8349335334
 30
0.0
 11
265.9352108608
 21
145.8349333695
 31
0.0
  0
LINE
  5
7F
330
1F
100
AcDbEntity
  8
0
  6
Continuous
 62
     7
370
    15
100
AcDbLine
 10
265.94520954
 20
146.0906674704
 30
0.0
 11
265.94520954
 21
146.4406676209
 31
0.0
  0
LINE
  5
80
330
1F
100
AcDbEntity
  8
0
  6
Continuous
 62
     7
370
    15
100
AcDbLine
 10
265.94520954
 20
146.4406676209
 30
0.0
 11
265.9352108608
 21
146.4406676209
 31
0.0
  0
LINE
  5
81
330
1F
100
AcDbEntity
  8
0
  6
Continuous
 62
     7
370
    15
100
AcDbLine
 10
265.94520954
 20
146.0906674704
 30
0.0
 11
265.9352108608
 21
146.0906674704
 31
0.0
  0
LINE
  5
82
330
1F
100
AcDbEntity
  8
0
  6
Continuous
 62
     7
370
    15
100
AcDbLine
 10
265.94520954
 20
146.0816932461
 30
0.0
 11
265.9352108608
 21
146.0816932461
 31
0.0
  0
LINE
  5
83
330
1F
100
AcDbEntity
  8
0
  6
Continuous
 62
     7
370
    15
100
AcDbLine
 10
265.94520954
 20
146.4496420315
 30
0.0
 11
265.9352108608
 21
146.4496420315
 31
0.0
  0
LINE
  5
84
330
1F
100
AcDbEntity
  8
0
  6
Continuous
 62
     7
370
    15
100
AcDbLine
 10
200.5552097927
 20
219.2319297782
 30
0.0
 11
200.5552097927
 21
219.0819287291
 31
0.0
  0
LINE
  5
85
330
1F
100
AcDbEntity
  8
0
  6
Continuous
 62
     7
370
    15
100
AcDbLine
 10
200.5552097927
 20
219.0819287291
 30
0.0
 11
200.6052091489
 21
219.0819287291
 31
0.0
  0
ARC
  5
86
330
1F
100
AcDbEntity
  8
0
  6
Continuous
 62
     7
370
    15
100
AcDbCircle
 10
269.507590267
 20
216.996927242
 30
0.0
 40
2.210000000000011
100
AcDbArc
 50
293.5
 51
70.6373374103
  0
LINE
  5
87
330
1F
100
AcDbEntity
  8
0
  6
Continuous
 62
     7
370
    15
100
AcDbLine
 10
270.3888252149
 20
214.9702215186
 30
0.0
 11
268.0354043613
 21
213.9469289771
 31
0.0
  0
LINE
  5
88
330
1F
100
AcDbEntity
  8
0
  6
Continuous
 62
     7
370
    15
100
AcDbLine
 10
268.0354043613
 20
213.9469289771
 30
0.0
 11
267.9447963606
 21
213.9469289771
 31
0.0
  0
LINE
  5
89
330
1F
100
AcDbEntity
  8
0
  6
Continuous
 62
     7
370
    15
100
AcDbLine
 10
267.9447963606
 20
214.1319298736
 30
0.0
 11
267.9447963606
 21
213.9469289771
 31
0.0
  0
LINE
  5
8A
330
1F
100
AcDbEntity
  8
0
  6
Continuous
 62
     7
370
    15
100
AcDbLine
 10
267.8847953449
 20
214.1319298736
 30
0.0
 11
267.9447963606
 21
214.1319298736
 31
0.0
  0
LINE
  5
8B
330
1F
100
AcDbEntity
  8
0
  6
Continuous
 62
     7
370
    15
100
AcDbLine
 10
267.8847953449
 20
214.0719258777
 30
0.0
 11
267.8847953449
 21
214.1319298736
 31
0.0
  0
LINE
  5
8C
330
1F
100
AcDbEntity
  8
0
  6
Continuous
 62
     7
370
    15
100
AcDbLine
 10
195.6852093111
 20
214.0719258777
 30
0.0
 11
195.6852093111
 21
214.3269264689
 31
0.0
  0
LINE
  5
8D
330
1F
100
AcDbEntity
  8
0
  6
Continuous
 62
     7
370
    15
100
AcDbLine
 10
195.6852093111
 20
214.3269264689
 30
0.0
 11
195.4302087198
 21
214.3269264689
 31
0.0
  0
LINE
  5
8E
330
1F
100
AcDbEntity
  8
0
  6
Continuous
 62
     7
370
    15
100
AcDbLine
 10
195.4302087198
 20
219.2319297782
 30
0.0
 11
200.5552097927
 21
219.2319297782
 31
0.0
  0
ARC
  5
8F
330
1F
100
AcDbEntity
  8
0
  6
Continuous
 62
     7
370
    15
100
AcDbCircle
 10
268.257590267
 20
215.746927242
 30
0.0
 40
0.310000000000043
100
AcDbArc
 50
279.8650797973
 51
80.1349202027
  0
ARC
  5
90
330
1F
100
AcDbEntity
  8
0
  6
Continuous
 62
     7
370
    15
100
AcDbCircle
 10
268.306590267
 20
215.4671862904
 30
0.0
 40
0.0240000000000578
100
AcDbArc
 50
99.9352544307
 51
179.9999999997
  0
LINE
  5
91
330
1F
100
AcDbEntity
  8
0
  6
Continuous
 62
     7
370
    15
100
AcDbLine
 10
268.2825907837
 20
215.465154647
 30
0.0
 11
268.2825907837
 21
215.4671871653
 31
0.0
  0
ARC
  5
92
330
1F
100
AcDbEntity
  8
0
  6
Continuous
 62
     7
370
    15
100
AcDbCircle
 10
268.306590267
 20
215.4651560582
 30
0.0
 40
0.0240000000000578
100
AcDbArc
 50
180.0
 51
279.8650797973
  0
LINE
  5
93
330
1F
100
AcDbEntity
  8
0
  6
Continuous
 62
     7
370
    15
100
AcDbLine
 10
268.2325914274
 20
215.4671871653
 30
0.0
 11
268.2325914274
 21
215.465154647
 31
0.0
  0
ARC
  5
94
330
1F
100
AcDbEntity
  8
0
  6
Continuous
 62
     7
370
    15
100
AcDbCircle
 10
268.208590267
 20
215.4671862904
 30
0.0
 40
0.0240000000000009
100
AcDbArc
 50
0.0
 51
80.0647455693
  0
ARC
  5
95
330
1F
100
AcDbEntity
  8
0
  6
Continuous
 62
     7
370
    15
100
AcDbCircle
 10
268.208590267
 20
216.0266681936
 30
0.0
 40
0.0240000000000009
100
AcDbArc
 50
279.9352544307
 51
0.0
  0
ARC
  5
96
330
1F
100
AcDbEntity
  8
0
  6
Continuous
 62
     7
370
    15
100
AcDbCircle
 10
268.257590267
 20
215.746927242
 30
0.0
 40
0.3100000000000332
100
AcDbArc
 50
99.8650797973
 51
260.1349202027
  0
ARC
  5
97
330
1F
100
AcDbEntity
  8
0
  6
Continuous
 62
     7
370
    15
100
AcDbCircle
 10
268.208590267
 20
216.0286984258
 30
0.0
 40
0.0240000000000329
100
AcDbArc
 50
0.0
 51
99.8650797973
  0
LINE
  5
98
330
1F
100
AcDbEntity
  8
0
  6
Continuous
 62
     7
370
    15
100
AcDbLine
 10
268.2325914274
 20
216.0286986819
 30
0.0
 11
268.2325914274
 21
216.0266661635
 31
0.0
  0
ARC
  5
99
330
1F
100
AcDbEntity
  8
0
  6
Continuous
 62
     7
370
    15
100
AcDbCircle
 10
268.208590267
 20
215.4651560582
 30
0.0
 40
0.0240000000000009
100
AcDbArc
 50
260.1349202027
 51
0.0
  0
ARC
  5
9A
330
1F
100
AcDbEntity
  8
0
  6
Continuous
 62
     7
370
    15
100
AcDbCircle
 10
268.257590267
 20
215.746927242
 30
0.0
 40
0.2600000000000018
100
AcDbArc
 50
99.9352544307
 51
260.0647455693
  0
ARC
  5
9B
330
1F
100
AcDbEntity
  8
0
  6
Continuous
 62
     7
370
    15
100
AcDbCircle
 10
268.257590267
 20
215.746927242
 30
0.0
 40
0.2600000000000116
100
AcDbArc
 50
279.9352544307
 51
80.0647455693
  0
ARC
  5
9C
330
1F
100
AcDbEntity
  8
0
  6
Continuous
 62
     7
370
    15
100
AcDbCircle
 10
268.306590267
 20
216.0266681936
 30
0.0
 40
0.0240000000000578
100
AcDbArc
 50
180.0
 51
260.0647455693
  0
LINE
  5
9D
330
1F
100
AcDbEntity
  8
0
  6
Continuous
 62
     7
370
    15
100
AcDbLine
 10
268.2825907837
 20
216.0266661635
 30
0.0
 11
268.2825907837
 21
216.0286986819
 31
0.0
  0
ARC
  5
9E
330
1F
100
AcDbEntity
  8
0
  6
Continuous
 62
     7
370
    15
100
AcDbCircle
 10
268.306590267
 20
216.0286984258
 30
0.0
 40
0.0240000000000578
100
AcDbArc
 50
80.1349202027
 51
180.0
  0
LINE
  5
9F
330
1F
100
AcDbEntity
  8
0
  6
Continuous
 62
     7
370
    15
100
AcDbLine
 10
265.7802089821
 20
213.8269269458
 30
0.0
 11
267.8847953449
 21
213.8269269458
 31
0.0
  0
LINE
  5
A0
330
1F
100
AcDbEntity
  8
0
  6
Continuous
 62
     7
370
    15
100
AcDbLine
 10
195.6852093111
 20
213.8269269458
 30
0.0
 11
195.6852093111
 21
214.0719258777
 31
0.0
  0
LINE
  5
A1
330
1F
100
AcDbEntity
  8
0
  6
Continuous
 62
     7
370
    15
100
AcDbLine
 10
267.8847953449
 20
214.0719258777
 30
0.0
 11
267.8847953449
 21
213.8269269458
 31
0.0
  0
LINE
  5
A2
330
1F
100
AcDbEntity
  8
0
  6
Continuous
 62
     7
370
    15
100
AcDbLine
 10
195.4302087198
 20
214.3269264689
 30
0.0
 11
195.1852097879
 21
214.3269264689
 31
0.0
  0
LINE
  5
A3
330
1F
100
AcDbEntity
  8
0
  6
Continuous
 62
     7
370
    15
100
AcDbLine
 10
195.1852097879
 20
214.3269264689
 30
0.0
 11
195.1852097879
 21
219.2319297782
 31
0.0
  0
LINE
  5
A4
330
1F
100
AcDbEntity
  8
0
  6
Continuous
 62
     7
370
    15
100
AcDbLine
 10
195.1852097879
 20
219.2319297782
 30
0.0
 11
195.4302087198
 21
219.2319297782
 31
0.0
  0
LINE
  5
A5
330
1F
100
AcDbEntity
  8
0
  6
Continuous
 62
     7
370
    15
100
AcDbLine
 10
269.4284304748
 20
219.326927661
 30
0.0
 11
269.4976702104
 21
219.320049285
 31
0.0
  0
SPLINE
  5
A6
330
1F
100
AcDbEntity
  8
0
  6
Continuous
 62
     7
370
    15
100
AcDbSpline
210
0.0
220
0.0
230
1.0
 70
     8
 71
     3
 72
    11
 73
     7
 74
     0
 42
0.00000001
 43
0.00000001
 40
0.0
 40
0.0
 40
0.0
 40
0.0
 40
0.1475889392221734
 40
0.4376843913576106
 40
0.7152531067667319
 40
1.0
 40
1.0
 40
1.0
 40
1.0
 10
269.5458367238654
 20
219.3152630320433
 30
0.0
 10
269.5800113147234
 20
219.312790319906
 30
0.0
 10
269.6813582386758
 20
219.3054573347075
 30
0.0
 10
269.8469225214366
 20
219.2537740112388
 30
0.0
 10
270.0442255595316
 20
219.1751811941851
 30
0.0
 10
270.1743935192951
 20
219.1132762975304
 30
0.0
 10
270.2403083215369
 20
219.0819287291411
 30
0.0
  0
LINE
  5
A7
330
1F
100
AcDbEntity
  8
0
  6
Continuous
 62
     7
370
    15
100
AcDbLine
 10
200.6052091489
 20
219.0819287291
 30
0.0
 11
200.6052091489
 21
219.3268918982
 31
0.0
  0
LINE
  5
A8
330
1F
100
AcDbEntity
  8
0
  6
Continuous
 62
     7
370
    15
100
AcDbLine
 10
200.6052091489
 20
219.326927661
 30
0.0
 11
269.4284304748
 21
219.326927661
 31
0.0
  0
ARC
  5
A9
330
1F
100
AcDbEntity
  8
0
  6
Continuous
 62
     7
370
    15
100
AcDbCircle
 10
269.507590267
 20
216.996927242
 30
0.0
 40
2.330000000000013
100
AcDbArc
 50
293.5
 51
90.0
  0
LINE
  5
AA
330
1F
100
AcDbEntity
  8
0
  6
Continuous
 62
     7
370
    15
100
AcDbLine
 10
269.5075914035
 20
219.326927661
 30
0.0
 11
269.4884314905
 21
219.326927661
 31
0.0
  0
LINE
  5
AB
330
1F
100
AcDbEntity
  8
0
  6
Continuous
 62
     7
370
    15
100
AcDbLine
 10
268.1195661197
 20
213.8526701918
 30
0.0
 11
270.4366758237
 21
214.8601794234
 31
0.0
  0
LINE
  5
AC
330
1F
100
AcDbEntity
  8
0
  6
Continuous
 62
     7
370
    15
100
AcDbLine
 10
268.0717155109
 20
213.9627182475
 30
0.0
 11
268.1195661197
 21
213.8526701918
 31
0.0
  0
ARC
  5
AD
330
1F
100
AcDbEntity
  8
0
  6
Continuous
 62
     7
370
    15
100
AcDbCircle
 10
200.605209733
 20
219.451927242
 30
0.0
 40
0.1250000000000284
100
AcDbArc
 50
180.0
 51
270.0
  0
LINE
  5
AE
330
1F
100
AcDbEntity
  8
0
  6
Continuous
 62
     7
370
    15
100
AcDbLine
 10
200.6052091489
 20
219.3268918982
 30
0.0
 11
200.6052091489
 21
219.326927661
 31
0.0
  0
ARC
  5
AF
330
1F
100
AcDbEntity
  8
0
  6
Continuous
 62
     7
370
    15
100
AcDbCircle
 10
200.605209733
 20
219.451927242
 30
0.0
 40
0.2450000000000139
100
AcDbArc
 50
180.0
 51
243.8910943224
  0
LWPOLYLINE
  5
B0
330
1F
100
AcDbEntity
  8
0
  6
Continuous
 62
     7
370
    15
100
AcDbPolyline
 90
        3
 70
   128
 43
0.0
 10
200.5552097927
 20
219.2120814315
 10
200.5574121843
 20
219.2116343966
 10
200.6052091489
 20
219.2069256297
  0
LINE
  5
B1
330
1F
100
AcDbEntity
  8
0
  6
Continuous
 62
     7
370
    15
100
AcDbLine
 10
200.3602102171
 20
219.5300066462
 30
0.0
 11
200.3602102171
 21
219.4519245616
 31
0.0
  0
LINE
  5
B2
330
1F
100
AcDbEntity
  8
0
  6
Continuous
 62
     7
370
    15
100
AcDbLine
 10
200.4802092682
 20
220.5269300929
 30
0.0
 11
200.470210589
 21
220.5269300929
 31
0.0
  0
LINE
  5
B3
330
1F
100
AcDbEntity
  8
0
  6
Continuous
 62
     7
370
    15
100
AcDbLine
 10
269.4284304748
 20
219.326927661
 30
0.0
 11
269.4884314905
 21
219.326927661
 31
0.0
  0
LINE
  5
B4
330
1F
100
AcDbEntity
  8
0
  6
Continuous
 62
     7
370
    15
100
AcDbLine
 10
195.2652111421
 20
224.2048704615
 30
0.0
 11
195.3075632225
 21
224.2048704615
 31
0.0
  0
LINE
  5
B5
330
1F
100
AcDbEntity
  8
0
  6
Continuous
 62
     7
370
    15
100
AcDbLine
 10
195.3075632225
 20
224.2048704615
 30
0.0
 11
195.3075632225
 21
224.3125820151
 31
0.0
  0
LINE
  5
B6
330
1F
100
AcDbEntity
  8
0
  6
Continuous
 62
     7
370
    15
100
AcDbLine
 10
195.3075632225
 20
224.3125820151
 30
0.0
 11
198.6246689926
 21
223.4237635127
 31
0.0
  0
LINE
  5
B7
330
1F
100
AcDbEntity
  8
0
  6
Continuous
 62
     7
370
    15
100
AcDbLine
 10
200.3452107082
 20
219.5300066462
 30
0.0
 11
200.470210589
 21
219.5300066462
 31
0.0
  0
LINE
  5
B8
330
1F
100
AcDbEntity
  8
0
  6
Continuous
 62
     7
370
    15
100
AcDbLine
 10
200.470210589
 20
221.0186088076
 30
0.0
 11
200.470210589
 21
219.5300066462
 31
0.0
  0
ARC
  5
B9
330
1F
100
AcDbEntity
  8
0
  6
Continuous
 62
     7
370
    15
100
AcDbCircle
 10
197.980209733
 20
221.0186097721
 30
0.0
 40
2.490000000000038
100
AcDbArc
 50
0.0
 51
75.0
  0
LINE
  5
BA
330
1F
100
AcDbEntity
  8
0
  6
Continuous
 62
     7
370
    15
100
AcDbLine
 10
195.1027288805
 20
224.2048704615
 30
0.0
 11
195.2652111421
 21
224.2048704615
 31
0.0
  0
LINE
  5
BB
330
1F
100
AcDbEntity
  8
0
  6
Continuous
 62
     7
370
    15
100
AcDbLine
 10
195.0602099071
 20
219.5300066462
 30
0.0
 11
195.0602099071
 21
224.2048704615
 31
0.0
  0
LINE
  5
BC
330
1F
100
AcDbEntity
  8
0
  6
Continuous
 62
     7
370
    15
100
AcDbLine
 10
195.0602099071
 20
219.5300066462
 30
0.0
 11
195.2652111421
 21
219.5300066462
 31
0.0
  0
LINE
  5
BD
330
1F
100
AcDbEntity
  8
0
  6
Continuous
 62
     7
370
    15
100
AcDbLine
 10
200.3452107082
 20
219.3250083915
 30
0.0
 11
195.2652111421
 21
219.3250083915
 31
0.0
  0
LINE
  5
BE
330
1F
100
AcDbEntity
  8
0
  6
Continuous
 62
     7
370
    15
100
AcDbLine
 10
200.3452107082
 20
219.3250083915
 30
0.0
 11
200.3452107082
 21
219.5300066462
 31
0.0
  0
LINE
  5
BF
330
1F
100
AcDbEntity
  8
0
  6
Continuous
 62
     7
370
    15
100
AcDbLine
 10
195.2652111421
 20
219.3250083915
 30
0.0
 11
195.2652111421
 21
219.5300066462
 31
0.0
  0
ARC
  5
C0
330
1F
100
AcDbEntity
  8
0
  6
Continuous
 62
     7
370
    15
100
AcDbCircle
 10
197.980209733
 20
221.0186097721
 30
0.0
 40
2.500000000000021
100
AcDbArc
 50
0.0
 51
75.0
  0
ARC
  5
C1
330
1F
100
AcDbEntity
  8
0
  6
Continuous
 62
     7
370
    15
100
AcDbCircle
 10
197.980209733
 20
221.0186097721
 30
0.0
 40
2.580000000000013
100
AcDbArc
 50
0.0
 51
75.0
  0
LINE
  5
C2
330
1F
100
AcDbEntity
  8
0
  6
Continuous
 62
     7
370
    15
100
AcDbLine
 10
200.5602106224
 20
221.0186088076
 30
0.0
 11
200.5602106224
 21
219.4519245616
 31
0.0
  0
LINE
  5
C3
330
1F
100
AcDbEntity
  8
0
  6
Continuous
 62
     7
370
    15
100
AcDbLine
 10
200.4802092682
 20
219.4519245616
 30
0.0
 11
200.5602106224
 21
219.4519245616
 31
0.0
  0
LINE
  5
C4
330
1F
100
AcDbEntity
  8
0
  6
Continuous
 62
     7
370
    15
100
AcDbLine
 10
200.4802092682
 20
221.0186088076
 30
0.0
 11
200.4802092682
 21
219.4519245616
 31
0.0
  0
LINE
  5
C5
330
1F
100
AcDbEntity
  8
0
  6
Continuous
 62
     7
370
    15
100
AcDbLine
 10
195.1402082811
 20
214.1677761069
 30
0.0
 11
195.1402082811
 21
213.6677765838
 31
0.0
  0
LINE
  5
C6
330
1F
100
AcDbEntity
  8
0
  6
Continuous
 62
     7
370
    15
100
AcDbLine
 10
195.1402082811
 20
213.6677765838
 30
0.0
 11
195.0602099071
 21
213.6677765838
 31
0.0
  0
LINE
  5
C7
330
1F
100
AcDbEntity
  8
0
  6
Continuous
 62
     7
370
    15
100
AcDbLine
 10
195.0602099071
 20
213.6677765838
 30
0.0
 11
195.0602099071
 21
214.1677761069
 31
0.0
  0
LINE
  5
C8
330
1F
100
AcDbEntity
  8
0
  6
Continuous
 62
     7
370
    15
100
AcDbLine
 10
195.1402082811
 20
214.1677761069
 30
0.0
 11
195.1402082811
 21
219.2850077144
 31
0.0
  0
LINE
  5
C9
330
1F
100
AcDbEntity
  8
0
  6
Continuous
 62
     7
370
    15
100
AcDbLine
 10
195.0602099071
 20
214.1677761069
 30
0.0
 11
195.0602099071
 21
219.2850077144
 31
0.0
  0
LINE
  5
CA
330
1F
100
AcDbEntity
  8
0
  6
Continuous
 62
     7
370
    15
100
AcDbLine
 10
195.1402082811
 20
219.2850077144
 30
0.0
 11
195.0602099071
 21
219.2850077144
 31
0.0
  0
LINE
  5
CB
330
1F
100
AcDbEntity
  8
0
  6
Continuous
 62
     7
370
    15
100
AcDbLine
 10
195.1027288805
 20
224.2048704615
 30
0.0
 11
195.0602099071
 21
224.2048704615
 31
0.0
  0
ARC
  5
CC
330
1F
100
AcDbEntity
  8
0
  6
Continuous
 62
     7
370
    15
100
AcDbCircle
 10
195.265209733
 20
224.204872758
 30
0.0
 40
0.125
100
AcDbArc
 50
75.0
 51
180.0
  0
ARC
  5
CD
330
1F
100
AcDbEntity
  8
0
  6
Continuous
 62
     7
370
    15
100
AcDbCircle
 10
195.265209733
 20
224.204872758
 30
0.0
 40
0.2050000000000125
100
AcDbArc
 50
75.0
 51
180.0
  0
LINE
  5
CE
330
1F
100
AcDbEntity
  8
0
  6
Continuous
 62
     7
370
    15
100
AcDbLine
 10
195.3182682167
 20
224.4028890124
 30
0.0
 11
198.6479624878
 21
223.5106968871
 31
0.0
  0
LINE
  5
CF
330
1F
100
AcDbEntity
  8
0
  6
Continuous
 62
     7
370
    15
100
AcDbLine
 10
195.2975615631
 20
224.3256115905
 30
0.0
 11
198.6272588144
 21
223.4334254256
 31
0.0
  0
LINE
  5
D0
330
1F
100
AcDbEntity
  8
0
  6
Continuous
 62
     7
370
    15
100
AcDbLine
 10
195.1402082811
 20
219.3250083915
 30
0.0
 11
195.0602099071
 21
219.3250083915
 31
0.0
  0
LINE
  5
D1
330
1F
100
AcDbEntity
  8
0
  6
Continuous
 62
     7
370
    15
100
AcDbLine
 10
195.0602099071
 20
219.3250083915
 30
0.0
 11
195.0602099071
 21
219.5300066462
 31
0.0
  0
LINE
  5
D2
330
1F
100
AcDbEntity
  8
0
  6
Continuous
 62
     7
370
    15
100
AcDbLine
 10
195.1402082811
 20
219.3250083915
 30
0.0
 11
195.1402082811
 21
219.5300066462
 31
0.0
  0
LINE
  5
D3
330
1F
100
AcDbEntity
  8
0
  6
Continuous
 62
     7
370
    15
100
AcDbLine
 10
195.0602099071
 20
219.3250083915
 30
0.0
 11
195.0602099071
 21
219.2850077144
 31
0.0
  0
LINE
  5
D4
330
1F
100
AcDbEntity
  8
0
  6
Continuous
 62
     7
370
    15
100
AcDbLine
 10
195.1402082811
 20
219.2850077144
 30
0.0
 11
195.1402082811
 21
219.3250083915
 31
0.0
  0
SPLINE
  5
D5
330
1F
100
AcDbEntity
  8
0
  6
Continuous
 62
     7
370
    15
100
AcDbSpline
210
0.0
220
0.0
230
1.0
 70
     8
 71
     3
 72
    13
 73
     9
 74
     0
 42
0.00000001
 43
0.00000001
 40
0.0
 40
0.0
 40
0.0
 40
0.0
 40
0.0075443962178204
 40
0.2722636262632843
 40
0.4815274178446549
 40
0.6613569145005066
 40
0.8304133698671662
 40
1.0
 40
1.0
 40
1.0
 40
1.0
 10
193.9452096591605
 20
150.6102587646487
 30
0.0
 10
193.9452104967339
 20
150.6102372857077
 30
0.0
 10
193.9452407232449
 20
150.60946214954
 30
0.0
 10
193.9463710301399
 20
150.6080665942606
 30
0.0
 10
193.9506553618539
 20
150.6063315123115
 30
0.0
 10
193.9562195059949
 20
150.6051150769005
 30
0.0
 10
193.9628329489465
 20
150.6043039443287
 30
0.0
 10
193.9677489691063
 20
150.6041969847457
 30
0.0
 10
193.9702108274116
 20
150.604143421227
 30
0.0
  0
LINE
  5
D6
330
1F
100
AcDbEntity
  8
0
  6
Continuous
 62
     7
370
    15
100
AcDbLine
 10
193.9452096592
 20
149.8276654715
 30
0.0
 11
193.9452096592
 21
150.6102587646
 31
0.0
  0
SPLINE
  5
D7
330
1F
100
AcDbEntity
  8
0
  6
Continuous
 62
     7
370
    15
100
AcDbSpline
210
0.0
220
0.0
230
1.0
 70
     8
 71
     3
 72
    13
 73
     9
 74
     0
 42
0.00000001
 43
0.00000001
 40
0.0
 40
0.0
 40
0.0
 40
0.0
 40
0.1695236391614142
 40
0.3386447496257718
 40
0.5184792331766584
 40
0.7277176792183407
 40
0.9924557079308111
 40
0.9999999999999999
 40
0.9999999999999999
 40
0.9999999999999999
 40
0.9999999999999999
 10
194.0402105222358
 20
150.604143421227
 30
0.0
 10
194.0426713238544
 20
150.6041970493093
 30
0.0
 10
194.0475870839936
 20
150.6043041781357
 30
0.0
 10
194.0542006532511
 20
150.6051148804237
 30
0.0
 10
194.0597690919163
 20
150.6063313842993
 30
0.0
 10
194.064032968962
 20
150.6080668710918
 30
0.0
 10
194.0652151142701
 20
150.6094620837482
 30
0.0
 10
194.0652088829106
 20
150.6102372856574
 30
0.0
 10
194.0652087102546
 20
150.6102587646487
 30
0.0
  0
LINE
  5
D8
330
1F
100
AcDbEntity
  8
0
  6
Continuous
 62
     7
370
    15
100
AcDbLine
 10
194.0652087103
 20
150.6102587646
 30
0.0
 11
194.0652087103
 21
149.859941247
 31
0.0
  0
LINE
  5
D9
330
1F
100
AcDbEntity
  8
0
  6
Continuous
 62
     7
370
    15
100
AcDbLine
 10
194.0402105222
 20
150.6041434212
 30
0.0
 11
193.9702108274
 21
150.6041434212
 31
0.0
  0
SPLINE
  5
DA
330
1F
100
AcDbEntity
  8
0
  6
Continuous
 62
     7
370
    15
100
AcDbSpline
210
0.0
220
0.0
230
1.0
 70
     8
 71
     3
 72
    12
 73
     8
 74
     0
 42
0.00000001
 43
0.00000001
 40
0.0
 40
0.0
 40
0.0
 40
0.0
 40
0.2028181718609118
 40
0.4049473717596658
 40
0.609830284197322
 40
0.8226929887497929
 40
0.9999999999999999
 40
0.9999999999999999
 40
0.9999999999999999
 40
0.9999999999999999
 10
194.0902098785056
 20
151.1739711827281
 30
0.0
 10
194.0744959865708
 20
151.1728495404163
 30
0.0
 10
194.0431215826863
 20
151.170610066004
 30
0.0
 10
194.0010818831092
 20
151.1532043268694
 30
0.0
 10
193.9683741185045
 20
151.1272995656656
 30
0.0
 10
193.9485537254587
 20
151.0960985423379
 30
0.0
 10
193.9462545062397
 20
151.0739629547361
 30
0.0
 10
193.9452096591605
 20
151.0639037555698
 30
0.0
  0
SPLINE
  5
DB
330
1F
100
AcDbEntity
  8
0
  6
Continuous
 62
     7
370
    15
100
AcDbSpline
210
0.0
220
0.0
230
1.0
 70
     8
 71
     3
 72
    12
 73
     8
 74
     0
 42
0.00000001
 43
0.00000001
 40
0.0
 40
0.0
 40
0.0
 40
0.0
 40
0.2289434110231754
 40
0.4594201983600292
 40
0.6825389997009298
 40
0.8947203974550479
 40
1.0
 40
1.0
 40
1.0
 40
1.0
 10
193.9452096591605
 20
150.6325074090305
 30
0.0
 10
193.9469428928416
 20
150.6441121964788
 30
0.0
 10
193.9504209687469
 20
150.6673994958495
 30
0.0
 10
193.9778081520123
 20
150.6982887813821
 30
0.0
 10
194.0175129376766
 20
150.7205750116717
 30
0.0
 10
194.057600501086
 20
150.7306002158809
 30
0.0
 10
194.0820888173374
 20
150.7314528720194
 30
0.0
 10
194.0902098785056
 20
150.7317356384042
 30
0.0
  0
LINE
  5
DC
330
1F
100
AcDbEntity
  8
0
  6
Continuous
 62
     7
370
    15
100
AcDbLine
 10
193.9452096592
 20
150.632507409
 30
0.0
 11
193.9452096592
 21
151.0639037556
 31
0.0
  0
LINE
  5
DD
330
1F
100
AcDbEntity
  8
0
  6
Continuous
 62
     7
370
    15
100
AcDbLine
 10
194.6252092491
 20
151.1519848919
 30
0.0
 11
194.6252092491
 21
150.7205884522
 31
0.0
  0
LINE
  5
DE
330
1F
100
AcDbEntity
  8
0
  6
Continuous
 62
     7
370
    15
100
AcDbLine
 10
194.6252092491
 20
150.7205884522
 30
0.0
 11
194.6252092491
 21
150.6693681321
 31
0.0
  0
LINE
  5
DF
330
1F
100
AcDbEntity
  8
0
  6
Continuous
 62
     7
370
    15
100
AcDbLine
 10
193.9452096592
 20
150.6102587646
 30
0.0
 11
193.9452096592
 21
150.632507409
 31
0.0
  0
LINE
  5
E0
330
1F
100
AcDbEntity
  8
0
  6
Continuous
 62
     7
370
    15
100
AcDbLine
 10
194.0652087103
 20
150.632507409
 30
0.0
 11
194.0652087103
 21
150.6102587646
 31
0.0
  0
LINE
  5
E1
330
1F
100
AcDbEntity
  8
0
  6
Continuous
 62
     7
370
    15
100
AcDbLine
 10
194.0902098785
 20
151.1769849426
 30
0.0
 11
194.0902098785
 21
151.1739711827
 31
0.0
  0
LINE
  5
E2
330
1F
100
AcDbEntity
  8
0
  6
Continuous
 62
     7
370
    15
100
AcDbLine
 10
193.9452096592
 20
151.0639037556
 30
0.0
 11
193.9452096592
 21
151.1219272009
 31
0.0
  0
LINE
  5
E3
330
1F
100
AcDbEntity
  8
0
  6
Continuous
 62
     7
370
    15
100
AcDbLine
 10
194.6252092491
 20
149.4530898545
 30
0.0
 11
194.6252092491
 21
149.40186961
 31
0.0
  0
LINE
  5
E4
330
1F
100
AcDbEntity
  8
0
  6
Continuous
 62
     7
370
    15
100
AcDbLine
 10
194.6252092491
 20
149.7267954136
 30
0.0
 11
194.6252092491
 21
149.4530898545
 31
0.0
  0
SPLINE
  5
E5
330
1F
100
AcDbEntity
  8
0
  6
Continuous
 62
     7
370
    15
100
AcDbSpline
210
0.0
220
0.0
230
1.0
 70
     8
 71
     3
 72
    13
 73
     9
 74
     0
 42
0.00000001
 43
0.00000001
 40
0.0
 40
0.0
 40
0.0
 40
0.0
 40
0.0075490011963061
 40
0.2722815903817967
 40
0.4815230743376024
 40
0.6613548476341338
 40
0.8304772312898624
 40
1.0
 40
1.0
 40
1.0
 40
1.0
 10
194.1852107415808
 20
149.8675951818618
 30
0.0
 10
194.1852099049525
 20
149.8676058736839
 30
0.0
 10
194.1851797289724
 20
149.8679915122931
 30
0.0
 10
194.1840442450063
 20
149.8686932820305
 30
0.0
 10
194.1797657427582
 20
149.8695801970751
 30
0.0
 10
194.174200190682
 20
149.8702086069433
 30
0.0
 10
194.1675860546766
 20
149.8706305765905
 30
0.0
 10
194.1626703377531
 20
149.8706865082386
 30
0.0
 10
194.1602095733298
 20
149.8707145071271
 30
0.0
  0
LINE
  5
E6
330
1F
100
AcDbEntity
  8
0
  6
Continuous
 62
     7
370
    15
100
AcDbLine
 10
194.1852107416
 20
150.6443681745
 30
0.0
 11
194.1852107416
 21
149.8675951819
 31
0.0
  0
SPLINE
  5
E7
330
1F
100
AcDbEntity
  8
0
  6
Continuous
 62
     7
370
    15
100
AcDbSpline
210
0.0
220
0.0
230
1.0
 70
     8
 71
     3
 72
    13
 73
     9
 74
     0
 42
0.00000001
 43
0.00000001
 40
0.0
 40
0.0
 40
0.0
 40
0.0
 40
0.1695227687101377
 40
0.3386451523658663
 40
0.5184769256623976
 40
0.7277184096182033
 40
0.9924509988036938
 40
1.0
 40
1.0
 40
1.0
 40
1.0
 10
194.0902098785056
 20
149.8707145071271
 30
0.0
 10
194.0877491140823
 20
149.8706865082386
 30
0.0
 10
194.0828333971588
 20
149.8706305765905
 30
0.0
 10
194.0762192611535
 20
149.8702086069433
 30
0.0
 10
194.0706537090772
 20
149.8695801970751
 30
0.0
 10
194.0663752068291
 20
149.8686932820305
 30
0.0
 10
194.0652397228631
 20
149.8679915122931
 30
0.0
 10
194.065209546883
 20
149.8676058736839
 30
0.0
 10
194.0652087102546
 20
149.8675951818618
 30
0.0
  0
LINE
  5
E8
330
1F
100
AcDbEntity
  8
0
  6
Continuous
 62
     7
370
    15
100
AcDbLine
 10
194.0652087103
 20
149.8675951819
 30
0.0
 11
194.0652087103
 21
150.6102587646
 31
0.0
  0
LINE
  5
E9
330
1F
100
AcDbEntity
  8
0
  6
Continuous
 62
     7
370
    15
100
AcDbLine
 10
194.0902098785
 20
149.8707145071
 30
0.0
 11
194.1602095733
 21
149.8707145071
 31
0.0
  0
SPLINE
  5
EA
330
1F
100
AcDbEntity
  8
0
  6
Continuous
 62
     7
370
    15
100
AcDbSpline
210
0.0
220
0.0
230
1.0
 70
     8
 71
     3
 72
    12
 73
     8
 74
     0
 42
0.00000001
 43
0.00000001
 40
0.0
 40
0.0
 40
0.0
 40
0.0
 40
0.202818192773817
 40
0.404947153846739
 40
0.6098305439769786
 40
0.8226929884283543
 40
1.0
 40
1.0
 40
1.0
 40
1.0
 10
194.0402105222358
 20
149.3358169010057
 30
0.0
 10
194.0559244063493
 20
149.3370392462483
 30
0.0
 10
194.0872987744995
 20
149.33947978287
 30
0.0
 10
194.1293386083339
 20
149.3584445721191
 30
0.0
 10
194.1620462086738
 20
149.3866577932532
 30
0.0
 10
194.1818666929791
 20
149.4206224436671
 30
0.0
 10
194.1841658995513
 20
149.4446970913544
 30
0.0
 10
194.1852107415808
 20
149.4556374757699
 30
0.0
  0
SPLINE
  5
EB
330
1F
100
AcDbEntity
  8
0
  6
Continuous
 62
     7
370
    15
100
AcDbSpline
210
0.0
220
0.0
230
1.0
 70
     8
 71
     3
 72
    12
 73
     8
 74
     0
 42
0.00000001
 43
0.00000001
 40
0.0
 40
0.0
 40
0.0
 40
0.0
 40
0.2289473597337687
 40
0.4594260979865374
 40
0.6825364915374171
 40
0.8947195673389019
 40
1.0
 40
1.0
 40
1.0
 40
1.0
 10
194.1852107415808
 20
149.8431558339539
 30
0.0
 10
194.1834763038321
 20
149.8302678862063
 30
0.0
 10
194.179995827062
 20
149.8044057860641
 30
0.0
 10
194.1526095057866
 20
149.770145012824
 30
0.0
 10
194.1129071198159
 20
149.7454381958093
 30
0.0
 10
194.0728198559081
 20
149.7343301878562
 30
0.0
 10
194.0483315724126
 20
149.7333852641721
 30
0.0
 10
194.0402105222358
 20
149.7330718991029
 30
0.0
  0
LINE
  5
EC
330
1F
100
AcDbEntity
  8
0
  6
Continuous
 62
     7
370
    15
100
AcDbLine
 10
194.1852107416
 20
149.843155834
 30
0.0
 11
194.1852107416
 21
149.4556374758
 31
0.0
  0
LINE
  5
ED
330
1F
100
AcDbEntity
  8
0
  6
Continuous
 62
     7
370
    15
100
AcDbLine
 10
193.5052111517
 20
149.358883331
 30
0.0
 11
193.5052111517
 21
149.7464016863
 31
0.0
  0
LINE
  5
EE
330
1F
100
AcDbEntity
  8
0
  6
Continuous
 62
     7
370
    15
100
AcDbLine
 10
193.5052111517
 20
149.7464016863
 30
0.0
 11
193.5052111517
 21
149.8026654674
 31
0.0
  0
LINE
  5
EF
330
1F
100
AcDbEntity
  8
0
  6
Continuous
 62
     7
370
    15
100
AcDbLine
 10
194.1852107416
 20
149.8675951819
 30
0.0
 11
194.1852107416
 21
149.843155834
 31
0.0
  0
LINE
  5
F0
330
1F
100
AcDbEntity
  8
0
  6
Continuous
 62
     7
370
    15
100
AcDbLine
 10
194.0652087103
 20
149.843155834
 30
0.0
 11
194.0652087103
 21
149.8675951819
 31
0.0
  0
LINE
  5
F1
330
1F
100
AcDbEntity
  8
0
  6
Continuous
 62
     7
370
    15
100
AcDbLine
 10
194.0402105222
 20
149.3338833298
 30
0.0
 11
194.0402105222
 21
149.335816901
 31
0.0
  0
LINE
  5
F2
330
1F
100
AcDbEntity
  8
0
  6
Continuous
 62
     7
370
    15
100
AcDbLine
 10
194.1852107416
 20
149.4556374758
 30
0.0
 11
194.1852107416
 21
149.4319272428
 31
0.0
  0
SPLINE
  5
F3
330
1F
100
AcDbEntity
  8
0
  6
Continuous
 62
     7
370
    15
100
AcDbSpline
210
0.0
220
0.0
230
1.0
 70
     8
 71
     3
 72
    10
 73
     6
 74
     0
 42
0.00000001
 43
0.00000001
 40
0.0
 40
0.0
 40
0.0
 40
0.0
 40
0.3816812108365721
 40
0.7620646087369016
 40
0.9999999999999999
 40
0.9999999999999999
 40
0.9999999999999999
 40
0.9999999999999999
 10
194.0402105222358
 20
151.2180376416686
 30
0.0
 10
194.0558353961888
 20
151.2167519062675
 30
0.0
 10
194.0870320155599
 20
151.2141848072917
 30
0.0
 10
194.1248274422417
 20
151.198487806254
 30
0.0
 10
194.1410999606917
 20
151.1829601452689
 30
0.0
 10
194.1473617921485
 20
151.1769849425796
 30
0.0
  0
LINE
  5
F4
330
1F
100
AcDbEntity
  8
0
  6
Continuous
 62
     7
370
    15
100
AcDbLine
 10
193.5052111517
 20
151.1387073985
 30
0.0
 11
193.5052111517
 21
151.1949712029
 31
0.0
  0
LINE
  5
F5
330
1F
100
AcDbEntity
  8
0
  6
Continuous
 62
     7
370
    15
100
AcDbLine
 10
193.5052111517
 20
150.8085978768
 30
0.0
 11
193.5052111517
 21
151.1387073985
 31
0.0
  0
LINE
  5
F6
330
1F
100
AcDbEntity
  8
0
  6
Continuous
 62
     7
370
    15
100
AcDbLine
 10
195.2055528532
 20
150.0865439503
 30
0.0
 11
195.225210465
 21
150.0036025039
 31
0.0
  0
LINE
  5
F7
330
1F
100
AcDbEntity
  8
0
  6
Continuous
 62
     7
370
    15
100
AcDbLine
 10
195.225210465
 20
149.7871692377
 30
0.0
 11
195.2055528532
 21
149.709702082
 31
0.0
  0
LINE
  5
F8
330
1F
100
AcDbEntity
  8
0
  6
Continuous
 62
     7
370
    15
100
AcDbLine
 10
195.2055528532
 20
149.709702082
 30
0.0
 11
194.7748675714
 21
149.709702082
 31
0.0
  0
SPLINE
  5
F9
330
1F
100
AcDbEntity
  8
0
  6
Continuous
 62
     7
370
    15
100
AcDbSpline
210
0.0
220
0.0
230
1.0
 70
     8
 71
     3
 72
     9
 73
     5
 74
     0
 42
0.00000001
 43
0.00000001
 40
0.0
 40
0.0
 40
0.0
 40
0.0
 40
0.0702007164988279
 40
1.0
 40
1.0
 40
1.0
 40
1.0
 10
194.7302087913169
 20
149.8981230045351
 30
0.0
 10
194.7302538759139
 20
149.8936563198891
 30
0.0
 10
194.7308961000857
 20
149.8300289828941
 30
0.0
 10
194.7536816155043
 20
149.7676769539121
 30
0.0
 10
194.7748675714148
 20
149.7097020820397
 30
0.0
  0
LINE
  5
FA
330
1F
100
AcDbEntity
  8
0
  6
Continuous
 62
     7
370
    15
100
AcDbLine
 10
194.7748675714
 20
150.0865439503
 30
0.0
 11
194.7302087913
 21
149.8981230045
 31
0.0
  0
LINE
  5
FB
330
1F
100
AcDbEntity
  8
0
  6
Continuous
 62
     7
370
    15
100
AcDbLine
 10
195.2055528532
 20
150.0865439503
 30
0.0
 11
194.7748675714
 21
150.0865439503
 31
0.0
  0
SPLINE
  5
FC
330
1F
100
AcDbEntity
  8
0
  6
Continuous
 62
     7
370
    15
100
AcDbSpline
210
0.0
220
0.0
230
1.0
 70
     8
 71
     3
 72
     9
 73
     5
 74
     0
 42
0.00000001
 43
0.00000001
 40
0.0
 40
0.0
 40
0.0
 40
0.0
 40
0.9250518972519731
 40
1.0
 40
1.0
 40
1.0
 40
1.0
 10
195.2055528531684
 20
150.0865439503136
 30
0.0
 10
195.2134049697932
 20
150.1101477828714
 30
0.0
 10
195.2218932682856
 20
150.1356640080993
 30
0.0
 10
195.2249791816625
 20
150.1621813324363
 30
0.0
 10
195.2252104650153
 20
150.1641687555853
 30
0.0
  0
SPLINE
  5
FD
330
1F
100
AcDbEntity
  8
0
  6
Continuous
 62
     7
370
    15
100
AcDbSpline
210
0.0
220
0.0
230
1.0
 70
     8
 71
     3
 72
     9
 73
     5
 74
     0
 42
0.00000001
 43
0.00000001
 40
0.0
 40
0.0
 40
0.0
 40
0.0
 40
0.2575500832692854
 40
0.9999999999999999
 40
0.9999999999999999
 40
0.9999999999999999
 40
0.9999999999999999
 10
194.7748675714149
 20
150.0865439503136
 30
0.0
 10
194.7681267755703
 20
150.1103537661806
 30
0.0
 10
194.7419540181826
 20
150.2028010896865
 30
0.0
 10
194.7352133786079
 20
150.2988471506398
 30
0.0
 10
194.7302087913169
 20
150.3701565405968
 30
0.0
  0
LINE
  5
FE
330
1F
100
AcDbEntity
  8
0
  6
Continuous
 62
     7
370
    15
100
AcDbLine
 10
194.7302087913
 20
149.8981230045
 30
0.0
 11
194.7302087913
 21
150.3701565406
 31
0.0
  0
SPLINE
  5
FF
330
1F
100
AcDbEntity
  8
0
  6
Continuous
 62
     7
370
    15
100
AcDbSpline
210
0.0
220
0.0
230
1.0
 70
     8
 71
     3
 72
     9
 73
     5
 74
     0
 42
0.00000001
 43
0.00000001
 40
0.0
 40
0.0
 40
0.0
 40
0.0
 40
0.2686341088066498
 40
1.0
 40
1.0
 40
1.0
 40
1.0
 10
194.7302087913169
 20
150.3701565405968
 30
0.0
 10
194.730872462644
 20
150.3959448548728
 30
0.0
 10
194.7333430027034
 20
150.491942769622
 30
0.0
 10
194.757326707663
 20
150.5854102233134
 30
0.0
 10
194.7748675714149
 20
150.6537691308799
 30
0.0
  0
LINE
  5
100
330
1F
100
AcDbEntity
  8
0
  6
Continuous
 62
     7
370
    15
100
AcDbLine
 10
195.2055528532
 20
150.6537691309
 30
0.0
 11
194.7748675714
 21
150.6537691309
 31
0.0
  0
LINE
  5
101
330
1F
100
AcDbEntity
  8
0
  6
Continuous
 62
     7
370
    15
100
AcDbLine
 10
195.225210465
 20
150.5550733386
 30
0.0
 11
195.2055528532
 21
150.6537691309
 31
0.0
  0
LINE
  5
102
330
1F
100
AcDbEntity
  8
0
  6
Continuous
 62
     7
370
    15
100
AcDbLine
 10
195.225210465
 20
150.6929060994
 30
0.0
 11
195.2055528532
 21
150.6537691309
 31
0.0
  0
SPLINE
  5
103
330
1F
100
AcDbEntity
  8
0
  6
Continuous
 62
     7
370
    15
100
AcDbSpline
210
0.0
220
0.0
230
1.0
 70
     8
 71
     3
 72
     9
 73
     5
 74
     0
 42
0.00000001
 43
0.00000001
 40
0.0
 40
0.0
 40
0.0
 40
0.0
 40
0.0702010444421754
 40
1.0
 40
1.0
 40
1.0
 40
1.0
 10
194.7302087913169
 20
150.7489608219507
 30
0.0
 10
194.7302538755469
 20
150.7467041928473
 30
0.0
 10
194.7308960914899
 20
150.7145589573826
 30
0.0
 10
194.7536816152349
 20
150.6830583565933
 30
0.0
 10
194.7748675714149
 20
150.6537691308799
 30
0.0
  0
LINE
  5
104
330
1F
100
AcDbEntity
  8
0
  6
Continuous
 62
     7
370
    15
100
AcDbLine
 10
194.7302087913
 20
150.3701565406
 30
0.0
 11
194.7302087913
 21
150.748960822
 31
0.0
  0
LINE
  5
105
330
1F
100
AcDbEntity
  8
0
  6
Continuous
 62
     7
370
    15
100
AcDbLine
 10
195.2055528532
 20
150.8441524199
 30
0.0
 11
195.2231451641
 21
150.8066487117
 31
0.0
  0
LINE
  5
106
330
1F
100
AcDbEntity
  8
0
  6
Continuous
 62
     7
370
    15
100
AcDbLine
 10
194.7748675714
 20
150.8441524199
 30
0.0
 11
194.7302087913
 21
150.748960822
 31
0.0
  0
LINE
  5
107
330
1F
100
AcDbEntity
  8
0
  6
Continuous
 62
     7
370
    15
100
AcDbLine
 10
195.2055528532
 20
150.8441524199
 30
0.0
 11
194.7748675714
 21
150.8441524199
 31
0.0
  0
LINE
  5
108
330
1F
100
AcDbEntity
  8
0
  6
Continuous
 62
     7
370
    15
100
AcDbLine
 10
195.2055528532
 20
149.709702082
 30
0.0
 11
195.2231451641
 21
149.7472057902
 31
0.0
  0
LINE
  5
109
330
1F
100
AcDbEntity
  8
0
  6
Continuous
 62
     7
370
    15
100
AcDbLine
 10
194.7748675714
 20
149.709702082
 30
0.0
 11
194.7572722803
 21
149.7472057902
 31
0.0
  0
LINE
  5
10A
330
1F
100
AcDbEntity
  8
0
  6
Continuous
 62
     7
370
    15
100
AcDbLine
 10
194.7302087913
 20
149.7769272505
 30
0.0
 11
194.7302087913
 21
149.8981230045
 31
0.0
  0
LINE
  5
10B
330
1F
100
AcDbEntity
  8
0
  6
Continuous
 62
     7
370
    15
100
AcDbLine
 10
194.7302087913
 20
150.748960822
 30
0.0
 11
194.7302087913
 21
150.7769272281
 31
0.0
  0
LINE
  5
10C
330
1F
100
AcDbEntity
  8
0
  6
Continuous
 62
     7
370
    15
100
AcDbLine
 10
194.6605518232
 20
150.8270591116
 30
0.0
 11
194.7052106033
 21
150.6136705718
 31
0.0
  0
SPLINE
  5
10D
330
1F
100
AcDbEntity
  8
0
  6
Continuous
 62
     7
370
    15
100
AcDbSpline
210
0.0
220
0.0
230
1.0
 70
     8
 71
     3
 72
     9
 73
     5
 74
     0
 42
0.00000001
 43
0.00000001
 40
0.0
 40
0.0
 40
0.0
 40
0.0
 40
0.0702004137797286
 40
1.0
 40
1.0
 40
1.0
 40
1.0
 10
194.7052106032981
 20
150.6136705717686
 30
0.0
 10
194.7051655183623
 20
150.6086120173998
 30
0.0
 10
194.7045232865947
 20
150.5365532630933
 30
0.0
 10
194.6817377788619
 20
150.4659391231503
 30
0.0
 10
194.6605518232001
 20
150.4002821250501
 30
0.0
  0
LINE
  5
10E
330
1F
100
AcDbEntity
  8
0
  6
Continuous
 62
     7
370
    15
100
AcDbLine
 10
194.6605518232
 20
150.4002821251
 30
0.0
 11
194.2298665414
 21
150.4002821251
 31
0.0
  0
SPLINE
  5
10F
330
1F
100
AcDbEntity
  8
0
  6
Continuous
 62
     7
370
    15
100
AcDbSpline
210
0.0
220
0.0
230
1.0
 70
     8
 71
     3
 72
     9
 73
     5
 74
     0
 42
0.00000001
 43
0.00000001
 40
0.0
 40
0.0
 40
0.0
 40
0.0
 40
0.0702003015877787
 40
0.9999999999999999
 40
0.9999999999999999
 40
0.9999999999999999
 40
0.9999999999999999
 10
194.1852107415808
 20
150.6136705717686
 30
0.0
 10
194.1852547983626
 20
150.6086120171026
 30
0.0
 10
194.1858823851506
 20
150.5365531434008
 30
0.0
 10
194.2086744688742
 20
150.4659390695864
 30
0.0
 10
194.2298665414466
 20
150.4002821250501
 30
0.0
  0
LINE
  5
110
330
1F
100
AcDbEntity
  8
0
  6
Continuous
 62
     7
370
    15
100
AcDbLine
 10
194.1916331421
 20
150.6443681745
 30
0.0
 11
194.1852107416
 21
150.6136705718
 31
0.0
  0
LINE
  5
111
330
1F
100
AcDbEntity
  8
0
  6
Continuous
 62
     7
370
    15
100
AcDbLine
 10
194.6605518232
 20
150.8270591116
 30
0.0
 11
194.6252092491
 21
150.8270591116
 31
0.0
  0
SPLINE
  5
112
330
1F
100
AcDbEntity
  8
0
  6
Continuous
 62
     7
370
    15
100
AcDbSpline
210
0.0
220
0.0
230
1.0
 70
     8
 71
     3
 72
     9
 73
     5
 74
     0
 42
0.00000001
 43
0.00000001
 40
0.0
 40
0.0
 40
0.0
 40
0.0
 40
0.2686339903629637
 40
1.0
 40
1.0
 40
1.0
 40
1.0
 10
194.7052106032981
 20
150.1252162354681
 30
0.0
 10
194.7045469313352
 20
150.1502274048885
 30
0.0
 10
194.7020763878197
 20
150.2433324113944
 30
0.0
 10
194.6780926868643
 20
150.3339832112727
 30
0.0
 10
194.6605518232001
 20
150.4002821250501
 30
0.0
  0
LINE
  5
113
330
1F
100
AcDbEntity
  8
0
  6
Continuous
 62
     7
370
    15
100
AcDbLine
 10
194.7052106033
 20
150.1252162355
 30
0.0
 11
194.7052106033
 21
150.6136705718
 31
0.0
  0
SPLINE
  5
114
330
1F
100
AcDbEntity
  8
0
  6
Continuous
 62
     7
370
    15
100
AcDbSpline
210
0.0
220
0.0
230
1.0
 70
     8
 71
     3
 72
     9
 73
     5
 74
     0
 42
0.00000001
 43
0.00000001
 40
0.0
 40
0.0
 40
0.0
 40
0.0
 40
0.2686336550039739
 40
1.0
 40
1.0
 40
1.0
 40
1.0
 10
194.1852107415808
 20
150.1252162354681
 30
0.0
 10
194.1858732885014
 20
150.1502274104348
 30
0.0
 10
194.1883396470838
 20
150.2433325538181
 30
0.0
 10
194.2123246890033
 20
150.3339832538769
 30
0.0
 10
194.2298665414466
 20
150.4002821250501
 30
0.0
  0
SPLINE
  5
115
330
1F
100
AcDbEntity
  8
0
  6
Continuous
 62
     7
370
    15
100
AcDbSpline
210
0.0
220
0.0
230
1.0
 70
     8
 71
     3
 72
     9
 73
     5
 74
     0
 42
0.00000001
 43
0.00000001
 40
0.0
 40
0.0
 40
0.0
 40
0.0
 40
0.2575521419326829
 40
1.0
 40
1.0
 40
1.0
 40
1.0
 10
194.6605518232001
 20
149.850150345886
 30
0.0
 10
194.6672937840708
 20
149.873242595015
 30
0.0
 10
194.6934708557118
 20
149.9629030767942
 30
0.0
 10
194.7002083586631
 20
150.0560554531608
 30
0.0
 10
194.7052106032981
 20
150.1252162354681
 30
0.0
  0
LINE
  5
116
330
1F
100
AcDbEntity
  8
0
  6
Continuous
 62
     7
370
    15
100
AcDbLine
 10
194.6605518232
 20
149.8501503459
 30
0.0
 11
194.2298665414
 21
149.8501503459
 31
0.0
  0
SPLINE
  5
117
330
1F
100
AcDbEntity
  8
0
  6
Continuous
 62
     7
370
    15
100
AcDbSpline
210
0.0
220
0.0
230
1.0
 70
     8
 71
     3
 72
     9
 73
     5
 74
     0
 42
0.00000001
 43
0.00000001
 40
0.0
 40
0.0
 40
0.0
 40
0.0
 40
0.2575502421390879
 40
1.0
 40
1.0
 40
1.0
 40
1.0
 10
194.2298665414466
 20
149.850150345886
 30
0.0
 10
194.2231257012785
 20
149.8732426259946
 30
0.0
 10
194.1969527879388
 20
149.9629038894309
 30
0.0
 10
194.1902139730576
 20
150.0560556978575
 30
0.0
 10
194.1852107415808
 20
150.1252162354681
 30
0.0
  0
LINE
  5
118
330
1F
100
AcDbEntity
  8
0
  6
Continuous
 62
     7
370
    15
100
AcDbLine
 10
194.6605518232
 20
149.8501503459
 30
0.0
 11
194.7052106033
 21
149.7884728565
 31
0.0
  0
LINE
  5
119
330
1F
100
AcDbEntity
  8
0
  6
Continuous
 62
     7
370
    15
100
AcDbLine
 10
194.7052106033
 20
150.1252162355
 30
0.0
 11
194.7052106033
 21
149.7884728565
 31
0.0
  0
LINE
  5
11A
330
1F
100
AcDbEntity
  8
0
  6
Continuous
 62
     7
370
    15
100
AcDbLine
 10
194.2298665414
 20
149.8501503459
 30
0.0
 11
194.1852107416
 21
149.7884728565
 31
0.0
  0
LINE
  5
11B
330
1F
100
AcDbEntity
  8
0
  6
Continuous
 62
     7
370
    15
100
AcDbLine
 10
194.6902975212
 20
150.7886881559
 30
0.0
 11
194.6605518232
 21
150.8270591116
 31
0.0
  0
LINE
  5
11C
330
1F
100
AcDbEntity
  8
0
  6
Continuous
 62
     7
370
    15
100
AcDbLine
 10
194.7052106033
 20
150.7769272281
 30
0.0
 11
194.7052106033
 21
150.6136705718
 31
0.0
  0
SPLINE
  5
11D
330
1F
100
AcDbEntity
  8
0
  6
Continuous
 62
     7
370
    15
100
AcDbSpline
210
0.0
220
0.0
230
1.0
 70
     8
 71
     3
 72
     9
 73
     5
 74
     0
 42
0.00000001
 43
0.00000001
 40
0.0
 40
0.0
 40
0.0
 40
0.0
 40
0.0702009389250102
 40
1.0
 40
1.0
 40
1.0
 40
1.0
 10
194.7052106032981
 20
149.7884728564563
 30
0.0
 10
194.70516551895
 20
149.7870107395245
 30
0.0
 10
194.7045233003593
 20
149.7661831415721
 30
0.0
 10
194.6817377792934
 20
149.7457728673763
 30
0.0
 10
194.6605518232001
 20
149.7267954135927
 30
0.0
  0
LINE
  5
11E
330
1F
100
AcDbEntity
  8
0
  6
Continuous
 62
     7
370
    15
100
AcDbLine
 10
194.6605518232
 20
149.7267954136
 30
0.0
 11
194.2298665414
 21
149.7267954136
 31
0.0
  0
LINE
  5
11F
330
1F
100
AcDbEntity
  8
0
  6
Continuous
 62
     7
370
    15
100
AcDbLine
 10
194.2001208435
 20
149.7651663693
 30
0.0
 11
194.2298665414
 21
149.7267954136
 31
0.0
  0
LINE
  5
120
330
1F
100
AcDbEntity
  8
0
  6
Continuous
 62
     7
370
    15
100
AcDbLine
 10
194.7052106033
 20
149.7884728565
 30
0.0
 11
194.7052106033
 21
149.7769272505
 31
0.0
  0
LINE
  5
121
330
1F
100
AcDbEntity
  8
0
  6
Continuous
 62
     7
370
    15
100
AcDbLine
 10
193.9005508791
 20
150.7376850201
 30
0.0
 11
193.9452096592
 21
150.4718497946
 31
0.0
  0
SPLINE
  5
122
330
1F
100
AcDbEntity
  8
0
  6
Continuous
 62
     7
370
    15
100
AcDbSpline
210
0.0
220
0.0
230
1.0
 70
     8
 71
     3
 72
     9
 73
     5
 74
     0
 42
0.00000001
 43
0.00000001
 40
0.0
 40
0.0
 40
0.0
 40
0.0
 40
0.0702008440714334
 40
1.0
 40
1.0
 40
1.0
 40
1.0
 10
193.9452096591605
 20
150.471849794561
 30
0.0
 10
193.9451645747063
 20
150.4655478999106
 30
0.0
 10
193.9445223537356
 20
150.3757784002167
 30
0.0
 10
193.9217368350779
 20
150.2878086631337
 30
0.0
 10
193.9005508790626
 20
150.2060144758466
 30
0.0
  0
LINE
  5
123
330
1F
100
AcDbEntity
  8
0
  6
Continuous
 62
     7
370
    15
100
AcDbLine
 10
193.9005508791
 20
150.2060144758
 30
0.0
 11
193.4698685775
 21
150.2060144758
 31
0.0
  0
SPLINE
  5
124
330
1F
100
AcDbEntity
  8
0
  6
Continuous
 62
     7
370
    15
100
AcDbSpline
210
0.0
220
0.0
230
1.0
 70
     8
 71
     3
 72
     9
 73
     5
 74
     0
 42
0.00000001
 43
0.00000001
 40
0.0
 40
0.0
 40
0.0
 40
0.0
 40
0.0702008440714334
 40
1.0
 40
1.0
 40
1.0
 40
1.0
 10
193.4252097974433
 20
150.471849794561
 30
0.0
 10
193.4252548818975
 20
150.4655478999106
 30
0.0
 10
193.4258971028683
 20
150.3757784002167
 30
0.0
 10
193.4486826215259
 20
150.2878086631337
 30
0.0
 10
193.4698685775413
 20
150.2060144758466
 30
0.0
  0
LINE
  5
125
330
1F
100
AcDbEntity
  8
0
  6
Continuous
 62
     7
370
    15
100
AcDbLine
 10
193.4698685775
 20
150.7376850201
 30
0.0
 11
193.4252097974
 21
150.4718497946
 31
0.0
  0
LINE
  5
126
330
1F
100
AcDbEntity
  8
0
  6
Continuous
 62
     7
370
    15
100
AcDbLine
 10
193.9005508791
 20
150.7376850201
 30
0.0
 11
193.4698685775
 21
150.7376850201
 31
0.0
  0
SPLINE
  5
127
330
1F
100
AcDbEntity
  8
0
  6
Continuous
 62
     7
370
    15
100
AcDbSpline
210
0.0
220
0.0
230
1.0
 70
     8
 71
     3
 72
     9
 73
     5
 74
     0
 42
0.00000001
 43
0.00000001
 40
0.0
 40
0.0
 40
0.0
 40
0.0
 40
0.2686332118110024
 40
1.0
 40
1.0
 40
1.0
 40
1.0
 10
193.4252097974433
 20
149.9756355388704
 30
0.0
 10
193.4258722977332
 20
149.9965834400594
 30
0.0
 10
193.4283384868
 20
150.0745630057572
 30
0.0
 10
193.4523253687389
 20
150.1504865310241
 30
0.0
 10
193.4698685775413
 20
150.2060144758466
 30
0.0
  0
LINE
  5
128
330
1F
100
AcDbEntity
  8
0
  6
Continuous
 62
     7
370
    15
100
AcDbLine
 10
193.4252097974
 20
149.9756355389
 30
0.0
 11
193.4252097974
 21
150.4718497946
 31
0.0
  0
SPLINE
  5
129
330
1F
100
AcDbEntity
  8
0
  6
Continuous
 62
     7
370
    15
100
AcDbSpline
210
0.0
220
0.0
230
1.0
 70
     8
 71
     3
 72
     9
 73
     5
 74
     0
 42
0.00000001
 43
0.00000001
 40
0.0
 40
0.0
 40
0.0
 40
0.0
 40
0.2686332118110024
 40
1.0
 40
1.0
 40
1.0
 40
1.0
 10
193.9452096591605
 20
149.9756355388704
 30
0.0
 10
193.9445471588706
 20
149.9965834400594
 30
0.0
 10
193.9420809698038
 20
150.0745630057572
 30
0.0
 10
193.9180940878649
 20
150.1504865310241
 30
0.0
 10
193.9005508790626
 20
150.2060144758466
 30
0.0
  0
LINE
  5
12A
330
1F
100
AcDbEntity
  8
0
  6
Continuous
 62
     7
370
    15
100
AcDbLine
 10
193.9231022964
 20
149.8276654715
 30
0.0
 11
193.9452096592
 21
149.9756355389
 31
0.0
  0
LINE
  5
12B
330
1F
100
AcDbEntity
  8
0
  6
Continuous
 62
     7
370
    15
100
AcDbLine
 10
193.5052111517
 20
149.7452566485
 30
0.0
 11
193.4698685775
 21
149.7452566485
 31
0.0
  0
SPLINE
  5
12C
330
1F
100
AcDbEntity
  8
0
  6
Continuous
 62
     7
370
    15
100
AcDbSpline
210
0.0
220
0.0
230
1.0
 70
     8
 71
     3
 72
     9
 73
     5
 74
     0
 42
0.00000001
 43
0.00000001
 40
0.0
 40
0.0
 40
0.0
 40
0.0
 40
0.2575521822386715
 40
1.0
 40
1.0
 40
1.0
 40
1.0
 10
193.4698685775413
 20
149.7452566484603
 30
0.0
 10
193.463126616684
 20
149.7645973445884
 30
0.0
 10
193.436949549192
 20
149.8396916262984
 30
0.0
 10
193.4302120436959
 20
149.9177105552937
 30
0.0
 10
193.4252097974433
 20
149.9756355388704
 30
0.0
  0
SPLINE
  5
12D
330
1F
100
AcDbEntity
  8
0
  6
Continuous
 62
     7
370
    15
100
AcDbSpline
210
0.0
220
0.0
230
1.0
 70
     8
 71
     3
 72
     9
 73
     5
 74
     0
 42
0.00000001
 43
0.00000001
 40
0.0
 40
0.0
 40
0.0
 40
0.0
 40
0.0702010167118129
 40
1.0
 40
1.0
 40
1.0
 40
1.0
 10
193.4252097974433
 20
150.7731414018813
 30
0.0
 10
193.4252548817043
 20
150.7723008933294
 30
0.0
 10
193.4258970983432
 20
150.7603280104387
 30
0.0
 10
193.4486826213841
 20
150.7485946690432
 30
0.0
 10
193.4698685775413
 20
150.7376850201431
 30
0.0
  0
LINE
  5
12E
330
1F
100
AcDbEntity
  8
0
  6
Continuous
 62
     7
370
    15
100
AcDbLine
 10
193.4252097974
 20
150.4718497946
 30
0.0
 11
193.4252097974
 21
150.7731414019
 31
0.0
  0
SPLINE
  5
12F
330
1F
100
AcDbEntity
  8
0
  6
Continuous
 62
     7
370
    15
100
AcDbSpline
210
0.0
220
0.0
230
1.0
 70
     8
 71
     3
 72
     9
 73
     5
 74
     0
 42
0.00000001
 43
0.00000001
 40
0.0
 40
0.0
 40
0.0
 40
0.0
 40
0.0702010167118129
 40
1.0
 40
1.0
 40
1.0
 40
1.0
 10
193.9452096591605
 20
150.7731414018813
 30
0.0
 10
193.9451645748995
 20
150.7723008933294
 30
0.0
 10
193.9445223582607
 20
150.7603280104387
 30
0.0
 10
193.9217368352197
 20
150.7485946690432
 30
0.0
 10
193.9005508790626
 20
150.7376850201431
 30
0.0
  0
LINE
  5
130
330
1F
100
AcDbEntity
  8
0
  6
Continuous
 62
     7
370
    15
100
AcDbLine
 10
193.4698685775
 20
149.7452566485
 30
0.0
 11
193.4252097974
 21
149.7807130302
 31
0.0
  0
LINE
  5
131
330
1F
100
AcDbEntity
  8
0
  6
Continuous
 62
     7
370
    15
100
AcDbLine
 10
193.4252097974
 20
149.9756355389
 30
0.0
 11
193.4252097974
 21
149.7769422914
 31
0.0
  0
LINE
  5
132
330
1F
100
AcDbEntity
  8
0
  6
Continuous
 62
     7
370
    15
100
AcDbLine
 10
193.9005508791
 20
150.8085978768
 30
0.0
 11
193.9452096592
 21
150.7731414019
 31
0.0
  0
LINE
  5
133
330
1F
100
AcDbEntity
  8
0
  6
Continuous
 62
     7
370
    15
100
AcDbLine
 10
193.4698685775
 20
150.8085978768
 30
0.0
 11
193.4252097974
 21
150.7731414019
 31
0.0
  0
LINE
  5
134
330
1F
100
AcDbEntity
  8
0
  6
Continuous
 62
     7
370
    15
100
AcDbLine
 10
193.9005508791
 20
150.8085978768
 30
0.0
 11
193.4698685775
 21
150.8085978768
 31
0.0
  0
LINE
  5
135
330
1F
100
AcDbEntity
  8
0
  6
Continuous
 62
     7
370
    15
100
AcDbLine
 10
202.4552091728
 20
130.3269276014
 30
0.0
 11
199.8052105079
 21
130.3269276014
 31
0.0
  0
LINE
  5
136
330
1F
100
AcDbEntity
  8
0
  6
Continuous
 62
     7
370
    15
100
AcDbLine
 10
205.1052093278
 20
130.3269276014
 30
0.0
 11
202.4552091728
 21
130.3269276014
 31
0.0
  0
LINE
  5
137
330
1F
100
AcDbEntity
  8
0
  6
Continuous
 62
     7
370
    15
100
AcDbLine
 10
202.4552091728
 20
130.9269273272
 30
0.0
 11
199.6052101026
 21
130.9269273272
 31
0.0
  0
LINE
  5
138
330
1F
100
AcDbEntity
  8
0
  6
Continuous
 62
     7
370
    15
100
AcDbLine
 10
205.3052097331
 20
130.9269273272
 30
0.0
 11
202.4552091728
 21
130.9269273272
 31
0.0
  0
LINE
  5
139
330
1F
100
AcDbEntity
  8
0
  6
Continuous
 62
     7
370
    15
100
AcDbLine
 10
260.9552100073
 20
130.9269273272
 30
0.0
 11
258.1052109371
 21
130.9269273272
 31
0.0
  0
LINE
  5
13A
330
1F
100
AcDbEntity
  8
0
  6
Continuous
 62
     7
370
    15
100
AcDbLine
 10
263.8052090774
 20
130.9269273272
 30
0.0
 11
260.9552100073
 21
130.9269273272
 31
0.0
  0
LINE
  5
13B
330
1F
100
AcDbEntity
  8
0
  6
Continuous
 62
     7
370
    15
100
AcDbLine
 10
260.9552100073
 20
130.3269276014
 30
0.0
 11
258.3052083622
 21
130.3269276014
 31
0.0
  0
LINE
  5
13C
330
1F
100
AcDbEntity
  8
0
  6
Continuous
 62
     7
370
    15
100
AcDbLine
 10
263.6052086721
 20
130.3269276014
 30
0.0
 11
260.9552100073
 21
130.3269276014
 31
0.0
  0
LINE
  5
13D
330
1F
100
AcDbEntity
  8
0
  6
Continuous
 62
     7
370
    15
100
AcDbLine
 10
206.9552093516
 20
147.1269271887
 30
0.0
 11
206.9552093516
 21
147.3269272214
 31
0.0
  0
LINE
  5
13E
330
1F
100
AcDbEntity
  8
0
  6
Continuous
 62
     7
370
    15
100
AcDbLine
 10
197.9552104841
 20
147.1269271887
 30
0.0
 11
206.9552093516
 21
147.1269271887
 31
0.0
  0
LINE
  5
13F
330
1F
100
AcDbEntity
  8
0
  6
Continuous
 62
     7
370
    15
100
AcDbLine
 10
197.9552104841
 20
147.1269271887
 30
0.0
 11
197.9552104841
 21
147.3269272214
 31
0.0
  0
LINE
  5
140
330
1F
100
AcDbEntity
  8
0
  6
Continuous
 62
     7
370
    15
100
AcDbLine
 10
202.4552091728
 20
137.7269269517
 30
0.0
 11
199.3592455755
 21
137.7269269517
 31
0.0
  0
LINE
  5
141
330
1F
100
AcDbEntity
  8
0
  6
Continuous
 62
     7
370
    15
100
AcDbLine
 10
205.5511742602
 20
137.7269269517
 30
0.0
 11
202.4552091728
 21
137.7269269517
 31
0.0
  0
LINE
  5
142
330
1F
100
AcDbEntity
  8
0
  6
Continuous
 62
     7
370
    15
100
AcDbLine
 10
256.4552083383
 20
147.1269271887
 30
0.0
 11
265.4552086959
 21
147.1269271887
 31
0.0
  0
LINE
  5
143
330
1F
100
AcDbEntity
  8
0
  6
Continuous
 62
     7
370
    15
100
AcDbLine
 10
256.4552083383
 20
147.1269271887
 30
0.0
 11
256.4552083383
 21
147.3269272214
 31
0.0
  0
LINE
  5
144
330
1F
100
AcDbEntity
  8
0
  6
Continuous
 62
     7
370
    15
100
AcDbLine
 10
265.4552086959
 20
147.1269271887
 30
0.0
 11
265.4552086959
 21
147.3269272214
 31
0.0
  0
LINE
  5
145
330
1F
100
AcDbEntity
  8
0
  6
Continuous
 62
     7
370
    15
100
AcDbLine
 10
260.9552100073
 20
137.7269269517
 30
0.0
 11
257.8592434297
 21
137.7269269517
 31
0.0
  0
LINE
  5
146
330
1F
100
AcDbEntity
  8
0
  6
Continuous
 62
     7
370
    15
100
AcDbLine
 10
264.0511736045
 20
137.7269269517
 30
0.0
 11
260.9552100073
 21
137.7269269517
 31
0.0
  0
LINE
  5
147
330
1F
100
AcDbEntity
  8
0
  6
Continuous
 62
     7
370
    15
100
AcDbLine
 10
195.305208839
 20
219.3250083915
 30
0.0
 11
195.305208839
 21
219.2319297782
 31
0.0
  0
LINE
  5
148
330
1F
100
AcDbEntity
  8
0
  6
Continuous
 62
     7
370
    15
100
AcDbLine
 10
195.305208839
 20
214.3269264689
 30
0.0
 11
195.305208839
 21
213.5469281665
 31
0.0
  0
LINE
  5
149
330
1F
100
AcDbEntity
  8
0
  6
Continuous
 62
     7
370
    15
100
AcDbLine
 10
195.305208839
 20
147.6819272703
 30
0.0
 11
195.305208839
 21
147.4769271529
 31
0.0
  0
LINE
  5
14A
330
1F
100
AcDbEntity
  8
0
  6
Continuous
 62
     7
370
    15
100
AcDbLine
 10
195.305208839
 20
147.4769271529
 30
0.0
 11
195.3852101932
 21
147.4769271529
 31
0.0
  0
LINE
  5
14B
330
1F
100
AcDbEntity
  8
0
  6
Continuous
 62
     7
370
    15
100
AcDbLine
 10
195.3852101932
 20
219.3250083915
 30
0.0
 11
195.3852101932
 21
219.2319297782
 31
0.0
  0
LINE
  5
14C
330
1F
100
AcDbEntity
  8
0
  6
Continuous
 62
     7
370
    15
100
AcDbLine
 10
195.3852101932
 20
214.3269264689
 30
0.0
 11
195.3852101932
 21
213.5469281665
 31
0.0
  0
LINE
  5
14D
330
1F
100
AcDbEntity
  8
0
  6
Continuous
 62
     7
370
    15
100
AcDbLine
 10
195.3852101932
 20
147.6819272703
 30
0.0
 11
195.3852101932
 21
147.4769271529
 31
0.0
  0
LINE
  5
14E
330
1F
100
AcDbEntity
  8
0
  6
Continuous
 62
     7
370
    15
100
AcDbLine
 10
195.6002101074
 20
213.6781239501
 30
0.0
 11
195.6002101074
 21
213.7369298926
 31
0.0
  0
LINE
  5
14F
330
1F
100
AcDbEntity
  8
0
  6
Continuous
 62
     7
370
    15
100
AcDbLine
 10
195.6052109371
 20
213.7369298926
 30
0.0
 11
195.6002101074
 21
213.7369298926
 31
0.0
  0
LINE
  5
150
330
1F
100
AcDbEntity
  8
0
  6
Continuous
 62
     7
370
    15
100
AcDbLine
 10
265.898139752
 20
147.5569272033
 30
0.0
 11
265.898139752
 21
147.4769271529
 31
0.0
  0
LINE
  5
151
330
1F
100
AcDbEntity
  8
0
  6
Continuous
 62
     7
370
    15
100
AcDbLine
 10
265.8344998727
 20
147.5569272033
 30
0.0
 11
265.898139752
 21
147.5569272033
 31
0.0
  0
LINE
  5
152
330
1F
100
AcDbEntity
  8
0
  6
Continuous
 62
     7
370
    15
100
AcDbLine
 10
265.8344998727
 20
147.4769271529
 30
0.0
 11
265.898139752
 21
147.4769271529
 31
0.0
  0
LINE
  5
153
330
1F
100
AcDbEntity
  8
0
  6
Continuous
 62
     7
370
    15
100
AcDbLine
 10
265.9852102171
 20
147.563998363
 30
0.0
 11
265.9852102171
 21
147.6276378697
 31
0.0
  0
LINE
  5
154
330
1F
100
AcDbEntity
  8
0
  6
Continuous
 62
     7
370
    15
100
AcDbLine
 10
265.9052088628
 20
147.563998363
 30
0.0
 11
265.9852102171
 21
147.563998363
 31
0.0
  0
LINE
  5
155
330
1F
100
AcDbEntity
  8
0
  6
Continuous
 62
     7
370
    15
100
AcDbLine
 10
265.9052088628
 20
147.563998363
 30
0.0
 11
265.9052088628
 21
147.6276378697
 31
0.0
  0
SPLINE
  5
156
330
1F
100
AcDbEntity
  8
0
  6
Continuous
 62
     7
370
    15
100
AcDbSpline
210
0.0
220
0.0
230
1.0
 70
     8
 71
     3
 72
    11
 73
     7
 74
     0
 42
0.00000001
 43
0.00000001
 40
0.0
 40
0.0
 40
0.0
 40
0.0
 40
0.2506753985538853
 40
0.5014898723362348
 40
0.7523036160214237
 40
1.0
 40
1.0
 40
1.0
 40
1.0
 10
265.8981397519721
 20
147.5569272032621
 30
0.0
 10
265.8882849698048
 20
147.5588165666494
 30
0.0
 10
265.8685699380167
 20
147.5625963416467
 30
0.0
 10
265.8389973431871
 20
147.5916701378622
 30
0.0
 10
265.8095402305847
 20
147.6330428398667
 30
0.0
 10
265.789945220058
 20
147.6657005335273
 30
0.0
 10
265.7802089820518
 20
147.6819272703174
 30
0.0
  0
SPLINE
  5
157
330
1F
100
AcDbEntity
  8
0
  6
Continuous
 62
     7
370
    15
100
AcDbSpline
210
0.0
220
0.0
230
1.0
 70
     8
 71
     3
 72
    11
 73
     7
 74
     0
 42
0.00000001
 43
0.00000001
 40
0.0
 40
0.0
 40
0.0
 40
0.0
 40
0.2506695070185357
 40
0.5014862119490766
 40
0.7523056701221971
 40
0.9999999999999999
 40
0.9999999999999999
 40
0.9999999999999999
 40
0.9999999999999999
 10
265.7802089820518
 20
147.6819272703174
 30
0.0
 10
265.7966327617187
 20
147.6720731782168
 30
0.0
 10
265.8294899654089
 20
147.6523592075049
 30
0.0
 10
265.8708946939139
 20
147.6227855433936
 30
0.0
 10
265.8996522814723
 20
147.5933278869451
 30
0.0
 10
265.9033644260616
 20
147.5737339268805
 30
0.0
 10
265.9052088628425
 20
147.5639983630422
 30
0.0
  0
LINE
  5
158
330
1F
100
AcDbEntity
  8
0
  6
Continuous
 62
     7
370
    15
100
AcDbLine
 10
195.5122813354
 20
214.3269264689
 30
0.0
 11
195.5122813354
 21
214.0719258777
 31
0.0
  0
LINE
  5
159
330
1F
100
AcDbEntity
  8
0
  6
Continuous
 62
     7
370
    15
100
AcDbLine
 10
200.5552097927
 20
219.2069256297
 30
0.0
 11
200.6052091489
 21
219.2069256297
 31
0.0
  0
LINE
  5
15A
330
1F
100
AcDbEntity
  8
0
  6
Continuous
 62
     7
370
    15
100
AcDbLine
 10
195.6052109371
 20
213.8269269458
 30
0.0
 11
195.5122813354
 21
213.8269269458
 31
0.0
  0
LINE
  5
15B
330
1F
100
AcDbEntity
  8
0
  6
Continuous
 62
     7
370
    15
100
AcDbLine
 10
195.5122813354
 20
213.8269269458
 30
0.0
 11
195.5122813354
 21
214.0719258777
 31
0.0
  0
LINE
  5
15C
330
1F
100
AcDbEntity
  8
0
  6
Continuous
 62
     7
370
    15
100
AcDbLine
 10
195.3852101932
 20
213.9469289771
 30
0.0
 11
195.5052092443
 21
213.9469289771
 31
0.0
  0
LINE
  5
15D
330
1F
100
AcDbEntity
  8
0
  6
Continuous
 62
     7
370
    15
100
AcDbLine
 10
195.5052092443
 20
214.3269264689
 30
0.0
 11
195.5052092443
 21
213.9469289771
 31
0.0
  0
LWPOLYLINE
  5
15E
330
1F
100
AcDbEntity
  8
0
  6
Continuous
 62
     7
370
    15
100
AcDbPolyline
 90
        3
 70
   128
 43
0.0
 10
195.5052092443
 20
214.0719258777
 10
195.5076113115
 20
214.0475416175
 10
195.5122813354
 20
214.0304827681
  0
ARC
  5
15F
330
1F
100
AcDbEntity
  8
0
  6
Continuous
 62
     7
370
    15
100
AcDbCircle
 10
195.630209733
 20
214.071927242
 30
0.0
 40
0.2450000000000047
100
AcDbArc
 50
210.6774244726
 51
241.2268751811
  0
LINE
  5
160
330
1F
100
AcDbEntity
  8
0
  6
Continuous
 62
     7
370
    15
100
AcDbLine
 10
195.6052109371
 20
213.621928691
 30
0.0
 11
195.6052109371
 21
213.8269269458
 31
0.0
  0
LINE
  5
161
330
1F
100
AcDbEntity
  8
0
  6
Continuous
 62
     7
370
    15
100
AcDbLine
 10
265.7802089821
 20
213.8269269458
 30
0.0
 11
195.6052109371
 21
213.8269269458
 31
0.0
  0
LINE
  5
162
330
1F
100
AcDbEntity
  8
0
  6
Continuous
 62
     7
370
    15
100
AcDbLine
 10
265.7802089821
 20
213.8269269458
 30
0.0
 11
265.7802089821
 21
213.7469255916
 31
0.0
  0
LINE
  5
163
330
1F
100
AcDbEntity
  8
0
  6
Continuous
 62
     7
370
    15
100
AcDbLine
 10
195.6552102934
 20
147.6819272703
 30
0.0
 11
195.6552102934
 21
147.7219272024
 31
0.0
  0
LINE
  5
164
330
1F
100
AcDbEntity
  8
0
  6
Continuous
 62
     7
370
    15
100
AcDbLine
 10
195.6552102934
 20
147.7219272024
 30
0.0
 11
195.6152096162
 21
147.7219272024
 31
0.0
  0
LINE
  5
165
330
1F
100
AcDbEntity
  8
0
  6
Continuous
 62
     7
370
    15
100
AcDbLine
 10
195.6152096162
 20
147.7219272024
 30
0.0
 11
195.6152096162
 21
147.6819272703
 31
0.0
  0
LINE
  5
166
330
1F
100
AcDbEntity
  8
0
  6
Continuous
 62
     7
370
    15
100
AcDbLine
 10
195.6152096162
 20
147.6819272703
 30
0.0
 11
195.4302087198
 21
147.6819272703
 31
0.0
  0
LINE
  5
167
330
1F
100
AcDbEntity
  8
0
  6
Continuous
 62
     7
370
    15
100
AcDbLine
 10
195.4302087198
 20
213.5469281665
 30
0.0
 11
195.6052109371
 21
213.5469281665
 31
0.0
  0
LINE
  5
168
330
1F
100
AcDbEntity
  8
0
  6
Continuous
 62
     7
370
    15
100
AcDbLine
 10
195.6052109371
 20
213.5469281665
 30
0.0
 11
195.6052109371
 21
213.621928691
 31
0.0
  0
LINE
  5
169
330
1F
100
AcDbEntity
  8
0
  6
Continuous
 62
     7
370
    15
100
AcDbLine
 10
265.7802089821
 20
213.7469255916
 30
0.0
 11
265.7802089821
 21
213.621928691
 31
0.0
  0
LINE
  5
16A
330
1F
100
AcDbEntity
  8
0
  6
Continuous
 62
     7
370
    15
100
AcDbLine
 10
265.9852102171
 20
147.6276378697
 30
0.0
 11
265.9852102171
 21
213.7469255916
 31
0.0
  0
SPLINE
  5
16B
330
1F
100
AcDbEntity
  8
0
  6
Continuous
 62
     7
370
    15
100
AcDbSpline
210
0.0
220
0.0
230
1.0
 70
     8
 71
     3
 72
    11
 73
     7
 74
     0
 42
0.00000001
 43
0.00000001
 40
0.0
 40
0.0
 40
0.0
 40
0.0
 40
0.2499989381701609
 40
0.4999977799867175
 40
0.7499966218032742
 40
0.9999999999999999
 40
0.9999999999999999
 40
0.9999999999999999
 40
0.9999999999999999
 10
265.98521021706
 20
147.6276378697398
 30
0.0
 10
265.9821288093787
 20
147.6321619874535
 30
0.0
 10
265.9759659952039
 20
147.6412102211371
 30
0.0
 10
265.9285601539442
 20
147.6547825528114
 30
0.0
 10
265.8607978541224
 20
147.6683550681385
 30
0.0
 10
265.8070721018882
 20
147.6774031755608
 30
0.0
 10
265.7802089820518
 20
147.6819272703174
 30
0.0
  0
LINE
  5
16C
330
1F
100
AcDbEntity
  8
0
  6
Continuous
 62
     7
370
    15
100
AcDbLine
 10
265.7802089821
 20
213.7469255916
 30
0.0
 11
265.9852102171
 21
213.7469255916
 31
0.0
  0
LINE
  5
16D
330
1F
100
AcDbEntity
  8
0
  6
Continuous
 62
     7
370
    15
100
AcDbLine
 10
195.4302087198
 20
147.6819272703
 30
0.0
 11
195.225210465
 21
147.6819272703
 31
0.0
  0
LINE
  5
16E
330
1F
100
AcDbEntity
  8
0
  6
Continuous
 62
     7
370
    15
100
AcDbLine
 10
195.225210465
 20
213.5469281665
 30
0.0
 11
195.225210465
 21
147.6819272703
 31
0.0
  0
LINE
  5
16F
330
1F
100
AcDbEntity
  8
0
  6
Continuous
 62
     7
370
    15
100
AcDbLine
 10
195.225210465
 20
213.5469281665
 30
0.0
 11
195.4302087198
 21
213.5469281665
 31
0.0
  0
SPLINE
  5
170
330
1F
100
AcDbEntity
  8
0
  6
Continuous
 62
     7
370
    15
100
AcDbSpline
210
0.0
220
0.0
230
1.0
 70
     8
 71
     3
 72
    11
 73
     7
 74
     0
 42
0.00000001
 43
0.00000001
 40
0.0
 40
0.0
 40
0.0
 40
0.0
 40
0.249999608870668
 40
0.4999991213873253
 40
0.7500001703348891
 40
1.0
 40
1.0
 40
1.0
 40
1.0
 10
265.7802089820518
 20
147.6819272703174
 30
0.0
 10
265.7847330604399
 20
147.6550646833585
 30
0.0
 10
265.7937812154726
 20
147.6013395197939
 30
0.0
 10
265.8073519296563
 20
147.5335773402778
 30
0.0
 10
265.8209288604302
 20
147.4861719651539
 30
0.0
 10
265.8299762093278
 20
147.4800087519723
 30
0.0
 10
265.8344998727454
 20
147.4769271528962
 30
0.0
  0
LINE
  5
171
330
1F
100
AcDbEntity
  8
0
  6
Continuous
 62
     7
370
    15
100
AcDbLine
 10
265.8344998727
 20
147.4769271529
 30
0.0
 11
195.6552102934
 21
147.4769271529
 31
0.0
  0
LINE
  5
172
330
1F
100
AcDbEntity
  8
0
  6
Continuous
 62
     7
370
    15
100
AcDbLine
 10
195.6552102934
 20
147.4769271529
 30
0.0
 11
195.6552102934
 21
147.6819272703
 31
0.0
  0
SPLINE
  5
173
330
1F
100
AcDbEntity
  8
0
  6
Continuous
 62
     7
370
    15
100
AcDbSpline
210
0.0
220
0.0
230
1.0
 70
     8
 71
     3
 72
    11
 73
     7
 74
     0
 42
0.00000001
 43
0.00000001
 40
0.0
 40
0.0
 40
0.0
 40
0.0
 40
0.2499982760055177
 40
0.4999952809290418
 40
0.7500001633992104
 40
1.0
 40
1.0
 40
1.0
 40
1.0
 10
265.7802089820518
 20
147.6819272703174
 30
0.0
 10
265.7847330453106
 20
147.6655476220287
 30
0.0
 10
265.7937811488264
 20
147.6327884087313
 30
0.0
 10
265.8073521621807
 20
147.5914696908461
 30
0.0
 10
265.8209287097997
 20
147.5625644135311
 30
0.0
 10
265.8299761821981
 20
147.5588062607098
 30
0.0
 10
265.8344998727454
 20
147.5569272032621
 30
0.0
  0
LINE
  5
174
330
1F
100
AcDbEntity
  8
0
  6
Continuous
 62
     7
370
    15
100
AcDbLine
 10
265.8344998727
 20
147.4769271529
 30
0.0
 11
265.8344998727
 21
147.5569272033
 31
0.0
  0
LINE
  5
175
330
1F
100
AcDbEntity
  8
0
  6
Continuous
 62
     7
370
    15
100
AcDbLine
 10
265.9852102171
 20
147.6276378697
 30
0.0
 11
265.9052088628
 21
147.6276378697
 31
0.0
  0
SPLINE
  5
176
330
1F
100
AcDbEntity
  8
0
  6
Continuous
 62
     7
370
    15
100
AcDbSpline
210
0.0
220
0.0
230
1.0
 70
     8
 71
     3
 72
    11
 73
     7
 74
     0
 42
0.00000001
 43
0.00000001
 40
0.0
 40
0.0
 40
0.0
 40
0.0
 40
0.249998063703894
 40
0.5000061943430213
 40
0.7500005534911814
 40
1.0
 40
1.0
 40
1.0
 40
1.0
 10
265.9052088628425
 20
147.6276378697398
 30
0.0
 10
265.9033309847713
 20
147.6321620546943
 30
0.0
 10
265.8995751530107
 20
147.6412106067833
 30
0.0
 10
265.8706652023607
 20
147.6547820484369
 30
0.0
 10
265.8293481412541
 20
147.6683551493781
 30
0.0
 10
265.7965888128929
 20
147.6774031993168
 30
0.0
 10
265.7802089820518
 20
147.6819272703174
 30
0.0
  0
SPLINE
  5
177
330
1F
100
AcDbEntity
  8
0
  6
Continuous
 62
     7
370
    15
100
AcDbSpline
210
0.0
220
0.0
230
1.0
 70
    24
 71
     3
 72
     9
 73
     5
 74
     0
 42
0.00000001
 43
0.00000001
 40
0.0
 40
0.0
 40
0.0
 40
0.0
 40
0.7724450993929525
 40
1.0
 40
1.0
 40
1.0
 40
1.0
 10
195.6052109370841
 20
213.6569285384062
 30
0.0
 10
195.6052109370841
 20
213.6560179736141
 30
0.0
 10
195.6052109370841
 20
213.6548391651877
 30
0.0
 10
195.6052109370841
 20
213.6422853067168
 30
0.0
 10
195.6052109370841
 20
213.6394286147001
 30
0.0
  0
LINE
  5
178
330
1F
100
AcDbEntity
  8
0
  6
Continuous
 62
     7
370
    15
100
AcDbLine
 10
265.9252092014
 20
145.4269272825
 30
0.0
 11
265.7752111326
 21
145.4269272825
 31
0.0
  0
LINE
  5
179
330
1F
100
AcDbEntity
  8
0
  6
Continuous
 62
     7
370
    15
100
AcDbLine
 10
265.7752111326
 20
146.9269271559
 30
0.0
 11
265.9252092014
 21
146.9269271559
 31
0.0
  0
LINE
  5
17A
330
1F
100
AcDbEntity
  8
0
  6
Continuous
 62
     7
370
    15
100
AcDbLine
 10
265.9252092014
 20
146.9269271559
 30
0.0
 11
265.9252092014
 21
145.4269272825
 31
0.0
  0
LINE
  5
17B
330
1F
100
AcDbEntity
  8
0
  6
Continuous
 62
     7
370
    15
100
AcDbLine
 10
265.7752111326
 20
145.4269272825
 30
0.0
 11
265.7752111326
 21
146.9269271559
 31
0.0
  0
ARC
  5
17C
330
1F
100
AcDbEntity
  8
0
  6
Continuous
 62
     7
370
    15
100
AcDbCircle
 10
265.650209733
 20
147.201927242
 30
0.0
 40
0.1250000000000284
100
AcDbArc
 50
0.0
 51
90.0
  0
ARC
  5
17D
330
1F
100
AcDbEntity
  8
0
  6
Continuous
 62
     7
370
    15
100
AcDbCircle
 10
265.650209733
 20
147.201927242
 30
0.0
 40
0.2750000000000057
100
AcDbArc
 50
0.0
 51
90.0
  0
LINE
  5
17E
330
1F
100
AcDbEntity
  8
0
  6
Continuous
 62
     7
370
    15
100
AcDbLine
 10
265.9252092014
 20
146.9269271559
 30
0.0
 11
265.9252092014
 21
147.2019271544
 31
0.0
  0
LINE
  5
17F
330
1F
100
AcDbEntity
  8
0
  6
Continuous
 62
     7
370
    15
100
AcDbLine
 10
265.7752111326
 20
146.9269271559
 30
0.0
 11
265.7752111326
 21
147.2019271544
 31
0.0
  0
LINE
  5
180
330
1F
100
AcDbEntity
  8
0
  6
Continuous
 62
     7
370
    15
100
AcDbLine
 10
195.6602111231
 20
147.3269272214
 30
0.0
 11
265.6502082716
 21
147.3269272214
 31
0.0
  0
LINE
  5
181
330
1F
100
AcDbEntity
  8
0
  6
Continuous
 62
     7
370
    15
100
AcDbLine
 10
195.535208262
 20
147.60192722
 30
0.0
 11
195.535208262
 21
147.6819272703
 31
0.0
  0
LINE
  5
182
330
1F
100
AcDbEntity
  8
0
  6
Continuous
 62
     7
370
    15
100
AcDbLine
 10
195.3852101932
 20
147.60192722
 30
0.0
 11
195.3852101932
 21
147.6819272703
 31
0.0
  0
ARC
  5
183
330
1F
100
AcDbEntity
  8
0
  6
Continuous
 62
     7
370
    15
100
AcDbCircle
 10
195.660209733
 20
147.601927242
 30
0.0
 40
0.124999999999994
100
AcDbArc
 50
180.0
 51
267.707557224
  0
ARC
  5
184
330
1F
100
AcDbEntity
  8
0
  6
Continuous
 62
     7
370
    15
100
AcDbCircle
 10
195.660209733
 20
147.601927242
 30
0.0
 40
0.2750000000000057
100
AcDbArc
 50
180.0
 51
270.0
  0
ENDSEC
  0
SECTION
  2
OBJECTS
  0
DICTIONARY
  5
C
330
0
100
AcDbDictionary
281
     1
  3
ACAD_GROUP
350
D
  3
ACAD_LAYOUT
350
1A
  3
ACAD_MLINESTYLE
350
17
  3
ACAD_PLOTSETTINGS
350
19
  3
ACAD_PLOTSTYLENAME
350
E
  0
DICTIONARY
  5
D
102
{ACAD_REACTORS
330
C
102
}
330
C
100
AcDbDictionary
281
     1
  0
DICTIONARY
  5
1A
102
{ACAD_REACTORS
330
C
102
}
330
C
100
AcDbDictionary
281
     1
  3
Layout1
350
1E
  3
Layout2
350
26
  3
Model
350
22
  0
DICTIONARY
  5
17
102
{ACAD_REACTORS
330
C
102
}
330
C
100
AcDbDictionary
281
     1
  3
Standard
350
18
  0
DICTIONARY
  5
19
102
{ACAD_REACTORS
330
C
102
}
330
C
100
AcDbDictionary
281
     1
  0
ACDBDICTIONARYWDFLT
  5
E
102
{ACAD_REACTORS
330
C
102
}
330
C
100
AcDbDictionary
281
     1
  3
Normal
350
F
100
AcDbDictionaryWithDefault
340
F
  0
LAYOUT
  5
1E
102
{ACAD_REACTORS
330
1A
102
}
330
1A
100
AcDbPlotSettings
  1

  2
none_device
  4

  6

 40
0.0
 41
0.0
 42
0.0
 43
0.0
 44
0.0
 45
0.0
 46
0.0
 47
0.0
 48
0.0
 49
0.0
140
0.0
141
0.0
142
1.0
143
1.0
 70
   688
 72
     0
 73
     0
 74
     5
  7

 75
    16
147
1.0
148
0.0
149
0.0
100
AcDbLayout
  1
Layout1
 70
     1
 71
     1
 10
0.0
 20
0.0
 11
420.0
 21
297.0
 12
0.0
 22
0.0
 32
0.0
 14
1.0000000000E+20
 24
1.0000000000E+20
 34
1.0000000000E+20
 15
-1.0000000000E+20
 25
-1.0000000000E+20
 35
-1.0000000000E+20
146
0.0
 13
0.0
 23
0.0
 33
0.0
 16
1.0
 26
0.0
 36
0.0
 17
0.0
 27
1.0
 37
0.0
 76
     0
330
1B
  0
LAYOUT
  5
26
102
{ACAD_REACTORS
330
1A
102
}
330
1A
100
AcDbPlotSettings
  1

  2
none_device
  4

  6

 40
0.0
 41
0.0
 42
0.0
 43
0.0
 44
0.0
 45
0.0
 46
0.0
 47
0.0
 48
0.0
 49
0.0
140
0.0
141
0.0
142
1.0
143
1.0
 70
   688
 72
     0
 73
     0
 74
     5
  7

 75
    16
147
1.0
148
0.0
149
0.0
100
AcDbLayout
  1
Layout2
 70
     1
 71
     2
 10
0.0
 20
0.0
 11
0.0
 21
0.0
 12
0.0
 22
0.0
 32
0.0
 14
0.0
 24
0.0
 34
0.0
 15
0.0
 25
0.0
 35
0.0
146
0.0
 13
0.0
 23
0.0
 33
0.0
 16
1.0
 26
0.0
 36
0.0
 17
0.0
 27
1.0
 37
0.0
 76
     0
330
23
  0
LAYOUT
  5
22
102
{ACAD_REACTORS
330
1A
102
}
330
1A
100
AcDbPlotSettings
  1

  2
none_device
  4

  6

 40
0.0
 41
0.0
 42
0.0
 43
0.0
 44
0.0
 45
0.0
 46
0.0
 47
0.0
 48
0.0
 49
0.0
140
0.0
141
0.0
142
1.0
143
1.0
 70
  1712
 72
     0
 73
     0
 74
     0
  7

 75
     0
147
1.0
148
0.0
149
0.0
100
AcDbLayout
  1
Model
 70
     1
 71
     0
 10
0.0
 20
0.0
 11
420.0
 21
297.0
 12
0.0
 22
0.0
 32
0.0
 14
0.0
 24
0.0
 34
0.0
 15
420.0
 25
297.0
 35
0.0
146
0.0
 13
0.0
 23
0.0
 33
0.0
 16
1.0
 26
0.0
 36
0.0
 17
0.0
 27
1.0
 37
0.0
 76
     0
330
1F
331
29
  0
MLINESTYLE
  5
18
102
{ACAD_REACTORS
330
17
102
}
330
17
100
AcDbMlineStyle
  2
Standard
 70
     0
  3

 62
   256
 51
90.0
 52
90.0
 71
     2
 49
0.5
 62
   256
  6
BYLAYER
 49
-0.5
 62
   256
  6
BYLAYER
  0
ACDBPLACEHOLDER
  5
F
102
{ACAD_REACTORS
330
E
102
}
330
E
  0
ENDSEC
  0
EOF
