  0
SECTION
  2
HEADER
  9
$ACADVER
  1
AC1015
  9
$ACADMAINTVER
 70
     6
  9
$DWGCODEPAGE
  3
ANSI_1252
  9
$INSBASE
 10
0.0
 20
0.0
 30
0.0
  9
$EXTMIN
 10
0.0
 20
0.0
 30
0.0
  9
$EXTMAX
 10
420.0
 20
297.0
 30
0.0
  9
$LIMMIN
 10
0.0
 20
0.0
  9
$LIMMAX
 10
420.0
 20
297.0
  9
$ORTHOMODE
 70
     0
  9
$REGENMODE
 70
     1
  9
$FILLMODE
 70
     1
  9
$QTEXTMODE
 70
     0
  9
$MIRRTEXT
 70
     1
  9
$LTSCALE
 40
1.0
  9
$ATTMODE
 70
     1
  9
$TEXTSIZE
 40
3.5
  9
$TRACEWID
 40
1.0
  9
$TEXTSTYLE
  7
Standard
  9
$CLAYER
  8
0
  9
$CELTYPE
  6
ByLayer
  9
$CECOLOR
 62
   256
  9
$CELTSCALE
 40
1.0
  9
$DISPSILH
 70
     0
  9
$DIMSCALE
 40
1.0
  9
$DIMASZ
 40
3.302
  9
$DIMEXO
 40
1.0
  9
$DIMDLI
 40
3.75
  9
$DIMRND
 40
0.0
  9
$DIMDLE
 40
0.0
  9
$DIMEXE
 40
1.0
  9
$DIMTP
 40
0.0
  9
$DIMTM
 40
0.0
  9
$DIMTXT
 40
3.5
  9
$DIMCEN
 40
2.5
  9
$DIMTSZ
 40
0.0
  9
$DIMTOL
 70
     0
  9
$DIMLIM
 70
     0
  9
$DIMTIH
 70
     1
  9
$DIMTOH
 70
     1
  9
$DIMSE1
 70
     0
  9
$DIMSE2
 70
     0
  9
$DIMTAD
 70
     1
  9
$DIMZIN
 70
     0
  9
$DIMBLK
  1

  9
$DIMASO
 70
     1
  9
$DIMSHO
 70
     1
  9
$DIMPOST
  1

  9
$DIMAPOST
  1

  9
$DIMALT
 70
     0
  9
$DIMALTD
 70
     3
  9
$DIMALTF
 40
0.0393700787
  9
$DIMLFAC
 40
10.0
  9
$DIMTOFL
 70
     1
  9
$DIMTVP
 40
0.0
  9
$DIMTIX
 70
     0
  9
$DIMSOXD
 70
     0
  9
$DIMSAH
 70
     0
  9
$DIMBLK1
  1

  9
$DIMBLK2
  1

  9
$DIMSTYLE
  2
ISO-25
  9
$DIMCLRD
 70
     0
  9
$DIMCLRE
 70
     0
  9
$DIMCLRT
 70
     0
  9
$DIMTFAC
 40
1.0
  9
$DIMGAP
 40
1.524
  9
$DIMJUST
 70
     0
  9
$DIMSD1
 70
     0
  9
$DIMSD2
 70
     0
  9
$DIMTOLJ
 70
     0
  9
$DIMTZIN
 70
     0
  9
$DIMALTZ
 70
     0
  9
$DIMALTTZ
 70
     0
  9
$DIMUPT
 70
     0
  9
$DIMDEC
 70
     3
  9
$DIMTDEC
 70
     3
  9
$DIMALTU
 70
     2
  9
$DIMALTTD
 70
     3
  9
$DIMTXSTY
  7
Standard
  9
$DIMAUNIT
 70
     0
  9
$DIMADEC
 70
     2
  9
$DIMALTRND
 40
0.0
  9
$DIMAZIN
 70
     0
  9
$DIMDSEP
 70
    44
  9
$DIMATFIT
 70
     3
  9
$DIMFRAC
 70
     0
  9
$DIMLDRBLK
  1

  9
$DIMLUNIT
 70
     2
  9
$DIMLWD
 70
    -2
  9
$DIMLWE
 70
    -2
  9
$DIMTMOVE
 70
     0
  9
$LUNITS
 70
     2
  9
$LUPREC
 70
     8
  9
$SKETCHINC
 40
1.0
  9
$FILLETRAD
 40
10.0
  9
$AUNITS
 70
     0
  9
$AUPREC
 70
     8
  9
$MENU
  1
.
  9
$ELEVATION
 40
0.0
  9
$PELEVATION
 40
0.0
  9
$THICKNESS
 40
0.0
  9
$LIMCHECK
 70
     0
  9
$CHAMFERA
 40
10.0
  9
$CHAMFERB
 40
10.0
  9
$CHAMFERC
 40
20.0
  9
$CHAMFERD
 40
0.0
  9
$SKPOLY
 70
     0
  9
$TDCREATE
 40
2455855.519399375
  9
$TDUCREATE
 40
2455855.477732708
  9
$TDUPDATE
 40
2455855.519399386
  9
$TDUUPDATE
 40
2455855.47773272
  9
$TDINDWG
 40
0.0000000116
  9
$TDUSRTIMER
 40
0.0000000116
  9
$USRTIMER
 70
     1
  9
$ANGBASE
 50
0.0
  9
$ANGDIR
 70
     0
  9
$PDMODE
 70
     0
  9
$PDSIZE
 40
-1.0
  9
$PLINEWID
 40
0.0
  9
$SPLFRAME
 70
     0
  9
$SPLINETYPE
 70
     6
  9
$SPLINESEGS
 70
     8
  9
$HANDSEED
  5
208
  9
$SURFTAB1
 70
     6
  9
$SURFTAB2
 70
     6
  9
$SURFTYPE
 70
     6
  9
$SURFU
 70
     6
  9
$SURFV
 70
     6
  9
$UCSBASE
  2

  9
$UCSNAME
  2

  9
$UCSORG
 10
0.0
 20
0.0
 30
0.0
  9
$UCSXDIR
 10
1.0
 20
0.0
 30
0.0
  9
$UCSYDIR
 10
0.0
 20
1.0
 30
0.0
  9
$UCSORTHOREF
  2

  9
$UCSORTHOVIEW
 70
     0
  9
$UCSORGTOP
 10
0.0
 20
0.0
 30
0.0
  9
$UCSORGBOTTOM
 10
0.0
 20
0.0
 30
0.0
  9
$UCSORGLEFT
 10
0.0
 20
0.0
 30
0.0
  9
$UCSORGRIGHT
 10
0.0
 20
0.0
 30
0.0
  9
$UCSORGFRONT
 10
0.0
 20
0.0
 30
0.0
  9
$UCSORGBACK
 10
0.0
 20
0.0
 30
0.0
  9
$PUCSBASE
  2

  9
$PUCSNAME
  2

  9
$PUCSORG
 10
0.0
 20
0.0
 30
0.0
  9
$PUCSXDIR
 10
1.0
 20
0.0
 30
0.0
  9
$PUCSYDIR
 10
0.0
 20
1.0
 30
0.0
  9
$PUCSORTHOREF
  2

  9
$PUCSORTHOVIEW
 70
     0
  9
$PUCSORGTOP
 10
0.0
 20
0.0
 30
0.0
  9
$PUCSORGBOTTOM
 10
0.0
 20
0.0
 30
0.0
  9
$PUCSORGLEFT
 10
0.0
 20
0.0
 30
0.0
  9
$PUCSORGRIGHT
 10
0.0
 20
0.0
 30
0.0
  9
$PUCSORGFRONT
 10
0.0
 20
0.0
 30
0.0
  9
$PUCSORGBACK
 10
0.0
 20
0.0
 30
0.0
  9
$USERI1
 70
     0
  9
$USERI2
 70
     0
  9
$USERI3
 70
     0
  9
$USERI4
 70
     0
  9
$USERI5
 70
     0
  9
$USERR1
 40
0.0
  9
$USERR2
 40
0.0
  9
$USERR3
 40
0.0
  9
$USERR4
 40
0.0
  9
$USERR5
 40
0.0
  9
$WORLDVIEW
 70
     1
  9
$SHADEDGE
 70
     3
  9
$SHADEDIF
 70
    70
  9
$TILEMODE
 70
     1
  9
$MAXACTVP
 70
    64
  9
$PINSBASE
 10
0.0
 20
0.0
 30
0.0
  9
$PLIMCHECK
 70
     0
  9
$PEXTMIN
 10
1.0000000000E+20
 20
1.0000000000E+20
 30
1.0000000000E+20
  9
$PEXTMAX
 10
-1.0000000000E+20
 20
-1.0000000000E+20
 30
-1.0000000000E+20
  9
$PLIMMIN
 10
0.0
 20
0.0
  9
$PLIMMAX
 10
420.0
 20
297.0
  9
$UNITMODE
 70
     0
  9
$VISRETAIN
 70
     1
  9
$PLINEGEN
 70
     0
  9
$PSLTSCALE
 70
     1
  9
$TREEDEPTH
 70
  3020
  9
$CMLSTYLE
  2
Standard
  9
$CMLJUST
 70
     0
  9
$CMLSCALE
 40
20.0
  9
$PROXYGRAPHICS
 70
     1
  9
$MEASUREMENT
 70
     1
  9
$CELWEIGHT
370
    -1
  9
$ENDCAPS
280
     0
  9
$JOINSTYLE
280
     0
  9
$LWDISPLAY
290
     1
  9
$INSUNITS
 70
     4
  9
$HYPERLINKBASE
  1

  9
$STYLESHEET
  1

  9
$XEDIT
290
     1
  9
$CEPSNTYPE
380
     0
  9
$PSTYLEMODE
290
     1
  9
$FINGERPRINTGUID
  2
{1F4AEA23-2DF1-479B-85D7-FFED093FD5DA}
  9
$VERSIONGUID
  2
{FAEB1C32-E019-11D5-929B-00C0DF256EC4}
  9
$EXTNAMES
290
     1
  9
$PSVPSCALE
 40
0.0
  9
$OLESTARTUP
290
     0
  0
ENDSEC
  0
SECTION
  2
CLASSES
  0
CLASS
  1
ACDBDICTIONARYWDFLT
  2
AcDbDictionaryWithDefault
  3
ObjectDBX Classes
 90
        0
280
     0
281
     0
  0
CLASS
  1
VISUALSTYLE
  2
AcDbVisualStyle
  3
ObjectDBX Classes
 90
     4095
280
     0
281
     0
  0
CLASS
  1
MATERIAL
  2
AcDbMaterial
  3
ObjectDBX Classes
 90
     1153
280
     0
281
     0
  0
CLASS
  1
ACDBPLACEHOLDER
  2
AcDbPlaceHolder
  3
ObjectDBX Classes
 90
        0
280
     0
281
     0
  0
CLASS
  1
LAYOUT
  2
AcDbLayout
  3
ObjectDBX Classes
 90
        0
280
     0
281
     0
  0
ENDSEC
  0
SECTION
  2
TABLES
  0
TABLE
  2
VPORT
  5
8
330
0
100
AcDbSymbolTable
 70
     1
  0
VPORT
  5
29
330
8
100
AcDbSymbolTableRecord
100
AcDbViewportTableRecord
  2
*Active
 70
     0
 10
0.0
 20
0.0
 11
1.0
 21
1.0
 12
210.0
 22
148.5
 13
0.0
 23
0.0
 14
10.0
 24
10.0
 15
10.0
 25
10.0
 16
0.0
 26
0.0
 36
1.0
 17
0.0
 27
0.0
 37
0.0
 40
297.0
 41
1.4141414141
 42
50.0
 43
0.0
 44
0.0
 50
0.0
 51
0.0
 71
     0
 72
  2000
 73
     1
 74
     3
 75
     0
 76
     0
 77
     0
 78
     0
281
     0
 65
     1
110
0.0
120
0.0
130
0.0
111
1.0
121
0.0
131
0.0
112
0.0
122
1.0
132
0.0
 79
     0
146
0.0
  0
ENDTAB
  0
TABLE
  2
LTYPE
  5
5
330
0
100
AcDbSymbolTable
 70
     6
  0
LTYPE
  5
14
330
5
100
AcDbSymbolTableRecord
100
AcDbLinetypeTableRecord
  2
ByBlock
 70
     0
  3

 72
    65
 73
     0
 40
0.0
  0
LTYPE
  5
15
330
5
100
AcDbSymbolTableRecord
100
AcDbLinetypeTableRecord
  2
ByLayer
 70
     0
  3

 72
    65
 73
     0
 40
0.0
  0
LTYPE
  5
16
330
5
100
AcDbSymbolTableRecord
100
AcDbLinetypeTableRecord
  2
Continuous
 70
     0
  3
Solid line
 72
    65
 73
     0
 40
0.0
  0
LTYPE
  5
3F
330
5
100
AcDbSymbolTableRecord
100
AcDbLinetypeTableRecord
  2
HIDDEN
 70
     0
  3
Hidden __ __ __ __ __ __ __ __ __ __ __ __ __ __
 72
    65
 73
     2
 40
1.905
 49
1.27
 74
     0
 49
-0.635
 74
     0
  0
LTYPE
  5
40
330
5
100
AcDbSymbolTableRecord
100
AcDbLinetypeTableRecord
  2
PHANTOM
 70
     0
  3
Phantom ______  __  __  ______  __  __  ______
 72
    65
 73
     6
 40
12.7
 49
6.35
 74
     0
 49
-1.27
 74
     0
 49
1.27
 74
     0
 49
-1.27
 74
     0
 49
1.27
 74
     0
 49
-1.27
 74
     0
  0
LTYPE
  5
41
330
5
100
AcDbSymbolTableRecord
100
AcDbLinetypeTableRecord
  2
CENTER
 70
     0
  3
Center ____ _ ____ _ ____ _ ____ _ ____ _ ____
 72
    65
 73
     4
 40
10.16
 49
6.35
 74
     0
 49
-1.27
 74
     0
 49
1.27
 74
     0
 49
-1.27
 74
     0
  0
LTYPE
  5
42
330
5
100
AcDbSymbolTableRecord
100
AcDbLinetypeTableRecord
  2
CENTERX2
 70
     0
  3
Center (2x) ________  __  ________  __  _____
 72
    65
 73
     4
 40
20.32
 49
12.7
 74
     0
 49
-2.54
 74
     0
 49
2.54
 74
     0
 49
-2.54
 74
     0
  0
LTYPE
  5
43
330
5
100
AcDbSymbolTableRecord
100
AcDbLinetypeTableRecord
  2
DOT2
 70
     0
  3
Dot (.5x) ........................................
 72
    65
 73
     2
 40
0.635
 49
0.0
 74
     0
 49
-0.635
 74
     0
  0
ENDTAB
  0
TABLE
  2
LAYER
  5
2
330
0
100
AcDbSymbolTable
 70
     4
  0
LAYER
  5
10
330
2
100
AcDbSymbolTableRecord
100
AcDbLayerTableRecord
  2
0
 70
     0
 62
     7
  6
Continuous
370
    -3
390
F
  0
LAYER
  5
44
330
2
100
AcDbSymbolTableRecord
100
AcDbLayerTableRecord
  2
FORMAT
 70
     0
 62
     7
  6
Continuous
370
    -3
390
F
  0
LAYER
  5
45
330
2
100
AcDbSymbolTableRecord
100
AcDbLayerTableRecord
  2
SLD-0
 70
     0
 62
     1
  6
Continuous
370
    -3
390
F
  0
LAYER
  5
46
330
2
100
AcDbSymbolTableRecord
100
AcDbLayerTableRecord
  2
WATERMARK
 70
     0
 62
    20
  6
Continuous
370
    -3
390
F
  0
ENDTAB
  0
TABLE
  2
STYLE
  5
3
330
0
100
AcDbSymbolTable
 70
     1
  0
STYLE
  5
11
330
3
100
AcDbSymbolTableRecord
100
AcDbTextStyleTableRecord
  2
Standard
 70
     0
 40
0.0
 41
1.0
 50
0.0
 71
     0
 42
2.5
  3
txt
  4

  0
ENDTAB
  0
TABLE
  2
VIEW
  5
6
330
0
100
AcDbSymbolTable
 70
     0
  0
ENDTAB
  0
TABLE
  2
UCS
  5
7
330
0
100
AcDbSymbolTable
 70
     0
  0
ENDTAB
  0
TABLE
  2
APPID
  5
9
330
0
100
AcDbSymbolTable
 70
     1
  0
APPID
  5
12
330
9
100
AcDbSymbolTableRecord
100
AcDbRegAppTableRecord
  2
ACAD
 70
     0
  0
ENDTAB
  0
TABLE
  2
DIMSTYLE
  5
A
330
0
100
AcDbSymbolTable
 70
     1
100
AcDbDimStyleTable
  0
DIMSTYLE
105
27
330
A
100
AcDbSymbolTableRecord
100
AcDbDimStyleTableRecord
  2
ISO-25
 70
     0
 41
2.5
 42
0.625
 43
3.75
 44
1.25
 73
     0
 74
     0
 77
     1
 78
     8
140
2.5
141
2.5
143
0.0393700787
147
0.625
171
     3
172
     1
178
     0
271
     2
272
     2
274
     3
278
    44
283
     0
284
     8
340
11
  0
ENDTAB
  0
TABLE
  2
BLOCK_RECORD
  5
1
330
0
100
AcDbSymbolTable
 70
     1
  0
BLOCK_RECORD
  5
1F
330
1
100
AcDbSymbolTableRecord
100
AcDbBlockTableRecord
  2
*Model_Space
340
22
  0
BLOCK_RECORD
  5
1B
330
1
100
AcDbSymbolTableRecord
100
AcDbBlockTableRecord
  2
*Paper_Space
340
1E
  0
BLOCK_RECORD
  5
23
330
1
100
AcDbSymbolTableRecord
100
AcDbBlockTableRecord
  2
*Paper_Space0
340
26
  0
ENDTAB
  0
ENDSEC
  0
SECTION
  2
BLOCKS
  0
BLOCK
  5
20
330
1F
100
AcDbEntity
  8
0
100
AcDbBlockBegin
  2
*Model_Space
 70
     0
 10
0.0
 20
0.0
 30
0.0
  3
*Model_Space
  1

  0
ENDBLK
  5
21
330
1F
100
AcDbEntity
  8
0
100
AcDbBlockEnd
  0
BLOCK
  5
1C
330
1B
100
AcDbEntity
 67
     1
  8
0
100
AcDbBlockBegin
  2
*Paper_Space
 70
     0
 10
0.0
 20
0.0
 30
0.0
  3
*Paper_Space
  1

  0
ENDBLK
  5
1D
330
1B
100
AcDbEntity
 67
     1
  8
0
100
AcDbBlockEnd
  0
BLOCK
  5
24
330
23
100
AcDbEntity
  8
0
100
AcDbBlockBegin
  2
*Paper_Space0
 70
     0
 10
0.0
 20
0.0
 30
0.0
  3
*Paper_Space0
  1

  0
ENDBLK
  5
25
330
23
100
AcDbEntity
  8
0
100
AcDbBlockEnd
  0
ENDSEC
  0
SECTION
  2
ENTITIES
  0
LINE
  5
47
330
1F
100
AcDbEntity
  8
0
  6
Continuous
 62
     7
370
    15
100
AcDbLine
 10
196.9421
 20
220.845872758
 30
0.0
 11
167.1021
 21
220.845872758
 31
0.0
  0
ARC
  5
48
330
1F
100
AcDbEntity
  8
0
  6
Continuous
 62
     7
370
    15
100
AcDbCircle
 10
195.4241
 20
126.962927242
 30
0.0
 40
0.2000000000000028
100
AcDbArc
 50
270.0
 51
0.0
  0
ARC
  5
49
330
1F
100
AcDbEntity
  8
0
  6
Continuous
 62
     7
370
    15
100
AcDbCircle
 10
190.1241
 20
126.962927242
 30
0.0
 40
0.2000000000000171
100
AcDbArc
 50
180.0
 51
270.0
  0
LINE
  5
4A
330
1F
100
AcDbEntity
  8
0
  6
Continuous
 62
     7
370
    15
100
AcDbLine
 10
195.6241
 20
126.962927242
 30
0.0
 11
195.6241
 21
127.362927242
 31
0.0
  0
LINE
  5
4B
330
1F
100
AcDbEntity
  8
0
  6
Continuous
 62
     7
370
    15
100
AcDbLine
 10
189.9241
 20
127.362927242
 30
0.0
 11
189.9241
 21
126.962927242
 31
0.0
  0
LINE
  5
4C
330
1F
100
AcDbEntity
  8
0
  6
Continuous
 62
     7
370
    15
100
AcDbLine
 10
174.1241
 20
126.962927242
 30
0.0
 11
174.1241
 21
127.362927242
 31
0.0
  0
LINE
  5
4D
330
1F
100
AcDbEntity
  8
0
  6
Continuous
 62
     7
370
    15
100
AcDbLine
 10
168.4241
 20
127.362927242
 30
0.0
 11
168.4241
 21
126.962927242
 31
0.0
  0
ARC
  5
4E
330
1F
100
AcDbEntity
  8
0
  6
Continuous
 62
     7
370
    15
100
AcDbCircle
 10
173.9241
 20
126.962927242
 30
0.0
 40
0.2000000000000028
100
AcDbArc
 50
270.0
 51
0.0
  0
ARC
  5
4F
330
1F
100
AcDbEntity
  8
0
  6
Continuous
 62
     7
370
    15
100
AcDbCircle
 10
168.6241
 20
126.962927242
 30
0.0
 40
0.2000000000000028
100
AcDbArc
 50
180.0
 51
270.0
  0
LINE
  5
50
330
1F
100
AcDbEntity
  8
0
  6
Continuous
 62
     7
370
    15
100
AcDbLine
 10
195.6041
 20
127.362927242
 30
0.0
 11
195.6041
 21
134.162927242
 31
0.0
  0
LINE
  5
51
330
1F
100
AcDbEntity
  8
0
  6
Continuous
 62
     7
370
    15
100
AcDbLine
 10
189.9441
 20
134.162927242
 30
0.0
 11
189.9441
 21
127.362927242
 31
0.0
  0
LINE
  5
52
330
1F
100
AcDbEntity
  8
0
  6
Continuous
 62
     7
370
    15
100
AcDbLine
 10
174.1041
 20
127.362927242
 30
0.0
 11
174.1041
 21
134.162927242
 31
0.0
  0
LINE
  5
53
330
1F
100
AcDbEntity
  8
0
  6
Continuous
 62
     7
370
    15
100
AcDbLine
 10
168.4441
 20
134.162927242
 30
0.0
 11
168.4441
 21
127.362927242
 31
0.0
  0
LINE
  5
54
330
1F
100
AcDbEntity
  8
0
  6
Continuous
 62
     7
370
    15
100
AcDbLine
 10
195.9641
 20
134.7661838366
 30
0.0
 11
195.9641
 21
142.802927242
 31
0.0
  0
LINE
  5
55
330
1F
100
AcDbEntity
  8
0
  6
Continuous
 62
     7
370
    15
100
AcDbLine
 10
189.5841
 20
141.862927242
 30
0.0
 11
189.5841
 21
134.7661838366
 31
0.0
  0
ARC
  5
56
330
1F
100
AcDbEntity
  8
0
  6
Continuous
 62
     7
370
    15
100
AcDbCircle
 10
195.4941
 20
134.7661838366
 30
0.0
 40
0.4700000000000001
100
AcDbArc
 50
350.5402980318
 51
0.0
  0
ARC
  5
57
330
1F
100
AcDbEntity
  8
0
  6
Continuous
 62
     7
370
    15
100
AcDbCircle
 10
190.0541
 20
134.7661838366
 30
0.0
 40
0.4700000000000001
100
AcDbArc
 50
180.0
 51
189.4597019682
  0
LINE
  5
58
330
1F
100
AcDbEntity
  8
0
  6
Continuous
 62
     7
370
    15
100
AcDbLine
 10
189.5904913227
 20
134.6889375141
 30
0.0
 11
189.678134978
 21
134.162927242
 31
0.0
  0
LINE
  5
59
330
1F
100
AcDbEntity
  8
0
  6
Continuous
 62
     7
370
    15
100
AcDbLine
 10
195.870065022
 20
134.162927242
 30
0.0
 11
195.9577086773
 21
134.6889375141
 31
0.0
  0
LINE
  5
5A
330
1F
100
AcDbEntity
  8
0
  6
Continuous
 62
     7
370
    15
100
AcDbLine
 10
174.4641
 20
134.7661838366
 30
0.0
 11
174.4641
 21
141.862927242
 31
0.0
  0
LINE
  5
5B
330
1F
100
AcDbEntity
  8
0
  6
Continuous
 62
     7
370
    15
100
AcDbLine
 10
168.0841
 20
142.802927242
 30
0.0
 11
168.0841
 21
134.7661838366
 31
0.0
  0
ARC
  5
5C
330
1F
100
AcDbEntity
  8
0
  6
Continuous
 62
     7
370
    15
100
AcDbCircle
 10
173.9941
 20
134.7661838366
 30
0.0
 40
0.4700000000000001
100
AcDbArc
 50
350.5402980318
 51
0.0
  0
ARC
  5
5D
330
1F
100
AcDbEntity
  8
0
  6
Continuous
 62
     7
370
    15
100
AcDbCircle
 10
168.5541
 20
134.7661838366
 30
0.0
 40
0.4700000000000001
100
AcDbArc
 50
180.0
 51
189.4597019682
  0
LINE
  5
5E
330
1F
100
AcDbEntity
  8
0
  6
Continuous
 62
     7
370
    15
100
AcDbLine
 10
168.0904913227
 20
134.6889375141
 30
0.0
 11
168.178134978
 21
134.162927242
 31
0.0
  0
LINE
  5
5F
330
1F
100
AcDbEntity
  8
0
  6
Continuous
 62
     7
370
    15
100
AcDbLine
 10
174.370065022
 20
134.162927242
 30
0.0
 11
174.4577086773
 21
134.6889375141
 31
0.0
  0
ARC
  5
60
330
1F
100
AcDbEntity
  8
0
  6
Continuous
 62
     7
370
    15
100
AcDbCircle
 10
171.7141
 20
144.042927242
 30
0.0
 40
0.0500000000000114
100
AcDbArc
 50
270.0
 51
0.0
  0
ARC
  5
61
330
1F
100
AcDbEntity
  8
0
  6
Continuous
 62
     7
370
    15
100
AcDbCircle
 10
170.5341
 20
144.042927242
 30
0.0
 40
0.0500000000000114
100
AcDbArc
 50
180.0
 51
270.0
  0
LINE
  5
62
330
1F
100
AcDbEntity
  8
0
  6
Continuous
 62
     7
370
    15
100
AcDbLine
 10
171.7641
 20
144.042927242
 30
0.0
 11
171.7641
 21
144.067927242
 31
0.0
  0
LINE
  5
63
330
1F
100
AcDbEntity
  8
0
  6
Continuous
 62
     7
370
    15
100
AcDbLine
 10
170.4841
 20
144.067927242
 30
0.0
 11
170.4841
 21
144.042927242
 31
0.0
  0
LWPOLYLINE
  5
64
330
1F
100
AcDbEntity
  8
0
  6
Continuous
 62
     7
370
    15
100
AcDbPolyline
 90
        3
 70
   128
 43
0.0
 10
171.7641
 20
144.067927242
 10
171.763139264
 20
144.0776817581
 10
171.7617969601
 20
144.082927242
  0
LWPOLYLINE
  5
65
330
1F
100
AcDbEntity
  8
0
  6
Continuous
 62
     7
370
    15
100
AcDbPolyline
 90
        3
 70
   128
 43
0.0
 10
170.4864030399
 20
144.082927242
 10
170.485060736
 20
144.0776817581
 10
170.4841
 20
144.067927242
  0
LWPOLYLINE
  5
66
330
1F
100
AcDbEntity
  8
0
  6
Continuous
 62
     7
370
    15
100
AcDbPolyline
 90
        3
 70
   128
 43
0.0
 10
193.5641
 20
144.067927242
 10
193.563139264
 20
144.0776817581
 10
193.5617969601
 20
144.082927242
  0
LWPOLYLINE
  5
67
330
1F
100
AcDbEntity
  8
0
  6
Continuous
 62
     7
370
    15
100
AcDbPolyline
 90
        3
 70
   128
 43
0.0
 10
192.2864030399
 20
144.082927242
 10
192.285060736
 20
144.0776817581
 10
192.2841
 20
144.067927242
  0
ARC
  5
68
330
1F
100
AcDbEntity
  8
0
  6
Continuous
 62
     7
370
    15
100
AcDbCircle
 10
193.5141
 20
144.042927242
 30
0.0
 40
0.0500000000000398
100
AcDbArc
 50
270.0
 51
0.0
  0
ARC
  5
69
330
1F
100
AcDbEntity
  8
0
  6
Continuous
 62
     7
370
    15
100
AcDbCircle
 10
192.3341
 20
144.042927242
 30
0.0
 40
0.0499999999999829
100
AcDbArc
 50
180.0
 51
270.0
  0
LINE
  5
6A
330
1F
100
AcDbEntity
  8
0
  6
Continuous
 62
     7
370
    15
100
AcDbLine
 10
193.5641
 20
144.042927242
 30
0.0
 11
193.5641
 21
144.067927242
 31
0.0
  0
LINE
  5
6B
330
1F
100
AcDbEntity
  8
0
  6
Continuous
 62
     7
370
    15
100
AcDbLine
 10
192.2841
 20
144.067927242
 30
0.0
 11
192.2841
 21
144.042927242
 31
0.0
  0
ARC
  5
6C
330
1F
100
AcDbEntity
  8
0
  6
Continuous
 62
     7
370
    15
100
AcDbCircle
 10
196.1141
 20
143.957927242
 30
0.0
 40
0.0499999999999946
100
AcDbArc
 50
44.4270040008
 51
57.2905170809
  0
ARC
  5
6D
330
1F
100
AcDbEntity
  8
0
  6
Continuous
 62
     7
370
    15
100
AcDbCircle
 10
194.9341
 20
143.957927242
 30
0.0
 40
0.0499999999999829
100
AcDbArc
 50
90.0
 51
180.0
  0
ARC
  5
6E
330
1F
100
AcDbEntity
  8
0
  6
Continuous
 62
     7
370
    15
100
AcDbCircle
 10
194.9341
 20
143.932927242
 30
0.0
 40
0.0499999999999874
100
AcDbArc
 50
180.0
 51
203.5781784782
  0
LINE
  5
6F
330
1F
100
AcDbEntity
  8
0
  6
Continuous
 62
     7
370
    15
100
AcDbLine
 10
194.8841
 20
143.957927242
 30
0.0
 11
194.8841
 21
143.932927242
 31
0.0
  0
ARC
  5
70
330
1F
100
AcDbEntity
  8
0
  6
Continuous
 62
     7
370
    15
100
AcDbCircle
 10
195.0041
 20
144.057927242
 30
0.0
 40
0.0499999999999829
100
AcDbArc
 50
270.0
 51
323.1301023545
  0
ARC
  5
71
330
1F
100
AcDbEntity
  8
0
  6
Continuous
 62
     7
370
    15
100
AcDbCircle
 10
174.6141
 20
143.932927242
 30
0.0
 40
0.0499999999999874
100
AcDbArc
 50
336.4218215218
 51
0.0
  0
ARC
  5
72
330
1F
100
AcDbEntity
  8
0
  6
Continuous
 62
     7
370
    15
100
AcDbCircle
 10
173.4341
 20
143.932927242
 30
0.0
 40
0.0499999999999874
100
AcDbArc
 50
180.0
 51
203.5781784782
  0
LINE
  5
73
330
1F
100
AcDbEntity
  8
0
  6
Continuous
 62
     7
370
    15
100
AcDbLine
 10
174.6641
 20
143.932927242
 30
0.0
 11
174.6641
 21
143.957927242
 31
0.0
  0
LINE
  5
74
330
1F
100
AcDbEntity
  8
0
  6
Continuous
 62
     7
370
    15
100
AcDbLine
 10
173.3841
 20
143.957927242
 30
0.0
 11
173.3841
 21
143.932927242
 31
0.0
  0
ARC
  5
75
330
1F
100
AcDbEntity
  8
0
  6
Continuous
 62
     7
370
    15
100
AcDbCircle
 10
174.6141
 20
143.957927242
 30
0.0
 40
0.0499999999999829
100
AcDbArc
 50
0.0
 51
90.0
  0
ARC
  5
76
330
1F
100
AcDbEntity
  8
0
  6
Continuous
 62
     7
370
    15
100
AcDbCircle
 10
173.4341
 20
143.957927242
 30
0.0
 40
0.0499999999999829
100
AcDbArc
 50
90.0
 51
180.0
  0
ARC
  5
77
330
1F
100
AcDbEntity
  8
0
  6
Continuous
 62
     7
370
    15
100
AcDbCircle
 10
174.5441
 20
144.057927242
 30
0.0
 40
0.0499999999999829
100
AcDbArc
 50
180.0
 51
270.0
  0
ARC
  5
78
330
1F
100
AcDbEntity
  8
0
  6
Continuous
 62
     7
370
    15
100
AcDbCircle
 10
173.5041
 20
144.057927242
 30
0.0
 40
0.0500000000000114
100
AcDbArc
 50
270.0
 51
0.0
  0
LINE
  5
79
330
1F
100
AcDbEntity
  8
0
  6
Continuous
 62
     7
370
    15
100
AcDbLine
 10
174.4941
 20
144.057927242
 30
0.0
 11
174.4941
 21
144.082927242
 31
0.0
  0
LINE
  5
7A
330
1F
100
AcDbEntity
  8
0
  6
Continuous
 62
     7
370
    15
100
AcDbLine
 10
173.5541
 20
144.082927242
 30
0.0
 11
173.5541
 21
144.057927242
 31
0.0
  0
ARC
  5
7B
330
1F
100
AcDbEntity
  8
0
  6
Continuous
 62
     7
370
    15
100
AcDbCircle
 10
169.1141
 20
143.932927242
 30
0.0
 40
0.0499999999999874
100
AcDbArc
 50
336.4218215218
 51
0.0
  0
LINE
  5
7C
330
1F
100
AcDbEntity
  8
0
  6
Continuous
 62
     7
370
    15
100
AcDbLine
 10
169.1641
 20
143.932927242
 30
0.0
 11
169.1641
 21
143.957927242
 31
0.0
  0
ARC
  5
7D
330
1F
100
AcDbEntity
  8
0
  6
Continuous
 62
     7
370
    15
100
AcDbCircle
 10
169.1141
 20
143.957927242
 30
0.0
 40
0.0499999999999829
100
AcDbArc
 50
0.0
 51
90.0
  0
ARC
  5
7E
330
1F
100
AcDbEntity
  8
0
  6
Continuous
 62
     7
370
    15
100
AcDbCircle
 10
167.9341
 20
143.957927242
 30
0.0
 40
0.0499999999999829
100
AcDbArc
 50
90.0
 51
135.5729959975
  0
ARC
  5
7F
330
1F
100
AcDbEntity
  8
0
  6
Continuous
 62
     7
370
    15
100
AcDbCircle
 10
169.0441
 20
144.057927242
 30
0.0
 40
0.0500000000000114
100
AcDbArc
 50
180.0
 51
270.0
  0
ARC
  5
80
330
1F
100
AcDbEntity
  8
0
  6
Continuous
 62
     7
370
    15
100
AcDbCircle
 10
168.0041
 20
144.057927242
 30
0.0
 40
0.0499999999999829
100
AcDbArc
 50
270.0
 51
0.0
  0
LINE
  5
81
330
1F
100
AcDbEntity
  8
0
  6
Continuous
 62
     7
370
    15
100
AcDbLine
 10
168.9941
 20
144.057927242
 30
0.0
 11
168.9941
 21
144.0636379201
 31
0.0
  0
LINE
  5
82
330
1F
100
AcDbEntity
  8
0
  6
Continuous
 62
     7
370
    15
100
AcDbLine
 10
168.0541
 20
144.0636379201
 30
0.0
 11
168.0541
 21
144.057927242
 31
0.0
  0
ARC
  5
83
330
1F
100
AcDbEntity
  8
0
  6
Continuous
 62
     7
370
    15
100
AcDbCircle
 10
190.6141
 20
143.957927242
 30
0.0
 40
0.0500000000000114
100
AcDbArc
 50
0.0
 51
90.0
  0
ARC
  5
84
330
1F
100
AcDbEntity
  8
0
  6
Continuous
 62
     7
370
    15
100
AcDbCircle
 10
189.4341
 20
143.957927242
 30
0.0
 40
0.0499999999999829
100
AcDbArc
 50
90.0
 51
180.0
  0
LINE
  5
85
330
1F
100
AcDbEntity
  8
0
  6
Continuous
 62
     7
370
    15
100
AcDbLine
 10
190.6641
 20
143.932927242
 30
0.0
 11
190.6641
 21
143.957927242
 31
0.0
  0
LINE
  5
86
330
1F
100
AcDbEntity
  8
0
  6
Continuous
 62
     7
370
    15
100
AcDbLine
 10
189.3841
 20
143.957927242
 30
0.0
 11
189.3841
 21
143.932927242
 31
0.0
  0
ARC
  5
87
330
1F
100
AcDbEntity
  8
0
  6
Continuous
 62
     7
370
    15
100
AcDbCircle
 10
190.6141
 20
143.932927242
 30
0.0
 40
0.0500000000000134
100
AcDbArc
 50
336.4218215218
 51
0.0
  0
ARC
  5
88
330
1F
100
AcDbEntity
  8
0
  6
Continuous
 62
     7
370
    15
100
AcDbCircle
 10
189.4341
 20
143.932927242
 30
0.0
 40
0.0500000000000134
100
AcDbArc
 50
180.0
 51
203.5781784782
  0
ARC
  5
89
330
1F
100
AcDbEntity
  8
0
  6
Continuous
 62
     7
370
    15
100
AcDbCircle
 10
190.5441
 20
144.057927242
 30
0.0
 40
0.0499999999999829
100
AcDbArc
 50
180.0
 51
270.0
  0
ARC
  5
8A
330
1F
100
AcDbEntity
  8
0
  6
Continuous
 62
     7
370
    15
100
AcDbCircle
 10
189.5041
 20
144.057927242
 30
0.0
 40
0.0499999999999829
100
AcDbArc
 50
270.0
 51
0.0
  0
LINE
  5
8B
330
1F
100
AcDbEntity
  8
0
  6
Continuous
 62
     7
370
    15
100
AcDbLine
 10
190.4941
 20
144.057927242
 30
0.0
 11
190.4941
 21
144.082927242
 31
0.0
  0
LINE
  5
8C
330
1F
100
AcDbEntity
  8
0
  6
Continuous
 62
     7
370
    15
100
AcDbLine
 10
189.5541
 20
144.082927242
 30
0.0
 11
189.5541
 21
144.057927242
 31
0.0
  0
LINE
  5
8D
330
1F
100
AcDbEntity
  8
0
  6
Continuous
 62
     7
370
    15
100
AcDbLine
 10
180.1111181235
 20
142.6792317325
 30
0.0
 11
180.2457335081
 21
142.6792317325
 31
0.0
  0
LINE
  5
8E
330
1F
100
AcDbEntity
  8
0
  6
Continuous
 62
     7
370
    15
100
AcDbLine
 10
180.2457335081
 20
142.6792317325
 30
0.0
 11
180.2457335081
 21
142.6433342966
 31
0.0
  0
LINE
  5
8F
330
1F
100
AcDbEntity
  8
0
  6
Continuous
 62
     7
370
    15
100
AcDbLine
 10
180.2457335081
 20
142.6433342966
 30
0.0
 11
180.1111181235
 21
142.6433342966
 31
0.0
  0
LINE
  5
90
330
1F
100
AcDbEntity
  8
0
  6
Continuous
 62
     7
370
    15
100
AcDbLine
 10
180.1111181235
 20
142.6433342966
 30
0.0
 11
180.1111181235
 21
142.6792317325
 31
0.0
  0
LINE
  5
91
330
1F
100
AcDbEntity
  8
0
  6
Continuous
 62
     7
370
    15
100
AcDbLine
 10
181.2418873543
 20
142.6792317325
 30
0.0
 11
181.3765027389
 21
142.6792317325
 31
0.0
  0
LINE
  5
92
330
1F
100
AcDbEntity
  8
0
  6
Continuous
 62
     7
370
    15
100
AcDbLine
 10
181.3765027389
 20
142.6792317325
 30
0.0
 11
181.3765027389
 21
142.6433342966
 31
0.0
  0
LINE
  5
93
330
1F
100
AcDbEntity
  8
0
  6
Continuous
 62
     7
370
    15
100
AcDbLine
 10
181.2418873543
 20
142.6433342966
 30
0.0
 11
181.2418873543
 21
142.6792317325
 31
0.0
  0
LINE
  5
94
330
1F
100
AcDbEntity
  8
0
  6
Continuous
 62
     7
370
    15
100
AcDbLine
 10
181.3765027389
 20
142.6433342966
 30
0.0
 11
181.2418873543
 21
142.6433342966
 31
0.0
  0
LINE
  5
95
330
1F
100
AcDbEntity
  8
0
  6
Continuous
 62
     7
370
    15
100
AcDbLine
 10
180.272656585
 20
142.6792317325
 30
0.0
 11
180.4072719697
 21
142.6792317325
 31
0.0
  0
LINE
  5
96
330
1F
100
AcDbEntity
  8
0
  6
Continuous
 62
     7
370
    15
100
AcDbLine
 10
180.4072719697
 20
142.6792317325
 30
0.0
 11
180.4072719697
 21
142.6433342966
 31
0.0
  0
LINE
  5
97
330
1F
100
AcDbEntity
  8
0
  6
Continuous
 62
     7
370
    15
100
AcDbLine
 10
180.4072719697
 20
142.6433342966
 30
0.0
 11
180.272656585
 21
142.6433342966
 31
0.0
  0
LINE
  5
98
330
1F
100
AcDbEntity
  8
0
  6
Continuous
 62
     7
370
    15
100
AcDbLine
 10
180.272656585
 20
142.6433342966
 30
0.0
 11
180.272656585
 21
142.6792317325
 31
0.0
  0
LINE
  5
99
330
1F
100
AcDbEntity
  8
0
  6
Continuous
 62
     7
370
    15
100
AcDbLine
 10
181.0803488927
 20
142.6792317325
 30
0.0
 11
181.2149642774
 21
142.6792317325
 31
0.0
  0
LINE
  5
9A
330
1F
100
AcDbEntity
  8
0
  6
Continuous
 62
     7
370
    15
100
AcDbLine
 10
181.2149642774
 20
142.6792317325
 30
0.0
 11
181.2149642774
 21
142.6433342966
 31
0.0
  0
LINE
  5
9B
330
1F
100
AcDbEntity
  8
0
  6
Continuous
 62
     7
370
    15
100
AcDbLine
 10
181.2149642774
 20
142.6433342966
 30
0.0
 11
181.0803488927
 21
142.6433342966
 31
0.0
  0
LINE
  5
9C
330
1F
100
AcDbEntity
  8
0
  6
Continuous
 62
     7
370
    15
100
AcDbLine
 10
181.0803488927
 20
142.6433342966
 30
0.0
 11
181.0803488927
 21
142.6792317325
 31
0.0
  0
LINE
  5
9D
330
1F
100
AcDbEntity
  8
0
  6
Continuous
 62
     7
370
    15
100
AcDbLine
 10
181.5694514568
 20
142.8766676299
 30
0.0
 11
181.6008617133
 21
142.8766676299
 31
0.0
  0
LINE
  5
9E
330
1F
100
AcDbEntity
  8
0
  6
Continuous
 62
     7
370
    15
100
AcDbLine
 10
181.6008617133
 20
142.8766676299
 30
0.0
 11
181.6008617133
 21
142.7330778863
 31
0.0
  0
LINE
  5
9F
330
1F
100
AcDbEntity
  8
0
  6
Continuous
 62
     7
370
    15
100
AcDbLine
 10
181.6008617133
 20
142.7330778863
 30
0.0
 11
181.7803488927
 21
142.7330778863
 31
0.0
  0
LINE
  5
A0
330
1F
100
AcDbEntity
  8
0
  6
Continuous
 62
     7
370
    15
100
AcDbLine
 10
181.7803488927
 20
142.7330778863
 30
0.0
 11
181.7803488927
 21
142.8766676299
 31
0.0
  0
LINE
  5
A1
330
1F
100
AcDbEntity
  8
0
  6
Continuous
 62
     7
370
    15
100
AcDbLine
 10
181.7803488927
 20
142.8766676299
 30
0.0
 11
181.8117591492
 21
142.8766676299
 31
0.0
  0
LINE
  5
A2
330
1F
100
AcDbEntity
  8
0
  6
Continuous
 62
     7
370
    15
100
AcDbLine
 10
181.8117591492
 20
142.8766676299
 30
0.0
 11
181.8117591492
 21
142.5266676299
 31
0.0
  0
LINE
  5
A3
330
1F
100
AcDbEntity
  8
0
  6
Continuous
 62
     7
370
    15
100
AcDbLine
 10
181.8117591492
 20
142.5266676299
 30
0.0
 11
181.7803488927
 21
142.5266676299
 31
0.0
  0
LINE
  5
A4
330
1F
100
AcDbEntity
  8
0
  6
Continuous
 62
     7
370
    15
100
AcDbLine
 10
181.7803488927
 20
142.5266676299
 30
0.0
 11
181.7803488927
 21
142.6971804504
 31
0.0
  0
LINE
  5
A5
330
1F
100
AcDbEntity
  8
0
  6
Continuous
 62
     7
370
    15
100
AcDbLine
 10
181.7803488927
 20
142.6971804504
 30
0.0
 11
181.6008617133
 21
142.6971804504
 31
0.0
  0
LINE
  5
A6
330
1F
100
AcDbEntity
  8
0
  6
Continuous
 62
     7
370
    15
100
AcDbLine
 10
181.6008617133
 20
142.6971804504
 30
0.0
 11
181.6008617133
 21
142.5266676299
 31
0.0
  0
LINE
  5
A7
330
1F
100
AcDbEntity
  8
0
  6
Continuous
 62
     7
370
    15
100
AcDbLine
 10
181.6008617133
 20
142.5266676299
 30
0.0
 11
181.5694514568
 21
142.5266676299
 31
0.0
  0
LINE
  5
A8
330
1F
100
AcDbEntity
  8
0
  6
Continuous
 62
     7
370
    15
100
AcDbLine
 10
181.5694514568
 20
142.5266676299
 30
0.0
 11
181.5694514568
 21
142.8766676299
 31
0.0
  0
LINE
  5
A9
330
1F
100
AcDbEntity
  8
0
  6
Continuous
 62
     7
370
    15
100
AcDbLine
 10
182.2739386363
 20
142.6792317325
 30
0.0
 11
182.4085540209
 21
142.6792317325
 31
0.0
  0
LINE
  5
AA
330
1F
100
AcDbEntity
  8
0
  6
Continuous
 62
     7
370
    15
100
AcDbLine
 10
182.4085540209
 20
142.6792317325
 30
0.0
 11
182.4085540209
 21
142.6433342966
 31
0.0
  0
LINE
  5
AB
330
1F
100
AcDbEntity
  8
0
  6
Continuous
 62
     7
370
    15
100
AcDbLine
 10
182.2739386363
 20
142.6433342966
 30
0.0
 11
182.2739386363
 21
142.6792317325
 31
0.0
  0
LINE
  5
AC
330
1F
100
AcDbEntity
  8
0
  6
Continuous
 62
     7
370
    15
100
AcDbLine
 10
182.4085540209
 20
142.6433342966
 30
0.0
 11
182.2739386363
 21
142.6433342966
 31
0.0
  0
SPLINE
  5
AD
330
1F
100
AcDbEntity
  8
0
  6
Continuous
 62
     7
370
    15
100
AcDbSpline
210
0.0
220
0.0
230
1.0
 70
     8
 71
     3
 72
    10
 73
     6
 74
     0
 42
0.00000001
 43
0.00000001
 40
0.0
 40
0.0
 40
0.0
 40
0.0
 40
0.5593206424960938
 40
0.7797817160351063
 40
1.0
 40
1.0
 40
1.0
 40
1.0
 10
181.8951926427414
 20
142.6119240401759
 30
0.0
 10
181.9055941547416
 20
142.5959391032585
 30
0.0
 10
181.9200955127474
 20
142.573653565066
 30
0.0
 10
181.9497483517403
 20
142.555910402973
 30
0.0
 10
181.9646092407247
 20
142.5543636548289
 30
0.0
 10
181.9720355914594
 20
142.5535907068425
 30
0.0
  0
SPLINE
  5
AE
330
1F
100
AcDbEntity
  8
0
  6
Continuous
 62
     7
370
    15
100
AcDbSpline
210
0.0
220
0.0
230
1.0
 70
     8
 71
     3
 72
     9
 73
     5
 74
     0
 42
0.00000001
 43
0.00000001
 40
0.0
 40
0.0
 40
0.0
 40
0.0
 40
0.5589902170858871
 40
1.0
 40
1.0
 40
1.0
 40
1.0
 10
182.0406053029979
 20
142.6129056106887
 30
0.0
 10
182.0397443193798
 20
142.6198788064331
 30
0.0
 10
182.0382040712829
 20
142.63235343574
 30
0.0
 10
182.0311611986157
 20
142.6426983640494
 30
0.0
 10
182.0280552228697
 20
142.6472605786374
 30
0.0
  0
SPLINE
  5
AF
330
1F
100
AcDbEntity
  8
0
  6
Continuous
 62
     7
370
    15
100
AcDbSpline
210
0.0
220
0.0
230
1.0
 70
     8
 71
     3
 72
    11
 73
     7
 74
     0
 42
0.00000001
 43
0.00000001
 40
0.0
 40
0.0
 40
0.0
 40
0.0
 40
0.2802742650356949
 40
0.5599313893785492
 40
0.7799200827089744
 40
1.0
 40
1.0
 40
1.0
 40
1.0
 10
181.9707735722286
 20
142.8497445529964
 30
0.0
 10
181.9636674168233
 20
142.8491975610718
 30
0.0
 10
181.9494707531778
 20
142.8481047816536
 30
0.0
 10
181.9323806164024
 20
142.8371949538844
 30
0.0
 10
181.921167236696
 20
142.822201186696
 30
0.0
 10
181.9200234624942
 20
142.8110236049574
 30
0.0
 10
181.919451456844
 20
142.8054336555605
 30
0.0
  0
SPLINE
  5
B0
330
1F
100
AcDbEntity
  8
0
  6
Continuous
 62
     7
370
    15
100
AcDbSpline
210
0.0
220
0.0
230
1.0
 70
     8
 71
     3
 72
    11
 73
     7
 74
     0
 42
0.00000001
 43
0.00000001
 40
0.0
 40
0.0
 40
0.0
 40
0.0
 40
0.279182915771168
 40
0.559085063657617
 40
0.7794460377649789
 40
1.0
 40
1.0
 40
1.0
 40
1.0
 10
182.0720155594081
 20
142.6124148254323
 30
0.0
 10
182.0700594233068
 20
142.5980989458858
 30
0.0
 10
182.0661421116988
 20
142.5694303061681
 30
0.0
 10
182.0381619031009
 20
142.5389344326427
 30
0.0
 10
182.0058397224976
 20
142.5204241490665
 30
0.0
 10
181.9833069226685
 20
142.5186038292364
 30
0.0
 10
181.9720355914594
 20
142.5176932709451
 30
0.0
  0
LINE
  5
B1
330
1F
100
AcDbEntity
  8
0
  6
Continuous
 62
     7
370
    15
100
AcDbLine
 10
181.865605303
 20
142.5941856588
 30
0.0
 11
181.8951926427
 21
142.6119240402
 31
0.0
  0
SPLINE
  5
B2
330
1F
100
AcDbEntity
  8
0
  6
Continuous
 62
     7
370
    15
100
AcDbSpline
210
0.0
220
0.0
230
1.0
 70
     8
 71
     3
 72
    11
 73
     7
 74
     0
 42
0.00000001
 43
0.00000001
 40
0.0
 40
0.0
 40
0.0
 40
0.0
 40
0.2802763823632498
 40
0.5601477676939722
 40
0.7801531370642772
 40
1.0
 40
1.0
 40
1.0
 40
1.0
 10
181.9720355914594
 20
142.5535907068425
 30
0.0
 10
181.9814444304942
 20
142.554534176643
 30
0.0
 10
182.0002485128699
 20
142.556419752938
 30
0.0
 10
182.0232347740027
 20
142.5705652429224
 30
0.0
 10
182.0378345484642
 20
142.5907308528189
 30
0.0
 10
182.0396819400638
 20
142.6055158007144
 30
0.0
 10
182.0406053029979
 20
142.6129056106887
 30
0.0
  0
SPLINE
  5
B3
330
1F
100
AcDbEntity
  8
0
  6
Continuous
 62
     7
370
    15
100
AcDbSpline
210
0.0
220
0.0
230
1.0
 70
     8
 71
     3
 72
     9
 73
     5
 74
     0
 42
0.00000001
 43
0.00000001
 40
0.0
 40
0.0
 40
0.0
 40
0.0
 40
0.5594957846125422
 40
1.0
 40
1.0
 40
1.0
 40
1.0
 10
182.0280552228697
 20
142.6472605786374
 30
0.0
 10
182.0172703872767
 20
142.6587986273744
 30
0.0
 10
181.9979943964835
 20
142.6794208537689
 30
0.0
 10
181.9750578893915
 20
142.6958380356749
 30
0.0
 10
181.9649542613312
 20
142.7030698735092
 30
0.0
  0
SPLINE
  5
B4
330
1F
100
AcDbEntity
  8
0
  6
Continuous
 62
     7
370
    15
100
AcDbSpline
210
0.0
220
0.0
230
1.0
 70
     8
 71
     3
 72
     9
 73
     5
 74
     0
 42
0.00000001
 43
0.00000001
 40
0.0
 40
0.0
 40
0.0
 40
0.0
 40
0.5604126915225576
 40
1.0
 40
1.0
 40
1.0
 40
1.0
 10
181.9649542613312
 20
142.7030698735092
 30
0.0
 10
181.9535432935153
 20
142.7111337997321
 30
0.0
 10
181.9331815708267
 20
142.7255230638315
 30
0.0
 10
181.9154132339114
 20
142.7429954181662
 30
0.0
 10
181.9076024985107
 20
142.750676043381
 30
0.0
  0
SPLINE
  5
B5
330
1F
100
AcDbEntity
  8
0
  6
Continuous
 62
     7
370
    15
100
AcDbSpline
210
0.0
220
0.0
230
1.0
 70
     8
 71
     3
 72
    11
 73
     7
 74
     0
 42
0.00000001
 43
0.00000001
 40
0.0
 40
0.0
 40
0.0
 40
0.0
 40
0.2795526256224923
 40
0.558798401949944
 40
0.779377727487261
 40
1.0
 40
1.0
 40
1.0
 40
1.0
 10
181.8880412004337
 20
142.8039612997913
 30
0.0
 10
181.8895574080107
 20
142.8163882586804
 30
0.0
 10
181.8925881589081
 20
142.8412285360804
 30
0.0
 10
181.9164958677189
 20
142.8682097688535
 30
0.0
 10
181.9450738542968
 20
142.8831459318654
 30
0.0
 10
181.964543440505
 20
142.8848099158931
 30
0.0
 10
181.974279181203
 20
142.8856419888938
 30
0.0
  0
SPLINE
  5
B6
330
1F
100
AcDbEntity
  8
0
  6
Continuous
 62
     7
370
    15
100
AcDbSpline
210
0.0
220
0.0
230
1.0
 70
     8
 71
     3
 72
    10
 73
     6
 74
     0
 42
0.00000001
 43
0.00000001
 40
0.0
 40
0.0
 40
0.0
 40
0.0
 40
0.2797499242147509
 40
0.5595011693086175
 40
1.0
 40
1.0
 40
1.0
 40
1.0
 10
181.974279181203
 20
142.8856419888938
 30
0.0
 10
181.9850553582457
 20
142.8845898180059
 30
0.0
 10
182.0066077632124
 20
142.8824854712621
 30
0.0
 10
182.0403407502644
 20
142.8618886546827
 30
0.0
 10
182.0572108004633
 20
142.8398660408517
 30
0.0
 10
182.0675283799209
 20
142.8263971972272
 30
0.0
  0
SPLINE
  5
B7
330
1F
100
AcDbEntity
  8
0
  6
Continuous
 62
     7
370
    15
100
AcDbSpline
210
0.0
220
0.0
230
1.0
 70
     8
 71
     3
 72
    10
 73
     6
 74
     0
 42
0.00000001
 43
0.00000001
 40
0.0
 40
0.0
 40
0.0
 40
0.0
 40
0.5598184745602459
 40
0.7798479484877396
 40
1.0
 40
1.0
 40
1.0
 40
1.0
 10
182.0391329472286
 20
142.8048727581246
 30
0.0
 10
182.0292382329251
 20
142.817559575142
 30
0.0
 10
182.0154545280257
 20
142.835232782929
 30
0.0
 10
181.9895535123979
 20
142.8483164172235
 30
0.0
 10
181.9770347143238
 20
142.8492684193706
 30
0.0
 10
181.9707735722286
 20
142.8497445529964
 30
0.0
  0
LINE
  5
B8
330
1F
100
AcDbEntity
  8
0
  6
Continuous
 62
     7
370
    15
100
AcDbLine
 10
182.0675283799
 20
142.8263971972
 30
0.0
 11
182.0391329472
 21
142.8048727581
 31
0.0
  0
SPLINE
  5
B9
330
1F
100
AcDbEntity
  8
0
  6
Continuous
 62
     7
370
    15
100
AcDbSpline
210
0.0
220
0.0
230
1.0
 70
     8
 71
     3
 72
    10
 73
     6
 74
     0
 42
0.00000001
 43
0.00000001
 40
0.0
 40
0.0
 40
0.0
 40
0.0
 40
0.2799464048566196
 40
0.5597740877081033
 40
1.0
 40
1.0
 40
1.0
 40
1.0
 10
181.919451456844
 20
142.8054336555605
 30
0.0
 10
181.9198616373413
 20
142.8005491156101
 30
0.0
 10
181.920681824383
 20
142.7907821071858
 30
0.0
 10
181.928262117251
 20
142.7746801853451
 30
0.0
 10
181.93710934896
 20
142.7657009928367
 30
0.0
 10
181.9425183638953
 20
142.7602112997913
 30
0.0
  0
SPLINE
  5
BA
330
1F
100
AcDbEntity
  8
0
  6
Continuous
 62
     7
370
    15
100
AcDbSpline
210
0.0
220
0.0
230
1.0
 70
     8
 71
     3
 72
     9
 73
     5
 74
     0
 42
0.00000001
 43
0.00000001
 40
0.0
 40
0.0
 40
0.0
 40
0.0
 40
0.55990577973957
 40
0.9999999999999999
 40
0.9999999999999999
 40
0.9999999999999999
 40
0.9999999999999999
 10
181.9425183638953
 20
142.7602112997913
 30
0.0
 10
181.9511522559133
 20
142.7535094010395
 30
0.0
 10
181.9665725146969
 20
142.7415397107912
 30
0.0
 10
181.9825375267849
 20
142.7303083871892
 30
0.0
 10
181.9895636363312
 20
142.7253655465861
 30
0.0
  0
SPLINE
  5
BB
330
1F
100
AcDbEntity
  8
0
  6
Continuous
 62
     7
370
    15
100
AcDbSpline
210
0.0
220
0.0
230
1.0
 70
     8
 71
     3
 72
    10
 73
     6
 74
     0
 42
0.00000001
 43
0.00000001
 40
0.0
 40
0.0
 40
0.0
 40
0.0
 40
0.5601153992618916
 40
0.7802837543288843
 40
1.0
 40
1.0
 40
1.0
 40
1.0
 10
181.9895636363312
 20
142.7253655465861
 30
0.0
 10
182.011501080889
 20
142.7091170691462
 30
0.0
 10
182.0420616254168
 20
142.6864816925869
 30
0.0
 10
182.0680826681632
 20
142.6443553673965
 30
0.0
 10
182.0707054942321
 20
142.6230543750982
 30
0.0
 10
182.0720155594081
 20
142.6124148254323
 30
0.0
  0
SPLINE
  5
BC
330
1F
100
AcDbEntity
  8
0
  6
Continuous
 62
     7
370
    15
100
AcDbSpline
210
0.0
220
0.0
230
1.0
 70
     8
 71
     3
 72
    10
 73
     6
 74
     0
 42
0.00000001
 43
0.00000001
 40
0.0
 40
0.0
 40
0.0
 40
0.0
 40
0.2798798232940178
 40
0.5596657815356204
 40
1.0
 40
1.0
 40
1.0
 40
1.0
 10
181.9720355914594
 20
142.5176932709451
 30
0.0
 10
181.9590860639588
 20
142.5189902602713
 30
0.0
 10
181.9331913519218
 20
142.5215838039442
 30
0.0
 10
181.8933001465654
 20
142.5479646880687
 30
0.0
 10
181.8761141065739
 20
142.5766471194717
 30
0.0
 10
181.8656053029979
 20
142.5941856587656
 30
0.0
  0
SPLINE
  5
BD
330
1F
100
AcDbEntity
  8
0
  6
Continuous
 62
     7
370
    15
100
AcDbSpline
210
0.0
220
0.0
230
1.0
 70
     8
 71
     3
 72
     9
 73
     5
 74
     0
 42
0.00000001
 43
0.00000001
 40
0.0
 40
0.0
 40
0.0
 40
0.0
 40
0.5598404596407259
 40
1.0
 40
1.0
 40
1.0
 40
1.0
 10
181.9076024985107
 20
142.750676043381
 30
0.0
 10
181.9014347638138
 20
142.7597548763627
 30
0.0
 10
181.8904178131975
 20
142.7759716981827
 30
0.0
 10
181.8887675705007
 20
142.7954067682734
 30
0.0
 10
181.8880412004337
 20
142.8039612997913
 30
0.0
  0
LINE
  5
BE
330
1F
100
AcDbEntity
  8
0
  6
Continuous
 62
     7
370
    15
100
AcDbLine
 10
182.1124001748
 20
142.6792317325
 30
0.0
 11
182.2470155594
 21
142.6792317325
 31
0.0
  0
LINE
  5
BF
330
1F
100
AcDbEntity
  8
0
  6
Continuous
 62
     7
370
    15
100
AcDbLine
 10
182.2470155594
 20
142.6433342966
 30
0.0
 11
182.1124001748
 21
142.6433342966
 31
0.0
  0
LINE
  5
C0
330
1F
100
AcDbEntity
  8
0
  6
Continuous
 62
     7
370
    15
100
AcDbLine
 10
182.1124001748
 20
142.6433342966
 30
0.0
 11
182.1124001748
 21
142.6792317325
 31
0.0
  0
LINE
  5
C1
330
1F
100
AcDbEntity
  8
0
  6
Continuous
 62
     7
370
    15
100
AcDbLine
 10
182.2470155594
 20
142.6792317325
 30
0.0
 11
182.2470155594
 21
142.6433342966
 31
0.0
  0
LINE
  5
C2
330
1F
100
AcDbEntity
  8
0
  6
Continuous
 62
     7
370
    15
100
AcDbLine
 10
182.5700924825
 20
142.6433342966
 30
0.0
 11
182.4354770979
 21
142.6433342966
 31
0.0
  0
LINE
  5
C3
330
1F
100
AcDbEntity
  8
0
  6
Continuous
 62
     7
370
    15
100
AcDbLine
 10
182.4354770979
 20
142.6792317325
 30
0.0
 11
182.5700924825
 21
142.6792317325
 31
0.0
  0
LINE
  5
C4
330
1F
100
AcDbEntity
  8
0
  6
Continuous
 62
     7
370
    15
100
AcDbLine
 10
182.4354770979
 20
142.6433342966
 30
0.0
 11
182.4354770979
 21
142.6792317325
 31
0.0
  0
LINE
  5
C5
330
1F
100
AcDbEntity
  8
0
  6
Continuous
 62
     7
370
    15
100
AcDbLine
 10
182.5700924825
 20
142.6792317325
 30
0.0
 11
182.5700924825
 21
142.6433342966
 31
0.0
  0
LINE
  5
C6
330
1F
100
AcDbEntity
  8
0
  6
Continuous
 62
     7
370
    15
100
AcDbLine
 10
180.4341950466
 20
142.6792317325
 30
0.0
 11
180.5688104312
 21
142.6792317325
 31
0.0
  0
LINE
  5
C7
330
1F
100
AcDbEntity
  8
0
  6
Continuous
 62
     7
370
    15
100
AcDbLine
 10
180.5688104312
 20
142.6792317325
 30
0.0
 11
180.5688104312
 21
142.6433342966
 31
0.0
  0
LINE
  5
C8
330
1F
100
AcDbEntity
  8
0
  6
Continuous
 62
     7
370
    15
100
AcDbLine
 10
180.5688104312
 20
142.6433342966
 30
0.0
 11
180.4341950466
 21
142.6433342966
 31
0.0
  0
LINE
  5
C9
330
1F
100
AcDbEntity
  8
0
  6
Continuous
 62
     7
370
    15
100
AcDbLine
 10
180.4341950466
 20
142.6433342966
 30
0.0
 11
180.4341950466
 21
142.6792317325
 31
0.0
  0
LINE
  5
CA
330
1F
100
AcDbEntity
  8
0
  6
Continuous
 62
     7
370
    15
100
AcDbLine
 10
180.7303488927
 20
142.6792317325
 30
0.0
 11
180.7303488927
 21
142.6433342966
 31
0.0
  0
LINE
  5
CB
330
1F
100
AcDbEntity
  8
0
  6
Continuous
 62
     7
370
    15
100
AcDbLine
 10
180.7303488927
 20
142.6433342966
 30
0.0
 11
180.5957335081
 21
142.6433342966
 31
0.0
  0
LINE
  5
CC
330
1F
100
AcDbEntity
  8
0
  6
Continuous
 62
     7
370
    15
100
AcDbLine
 10
180.5957335081
 20
142.6433342966
 30
0.0
 11
180.5957335081
 21
142.6792317325
 31
0.0
  0
LINE
  5
CD
330
1F
100
AcDbEntity
  8
0
  6
Continuous
 62
     7
370
    15
100
AcDbLine
 10
180.5957335081
 20
142.6792317325
 30
0.0
 11
180.7303488927
 21
142.6792317325
 31
0.0
  0
LINE
  5
CE
330
1F
100
AcDbEntity
  8
0
  6
Continuous
 62
     7
370
    15
100
AcDbLine
 10
180.8918873543
 20
142.6792317325
 30
0.0
 11
180.8918873543
 21
142.6433342966
 31
0.0
  0
LINE
  5
CF
330
1F
100
AcDbEntity
  8
0
  6
Continuous
 62
     7
370
    15
100
AcDbLine
 10
180.8918873543
 20
142.6433342966
 30
0.0
 11
180.7572719697
 21
142.6433342966
 31
0.0
  0
LINE
  5
D0
330
1F
100
AcDbEntity
  8
0
  6
Continuous
 62
     7
370
    15
100
AcDbLine
 10
180.7572719697
 20
142.6433342966
 30
0.0
 11
180.7572719697
 21
142.6792317325
 31
0.0
  0
LINE
  5
D1
330
1F
100
AcDbEntity
  8
0
  6
Continuous
 62
     7
370
    15
100
AcDbLine
 10
180.7572719697
 20
142.6792317325
 30
0.0
 11
180.8918873543
 21
142.6792317325
 31
0.0
  0
LINE
  5
D2
330
1F
100
AcDbEntity
  8
0
  6
Continuous
 62
     7
370
    15
100
AcDbLine
 10
180.9188104312
 20
142.6792317325
 30
0.0
 11
181.0534258158
 21
142.6792317325
 31
0.0
  0
LINE
  5
D3
330
1F
100
AcDbEntity
  8
0
  6
Continuous
 62
     7
370
    15
100
AcDbLine
 10
181.0534258158
 20
142.6433342966
 30
0.0
 11
180.9188104312
 21
142.6433342966
 31
0.0
  0
LINE
  5
D4
330
1F
100
AcDbEntity
  8
0
  6
Continuous
 62
     7
370
    15
100
AcDbLine
 10
180.9188104312
 20
142.6433342966
 30
0.0
 11
180.9188104312
 21
142.6792317325
 31
0.0
  0
LINE
  5
D5
330
1F
100
AcDbEntity
  8
0
  6
Continuous
 62
     7
370
    15
100
AcDbLine
 10
181.0534258158
 20
142.6792317325
 30
0.0
 11
181.0534258158
 21
142.6433342966
 31
0.0
  0
LINE
  5
D6
330
1F
100
AcDbEntity
  8
0
  6
Continuous
 62
     7
370
    15
100
AcDbLine
 10
180.0797078671
 20
142.8766676299
 30
0.0
 11
180.0797078671
 21
142.840770194
 31
0.0
  0
LINE
  5
D7
330
1F
100
AcDbEntity
  8
0
  6
Continuous
 62
     7
370
    15
100
AcDbLine
 10
180.0797078671
 20
142.7330778863
 30
0.0
 11
180.0797078671
 21
142.6971804504
 31
0.0
  0
LINE
  5
D8
330
1F
100
AcDbEntity
  8
0
  6
Continuous
 62
     7
370
    15
100
AcDbLine
 10
180.0797078671
 20
142.6971804504
 30
0.0
 11
179.940605303
 21
142.6971804504
 31
0.0
  0
LINE
  5
D9
330
1F
100
AcDbEntity
  8
0
  6
Continuous
 62
     7
370
    15
100
AcDbLine
 10
179.9091950466
 20
142.8766676299
 30
0.0
 11
180.0797078671
 21
142.8766676299
 31
0.0
  0
LINE
  5
DA
330
1F
100
AcDbEntity
  8
0
  6
Continuous
 62
     7
370
    15
100
AcDbLine
 10
180.0797078671
 20
142.840770194
 30
0.0
 11
179.940605303
 21
142.840770194
 31
0.0
  0
LINE
  5
DB
330
1F
100
AcDbEntity
  8
0
  6
Continuous
 62
     7
370
    15
100
AcDbLine
 10
179.940605303
 20
142.7330778863
 30
0.0
 11
180.0797078671
 21
142.7330778863
 31
0.0
  0
LINE
  5
DC
330
1F
100
AcDbEntity
  8
0
  6
Continuous
 62
     7
370
    15
100
AcDbLine
 10
179.940605303
 20
142.6971804504
 30
0.0
 11
179.940605303
 21
142.5266676299
 31
0.0
  0
LINE
  5
DD
330
1F
100
AcDbEntity
  8
0
  6
Continuous
 62
     7
370
    15
100
AcDbLine
 10
179.9091950466
 20
142.5266676299
 30
0.0
 11
179.9091950466
 21
142.8766676299
 31
0.0
  0
LINE
  5
DE
330
1F
100
AcDbEntity
  8
0
  6
Continuous
 62
     7
370
    15
100
AcDbLine
 10
179.940605303
 20
142.5266676299
 30
0.0
 11
179.9091950466
 21
142.5266676299
 31
0.0
  0
LINE
  5
DF
330
1F
100
AcDbEntity
  8
0
  6
Continuous
 62
     7
370
    15
100
AcDbLine
 10
179.940605303
 20
142.840770194
 30
0.0
 11
179.940605303
 21
142.7330778863
 31
0.0
  0
LINE
  5
E0
330
1F
100
AcDbEntity
  8
0
  6
Continuous
 62
     7
370
    15
100
AcDbLine
 10
179.350975785
 20
142.2709334853
 30
0.0
 11
183.350975785
 21
142.2709334853
 31
0.0
  0
LINE
  5
E1
330
1F
100
AcDbEntity
  8
0
  6
Continuous
 62
     7
370
    15
100
AcDbLine
 10
179.350975785
 20
143.2709334853
 30
0.0
 11
179.350975785
 21
142.2709334853
 31
0.0
  0
LINE
  5
E2
330
1F
100
AcDbEntity
  8
0
  6
Continuous
 62
     7
370
    15
100
AcDbLine
 10
183.350975785
 20
143.2709334853
 30
0.0
 11
179.350975785
 21
143.2709334853
 31
0.0
  0
LINE
  5
E3
330
1F
100
AcDbEntity
  8
0
  6
Continuous
 62
     7
370
    15
100
AcDbLine
 10
183.350975785
 20
142.2709334853
 30
0.0
 11
183.350975785
 21
143.2709334853
 31
0.0
  0
CIRCLE
  5
E4
330
1F
100
AcDbEntity
  8
0
  6
Continuous
 62
     7
370
    15
100
AcDbCircle
 10
174.5221
 20
216.362927242
 30
0.0
 40
0.2599999999999625
  0
CIRCLE
  5
E5
330
1F
100
AcDbEntity
  8
0
  6
Continuous
 62
     7
370
    15
100
AcDbCircle
 10
174.5221
 20
216.362927242
 30
0.0
 40
0.164999999999992
  0
CIRCLE
  5
E6
330
1F
100
AcDbEntity
  8
0
  6
Continuous
 62
     7
370
    15
100
AcDbCircle
 10
189.5221
 20
216.362927242
 30
0.0
 40
0.2600000000000193
  0
CIRCLE
  5
E7
330
1F
100
AcDbEntity
  8
0
  6
Continuous
 62
     7
370
    15
100
AcDbCircle
 10
189.5221
 20
216.362927242
 30
0.0
 40
0.164999999999992
  0
LINE
  5
E8
330
1F
100
AcDbEntity
  8
0
  6
Continuous
 62
     7
370
    15
100
AcDbLine
 10
196.9021
 20
215.762927242
 30
0.0
 11
167.1421
 21
215.762927242
 31
0.0
  0
LINE
  5
E9
330
1F
100
AcDbEntity
  8
0
  6
Continuous
 62
     7
370
    15
100
AcDbLine
 10
167.1421
 20
211.2961772687
 30
0.0
 11
167.1421
 21
215.762927242
 31
0.0
  0
LINE
  5
EA
330
1F
100
AcDbEntity
  8
0
  6
Continuous
 62
     7
370
    15
100
AcDbLine
 10
196.9021
 20
211.2961772687
 30
0.0
 11
196.9021
 21
215.762927242
 31
0.0
  0
LINE
  5
EB
330
1F
100
AcDbEntity
  8
0
  6
Continuous
 62
     7
370
    15
100
AcDbLine
 10
167.1411
 20
215.517927242
 30
0.0
 11
167.0211
 21
215.517927242
 31
0.0
  0
LINE
  5
EC
330
1F
100
AcDbEntity
  8
0
  6
Continuous
 62
     7
370
    15
100
AcDbLine
 10
167.1411
 20
215.517927242
 30
0.0
 11
167.1411
 21
211.4062244776
 31
0.0
  0
LINE
  5
ED
330
1F
100
AcDbEntity
  8
0
  6
Continuous
 62
     7
370
    15
100
AcDbLine
 10
167.0211
 20
215.517927242
 30
0.0
 11
167.0211
 21
211.4062244776
 31
0.0
  0
LINE
  5
EE
330
1F
100
AcDbEntity
  8
0
  6
Continuous
 62
     7
370
    15
100
AcDbLine
 10
196.9031
 20
215.517927242
 30
0.0
 11
197.0231
 21
215.517927242
 31
0.0
  0
LINE
  5
EF
330
1F
100
AcDbEntity
  8
0
  6
Continuous
 62
     7
370
    15
100
AcDbLine
 10
196.9031
 20
215.517927242
 30
0.0
 11
196.9031
 21
211.4062244776
 31
0.0
  0
LINE
  5
F0
330
1F
100
AcDbEntity
  8
0
  6
Continuous
 62
     7
370
    15
100
AcDbLine
 10
197.0231
 20
215.517927242
 30
0.0
 11
197.0231
 21
211.4062244776
 31
0.0
  0
LINE
  5
F1
330
1F
100
AcDbEntity
  8
0
  6
Continuous
 62
     7
370
    15
100
AcDbLine
 10
196.9021
 20
210.2886690468
 30
0.0
 11
167.1421
 21
210.2886690468
 31
0.0
  0
LINE
  5
F2
330
1F
100
AcDbEntity
  8
0
  6
Continuous
 62
     7
370
    15
100
AcDbLine
 10
167.1421
 20
210.2886690468
 30
0.0
 11
167.1421
 21
211.2961772687
 31
0.0
  0
LINE
  5
F3
330
1F
100
AcDbEntity
  8
0
  6
Continuous
 62
     7
370
    15
100
AcDbLine
 10
196.9021
 20
210.2886690468
 30
0.0
 11
196.9021
 21
211.2961772687
 31
0.0
  0
LINE
  5
F4
330
1F
100
AcDbEntity
  8
0
  6
Continuous
 62
     7
370
    15
100
AcDbLine
 10
167.0211
 20
210.382927242
 30
0.0
 11
167.1411
 21
210.382927242
 31
0.0
  0
LINE
  5
F5
330
1F
100
AcDbEntity
  8
0
  6
Continuous
 62
     7
370
    15
100
AcDbLine
 10
167.1411
 20
211.4062244776
 30
0.0
 11
167.1411
 21
210.382927242
 31
0.0
  0
LINE
  5
F6
330
1F
100
AcDbEntity
  8
0
  6
Continuous
 62
     7
370
    15
100
AcDbLine
 10
167.0211
 20
211.4062244776
 30
0.0
 11
167.0211
 21
210.382927242
 31
0.0
  0
LINE
  5
F7
330
1F
100
AcDbEntity
  8
0
  6
Continuous
 62
     7
370
    15
100
AcDbLine
 10
197.0231
 20
210.382927242
 30
0.0
 11
196.9031
 21
210.382927242
 31
0.0
  0
LINE
  5
F8
330
1F
100
AcDbEntity
  8
0
  6
Continuous
 62
     7
370
    15
100
AcDbLine
 10
196.9031
 20
211.4062244776
 30
0.0
 11
196.9031
 21
210.382927242
 31
0.0
  0
LINE
  5
F9
330
1F
100
AcDbEntity
  8
0
  6
Continuous
 62
     7
370
    15
100
AcDbLine
 10
197.0231
 20
211.4062244776
 30
0.0
 11
197.0231
 21
210.382927242
 31
0.0
  0
SPLINE
  5
FA
330
1F
100
AcDbEntity
  8
0
  6
Continuous
 62
     7
370
    15
100
AcDbSpline
210
0.0
220
0.0
230
1.0
 70
     8
 71
     3
 72
    10
 73
     6
 74
     0
 42
0.00000001
 43
0.00000001
 40
0.0
 40
0.0
 40
0.0
 40
0.0
 40
0.4238374500477696
 40
0.8121789621342826
 40
0.9999999999999999
 40
0.9999999999999999
 40
0.9999999999999999
 40
0.9999999999999999
 10
197.0230999999999
 20
215.5179272420114
 30
0.0
 10
197.0185836777613
 20
215.5523264522263
 30
0.0
 10
197.0099292704925
 20
215.6182439751998
 30
0.0
 10
196.9617580182457
 20
215.690064047066
 30
0.0
 10
196.9207680226703
 20
215.7134017395024
 30
0.0
 10
196.9074058499437
 20
215.7210095050803
 30
0.0
  0
SPLINE
  5
FB
330
1F
100
AcDbEntity
  8
0
  6
Continuous
 62
     7
370
    15
100
AcDbSpline
210
0.0
220
0.0
230
1.0
 70
     8
 71
     3
 72
    10
 73
     6
 74
     0
 42
0.00000001
 43
0.00000001
 40
0.0
 40
0.0
 40
0.0
 40
0.0
 40
0.2663735608851012
 40
0.6285043186301633
 40
1.0
 40
1.0
 40
1.0
 40
1.0
 10
167.1420999999999
 20
215.7247408136237
 30
0.0
 10
167.1230289143533
 20
215.7129515500857
 30
0.0
 10
167.0780309811874
 20
215.685134964151
 30
0.0
 10
167.031871751575
 20
215.6102293566719
 30
0.0
 10
167.0247210108518
 20
215.5489553395782
 30
0.0
 10
167.0210999999999
 20
215.5179272420114
 30
0.0
  0
ARC
  5
FC
330
1F
100
AcDbEntity
  8
0
  6
Continuous
 62
     7
370
    15
100
AcDbCircle
 10
196.7781
 20
210.507927242
 30
0.0
 40
0.2450000000000045
100
AcDbArc
 50
270.0
 51
296.5003791586
  0
ARC
  5
FD
330
1F
100
AcDbEntity
  8
0
  6
Continuous
 62
     7
370
    15
100
AcDbCircle
 10
196.7781
 20
210.507927242
 30
0.0
 40
0.2450000000000261
100
AcDbArc
 50
300.4058914097
 51
329.3225755275
  0
LINE
  5
FE
330
1F
100
AcDbEntity
  8
0
  6
Continuous
 62
     7
370
    15
100
AcDbLine
 10
196.9021
 20
210.4921475082
 30
0.0
 11
196.9031
 21
210.507927242
 31
0.0
  0
LINE
  5
FF
330
1F
100
AcDbEntity
  8
0
  6
Continuous
 62
     7
370
    15
100
AcDbLine
 10
196.7781
 20
210.262927242
 30
0.0
 11
195.6531
 21
210.262927242
 31
0.0
  0
LINE
  5
100
330
1F
100
AcDbEntity
  8
0
  6
Continuous
 62
     7
370
    15
100
AcDbLine
 10
195.6531
 20
210.262927242
 30
0.0
 11
195.6531
 21
210.2886690468
 31
0.0
  0
ARC
  5
101
330
1F
100
AcDbEntity
  8
0
  6
Continuous
 62
     7
370
    15
100
AcDbCircle
 10
167.2661
 20
210.507927242
 30
0.0
 40
0.2449999999999771
100
AcDbArc
 50
210.6774244725
 51
239.5941085903
  0
ARC
  5
102
330
1F
100
AcDbEntity
  8
0
  6
Continuous
 62
     7
370
    15
100
AcDbCircle
 10
167.2661
 20
210.507927242
 30
0.0
 40
0.2449999999999761
100
AcDbArc
 50
243.4996208414
 51
270.0
  0
LINE
  5
103
330
1F
100
AcDbEntity
  8
0
  6
Continuous
 62
     7
370
    15
100
AcDbLine
 10
167.1411
 20
210.507927242
 30
0.0
 11
167.1421
 21
210.4921475082
 31
0.0
  0
LINE
  5
104
330
1F
100
AcDbEntity
  8
0
  6
Continuous
 62
     7
370
    15
100
AcDbLine
 10
167.2661
 20
210.262927242
 30
0.0
 11
168.3911
 21
210.262927242
 31
0.0
  0
LINE
  5
105
330
1F
100
AcDbEntity
  8
0
  6
Continuous
 62
     7
370
    15
100
AcDbLine
 10
168.3911
 20
210.262927242
 30
0.0
 11
168.3911
 21
210.2886690468
 31
0.0
  0
LINE
  5
106
330
1F
100
AcDbEntity
  8
0
  6
Continuous
 62
     7
370
    15
100
AcDbLine
 10
196.7821
 20
215.887927242
 30
0.0
 11
196.7821
 21
215.762927242
 31
0.0
  0
LINE
  5
107
330
1F
100
AcDbEntity
  8
0
  6
Continuous
 62
     7
370
    15
100
AcDbLine
 10
167.2621
 20
215.762927242
 30
0.0
 11
167.2621
 21
215.887927242
 31
0.0
  0
LINE
  5
108
330
1F
100
AcDbEntity
  8
0
  6
Continuous
 62
     7
370
    15
100
AcDbLine
 10
196.966336291
 20
215.667927242
 30
0.0
 11
197.0231
 21
215.667927242
 31
0.0
  0
LINE
  5
109
330
1F
100
AcDbEntity
  8
0
  6
Continuous
 62
     7
370
    15
100
AcDbLine
 10
197.0231
 20
215.667927242
 30
0.0
 11
197.0231
 21
215.517927242
 31
0.0
  0
LINE
  5
10A
330
1F
100
AcDbEntity
  8
0
  6
Continuous
 62
     7
370
    15
100
AcDbLine
 10
167.0762541767
 20
215.667927242
 30
0.0
 11
167.0211
 21
215.667927242
 31
0.0
  0
LINE
  5
10B
330
1F
100
AcDbEntity
  8
0
  6
Continuous
 62
     7
370
    15
100
AcDbLine
 10
167.0211
 20
215.667927242
 30
0.0
 11
167.0211
 21
215.517927242
 31
0.0
  0
LINE
  5
10C
330
1F
100
AcDbEntity
  8
0
  6
Continuous
 62
     7
370
    15
100
AcDbLine
 10
167.1411
 20
210.762927242
 30
0.0
 11
167.1421
 21
210.762927242
 31
0.0
  0
LINE
  5
10D
330
1F
100
AcDbEntity
  8
0
  6
Continuous
 62
     7
370
    15
100
AcDbLine
 10
196.9021
 20
210.762927242
 30
0.0
 11
196.9031
 21
210.762927242
 31
0.0
  0
LINE
  5
10E
330
1F
100
AcDbEntity
  8
0
  6
Continuous
 62
     7
370
    15
100
AcDbLine
 10
196.9421
 20
217.4546097721
 30
0.0
 11
196.9421
 21
215.887927242
 31
0.0
  0
LINE
  5
10F
330
1F
100
AcDbEntity
  8
0
  6
Continuous
 62
     7
370
    15
100
AcDbLine
 10
196.9421
 20
215.887927242
 30
0.0
 11
167.1021
 21
215.887927242
 31
0.0
  0
CIRCLE
  5
110
330
1F
100
AcDbEntity
  8
0
  6
Continuous
 62
     7
370
    15
100
AcDbCircle
 10
189.5221
 20
216.362927242
 30
0.0
 40
0.2699999999999818
  0
CIRCLE
  5
111
330
1F
100
AcDbEntity
  8
0
  6
Continuous
 62
     7
370
    15
100
AcDbCircle
 10
174.5221
 20
216.362927242
 30
0.0
 40
0.2700000000000387
  0
LINE
  5
112
330
1F
100
AcDbEntity
  8
0
  6
Continuous
 62
     7
370
    15
100
AcDbLine
 10
167.1021
 20
217.4546097721
 30
0.0
 11
167.1021
 21
215.887927242
 31
0.0
  0
LINE
  5
113
330
1F
100
AcDbEntity
  8
0
  6
Continuous
 62
     7
370
    15
100
AcDbLine
 10
196.9421
 20
219.9466984039
 30
0.0
 11
196.9421
 21
217.4546097721
 31
0.0
  0
LINE
  5
114
330
1F
100
AcDbEntity
  8
0
  6
Continuous
 62
     7
370
    15
100
AcDbLine
 10
167.1021
 20
219.9466984039
 30
0.0
 11
167.1021
 21
217.4546097721
 31
0.0
  0
LINE
  5
115
330
1F
100
AcDbEntity
  8
0
  6
Continuous
 62
     7
370
    15
100
AcDbLine
 10
196.9421
 20
215.9660095051
 30
0.0
 11
197.0221
 21
215.9660095051
 31
0.0
  0
LINE
  5
116
330
1F
100
AcDbEntity
  8
0
  6
Continuous
 62
     7
370
    15
100
AcDbLine
 10
197.0221
 20
217.4546097721
 30
0.0
 11
197.0221
 21
215.9660095051
 31
0.0
  0
LINE
  5
117
330
1F
100
AcDbEntity
  8
0
  6
Continuous
 62
     7
370
    15
100
AcDbLine
 10
167.1021
 20
215.9660095051
 30
0.0
 11
167.0221
 21
215.9660095051
 31
0.0
  0
LINE
  5
118
330
1F
100
AcDbEntity
  8
0
  6
Continuous
 62
     7
370
    15
100
AcDbLine
 10
167.0221
 20
217.4546097721
 30
0.0
 11
167.0221
 21
215.9660095051
 31
0.0
  0
LINE
  5
119
330
1F
100
AcDbEntity
  8
0
  6
Continuous
 62
     7
370
    15
100
AcDbLine
 10
197.0221
 20
219.8597650795
 30
0.0
 11
197.0221
 21
217.4546097721
 31
0.0
  0
LINE
  5
11A
330
1F
100
AcDbEntity
  8
0
  6
Continuous
 62
     7
370
    15
100
AcDbLine
 10
167.0221
 20
219.8597650795
 30
0.0
 11
167.0221
 21
217.4546097721
 31
0.0
  0
ARC
  5
11B
330
1F
100
AcDbEntity
  8
0
  6
Continuous
 62
     7
370
    15
100
AcDbCircle
 10
167.2271
 20
215.9660095051
 30
0.0
 40
0.2050000000000005
100
AcDbArc
 50
180.0
 51
262.1567806722
  0
ARC
  5
11C
330
1F
100
AcDbEntity
  8
0
  6
Continuous
 62
     7
370
    15
100
AcDbCircle
 10
167.2271
 20
215.9660095051
 30
0.0
 40
0.1250000000000284
100
AcDbArc
 50
218.6570976348
 51
270.0
  0
LINE
  5
11D
330
1F
100
AcDbEntity
  8
0
  6
Continuous
 62
     7
370
    15
100
AcDbLine
 10
167.2271
 20
215.8410095051
 30
0.0
 11
167.2621
 21
215.8410095051
 31
0.0
  0
LINE
  5
11E
330
1F
100
AcDbEntity
  8
0
  6
Continuous
 62
     7
370
    15
100
AcDbLine
 10
196.8171
 20
215.8410095051
 30
0.0
 11
196.7821
 21
215.8410095051
 31
0.0
  0
ARC
  5
11F
330
1F
100
AcDbEntity
  8
0
  6
Continuous
 62
     7
370
    15
100
AcDbCircle
 10
196.8171
 20
215.9660095051
 30
0.0
 40
0.1250000000000284
100
AcDbArc
 50
270.0
 51
321.3429023652
  0
ARC
  5
120
330
1F
100
AcDbEntity
  8
0
  6
Continuous
 62
     7
370
    15
100
AcDbCircle
 10
196.8171
 20
215.9660095051
 30
0.0
 40
0.2049999999999966
100
AcDbArc
 50
277.8432193278
 51
0.0
  0
LINE
  5
121
330
1F
100
AcDbEntity
  8
0
  6
Continuous
 62
     7
370
    15
100
AcDbLine
 10
196.9421
 20
220.8388875524
 30
0.0
 11
196.9421
 21
219.9466984039
 31
0.0
  0
LINE
  5
122
330
1F
100
AcDbEntity
  8
0
  6
Continuous
 62
     7
370
    15
100
AcDbLine
 10
167.1021
 20
220.8388875524
 30
0.0
 11
167.1021
 21
219.9466984039
 31
0.0
  0
LINE
  5
123
330
1F
100
AcDbEntity
  8
0
  6
Continuous
 62
     7
370
    15
100
AcDbLine
 10
197.0221
 20
220.7485812325
 30
0.0
 11
196.9421
 21
220.7485812325
 31
0.0
  0
LINE
  5
124
330
1F
100
AcDbEntity
  8
0
  6
Continuous
 62
     7
370
    15
100
AcDbLine
 10
197.0221
 20
220.7485812325
 30
0.0
 11
197.0221
 21
219.8597650795
 31
0.0
  0
LINE
  5
125
330
1F
100
AcDbEntity
  8
0
  6
Continuous
 62
     7
370
    15
100
AcDbLine
 10
167.0221
 20
220.7485812325
 30
0.0
 11
167.1021
 21
220.7485812325
 31
0.0
  0
LINE
  5
126
330
1F
100
AcDbEntity
  8
0
  6
Continuous
 62
     7
370
    15
100
AcDbLine
 10
167.0221
 20
220.7485812325
 30
0.0
 11
167.0221
 21
219.8597650795
 31
0.0
  0
LINE
  5
127
330
1F
100
AcDbEntity
  8
0
  6
Continuous
 62
     7
370
    15
100
AcDbLine
 10
196.9421
 20
220.845872758
 30
0.0
 11
196.9421
 21
220.8388875524
 31
0.0
  0
LINE
  5
128
330
1F
100
AcDbEntity
  8
0
  6
Continuous
 62
     7
370
    15
100
AcDbLine
 10
167.1021
 20
220.845872758
 30
0.0
 11
167.1021
 21
220.8388875524
 31
0.0
  0
LINE
  5
129
330
1F
100
AcDbEntity
  8
0
  6
Continuous
 62
     7
370
    15
100
AcDbLine
 10
196.9421
 20
215.6988183531
 30
0.0
 11
196.9421
 21
215.7210095051
 31
0.0
  0
LINE
  5
12A
330
1F
100
AcDbEntity
  8
0
  6
Continuous
 62
     7
370
    15
100
AcDbLine
 10
167.1021
 20
215.696160382
 30
0.0
 11
167.1021
 21
215.7210095051
 31
0.0
  0
LINE
  5
12B
330
1F
100
AcDbEntity
  8
0
  6
Continuous
 62
     7
370
    15
100
AcDbLine
 10
167.2271
 20
215.8410095051
 30
0.0
 11
167.2271
 21
215.887927242
 31
0.0
  0
LINE
  5
12C
330
1F
100
AcDbEntity
  8
0
  6
Continuous
 62
     7
370
    15
100
AcDbLine
 10
167.1021
 20
215.7210095051
 30
0.0
 11
167.1368778136
 21
215.7210095051
 31
0.0
  0
LINE
  5
12D
330
1F
100
AcDbEntity
  8
0
  6
Continuous
 62
     7
370
    15
100
AcDbLine
 10
196.8171
 20
215.887927242
 30
0.0
 11
196.8171
 21
215.8410095051
 31
0.0
  0
LINE
  5
12E
330
1F
100
AcDbEntity
  8
0
  6
Continuous
 62
     7
370
    15
100
AcDbLine
 10
196.9021
 20
215.7210095051
 30
0.0
 11
196.9421
 21
215.7210095051
 31
0.0
  0
LINE
  5
12F
330
1F
100
AcDbEntity
  8
0
  6
Continuous
 62
     7
370
    15
100
AcDbLine
 10
195.4240999929
 20
126.762927242
 30
0.0
 11
190.1241
 21
126.762927242
 31
0.0
  0
LINE
  5
130
330
1F
100
AcDbEntity
  8
0
  6
Continuous
 62
     7
370
    15
100
AcDbLine
 10
195.6241
 20
127.362927242
 30
0.0
 11
189.9241
 21
127.362927242
 31
0.0
  0
LINE
  5
131
330
1F
100
AcDbEntity
  8
0
  6
Continuous
 62
     7
370
    15
100
AcDbLine
 10
174.1241
 20
127.362927242
 30
0.0
 11
168.4241
 21
127.362927242
 31
0.0
  0
LINE
  5
132
330
1F
100
AcDbEntity
  8
0
  6
Continuous
 62
     7
370
    15
100
AcDbLine
 10
173.9240999929
 20
126.762927242
 30
0.0
 11
168.6241
 21
126.762927242
 31
0.0
  0
LINE
  5
133
330
1F
100
AcDbEntity
  8
0
  6
Continuous
 62
     7
370
    15
100
AcDbLine
 10
195.870065022
 20
134.162927242
 30
0.0
 11
189.678134978
 21
134.162927242
 31
0.0
  0
LINE
  5
134
330
1F
100
AcDbEntity
  8
0
  6
Continuous
 62
     7
370
    15
100
AcDbLine
 10
174.370065022
 20
134.162927242
 30
0.0
 11
168.178134978
 21
134.162927242
 31
0.0
  0
SPLINE
  5
135
330
1F
100
AcDbEntity
  8
0
  6
Continuous
 62
     7
370
    15
100
AcDbSpline
210
0.0
220
0.0
230
1.0
 70
     8
 71
     3
 72
     9
 73
     5
 74
     0
 42
0.00000001
 43
0.00000001
 40
0.0
 40
0.0
 40
0.0
 40
0.0
 40
0.5527790483088717
 40
1.0
 40
1.0
 40
1.0
 40
1.0
 10
169.7711710678111
 20
147.4979272420098
 30
0.0
 10
169.7800024343886
 20
147.5271144416119
 30
0.0
 10
169.795978739215
 20
147.579915284356
 30
0.0
 10
169.8119550562785
 20
147.6232749691958
 30
0.0
 10
169.8191000000002
 20
147.6426663287149
 30
0.0
  0
LINE
  5
136
330
1F
100
AcDbEntity
  8
0
  6
Continuous
 62
     7
370
    15
100
AcDbLine
 10
169.7711710678
 20
147.497927242
 30
0.0
 11
169.7711710678
 21
146.422927242
 31
0.0
  0
LINE
  5
137
330
1F
100
AcDbEntity
  8
0
  6
Continuous
 62
     7
370
    15
100
AcDbLine
 10
169.7711710678
 20
146.422927242
 30
0.0
 11
169.8191
 21
146.422927242
 31
0.0
  0
LINE
  5
138
330
1F
100
AcDbEntity
  8
0
  6
Continuous
 62
     7
370
    15
100
AcDbLine
 10
169.6441
 20
147.497927242
 30
0.0
 11
169.7641
 21
147.497927242
 31
0.0
  0
LINE
  5
139
330
1F
100
AcDbEntity
  8
0
  6
Continuous
 62
     7
370
    15
100
AcDbLine
 10
169.6441
 20
146.422927242
 30
0.0
 11
169.7641
 21
146.422927242
 31
0.0
  0
LINE
  5
13A
330
1F
100
AcDbEntity
  8
0
  6
Continuous
 62
     7
370
    15
100
AcDbLine
 10
169.6441
 20
147.497927242
 30
0.0
 11
169.6441
 21
146.422927242
 31
0.0
  0
LINE
  5
13B
330
1F
100
AcDbEntity
  8
0
  6
Continuous
 62
     7
370
    15
100
AcDbLine
 10
169.7641
 20
147.497927242
 30
0.0
 11
169.7641
 21
146.422927242
 31
0.0
  0
SPLINE
  5
13C
330
1F
100
AcDbEntity
  8
0
  6
Continuous
 62
     7
370
    15
100
AcDbSpline
210
0.0
220
0.0
230
1.0
 70
     8
 71
     3
 72
     9
 73
     5
 74
     0
 42
0.00000001
 43
0.00000001
 40
0.0
 40
0.0
 40
0.0
 40
0.0
 40
0.4650003374331815
 40
1.0
 40
1.0
 40
1.0
 40
1.0
 10
169.7971663355588
 20
147.5810096481165
 30
0.0
 10
169.7881316184416
 20
147.5697512053264
 30
0.0
 10
169.7687021333641
 20
147.5455395179709
 30
0.0
 10
169.7657040002198
 20
147.5145217417966
 30
0.0
 10
169.7640999999993
 20
147.4979272420098
 30
0.0
  0
SPLINE
  5
13D
330
1F
100
AcDbEntity
  8
0
  6
Continuous
 62
     7
370
    15
100
AcDbSpline
210
0.0
220
0.0
230
1.0
 70
     8
 71
     3
 72
    11
 73
     7
 74
     0
 42
0.00000001
 43
0.00000001
 40
0.0
 40
0.0
 40
0.0
 40
0.0
 40
0.0579753381175753
 40
0.3719835587450538
 40
0.6859917793725205
 40
1.0
 40
1.0
 40
1.0
 40
1.0
 10
169.8126529954911
 20
147.727720987364
 30
0.0
 10
169.8068313058715
 20
147.7267265944332
 30
0.0
 10
169.7694779605883
 20
147.7203463328741
 30
0.0
 10
169.7123326509689
 20
147.6736508557541
 30
0.0
 10
169.655016109059
 20
147.5946324999679
 30
0.0
 10
169.6477387030192
 20
147.5301623279958
 30
0.0
 10
169.6440999999993
 20
147.4979272420098
 30
0.0
  0
LINE
  5
13E
330
1F
100
AcDbEntity
  8
0
  6
Continuous
 62
     7
370
    15
100
AcDbLine
 10
169.5691
 20
147.742927242
 30
0.0
 11
169.8191
 21
147.742927242
 31
0.0
  0
LINE
  5
13F
330
1F
100
AcDbEntity
  8
0
  6
Continuous
 62
     7
370
    15
100
AcDbLine
 10
169.5691
 20
147.622927242
 30
0.0
 11
169.6836251251
 21
147.622927242
 31
0.0
  0
LINE
  5
140
330
1F
100
AcDbEntity
  8
0
  6
Continuous
 62
     7
370
    15
100
AcDbLine
 10
169.5241
 20
147.6270953504
 30
0.0
 11
169.5691
 21
147.622927242
 31
0.0
  0
LWPOLYLINE
  5
141
330
1F
100
AcDbEntity
  8
0
  6
Continuous
 62
     7
370
    15
100
AcDbPolyline
 90
        3
 70
   128
 43
0.0
 10
169.5241
 20
147.7513082041
 10
169.5447137097
 20
147.745329082
 10
169.5691
 20
147.742927242
  0
SPLINE
  5
142
330
1F
100
AcDbEntity
  8
0
  6
Continuous
 62
     7
370
    15
100
AcDbSpline
210
0.0
220
0.0
230
1.0
 70
     8
 71
     3
 72
    10
 73
     6
 74
     0
 42
0.00000001
 43
0.00000001
 40
0.0
 40
0.0
 40
0.0
 40
0.0
 40
0.1978450752359059
 40
0.7502002599669833
 40
0.9999999999999999
 40
0.9999999999999999
 40
0.9999999999999999
 40
0.9999999999999999
 10
194.2291000000002
 20
147.6417486251761
 30
0.0
 10
194.2322631840254
 20
147.6340554951988
 30
0.0
 10
194.2442575259375
 20
147.6048842454111
 30
0.0
 10
194.2602814469626
 20
147.5522854267594
 30
0.0
 10
194.2730520331877
 20
147.5108352701536
 30
0.0
 10
194.2770289321889
 20
147.49792724201
 30
0.0
  0
LINE
  5
143
330
1F
100
AcDbEntity
  8
0
  6
Continuous
 62
     7
370
    15
100
AcDbLine
 10
194.2291
 20
146.422927242
 30
0.0
 11
194.2770289322
 21
146.422927242
 31
0.0
  0
LINE
  5
144
330
1F
100
AcDbEntity
  8
0
  6
Continuous
 62
     7
370
    15
100
AcDbLine
 10
194.2770289322
 20
147.497927242
 30
0.0
 11
194.2770289322
 21
146.422927242
 31
0.0
  0
LINE
  5
145
330
1F
100
AcDbEntity
  8
0
  6
Continuous
 62
     7
370
    15
100
AcDbLine
 10
194.4041
 20
147.497927242
 30
0.0
 11
194.2841
 21
147.497927242
 31
0.0
  0
LINE
  5
146
330
1F
100
AcDbEntity
  8
0
  6
Continuous
 62
     7
370
    15
100
AcDbLine
 10
194.4041
 20
147.497927242
 30
0.0
 11
194.4041
 21
146.422927242
 31
0.0
  0
LINE
  5
147
330
1F
100
AcDbEntity
  8
0
  6
Continuous
 62
     7
370
    15
100
AcDbLine
 10
194.4041
 20
146.422927242
 30
0.0
 11
194.2841
 21
146.422927242
 31
0.0
  0
LINE
  5
148
330
1F
100
AcDbEntity
  8
0
  6
Continuous
 62
     7
370
    15
100
AcDbLine
 10
194.2841
 20
147.497927242
 30
0.0
 11
194.2841
 21
146.422927242
 31
0.0
  0
SPLINE
  5
149
330
1F
100
AcDbEntity
  8
0
  6
Continuous
 62
     7
370
    15
100
AcDbSpline
210
0.0
220
0.0
230
1.0
 70
     8
 71
     3
 72
     9
 73
     5
 74
     0
 42
0.00000001
 43
0.00000001
 40
0.0
 40
0.0
 40
0.0
 40
0.0
 40
0.5270601609714689
 40
1.0
 40
1.0
 40
1.0
 40
1.0
 10
194.2841000000008
 20
147.49792724201
 30
0.0
 10
194.2824727350087
 20
147.5145121052129
 30
0.0
 10
194.2793852981039
 20
147.5459788417091
 30
0.0
 10
194.2596189915165
 20
147.5705369641777
 30
0.0
 10
194.2502707176608
 20
147.5821514786648
 30
0.0
  0
SPLINE
  5
14A
330
1F
100
AcDbEntity
  8
0
  6
Continuous
 62
     7
370
    15
100
AcDbSpline
210
0.0
220
0.0
230
1.0
 70
     8
 71
     3
 72
    11
 73
     7
 74
     0
 42
0.00000001
 43
0.00000001
 40
0.0
 40
0.0
 40
0.0
 40
0.0
 40
0.3044300612509404
 40
0.6088601225018913
 40
0.9132901837528317
 40
1.0
 40
1.0
 40
1.0
 40
1.0
 10
194.4041000000008
 20
147.49792724201
 30
0.0
 10
194.4004525254458
 20
147.5301362298661
 30
0.0
 10
194.393157576336
 20
147.5945542055782
 30
0.0
 10
194.3359726074514
 20
147.6739640333136
 30
0.0
 10
194.2758255758042
 20
147.7216682055747
 30
0.0
 10
194.2351663533036
 20
147.728152203035
 30
0.0
 10
194.2261528164217
 20
147.7295896075562
 30
0.0
  0
LINE
  5
14B
330
1F
100
AcDbEntity
  8
0
  6
Continuous
 62
     7
370
    15
100
AcDbLine
 10
194.4791
 20
147.622927242
 30
0.0
 11
194.5241
 21
147.6270953504
 31
0.0
  0
LWPOLYLINE
  5
14C
330
1F
100
AcDbEntity
  8
0
  6
Continuous
 62
     7
370
    15
100
AcDbPolyline
 90
        3
 70
   128
 43
0.0
 10
194.4791
 20
147.742927242
 10
194.5034862903
 20
147.745329082
 10
194.5241
 20
147.7513082041
  0
LINE
  5
14D
330
1F
100
AcDbEntity
  8
0
  6
Continuous
 62
     7
370
    15
100
AcDbLine
 10
194.2291
 20
147.742927242
 30
0.0
 11
194.4791
 21
147.742927242
 31
0.0
  0
LINE
  5
14E
330
1F
100
AcDbEntity
  8
0
  6
Continuous
 62
     7
370
    15
100
AcDbLine
 10
194.3645748749
 20
147.622927242
 30
0.0
 11
194.4791
 21
147.622927242
 31
0.0
  0
SPLINE
  5
14F
330
1F
100
AcDbEntity
  8
0
  6
Continuous
 62
     7
370
    15
100
AcDbSpline
210
0.0
220
0.0
230
1.0
 70
     8
 71
     3
 72
    10
 73
     6
 74
     0
 42
0.00000001
 43
0.00000001
 40
0.0
 40
0.0
 40
0.0
 40
0.0
 40
0.1978450752295172
 40
0.7502002599649908
 40
1.0
 40
1.0
 40
1.0
 40
1.0
 10
194.2291000000002
 20
178.8417486251769
 30
0.0
 10
194.2322631840252
 20
178.8340554951998
 30
0.0
 10
194.2442575259371
 20
178.8048842454125
 30
0.0
 10
194.2602814469621
 20
178.752285426761
 30
0.0
 10
194.2730520331872
 20
178.7108352701553
 30
0.0
 10
194.2770289321884
 20
178.6979272420116
 30
0.0
  0
LINE
  5
150
330
1F
100
AcDbEntity
  8
0
  6
Continuous
 62
     7
370
    15
100
AcDbLine
 10
194.2770289322
 20
178.697927242
 30
0.0
 11
194.2770289322
 21
177.622927242
 31
0.0
  0
LINE
  5
151
330
1F
100
AcDbEntity
  8
0
  6
Continuous
 62
     7
370
    15
100
AcDbLine
 10
194.2291
 20
177.622927242
 30
0.0
 11
194.2770289322
 21
177.622927242
 31
0.0
  0
LINE
  5
152
330
1F
100
AcDbEntity
  8
0
  6
Continuous
 62
     7
370
    15
100
AcDbLine
 10
194.2841
 20
178.697927242
 30
0.0
 11
194.2841
 21
177.622927242
 31
0.0
  0
LINE
  5
153
330
1F
100
AcDbEntity
  8
0
  6
Continuous
 62
     7
370
    15
100
AcDbLine
 10
194.4041
 20
178.697927242
 30
0.0
 11
194.2841
 21
178.697927242
 31
0.0
  0
LINE
  5
154
330
1F
100
AcDbEntity
  8
0
  6
Continuous
 62
     7
370
    15
100
AcDbLine
 10
194.4041
 20
178.697927242
 30
0.0
 11
194.4041
 21
177.622927242
 31
0.0
  0
LINE
  5
155
330
1F
100
AcDbEntity
  8
0
  6
Continuous
 62
     7
370
    15
100
AcDbLine
 10
194.4041
 20
177.622927242
 30
0.0
 11
194.2841
 21
177.622927242
 31
0.0
  0
SPLINE
  5
156
330
1F
100
AcDbEntity
  8
0
  6
Continuous
 62
     7
370
    15
100
AcDbSpline
210
0.0
220
0.0
230
1.0
 70
     8
 71
     3
 72
    11
 73
     7
 74
     0
 42
0.00000001
 43
0.00000001
 40
0.0
 40
0.0
 40
0.0
 40
0.0
 40
0.3044300612511512
 40
0.6088601225022913
 40
0.9132901837534354
 40
1.0
 40
1.0
 40
1.0
 40
1.0
 10
194.4041000000003
 20
178.6979272420116
 30
0.0
 10
194.4004525254454
 20
178.7301362298677
 30
0.0
 10
194.3931575763356
 20
178.7945542055799
 30
0.0
 10
194.3359726074509
 20
178.8739640333153
 30
0.0
 10
194.2758255758039
 20
178.9216682055763
 30
0.0
 10
194.2351663533033
 20
178.9281522030367
 30
0.0
 10
194.2261528164215
 20
178.9295896075578
 30
0.0
  0
SPLINE
  5
157
330
1F
100
AcDbEntity
  8
0
  6
Continuous
 62
     7
370
    15
100
AcDbSpline
210
0.0
220
0.0
230
1.0
 70
     8
 71
     3
 72
     9
 73
     5
 74
     0
 42
0.00000001
 43
0.00000001
 40
0.0
 40
0.0
 40
0.0
 40
0.0
 40
0.5270601609714874
 40
1.0
 40
1.0
 40
1.0
 40
1.0
 10
194.2841000000003
 20
178.6979272420116
 30
0.0
 10
194.2824727350083
 20
178.7145121052145
 30
0.0
 10
194.2793852981035
 20
178.7459788417108
 30
0.0
 10
194.259618991516
 20
178.7705369641794
 30
0.0
 10
194.2502707176604
 20
178.7821514786665
 30
0.0
  0
LINE
  5
158
330
1F
100
AcDbEntity
  8
0
  6
Continuous
 62
     7
370
    15
100
AcDbLine
 10
194.4791
 20
178.822927242
 30
0.0
 11
194.5241
 21
178.8270953504
 31
0.0
  0
LWPOLYLINE
  5
159
330
1F
100
AcDbEntity
  8
0
  6
Continuous
 62
     7
370
    15
100
AcDbPolyline
 90
        3
 70
   128
 43
0.0
 10
194.4791
 20
178.942927242
 10
194.5034862903
 20
178.945329082
 10
194.5241
 20
178.9513082041
  0
LINE
  5
15A
330
1F
100
AcDbEntity
  8
0
  6
Continuous
 62
     7
370
    15
100
AcDbLine
 10
194.2291
 20
178.942927242
 30
0.0
 11
194.4791
 21
178.942927242
 31
0.0
  0
LINE
  5
15B
330
1F
100
AcDbEntity
  8
0
  6
Continuous
 62
     7
370
    15
100
AcDbLine
 10
194.3645748749
 20
178.822927242
 30
0.0
 11
194.4791
 21
178.822927242
 31
0.0
  0
LINE
  5
15C
330
1F
100
AcDbEntity
  8
0
  6
Continuous
 62
     7
370
    15
100
AcDbLine
 10
194.2291
 20
177.562927242
 30
0.0
 11
194.2291
 21
178.817927242
 31
0.0
  0
ARC
  5
15D
330
1F
100
AcDbEntity
  8
0
  6
Continuous
 62
     7
370
    15
100
AcDbCircle
 10
193.7291
 20
177.562927242
 30
0.0
 40
0.5
100
AcDbArc
 50
270.0
 51
0.0
  0
LINE
  5
15E
330
1F
100
AcDbEntity
  8
0
  6
Continuous
 62
     7
370
    15
100
AcDbLine
 10
169.8191
 20
177.562927242
 30
0.0
 11
169.8191
 21
178.817927242
 31
0.0
  0
ARC
  5
15F
330
1F
100
AcDbEntity
  8
0
  6
Continuous
 62
     7
370
    15
100
AcDbCircle
 10
170.3191
 20
177.562927242
 30
0.0
 40
0.5
100
AcDbArc
 50
180.0
 51
270.0
  0
LINE
  5
160
330
1F
100
AcDbEntity
  8
0
  6
Continuous
 62
     7
370
    15
100
AcDbLine
 10
193.7291
 20
177.062927242
 30
0.0
 11
170.3191
 21
177.062927242
 31
0.0
  0
LINE
  5
161
330
1F
100
AcDbEntity
  8
0
  6
Continuous
 62
     7
370
    15
100
AcDbLine
 10
194.2291
 20
179.062927242
 30
0.0
 11
194.2291
 21
178.817927242
 31
0.0
  0
LINE
  5
162
330
1F
100
AcDbEntity
  8
0
  6
Continuous
 62
     7
370
    15
100
AcDbLine
 10
169.8191
 20
179.062927242
 30
0.0
 11
194.2291
 21
179.062927242
 31
0.0
  0
LINE
  5
163
330
1F
100
AcDbEntity
  8
0
  6
Continuous
 62
     7
370
    15
100
AcDbLine
 10
169.8191
 20
178.817927242
 30
0.0
 11
169.8191
 21
179.062927242
 31
0.0
  0
LINE
  5
164
330
1F
100
AcDbEntity
  8
0
  6
Continuous
 62
     7
370
    15
100
AcDbLine
 10
194.3541
 20
179.187927242
 30
0.0
 11
194.3541
 21
180.442927242
 31
0.0
  0
LINE
  5
165
330
1F
100
AcDbEntity
  8
0
  6
Continuous
 62
     7
370
    15
100
AcDbLine
 10
194.4741
 20
180.442927242
 30
0.0
 11
194.4741
 21
179.187927242
 31
0.0
  0
ARC
  5
166
330
1F
100
AcDbEntity
  8
0
  6
Continuous
 62
     7
370
    15
100
AcDbCircle
 10
194.2291
 20
179.187927242
 30
0.0
 40
0.245000000000033
100
AcDbArc
 50
270.0
 51
0.0
  0
ARC
  5
167
330
1F
100
AcDbEntity
  8
0
  6
Continuous
 62
     7
370
    15
100
AcDbCircle
 10
194.2291
 20
179.187927242
 30
0.0
 40
0.125
100
AcDbArc
 50
270.0
 51
0.0
  0
LINE
  5
168
330
1F
100
AcDbEntity
  8
0
  6
Continuous
 62
     7
370
    15
100
AcDbLine
 10
194.3541
 20
180.942927242
 30
0.0
 11
194.4741
 21
180.942927242
 31
0.0
  0
LINE
  5
169
330
1F
100
AcDbEntity
  8
0
  6
Continuous
 62
     7
370
    15
100
AcDbLine
 10
194.3541
 20
180.442927242
 30
0.0
 11
194.3541
 21
180.942927242
 31
0.0
  0
LINE
  5
16A
330
1F
100
AcDbEntity
  8
0
  6
Continuous
 62
     7
370
    15
100
AcDbLine
 10
194.4741
 20
180.942927242
 30
0.0
 11
194.4741
 21
180.442927242
 31
0.0
  0
LINE
  5
16B
330
1F
100
AcDbEntity
  8
0
  6
Continuous
 62
     7
370
    15
100
AcDbLine
 10
169.5741
 20
180.442927242
 30
0.0
 11
169.5741
 21
179.187927242
 31
0.0
  0
LINE
  5
16C
330
1F
100
AcDbEntity
  8
0
  6
Continuous
 62
     7
370
    15
100
AcDbLine
 10
169.6941
 20
179.187927242
 30
0.0
 11
169.6941
 21
180.442927242
 31
0.0
  0
ARC
  5
16D
330
1F
100
AcDbEntity
  8
0
  6
Continuous
 62
     7
370
    15
100
AcDbCircle
 10
169.8191
 20
179.187927242
 30
0.0
 40
0.2450000000000045
100
AcDbArc
 50
180.0
 51
270.0
  0
ARC
  5
16E
330
1F
100
AcDbEntity
  8
0
  6
Continuous
 62
     7
370
    15
100
AcDbCircle
 10
169.8191
 20
179.187927242
 30
0.0
 40
0.125
100
AcDbArc
 50
180.0
 51
270.0
  0
LINE
  5
16F
330
1F
100
AcDbEntity
  8
0
  6
Continuous
 62
     7
370
    15
100
AcDbLine
 10
169.5741
 20
180.942927242
 30
0.0
 11
169.6941
 21
180.942927242
 31
0.0
  0
LINE
  5
170
330
1F
100
AcDbEntity
  8
0
  6
Continuous
 62
     7
370
    15
100
AcDbLine
 10
169.5741
 20
180.442927242
 30
0.0
 11
169.5741
 21
180.942927242
 31
0.0
  0
LINE
  5
171
330
1F
100
AcDbEntity
  8
0
  6
Continuous
 62
     7
370
    15
100
AcDbLine
 10
169.6941
 20
180.942927242
 30
0.0
 11
169.6941
 21
180.442927242
 31
0.0
  0
SPLINE
  5
172
330
1F
100
AcDbEntity
  8
0
  6
Continuous
 62
     7
370
    15
100
AcDbSpline
210
0.0
220
0.0
230
1.0
 70
     8
 71
     3
 72
     9
 73
     5
 74
     0
 42
0.00000001
 43
0.00000001
 40
0.0
 40
0.0
 40
0.0
 40
0.0
 40
0.5592384655987551
 40
1.0
 40
1.0
 40
1.0
 40
1.0
 10
194.3198849663915
 20
179.1025205078722
 30
0.0
 10
194.3249587124435
 20
179.117813774872
 30
0.0
 10
194.3340313109219
 20
179.1451603683928
 30
0.0
 10
194.3430526659179
 20
179.174843888252
 30
0.0
 10
194.3470289321883
 20
179.1879272420116
 30
0.0
  0
LINE
  5
173
330
1F
100
AcDbEntity
  8
0
  6
Continuous
 62
     7
370
    15
100
AcDbLine
 10
169.7011710678
 20
179.187927242
 30
0.0
 11
169.7268562553
 21
179.1058358708
 31
0.0
  0
SPLINE
  5
174
330
1F
100
AcDbEntity
  8
0
  6
Continuous
 62
     7
370
    15
100
AcDbSpline
210
0.0
220
0.0
230
1.0
 70
     8
 71
     3
 72
    11
 73
     7
 74
     0
 42
0.00000001
 43
0.00000001
 40
0.0
 40
0.0
 40
0.0
 40
0.0
 40
0.2726962473693829
 40
0.5235847753928974
 40
0.7744195977108662
 40
1.0
 40
1.0
 40
1.0
 40
1.0
 10
194.2291000000001
 20
179.0629272420116
 30
0.0
 10
194.2398314254636
 20
179.065162802269
 30
0.0
 10
194.2604360764081
 20
179.0694551433869
 30
0.0
 10
194.2908661017489
 20
179.1009158579955
 30
0.0
 10
194.3194667577301
 20
179.1419825234441
 30
0.0
 10
194.3381720587776
 20
179.1731632923509
 30
0.0
 10
194.3470289321883
 20
179.1879272420116
 30
0.0
  0
SPLINE
  5
175
330
1F
100
AcDbEntity
  8
0
  6
Continuous
 62
     7
370
    15
100
AcDbSpline
210
0.0
220
0.0
230
1.0
 70
     8
 71
     3
 72
    11
 73
     7
 74
     0
 42
0.00000001
 43
0.00000001
 40
0.0
 40
0.0
 40
0.0
 40
0.0
 40
0.2726962473693783
 40
0.5235847753928993
 40
0.7744195977108465
 40
0.9999999999999999
 40
0.9999999999999999
 40
0.9999999999999999
 40
0.9999999999999999
 10
169.701171067812
 20
179.1879272420116
 30
0.0
 10
169.7119024932755
 20
179.1700442481054
 30
0.0
 10
169.7325071442199
 20
179.1357083764605
 30
0.0
 10
169.7629371695607
 20
179.0941200161962
 30
0.0
 10
169.791537825542
 20
179.0676942062146
 30
0.0
 10
169.8102431265895
 20
179.0644590659453
 30
0.0
 10
169.8191000000001
 20
179.0629272420116
 30
0.0
  0
LINE
  5
176
330
1F
100
AcDbEntity
  8
0
  6
Continuous
 62
     7
370
    15
100
AcDbLine
 10
194.3470289322
 20
179.187927242
 30
0.0
 11
194.3470289322
 21
180.942927242
 31
0.0
  0
LINE
  5
177
330
1F
100
AcDbEntity
  8
0
  6
Continuous
 62
     7
370
    15
100
AcDbLine
 10
169.7011710678
 20
179.187927242
 30
0.0
 11
169.7011710678
 21
180.942927242
 31
0.0
  0
LINE
  5
178
330
1F
100
AcDbEntity
  8
0
  6
Continuous
 62
     7
370
    15
100
AcDbLine
 10
169.7011710678
 20
180.942927242
 30
0.0
 11
194.3470289322
 21
180.942927242
 31
0.0
  0
ARC
  5
179
330
1F
100
AcDbEntity
  8
0
  6
Continuous
 62
     7
370
    15
100
AcDbCircle
 10
170.3191
 20
144.582927242
 30
0.0
 40
0.5
100
AcDbArc
 50
180.0
 51
270.0
  0
LINE
  5
17A
330
1F
100
AcDbEntity
  8
0
  6
Continuous
 62
     7
370
    15
100
AcDbLine
 10
169.8191
 20
144.582927242
 30
0.0
 11
169.8191
 21
147.617927242
 31
0.0
  0
ARC
  5
17B
330
1F
100
AcDbEntity
  8
0
  6
Continuous
 62
     7
370
    15
100
AcDbCircle
 10
193.7291
 20
144.582927242
 30
0.0
 40
0.5
100
AcDbArc
 50
270.0
 51
0.0
  0
LINE
  5
17C
330
1F
100
AcDbEntity
  8
0
  6
Continuous
 62
     7
370
    15
100
AcDbLine
 10
194.2291
 20
147.617927242
 30
0.0
 11
194.2291
 21
144.582927242
 31
0.0
  0
LINE
  5
17D
330
1F
100
AcDbEntity
  8
0
  6
Continuous
 62
     7
370
    15
100
AcDbLine
 10
193.7291
 20
144.082927242
 30
0.0
 11
170.3191
 21
144.082927242
 31
0.0
  0
LINE
  5
17E
330
1F
100
AcDbEntity
  8
0
  6
Continuous
 62
     7
370
    15
100
AcDbLine
 10
194.2291
 20
147.8286403171
 30
0.0
 11
194.2291
 21
147.617927242
 31
0.0
  0
LINE
  5
17F
330
1F
100
AcDbEntity
  8
0
  6
Continuous
 62
     7
370
    15
100
AcDbLine
 10
169.8191
 20
147.862927242
 30
0.0
 11
194.2291
 21
147.862927242
 31
0.0
  0
LINE
  5
180
330
1F
100
AcDbEntity
  8
0
  6
Continuous
 62
     7
370
    15
100
AcDbLine
 10
169.8191
 20
147.617927242
 30
0.0
 11
169.8191
 21
147.8286403171
 31
0.0
  0
LINE
  5
181
330
1F
100
AcDbEntity
  8
0
  6
Continuous
 62
     7
370
    15
100
AcDbLine
 10
194.2291
 20
147.862927242
 30
0.0
 11
194.2291
 21
147.8286403171
 31
0.0
  0
ARC
  5
182
330
1F
100
AcDbEntity
  8
0
  6
Continuous
 62
     7
370
    15
100
AcDbCircle
 10
194.2291
 20
147.987927242
 30
0.0
 40
0.125
100
AcDbArc
 50
270.0
 51
0.0
  0
ARC
  5
183
330
1F
100
AcDbEntity
  8
0
  6
Continuous
 62
     7
370
    15
100
AcDbCircle
 10
194.2291
 20
147.987927242
 30
0.0
 40
0.2450000000000045
100
AcDbArc
 50
270.0
 51
0.0
  0
LINE
  5
184
330
1F
100
AcDbEntity
  8
0
  6
Continuous
 62
     7
370
    15
100
AcDbLine
 10
194.3541
 20
149.242927242
 30
0.0
 11
194.3541
 21
147.987927242
 31
0.0
  0
LINE
  5
185
330
1F
100
AcDbEntity
  8
0
  6
Continuous
 62
     7
370
    15
100
AcDbLine
 10
194.4741
 20
149.242927242
 30
0.0
 11
194.4741
 21
147.987927242
 31
0.0
  0
LINE
  5
186
330
1F
100
AcDbEntity
  8
0
  6
Continuous
 62
     7
370
    15
100
AcDbLine
 10
194.3541
 20
149.742927242
 30
0.0
 11
194.4741
 21
149.742927242
 31
0.0
  0
LINE
  5
187
330
1F
100
AcDbEntity
  8
0
  6
Continuous
 62
     7
370
    15
100
AcDbLine
 10
194.3541
 20
149.242927242
 30
0.0
 11
194.3541
 21
149.742927242
 31
0.0
  0
LINE
  5
188
330
1F
100
AcDbEntity
  8
0
  6
Continuous
 62
     7
370
    15
100
AcDbLine
 10
194.4741
 20
149.742927242
 30
0.0
 11
194.4741
 21
149.242927242
 31
0.0
  0
LINE
  5
189
330
1F
100
AcDbEntity
  8
0
  6
Continuous
 62
     7
370
    15
100
AcDbLine
 10
169.6941
 20
147.987927242
 30
0.0
 11
169.6941
 21
149.242927242
 31
0.0
  0
LINE
  5
18A
330
1F
100
AcDbEntity
  8
0
  6
Continuous
 62
     7
370
    15
100
AcDbLine
 10
169.5741
 20
147.987927242
 30
0.0
 11
169.5741
 21
149.242927242
 31
0.0
  0
LINE
  5
18B
330
1F
100
AcDbEntity
  8
0
  6
Continuous
 62
     7
370
    15
100
AcDbLine
 10
169.5741
 20
149.742927242
 30
0.0
 11
169.6941
 21
149.742927242
 31
0.0
  0
LINE
  5
18C
330
1F
100
AcDbEntity
  8
0
  6
Continuous
 62
     7
370
    15
100
AcDbLine
 10
169.6941
 20
149.742927242
 30
0.0
 11
169.6941
 21
149.242927242
 31
0.0
  0
LINE
  5
18D
330
1F
100
AcDbEntity
  8
0
  6
Continuous
 62
     7
370
    15
100
AcDbLine
 10
169.5741
 20
149.242927242
 30
0.0
 11
169.5741
 21
149.742927242
 31
0.0
  0
LINE
  5
18E
330
1F
100
AcDbEntity
  8
0
  6
Continuous
 62
     7
370
    15
100
AcDbLine
 10
169.8191
 20
147.862927242
 30
0.0
 11
169.8191
 21
147.8286403171
 31
0.0
  0
ARC
  5
18F
330
1F
100
AcDbEntity
  8
0
  6
Continuous
 62
     7
370
    15
100
AcDbCircle
 10
169.8191
 20
147.987927242
 30
0.0
 40
0.125
100
AcDbArc
 50
180.0
 51
270.0
  0
ARC
  5
190
330
1F
100
AcDbEntity
  8
0
  6
Continuous
 62
     7
370
    15
100
AcDbCircle
 10
169.8191
 20
147.987927242
 30
0.0
 40
0.2450000000000045
100
AcDbArc
 50
180.0
 51
270.0
  0
SPLINE
  5
191
330
1F
100
AcDbEntity
  8
0
  6
Continuous
 62
     7
370
    15
100
AcDbSpline
210
0.0
220
0.0
230
1.0
 70
     8
 71
     3
 72
     9
 73
     5
 74
     0
 42
0.00000001
 43
0.00000001
 40
0.0
 40
0.0
 40
0.0
 40
0.0
 40
0.5592384655987283
 40
1.0
 40
1.0
 40
1.0
 40
1.0
 10
194.3198849663916
 20
147.9025205078703
 30
0.0
 10
194.3249587124436
 20
147.9178137748702
 30
0.0
 10
194.334031310922
 20
147.945160368391
 30
0.0
 10
194.343052665918
 20
147.9748438882502
 30
0.0
 10
194.3470289321884
 20
147.9879272420098
 30
0.0
  0
LINE
  5
192
330
1F
100
AcDbEntity
  8
0
  6
Continuous
 62
     7
370
    15
100
AcDbLine
 10
169.7011710678
 20
147.987927242
 30
0.0
 11
169.7268562553
 21
147.9058358708
 31
0.0
  0
SPLINE
  5
193
330
1F
100
AcDbEntity
  8
0
  6
Continuous
 62
     7
370
    15
100
AcDbSpline
210
0.0
220
0.0
230
1.0
 70
     8
 71
     3
 72
    11
 73
     7
 74
     0
 42
0.00000001
 43
0.00000001
 40
0.0
 40
0.0
 40
0.0
 40
0.0
 40
0.2726962473693791
 40
0.5235847753928968
 40
0.774419597710861
 40
1.0
 40
1.0
 40
1.0
 40
1.0
 10
194.2291000000002
 20
147.8629272420098
 30
0.0
 10
194.2398314254637
 20
147.8651628022672
 30
0.0
 10
194.2604360764082
 20
147.8694551433851
 30
0.0
 10
194.2908661017489
 20
147.9009158579937
 30
0.0
 10
194.3194667577302
 20
147.9419825234423
 30
0.0
 10
194.3381720587777
 20
147.9731632923491
 30
0.0
 10
194.3470289321884
 20
147.9879272420098
 30
0.0
  0
SPLINE
  5
194
330
1F
100
AcDbEntity
  8
0
  6
Continuous
 62
     7
370
    15
100
AcDbSpline
210
0.0
220
0.0
230
1.0
 70
     8
 71
     3
 72
    11
 73
     7
 74
     0
 42
0.00000001
 43
0.00000001
 40
0.0
 40
0.0
 40
0.0
 40
0.0
 40
0.2726962473693764
 40
0.5235847753929094
 40
0.7744195977108452
 40
1.0
 40
1.0
 40
1.0
 40
1.0
 10
169.7011710678121
 20
147.9879272420098
 30
0.0
 10
169.7119024932755
 20
147.9700442481036
 30
0.0
 10
169.73250714422
 20
147.9357083764587
 30
0.0
 10
169.7629371695608
 20
147.8941200161944
 30
0.0
 10
169.791537825542
 20
147.8676942062128
 30
0.0
 10
169.8102431265896
 20
147.8644590659435
 30
0.0
 10
169.8191000000002
 20
147.8629272420098
 30
0.0
  0
LINE
  5
195
330
1F
100
AcDbEntity
  8
0
  6
Continuous
 62
     7
370
    15
100
AcDbLine
 10
194.3470289322
 20
147.987927242
 30
0.0
 11
194.3470289322
 21
149.742927242
 31
0.0
  0
LINE
  5
196
330
1F
100
AcDbEntity
  8
0
  6
Continuous
 62
     7
370
    15
100
AcDbLine
 10
169.7011710678
 20
147.987927242
 30
0.0
 11
169.7011710678
 21
149.742927242
 31
0.0
  0
LINE
  5
197
330
1F
100
AcDbEntity
  8
0
  6
Continuous
 62
     7
370
    15
100
AcDbLine
 10
169.7011710678
 20
149.742927242
 30
0.0
 11
194.3470289322
 21
149.742927242
 31
0.0
  0
CIRCLE
  5
198
330
1F
100
AcDbEntity
  8
0
  6
Continuous
 62
     7
370
    15
100
AcDbCircle
 10
193.7241
 20
199.112927242
 30
0.0
 40
0.2200000000000273
  0
CIRCLE
  5
199
330
1F
100
AcDbEntity
  8
0
  6
Continuous
 62
     7
370
    15
100
AcDbCircle
 10
170.3241
 20
199.112927242
 30
0.0
 40
0.2199999999999989
  0
SPLINE
  5
19A
330
1F
100
AcDbEntity
  8
0
  6
Continuous
 62
     7
370
    15
100
AcDbSpline
210
0.0
220
0.0
230
1.0
 70
     8
 71
     3
 72
    12
 73
     8
 74
     0
 42
0.00000001
 43
0.00000001
 40
0.0
 40
0.0
 40
0.0
 40
0.0
 40
0.2286697549032078
 40
0.4574134284524172
 40
0.6861574263647225
 40
0.9149012395109667
 40
1.0
 40
1.0
 40
1.0
 40
1.0
 10
194.5240999999999
 20
209.9679272420128
 30
0.0
 10
194.5266736148241
 20
209.9769189914197
 30
0.0
 10
194.5318216764063
 20
209.9949053968615
 30
0.0
 10
194.5717828960695
 20
210.0218912933881
 30
0.0
 10
194.6299195294694
 20
210.048861102928
 30
0.0
 10
194.6864698233181
 20
210.070241933881
 30
0.0
 10
194.7200064945525
 20
210.0825254777212
 30
0.0
 10
194.7290999999999
 20
210.085856174201
 30
0.0
  0
LINE
  5
19B
330
1F
100
AcDbEntity
  8
0
  6
Continuous
 62
     7
370
    15
100
AcDbLine
 10
194.5241
 20
144.117927242
 30
0.0
 11
194.5241
 21
209.967927242
 31
0.0
  0
LINE
  5
19C
330
1F
100
AcDbEntity
  8
0
  6
Continuous
 62
     7
370
    15
100
AcDbLine
 10
194.7291
 20
144.117927242
 30
0.0
 11
194.5241
 21
144.117927242
 31
0.0
  0
LINE
  5
19D
330
1F
100
AcDbEntity
  8
0
  6
Continuous
 62
     7
370
    15
100
AcDbLine
 10
194.7291
 20
144.117927242
 30
0.0
 11
195.0441
 21
144.117927242
 31
0.0
  0
CIRCLE
  5
19E
330
1F
100
AcDbEntity
  8
0
  6
Continuous
 62
     7
370
    15
100
AcDbCircle
 10
196.0241
 20
208.262927242
 30
0.0
 40
0.164999999999992
  0
LINE
  5
19F
330
1F
100
AcDbEntity
  8
0
  6
Continuous
 62
     7
370
    15
100
AcDbLine
 10
194.7291
 20
210.0858561742
 30
0.0
 11
195.0441
 21
210.0858561742
 31
0.0
  0
CIRCLE
  5
1A0
330
1F
100
AcDbEntity
  8
0
  6
Continuous
 62
     7
370
    15
100
AcDbCircle
 10
196.0241
 20
145.912927242
 30
0.0
 40
0.164999999999992
  0
SPLINE
  5
1A1
330
1F
100
AcDbEntity
  8
0
  6
Continuous
 62
     7
370
    15
100
AcDbSpline
210
0.0
220
0.0
230
1.0
 70
     8
 71
     3
 72
    12
 73
     8
 74
     0
 42
0.00000001
 43
0.00000001
 40
0.0
 40
0.0
 40
0.0
 40
0.0
 40
0.2286697549031987
 40
0.4574134284524263
 40
0.6861574263647388
 40
0.9149012395110268
 40
1.0
 40
1.0
 40
1.0
 40
1.0
 10
194.7290999999999
 20
210.1729272420128
 30
0.0
 10
194.7045528145792
 20
210.1703536271886
 30
0.0
 10
194.655450508737
 20
210.1652055656064
 30
0.0
 10
194.5911339548361
 20
210.1252443459431
 30
0.0
 10
194.5447171411523
 20
210.0671077125433
 30
0.0
 10
194.5258390859111
 20
210.0105574186946
 30
0.0
 10
194.5244709669636
 20
209.9770207474602
 30
0.0
 10
194.5240999999999
 20
209.9679272420128
 30
0.0
  0
LINE
  5
1A2
330
1F
100
AcDbEntity
  8
0
  6
Continuous
 62
     7
370
    15
100
AcDbLine
 10
194.7291
 20
210.172927242
 30
0.0
 11
194.7291
 21
210.092927242
 31
0.0
  0
SPLINE
  5
1A3
330
1F
100
AcDbEntity
  8
0
  6
Continuous
 62
     7
370
    15
100
AcDbSpline
210
0.0
220
0.0
230
1.0
 70
     8
 71
     3
 72
    10
 73
     6
 74
     0
 42
0.00000001
 43
0.00000001
 40
0.0
 40
0.0
 40
0.0
 40
0.0
 40
0.468881760910725
 40
0.9380344098845715
 40
0.9999999999999999
 40
0.9999999999999999
 40
0.9999999999999999
 40
0.9999999999999999
 10
194.7290999999999
 20
210.0929272420128
 30
0.0
 10
194.7129873243003
 20
210.0908350599904
 30
0.0
 10
194.6807526640904
 20
210.0866494872249
 30
0.0
 10
194.6480081694847
 20
210.0681519191853
 30
0.0
 10
194.6380864377789
 20
210.0525433148535
 30
0.0
 10
194.6369288688707
 20
210.0507222582467
 30
0.0
  0
LINE
  5
1A4
330
1F
100
AcDbEntity
  8
0
  6
Continuous
 62
     7
370
    15
100
AcDbLine
 10
194.7291
 20
210.092927242
 30
0.0
 11
195.0441
 21
210.092927242
 31
0.0
  0
LINE
  5
1A5
330
1F
100
AcDbEntity
  8
0
  6
Continuous
 62
     7
370
    15
100
AcDbLine
 10
194.7291
 20
210.172927242
 30
0.0
 11
195.0441
 21
210.172927242
 31
0.0
  0
ARC
  5
1A6
330
1F
100
AcDbEntity
  8
0
  6
Continuous
 62
     7
370
    15
100
AcDbCircle
 10
194.3991
 20
144.117927242
 30
0.0
 40
0.2049999999999841
100
AcDbArc
 50
270.0
 51
0.0
  0
ARC
  5
1A7
330
1F
100
AcDbEntity
  8
0
  6
Continuous
 62
     7
370
    15
100
AcDbCircle
 10
194.3991
 20
144.117927242
 30
0.0
 40
0.1249999999999716
100
AcDbArc
 50
270.0
 51
0.0
  0
LINE
  5
1A8
330
1F
100
AcDbEntity
  8
0
  6
Continuous
 62
     7
370
    15
100
AcDbLine
 10
191.5241
 20
143.912927242
 30
0.0
 11
191.5241
 21
143.992927242
 31
0.0
  0
LINE
  5
1A9
330
1F
100
AcDbEntity
  8
0
  6
Continuous
 62
     7
370
    15
100
AcDbLine
 10
191.5241
 20
143.992927242
 30
0.0
 11
194.3991
 21
143.992927242
 31
0.0
  0
LINE
  5
1AA
330
1F
100
AcDbEntity
  8
0
  6
Continuous
 62
     7
370
    15
100
AcDbLine
 10
191.5241
 20
143.912927242
 30
0.0
 11
194.3991
 21
143.912927242
 31
0.0
  0
LINE
  5
1AB
330
1F
100
AcDbEntity
  8
0
  6
Continuous
 62
     7
370
    15
100
AcDbLine
 10
196.1845386884
 20
145.8743989763
 30
0.0
 11
195.8636613116
 21
145.8743989763
 31
0.0
  0
LINE
  5
1AC
330
1F
100
AcDbEntity
  8
0
  6
Continuous
 62
     7
370
    15
100
AcDbLine
 10
195.0441
 20
210.182927242
 30
0.0
 11
196.8191
 21
210.182927242
 31
0.0
  0
CIRCLE
  5
1AD
330
1F
100
AcDbEntity
  8
0
  6
Continuous
 62
     7
370
    15
100
AcDbCircle
 10
196.0241
 20
208.262927242
 30
0.0
 40
0.2099999999999795
  0
CIRCLE
  5
1AE
330
1F
100
AcDbEntity
  8
0
  6
Continuous
 62
     7
370
    15
100
AcDbCircle
 10
196.0241
 20
145.912927242
 30
0.0
 40
0.2099999999999795
  0
LINE
  5
1AF
330
1F
100
AcDbEntity
  8
0
  6
Continuous
 62
     7
370
    15
100
AcDbLine
 10
195.0441
 20
143.9999983098
 30
0.0
 11
195.0441
 21
210.182927242
 31
0.0
  0
LINE
  5
1B0
330
1F
100
AcDbEntity
  8
0
  6
Continuous
 62
     7
370
    15
100
AcDbLine
 10
195.0441
 20
143.9999983098
 30
0.0
 11
196.8191
 21
143.9999983098
 31
0.0
  0
LINE
  5
1B1
330
1F
100
AcDbEntity
  8
0
  6
Continuous
 62
     7
370
    15
100
AcDbLine
 10
197.0241
 20
210.057927242
 30
0.0
 11
197.0241
 21
144.117927242
 31
0.0
  0
LINE
  5
1B2
330
1F
100
AcDbEntity
  8
0
  6
Continuous
 62
     7
370
    15
100
AcDbLine
 10
196.8191
 20
210.182927242
 30
0.0
 11
197.0241
 21
210.182927242
 31
0.0
  0
LINE
  5
1B3
330
1F
100
AcDbEntity
  8
0
  6
Continuous
 62
     7
370
    15
100
AcDbLine
 10
197.0241
 20
210.182927242
 30
0.0
 11
197.0241
 21
210.057927242
 31
0.0
  0
SPLINE
  5
1B4
330
1F
100
AcDbEntity
  8
0
  6
Continuous
 62
     7
370
    15
100
AcDbSpline
210
0.0
220
0.0
230
1.0
 70
     8
 71
     3
 72
    12
 73
     8
 74
     0
 42
0.00000001
 43
0.00000001
 40
0.0
 40
0.0
 40
0.0
 40
0.0
 40
0.2286697549032158
 40
0.4574134284524472
 40
0.6861574263647641
 40
0.9149012395110259
 40
1.0
 40
1.0
 40
1.0
 40
1.0
 10
197.0241
 20
144.1179272420115
 30
0.0
 10
197.0215263851758
 20
144.1089354926046
 30
0.0
 10
197.0163783235935
 20
144.0909490871628
 30
0.0
 10
196.9764171039303
 20
144.0639631906362
 30
0.0
 10
196.9182804705304
 20
144.0369933810963
 30
0.0
 10
196.8617301766817
 20
144.0156125501433
 30
0.0
 10
196.8281935054474
 20
144.0033290063031
 30
0.0
 10
196.8191
 20
143.9999983098233
 30
0.0
  0
LINE
  5
1B5
330
1F
100
AcDbEntity
  8
0
  6
Continuous
 62
     7
370
    15
100
AcDbLine
 10
196.8191
 20
143.912927242
 30
0.0
 11
196.8191
 21
143.992927242
 31
0.0
  0
SPLINE
  5
1B6
330
1F
100
AcDbEntity
  8
0
  6
Continuous
 62
     7
370
    15
100
AcDbSpline
210
0.0
220
0.0
230
1.0
 70
     8
 71
     3
 72
    10
 73
     6
 74
     0
 42
0.00000001
 43
0.00000001
 40
0.0
 40
0.0
 40
0.0
 40
0.0
 40
0.4688817609107902
 40
0.938034409884724
 40
1.0
 40
1.0
 40
1.0
 40
1.0
 10
196.8191
 20
143.9929272420115
 30
0.0
 10
196.8352126756996
 20
143.9950194240338
 30
0.0
 10
196.8674473359094
 20
143.9992049967994
 30
0.0
 10
196.9001918305151
 20
144.017702564839
 30
0.0
 10
196.910113562221
 20
144.0333111691708
 30
0.0
 10
196.9112711311291
 20
144.0351322257776
 30
0.0
  0
SPLINE
  5
1B7
330
1F
100
AcDbEntity
  8
0
  6
Continuous
 62
     7
370
    15
100
AcDbSpline
210
0.0
220
0.0
230
1.0
 70
     8
 71
     3
 72
    12
 73
     8
 74
     0
 42
0.00000001
 43
0.00000001
 40
0.0
 40
0.0
 40
0.0
 40
0.0
 40
0.2286697549032263
 40
0.4574134284524409
 40
0.6861574263647358
 40
0.9149012395110097
 40
1.0
 40
1.0
 40
1.0
 40
1.0
 10
196.8191
 20
143.9129272420114
 30
0.0
 10
196.8436471854206
 20
143.9155008568356
 30
0.0
 10
196.8927494912628
 20
143.9206489184179
 30
0.0
 10
196.9570660451637
 20
143.9606101380811
 30
0.0
 10
197.0034828588475
 20
144.018746771481
 30
0.0
 10
197.0223609140888
 20
144.0752970653297
 30
0.0
 10
197.0237290330363
 20
144.1088337365641
 30
0.0
 10
197.0241
 20
144.1179272420115
 30
0.0
  0
LINE
  5
1B8
330
1F
100
AcDbEntity
  8
0
  6
Continuous
 62
     7
370
    15
100
AcDbLine
 10
196.8191
 20
143.912927242
 30
0.0
 11
195.0441
 21
143.912927242
 31
0.0
  0
LINE
  5
1B9
330
1F
100
AcDbEntity
  8
0
  6
Continuous
 62
     7
370
    15
100
AcDbLine
 10
195.0441
 20
143.992927242
 30
0.0
 11
195.0441
 21
143.912927242
 31
0.0
  0
LINE
  5
1BA
330
1F
100
AcDbEntity
  8
0
  6
Continuous
 62
     7
370
    15
100
AcDbLine
 10
196.8191
 20
143.992927242
 30
0.0
 11
195.0441
 21
143.992927242
 31
0.0
  0
LINE
  5
1BB
330
1F
100
AcDbEntity
  8
0
  6
Continuous
 62
     7
370
    15
100
AcDbLine
 10
196.8191
 20
210.262927242
 30
0.0
 11
196.7781
 21
210.262927242
 31
0.0
  0
LINE
  5
1BC
330
1F
100
AcDbEntity
  8
0
  6
Continuous
 62
     7
370
    15
100
AcDbLine
 10
195.6531
 20
210.262927242
 30
0.0
 11
194.6781
 21
210.262927242
 31
0.0
  0
LINE
  5
1BD
330
1F
100
AcDbEntity
  8
0
  6
Continuous
 62
     7
370
    15
100
AcDbLine
 10
192.7231
 20
210.262927242
 30
0.0
 11
192.6241
 21
210.262927242
 31
0.0
  0
LINE
  5
1BE
330
1F
100
AcDbEntity
  8
0
  6
Continuous
 62
     7
370
    15
100
AcDbLine
 10
192.6241
 20
210.262927242
 30
0.0
 11
192.6241
 21
210.182927242
 31
0.0
  0
LINE
  5
1BF
330
1F
100
AcDbEntity
  8
0
  6
Continuous
 62
     7
370
    15
100
AcDbLine
 10
195.0441
 20
210.182927242
 30
0.0
 11
192.6241
 21
210.182927242
 31
0.0
  0
ARC
  5
1C0
330
1F
100
AcDbEntity
  8
0
  6
Continuous
 62
     7
370
    15
100
AcDbCircle
 10
196.8191
 20
210.057927242
 30
0.0
 40
0.2050000000000296
100
AcDbArc
 50
37.5718693197
 51
90.0
  0
LINE
  5
1C1
330
1F
100
AcDbEntity
  8
0
  6
Continuous
 62
     7
370
    15
100
AcDbLine
 10
171.4431
 20
210.262927242
 30
0.0
 11
192.5960289322
 21
210.262927242
 31
0.0
  0
LINE
  5
1C2
330
1F
100
AcDbEntity
  8
0
  6
Continuous
 62
     7
370
    15
100
AcDbLine
 10
171.4431
 20
210.262927242
 30
0.0
 11
171.4431
 21
210.2886690468
 31
0.0
  0
LINE
  5
1C3
330
1F
100
AcDbEntity
  8
0
  6
Continuous
 62
     7
370
    15
100
AcDbLine
 10
192.5960289322
 20
210.2886690468
 30
0.0
 11
192.5960289322
 21
210.262927242
 31
0.0
  0
ARC
  5
1C4
330
1F
100
AcDbEntity
  8
0
  6
Continuous
 62
     7
370
    15
100
AcDbCircle
 10
169.3681
 20
210.507927242
 30
0.0
 40
0.2450000000000045
100
AcDbArc
 50
243.4996208416
 51
270.0
  0
LINE
  5
1C5
330
1F
100
AcDbEntity
  8
0
  6
Continuous
 62
     7
370
    15
100
AcDbLine
 10
171.3231
 20
210.262927242
 30
0.0
 11
171.3231
 21
210.2886690468
 31
0.0
  0
LINE
  5
1C6
330
1F
100
AcDbEntity
  8
0
  6
Continuous
 62
     7
370
    15
100
AcDbLine
 10
169.3681
 20
210.262927242
 30
0.0
 11
171.3231
 21
210.262927242
 31
0.0
  0
ARC
  5
1C7
330
1F
100
AcDbEntity
  8
0
  6
Continuous
 62
     7
370
    15
100
AcDbCircle
 10
194.6781
 20
210.507927242
 30
0.0
 40
0.2450000000000045
100
AcDbArc
 50
270.0
 51
296.5003791584
  0
LINE
  5
1C8
330
1F
100
AcDbEntity
  8
0
  6
Continuous
 62
     7
370
    15
100
AcDbLine
 10
192.7231
 20
210.262927242
 30
0.0
 11
192.7231
 21
210.2886690468
 31
0.0
  0
LINE
  5
1C9
330
1F
100
AcDbEntity
  8
0
  6
Continuous
 62
     7
370
    15
100
AcDbLine
 10
192.7231
 20
210.262927242
 30
0.0
 11
194.6781
 21
210.262927242
 31
0.0
  0
LINE
  5
1CA
330
1F
100
AcDbEntity
  8
0
  6
Continuous
 62
     7
370
    15
100
AcDbLine
 10
192.6031
 20
210.262927242
 30
0.0
 11
192.6031
 21
210.2886690468
 31
0.0
  0
LINE
  5
1CB
330
1F
100
AcDbEntity
  8
0
  6
Continuous
 62
     7
370
    15
100
AcDbLine
 10
192.5960289322
 20
210.262927242
 30
0.0
 11
192.6031
 21
210.262927242
 31
0.0
  0
LINE
  5
1CC
330
1F
100
AcDbEntity
  8
0
  6
Continuous
 62
     7
370
    15
100
AcDbLine
 10
169.0041
 20
210.182927242
 30
0.0
 11
167.2291
 21
210.182927242
 31
0.0
  0
LINE
  5
1CD
330
1F
100
AcDbEntity
  8
0
  6
Continuous
 62
     7
370
    15
100
AcDbLine
 10
169.0041
 20
144.0636379201
 30
0.0
 11
169.0041
 21
210.182927242
 31
0.0
  0
LINE
  5
1CE
330
1F
100
AcDbEntity
  8
0
  6
Continuous
 62
     7
370
    15
100
AcDbLine
 10
167.2291
 20
144.0636379201
 30
0.0
 11
169.0041
 21
144.0636379201
 31
0.0
  0
CIRCLE
  5
1CF
330
1F
100
AcDbEntity
  8
0
  6
Continuous
 62
     7
370
    15
100
AcDbCircle
 10
168.0241
 20
208.262927242
 30
0.0
 40
0.210000000000008
  0
CIRCLE
  5
1D0
330
1F
100
AcDbEntity
  8
0
  6
Continuous
 62
     7
370
    15
100
AcDbCircle
 10
168.0241
 20
145.912927242
 30
0.0
 40
0.2100000000000364
  0
LINE
  5
1D1
330
1F
100
AcDbEntity
  8
0
  6
Continuous
 62
     7
370
    15
100
AcDbLine
 10
167.0241
 20
210.182927242
 30
0.0
 11
167.0241
 21
210.057927242
 31
0.0
  0
LINE
  5
1D2
330
1F
100
AcDbEntity
  8
0
  6
Continuous
 62
     7
370
    15
100
AcDbLine
 10
167.0241
 20
210.182927242
 30
0.0
 11
167.2291
 21
210.182927242
 31
0.0
  0
SPLINE
  5
1D3
330
1F
100
AcDbEntity
  8
0
  6
Continuous
 62
     7
370
    15
100
AcDbSpline
210
0.0
220
0.0
230
1.0
 70
     8
 71
     3
 72
    11
 73
     7
 74
     0
 42
0.00000001
 43
0.00000001
 40
0.0
 40
0.0
 40
0.0
 40
0.0
 40
0.2499999999999986
 40
0.5000000000000027
 40
0.7499999999999998
 40
1.0
 40
1.0
 40
1.0
 40
1.0
 10
167.2290999999997
 20
144.0636379201311
 30
0.0
 10
167.2022374060194
 20
144.0681620302879
 30
0.0
 10
167.1485122180588
 20
144.0772102506015
 30
0.0
 10
167.080750505954
 20
144.0907825810718
 30
0.0
 10
167.0333444172639
 20
144.1043549115421
 30
0.0
 10
167.0271814724211
 20
144.1134031318557
 30
0.0
 10
167.0240999999997
 20
144.1179272420125
 30
0.0
  0
LINE
  5
1D4
330
1F
100
AcDbEntity
  8
0
  6
Continuous
 62
     7
370
    15
100
AcDbLine
 10
167.0241
 20
144.117927242
 30
0.0
 11
167.0241
 21
210.057927242
 31
0.0
  0
LINE
  5
1D5
330
1F
100
AcDbEntity
  8
0
  6
Continuous
 62
     7
370
    15
100
AcDbLine
 10
167.2291
 20
143.912927242
 30
0.0
 11
167.2291
 21
143.992927242
 31
0.0
  0
LINE
  5
1D6
330
1F
100
AcDbEntity
  8
0
  6
Continuous
 62
     7
370
    15
100
AcDbLine
 10
167.2291
 20
143.992927242
 30
0.0
 11
169.0041
 21
143.992927242
 31
0.0
  0
LINE
  5
1D7
330
1F
100
AcDbEntity
  8
0
  6
Continuous
 62
     7
370
    15
100
AcDbLine
 10
169.0041
 20
143.912927242
 30
0.0
 11
167.2291
 21
143.912927242
 31
0.0
  0
LINE
  5
1D8
330
1F
100
AcDbEntity
  8
0
  6
Continuous
 62
     7
370
    15
100
AcDbLine
 10
169.0041
 20
143.912927242
 30
0.0
 11
169.0041
 21
143.992927242
 31
0.0
  0
SPLINE
  5
1D9
330
1F
100
AcDbEntity
  8
0
  6
Continuous
 62
     7
370
    15
100
AcDbSpline
210
0.0
220
0.0
230
1.0
 70
     8
 71
     3
 72
    11
 73
     7
 74
     0
 42
0.00000001
 43
0.00000001
 40
0.0
 40
0.0
 40
0.0
 40
0.0
 40
0.249999999999999
 40
0.4999999999999978
 40
0.749999999999998
 40
0.9999999999999999
 40
0.9999999999999999
 40
0.9999999999999999
 40
0.9999999999999999
 10
167.0240999999997
 20
144.1179272420125
 30
0.0
 10
167.0271814724211
 20
144.0910646480322
 30
0.0
 10
167.0333444172639
 20
144.0373394600716
 30
0.0
 10
167.080750505954
 20
143.9695777479668
 30
0.0
 10
167.1485122180588
 20
143.9221716592767
 30
0.0
 10
167.2022374060194
 20
143.9160087144339
 30
0.0
 10
167.2290999999997
 20
143.9129272420125
 30
0.0
  0
SPLINE
  5
1DA
330
1F
100
AcDbEntity
  8
0
  6
Continuous
 62
     7
370
    15
100
AcDbSpline
210
0.0
220
0.0
230
1.0
 70
     8
 71
     3
 72
    11
 73
     7
 74
     0
 42
0.00000001
 43
0.00000001
 40
0.0
 40
0.0
 40
0.0
 40
0.0
 40
0.0963281961544722
 40
0.3975521307696488
 40
0.6987760653848221
 40
1.0
 40
1.0
 40
1.0
 40
1.0
 10
167.1105722444023
 20
144.0853890721243
 30
0.0
 10
167.1113785201804
 20
144.0802200787989
 30
0.0
 10
167.114706067735
 20
144.0588873393466
 30
0.0
 10
167.1392359069843
 20
144.0276695113086
 30
0.0
 10
167.1798128796851
 20
143.9985142623426
 30
0.0
 10
167.2126709598948
 20
143.9947895821225
 30
0.0
 10
167.2290999999997
 20
143.9929272420125
 30
0.0
  0
ARC
  5
1DB
330
1F
100
AcDbEntity
  8
0
  6
Continuous
 62
     7
370
    15
100
AcDbCircle
 10
167.2291
 20
210.057927242
 30
0.0
 40
0.204999999999995
100
AcDbArc
 50
90.0
 51
142.4281306803
  0
LINE
  5
1DC
330
1F
100
AcDbEntity
  8
0
  6
Continuous
 62
     7
370
    15
100
AcDbLine
 10
171.4241
 20
210.262927242
 30
0.0
 11
171.4241
 21
210.182927242
 31
0.0
  0
LINE
  5
1DD
330
1F
100
AcDbEntity
  8
0
  6
Continuous
 62
     7
370
    15
100
AcDbLine
 10
167.2291
 20
210.262927242
 30
0.0
 11
167.2661
 21
210.262927242
 31
0.0
  0
LINE
  5
1DE
330
1F
100
AcDbEntity
  8
0
  6
Continuous
 62
     7
370
    15
100
AcDbLine
 10
168.3911
 20
210.262927242
 30
0.0
 11
169.3681
 21
210.262927242
 31
0.0
  0
LINE
  5
1DF
330
1F
100
AcDbEntity
  8
0
  6
Continuous
 62
     7
370
    15
100
AcDbLine
 10
171.3231
 20
210.262927242
 30
0.0
 11
171.4241
 21
210.262927242
 31
0.0
  0
LINE
  5
1E0
330
1F
100
AcDbEntity
  8
0
  6
Continuous
 62
     7
370
    15
100
AcDbLine
 10
169.0041
 20
210.182927242
 30
0.0
 11
171.4241
 21
210.182927242
 31
0.0
  0
LINE
  5
1E1
330
1F
100
AcDbEntity
  8
0
  6
Continuous
 62
     7
370
    15
100
AcDbLine
 10
169.3191
 20
209.967927242
 30
0.0
 11
169.3191
 21
210.092927242
 31
0.0
  0
LINE
  5
1E2
330
1F
100
AcDbEntity
  8
0
  6
Continuous
 62
     7
370
    15
100
AcDbLine
 10
169.0041
 20
144.117927242
 30
0.0
 11
169.3191
 21
144.117927242
 31
0.0
  0
CIRCLE
  5
1E3
330
1F
100
AcDbEntity
  8
0
  6
Continuous
 62
     7
370
    15
100
AcDbCircle
 10
168.0241
 20
145.912927242
 30
0.0
 40
0.1649999999995941
  0
LINE
  5
1E4
330
1F
100
AcDbEntity
  8
0
  6
Continuous
 62
     7
370
    15
100
AcDbLine
 10
169.0041
 20
210.092927242
 30
0.0
 11
169.3191
 21
210.092927242
 31
0.0
  0
CIRCLE
  5
1E5
330
1F
100
AcDbEntity
  8
0
  6
Continuous
 62
     7
370
    15
100
AcDbCircle
 10
168.0241
 20
208.262927242
 30
0.0
 40
0.1649999999995941
  0
LINE
  5
1E6
330
1F
100
AcDbEntity
  8
0
  6
Continuous
 62
     7
370
    15
100
AcDbLine
 10
169.5241
 20
144.117927242
 30
0.0
 11
169.3191
 21
144.117927242
 31
0.0
  0
LINE
  5
1E7
330
1F
100
AcDbEntity
  8
0
  6
Continuous
 62
     7
370
    15
100
AcDbLine
 10
169.5241
 20
209.967927242
 30
0.0
 11
169.3191
 21
209.967927242
 31
0.0
  0
LINE
  5
1E8
330
1F
100
AcDbEntity
  8
0
  6
Continuous
 62
     7
370
    15
100
AcDbLine
 10
169.5241
 20
209.967927242
 30
0.0
 11
169.5241
 21
144.117927242
 31
0.0
  0
LINE
  5
1E9
330
1F
100
AcDbEntity
  8
0
  6
Continuous
 62
     7
370
    15
100
AcDbLine
 10
169.3191
 20
210.172927242
 30
0.0
 11
169.0041
 21
210.172927242
 31
0.0
  0
ARC
  5
1EA
330
1F
100
AcDbEntity
  8
0
  6
Continuous
 62
     7
370
    15
100
AcDbCircle
 10
169.3191
 20
209.967927242
 30
0.0
 40
0.2050000000000125
100
AcDbArc
 50
0.0
 51
90.0
  0
ARC
  5
1EB
330
1F
100
AcDbEntity
  8
0
  6
Continuous
 62
     7
370
    15
100
AcDbCircle
 10
169.3191
 20
209.967927242
 30
0.0
 40
0.125
100
AcDbArc
 50
0.0
 51
90.0
  0
ARC
  5
1EC
330
1F
100
AcDbEntity
  8
0
  6
Continuous
 62
     7
370
    15
100
AcDbCircle
 10
169.6491
 20
144.117927242
 30
0.0
 40
0.2050000000000125
100
AcDbArc
 50
180.0
 51
270.0
  0
ARC
  5
1ED
330
1F
100
AcDbEntity
  8
0
  6
Continuous
 62
     7
370
    15
100
AcDbCircle
 10
169.6491
 20
144.117927242
 30
0.0
 40
0.1250000000000284
100
AcDbArc
 50
180.0
 51
270.0
  0
LINE
  5
1EE
330
1F
100
AcDbEntity
  8
0
  6
Continuous
 62
     7
370
    15
100
AcDbLine
 10
169.6491
 20
143.992927242
 30
0.0
 11
172.5241
 21
143.992927242
 31
0.0
  0
LINE
  5
1EF
330
1F
100
AcDbEntity
  8
0
  6
Continuous
 62
     7
370
    15
100
AcDbLine
 10
172.5241
 20
143.912927242
 30
0.0
 11
169.6491
 21
143.912927242
 31
0.0
  0
LINE
  5
1F0
330
1F
100
AcDbEntity
  8
0
  6
Continuous
 62
     7
370
    15
100
AcDbLine
 10
172.5241
 20
143.912927242
 30
0.0
 11
172.5241
 21
143.992927242
 31
0.0
  0
LINE
  5
1F1
330
1F
100
AcDbEntity
  8
0
  6
Continuous
 62
     7
370
    15
100
AcDbLine
 10
169.4440674239
 20
209.9707808312
 30
0.0
 11
169.3191
 21
209.9707808312
 31
0.0
  0
LINE
  5
1F2
330
1F
100
AcDbEntity
  8
0
  6
Continuous
 62
     7
370
    15
100
AcDbLine
 10
167.8650704279
 20
145.8689432087
 30
0.0
 11
168.1831295721
 21
145.8689432087
 31
0.0
  0
LINE
  5
1F3
330
1F
100
AcDbEntity
  8
0
  6
Continuous
 62
     7
370
    15
100
AcDbLine
 10
195.0441
 20
144.007927242
 30
0.0
 11
194.9341
 21
144.007927242
 31
0.0
  0
LINE
  5
1F4
330
1F
100
AcDbEntity
  8
0
  6
Continuous
 62
     7
370
    15
100
AcDbLine
 10
174.6141
 20
144.007927242
 30
0.0
 11
173.4341
 21
144.007927242
 31
0.0
  0
LINE
  5
1F5
330
1F
100
AcDbEntity
  8
0
  6
Continuous
 62
     7
370
    15
100
AcDbLine
 10
169.1141
 20
144.007927242
 30
0.0
 11
167.9341
 21
144.007927242
 31
0.0
  0
LINE
  5
1F6
330
1F
100
AcDbEntity
  8
0
  6
Continuous
 62
     7
370
    15
100
AcDbLine
 10
190.6141
 20
144.007927242
 30
0.0
 11
189.4341
 21
144.007927242
 31
0.0
  0
LINE
  5
1F7
330
1F
100
AcDbEntity
  8
0
  6
Continuous
 62
     7
370
    15
100
AcDbLine
 10
196.5241
 20
143.637927242
 30
0.0
 11
196.5241
 21
143.362927242
 31
0.0
  0
LINE
  5
1F8
330
1F
100
AcDbEntity
  8
0
  6
Continuous
 62
     7
370
    15
100
AcDbLine
 10
195.0241
 20
141.862927242
 30
0.0
 11
196.5241
 21
143.362927242
 31
0.0
  0
LINE
  5
1F9
330
1F
100
AcDbEntity
  8
0
  6
Continuous
 62
     7
370
    15
100
AcDbLine
 10
167.5241
 20
143.362927242
 30
0.0
 11
169.0241
 21
141.862927242
 31
0.0
  0
LINE
  5
1FA
330
1F
100
AcDbEntity
  8
0
  6
Continuous
 62
     7
370
    15
100
AcDbLine
 10
167.5241
 20
143.362927242
 30
0.0
 11
167.5241
 21
143.637927242
 31
0.0
  0
LINE
  5
1FB
330
1F
100
AcDbEntity
  8
0
  6
Continuous
 62
     7
370
    15
100
AcDbLine
 10
195.0241
 20
141.862927242
 30
0.0
 11
169.0241
 21
141.862927242
 31
0.0
  0
LINE
  5
1FC
330
1F
100
AcDbEntity
  8
0
  6
Continuous
 62
     7
370
    15
100
AcDbLine
 10
196.5241
 20
143.912927242
 30
0.0
 11
196.5241
 21
143.637927242
 31
0.0
  0
LINE
  5
1FD
330
1F
100
AcDbEntity
  8
0
  6
Continuous
 62
     7
370
    15
100
AcDbLine
 10
167.5241
 20
143.637927242
 30
0.0
 11
167.5241
 21
143.912927242
 31
0.0
  0
LINE
  5
1FE
330
1F
100
AcDbEntity
  8
0
  6
Continuous
 62
     7
370
    15
100
AcDbLine
 10
169.0041
 20
143.912927242
 30
0.0
 11
169.6491
 21
143.912927242
 31
0.0
  0
LINE
  5
1FF
330
1F
100
AcDbEntity
  8
0
  6
Continuous
 62
     7
370
    15
100
AcDbLine
 10
172.5241
 20
143.912927242
 30
0.0
 11
191.5241
 21
143.912927242
 31
0.0
  0
LINE
  5
200
330
1F
100
AcDbEntity
  8
0
  6
Continuous
 62
     7
370
    15
100
AcDbLine
 10
194.3991
 20
143.912927242
 30
0.0
 11
195.0441
 21
143.912927242
 31
0.0
  0
LINE
  5
201
330
1F
100
AcDbEntity
  8
0
  6
Continuous
 62
     7
370
    15
100
AcDbLine
 10
196.5241
 20
143.992927242
 30
0.0
 11
196.5241
 21
143.9999983098
 31
0.0
  0
LINE
  5
202
330
1F
100
AcDbEntity
  8
0
  6
Continuous
 62
     7
370
    15
100
AcDbLine
 10
167.5241
 20
144.037927242
 30
0.0
 11
167.5241
 21
143.992927242
 31
0.0
  0
LINE
  5
203
330
1F
100
AcDbEntity
  8
0
  6
Continuous
 62
     7
370
    15
100
AcDbLine
 10
167.8928559525
 20
145.812927242
 30
0.0
 11
168.1553440475
 21
145.812927242
 31
0.0
  0
LINE
  5
204
330
1F
100
AcDbEntity
  8
0
  6
Continuous
 62
     7
370
    15
100
AcDbLine
 10
169.5241
 20
145.812927242
 30
0.0
 11
169.8191
 21
145.812927242
 31
0.0
  0
LINE
  5
205
330
1F
100
AcDbEntity
  8
0
  6
Continuous
 62
     7
370
    15
100
AcDbLine
 10
194.2291
 20
145.812927242
 30
0.0
 11
194.5241
 21
145.812927242
 31
0.0
  0
LINE
  5
206
330
1F
100
AcDbEntity
  8
0
  6
Continuous
 62
     7
370
    15
100
AcDbLine
 10
195.8928559525
 20
145.812927242
 30
0.0
 11
196.1553440475
 21
145.812927242
 31
0.0
  0
LINE
  5
207
330
1F
100
AcDbEntity
  8
0
  6
Continuous
 62
     7
370
    15
100
AcDbLine
 10
167.5241
 20
144.037927242
 30
0.0
 11
167.5241
 21
144.0636379201
 31
0.0
  0
ENDSEC
  0
SECTION
  2
OBJECTS
  0
DICTIONARY
  5
C
330
0
100
AcDbDictionary
281
     1
  3
ACAD_GROUP
350
D
  3
ACAD_LAYOUT
350
1A
  3
ACAD_MLINESTYLE
350
17
  3
ACAD_PLOTSETTINGS
350
19
  3
ACAD_PLOTSTYLENAME
350
E
  0
DICTIONARY
  5
D
102
{ACAD_REACTORS
330
C
102
}
330
C
100
AcDbDictionary
281
     1
  0
DICTIONARY
  5
1A
102
{ACAD_REACTORS
330
C
102
}
330
C
100
AcDbDictionary
281
     1
  3
Layout1
350
1E
  3
Layout2
350
26
  3
Model
350
22
  0
DICTIONARY
  5
17
102
{ACAD_REACTORS
330
C
102
}
330
C
100
AcDbDictionary
281
     1
  3
Standard
350
18
  0
DICTIONARY
  5
19
102
{ACAD_REACTORS
330
C
102
}
330
C
100
AcDbDictionary
281
     1
  0
ACDBDICTIONARYWDFLT
  5
E
102
{ACAD_REACTORS
330
C
102
}
330
C
100
AcDbDictionary
281
     1
  3
Normal
350
F
100
AcDbDictionaryWithDefault
340
F
  0
LAYOUT
  5
1E
102
{ACAD_REACTORS
330
1A
102
}
330
1A
100
AcDbPlotSettings
  1

  2
none_device
  4

  6

 40
0.0
 41
0.0
 42
0.0
 43
0.0
 44
0.0
 45
0.0
 46
0.0
 47
0.0
 48
0.0
 49
0.0
140
0.0
141
0.0
142
1.0
143
1.0
 70
   688
 72
     0
 73
     0
 74
     5
  7

 75
    16
147
1.0
148
0.0
149
0.0
100
AcDbLayout
  1
Layout1
 70
     1
 71
     1
 10
0.0
 20
0.0
 11
420.0
 21
297.0
 12
0.0
 22
0.0
 32
0.0
 14
1.0000000000E+20
 24
1.0000000000E+20
 34
1.0000000000E+20
 15
-1.0000000000E+20
 25
-1.0000000000E+20
 35
-1.0000000000E+20
146
0.0
 13
0.0
 23
0.0
 33
0.0
 16
1.0
 26
0.0
 36
0.0
 17
0.0
 27
1.0
 37
0.0
 76
     0
330
1B
  0
LAYOUT
  5
26
102
{ACAD_REACTORS
330
1A
102
}
330
1A
100
AcDbPlotSettings
  1

  2
none_device
  4

  6

 40
0.0
 41
0.0
 42
0.0
 43
0.0
 44
0.0
 45
0.0
 46
0.0
 47
0.0
 48
0.0
 49
0.0
140
0.0
141
0.0
142
1.0
143
1.0
 70
   688
 72
     0
 73
     0
 74
     5
  7

 75
    16
147
1.0
148
0.0
149
0.0
100
AcDbLayout
  1
Layout2
 70
     1
 71
     2
 10
0.0
 20
0.0
 11
0.0
 21
0.0
 12
0.0
 22
0.0
 32
0.0
 14
0.0
 24
0.0
 34
0.0
 15
0.0
 25
0.0
 35
0.0
146
0.0
 13
0.0
 23
0.0
 33
0.0
 16
1.0
 26
0.0
 36
0.0
 17
0.0
 27
1.0
 37
0.0
 76
     0
330
23
  0
LAYOUT
  5
22
102
{ACAD_REACTORS
330
1A
102
}
330
1A
100
AcDbPlotSettings
  1

  2
none_device
  4

  6

 40
0.0
 41
0.0
 42
0.0
 43
0.0
 44
0.0
 45
0.0
 46
0.0
 47
0.0
 48
0.0
 49
0.0
140
0.0
141
0.0
142
1.0
143
1.0
 70
  1712
 72
     0
 73
     0
 74
     0
  7

 75
     0
147
1.0
148
0.0
149
0.0
100
AcDbLayout
  1
Model
 70
     1
 71
     0
 10
0.0
 20
0.0
 11
420.0
 21
297.0
 12
0.0
 22
0.0
 32
0.0
 14
0.0
 24
0.0
 34
0.0
 15
420.0
 25
297.0
 35
0.0
146
0.0
 13
0.0
 23
0.0
 33
0.0
 16
1.0
 26
0.0
 36
0.0
 17
0.0
 27
1.0
 37
0.0
 76
     0
330
1F
331
29
  0
MLINESTYLE
  5
18
102
{ACAD_REACTORS
330
17
102
}
330
17
100
AcDbMlineStyle
  2
Standard
 70
     0
  3

 62
   256
 51
90.0
 52
90.0
 71
     2
 49
0.5
 62
   256
  6
BYLAYER
 49
-0.5
 62
   256
  6
BYLAYER
  0
ACDBPLACEHOLDER
  5
F
102
{ACAD_REACTORS
330
E
102
}
330
E
  0
ENDSEC
  0
EOF
