  0
SECTION
  2
HEADER
  9
$ACADVER
  1
AC1015
  9
$ACADMAINTVER
 70
     6
  9
$DWGCODEPAGE
  3
ANSI_1252
  9
$INSBASE
 10
0.0
 20
0.0
 30
0.0
  9
$EXTMIN
 10
0.0
 20
0.0
 30
0.0
  9
$EXTMAX
 10
420.0
 20
297.0
 30
0.0
  9
$LIMMIN
 10
0.0
 20
0.0
  9
$LIMMAX
 10
420.0
 20
297.0
  9
$ORTHOMODE
 70
     0
  9
$REGENMODE
 70
     1
  9
$FILLMODE
 70
     1
  9
$QTEXTMODE
 70
     0
  9
$MIRRTEXT
 70
     1
  9
$LTSCALE
 40
1.0
  9
$ATTMODE
 70
     1
  9
$TEXTSIZE
 40
3.5
  9
$TRACEWID
 40
1.0
  9
$TEXTSTYLE
  7
Standard
  9
$CLAYER
  8
0
  9
$CELTYPE
  6
ByLayer
  9
$CECOLOR
 62
   256
  9
$CELTSCALE
 40
1.0
  9
$DISPSILH
 70
     0
  9
$DIMSCALE
 40
1.0
  9
$DIMASZ
 40
3.302
  9
$DIMEXO
 40
1.0
  9
$DIMDLI
 40
3.75
  9
$DIMRND
 40
0.0
  9
$DIMDLE
 40
0.0
  9
$DIMEXE
 40
1.0
  9
$DIMTP
 40
0.0
  9
$DIMTM
 40
0.0
  9
$DIMTXT
 40
3.5
  9
$DIMCEN
 40
2.5
  9
$DIMTSZ
 40
0.0
  9
$DIMTOL
 70
     0
  9
$DIMLIM
 70
     0
  9
$DIMTIH
 70
     1
  9
$DIMTOH
 70
     1
  9
$DIMSE1
 70
     0
  9
$DIMSE2
 70
     0
  9
$DIMTAD
 70
     1
  9
$DIMZIN
 70
     0
  9
$DIMBLK
  1

  9
$DIMASO
 70
     1
  9
$DIMSHO
 70
     1
  9
$DIMPOST
  1

  9
$DIMAPOST
  1

  9
$DIMALT
 70
     0
  9
$DIMALTD
 70
     3
  9
$DIMALTF
 40
0.0393700787
  9
$DIMLFAC
 40
10.0
  9
$DIMTOFL
 70
     1
  9
$DIMTVP
 40
0.0
  9
$DIMTIX
 70
     0
  9
$DIMSOXD
 70
     0
  9
$DIMSAH
 70
     0
  9
$DIMBLK1
  1

  9
$DIMBLK2
  1

  9
$DIMSTYLE
  2
ISO-25
  9
$DIMCLRD
 70
     0
  9
$DIMCLRE
 70
     0
  9
$DIMCLRT
 70
     0
  9
$DIMTFAC
 40
1.0
  9
$DIMGAP
 40
1.524
  9
$DIMJUST
 70
     0
  9
$DIMSD1
 70
     0
  9
$DIMSD2
 70
     0
  9
$DIMTOLJ
 70
     0
  9
$DIMTZIN
 70
     0
  9
$DIMALTZ
 70
     0
  9
$DIMALTTZ
 70
     0
  9
$DIMUPT
 70
     0
  9
$DIMDEC
 70
     3
  9
$DIMTDEC
 70
     3
  9
$DIMALTU
 70
     2
  9
$DIMALTTD
 70
     3
  9
$DIMTXSTY
  7
Standard
  9
$DIMAUNIT
 70
     0
  9
$DIMADEC
 70
     2
  9
$DIMALTRND
 40
0.0
  9
$DIMAZIN
 70
     0
  9
$DIMDSEP
 70
    44
  9
$DIMATFIT
 70
     3
  9
$DIMFRAC
 70
     0
  9
$DIMLDRBLK
  1

  9
$DIMLUNIT
 70
     2
  9
$DIMLWD
 70
    -2
  9
$DIMLWE
 70
    -2
  9
$DIMTMOVE
 70
     0
  9
$LUNITS
 70
     2
  9
$LUPREC
 70
     8
  9
$SKETCHINC
 40
1.0
  9
$FILLETRAD
 40
10.0
  9
$AUNITS
 70
     0
  9
$AUPREC
 70
     8
  9
$MENU
  1
.
  9
$ELEVATION
 40
0.0
  9
$PELEVATION
 40
0.0
  9
$THICKNESS
 40
0.0
  9
$LIMCHECK
 70
     0
  9
$CHAMFERA
 40
10.0
  9
$CHAMFERB
 40
10.0
  9
$CHAMFERC
 40
20.0
  9
$CHAMFERD
 40
0.0
  9
$SKPOLY
 70
     0
  9
$TDCREATE
 40
2455855.521358599
  9
$TDUCREATE
 40
2455855.479691933
  9
$TDUPDATE
 40
2455855.521358611
  9
$TDUUPDATE
 40
2455855.479691945
  9
$TDINDWG
 40
0.0000000116
  9
$TDUSRTIMER
 40
0.0000000116
  9
$USRTIMER
 70
     1
  9
$ANGBASE
 50
0.0
  9
$ANGDIR
 70
     0
  9
$PDMODE
 70
     0
  9
$PDSIZE
 40
-1.0
  9
$PLINEWID
 40
0.0
  9
$SPLFRAME
 70
     0
  9
$SPLINETYPE
 70
     6
  9
$SPLINESEGS
 70
     8
  9
$HANDSEED
  5
17C
  9
$SURFTAB1
 70
     6
  9
$SURFTAB2
 70
     6
  9
$SURFTYPE
 70
     6
  9
$SURFU
 70
     6
  9
$SURFV
 70
     6
  9
$UCSBASE
  2

  9
$UCSNAME
  2

  9
$UCSORG
 10
0.0
 20
0.0
 30
0.0
  9
$UCSXDIR
 10
1.0
 20
0.0
 30
0.0
  9
$UCSYDIR
 10
0.0
 20
1.0
 30
0.0
  9
$UCSORTHOREF
  2

  9
$UCSORTHOVIEW
 70
     0
  9
$UCSORGTOP
 10
0.0
 20
0.0
 30
0.0
  9
$UCSORGBOTTOM
 10
0.0
 20
0.0
 30
0.0
  9
$UCSORGLEFT
 10
0.0
 20
0.0
 30
0.0
  9
$UCSORGRIGHT
 10
0.0
 20
0.0
 30
0.0
  9
$UCSORGFRONT
 10
0.0
 20
0.0
 30
0.0
  9
$UCSORGBACK
 10
0.0
 20
0.0
 30
0.0
  9
$PUCSBASE
  2

  9
$PUCSNAME
  2

  9
$PUCSORG
 10
0.0
 20
0.0
 30
0.0
  9
$PUCSXDIR
 10
1.0
 20
0.0
 30
0.0
  9
$PUCSYDIR
 10
0.0
 20
1.0
 30
0.0
  9
$PUCSORTHOREF
  2

  9
$PUCSORTHOVIEW
 70
     0
  9
$PUCSORGTOP
 10
0.0
 20
0.0
 30
0.0
  9
$PUCSORGBOTTOM
 10
0.0
 20
0.0
 30
0.0
  9
$PUCSORGLEFT
 10
0.0
 20
0.0
 30
0.0
  9
$PUCSORGRIGHT
 10
0.0
 20
0.0
 30
0.0
  9
$PUCSORGFRONT
 10
0.0
 20
0.0
 30
0.0
  9
$PUCSORGBACK
 10
0.0
 20
0.0
 30
0.0
  9
$USERI1
 70
     0
  9
$USERI2
 70
     0
  9
$USERI3
 70
     0
  9
$USERI4
 70
     0
  9
$USERI5
 70
     0
  9
$USERR1
 40
0.0
  9
$USERR2
 40
0.0
  9
$USERR3
 40
0.0
  9
$USERR4
 40
0.0
  9
$USERR5
 40
0.0
  9
$WORLDVIEW
 70
     1
  9
$SHADEDGE
 70
     3
  9
$SHADEDIF
 70
    70
  9
$TILEMODE
 70
     1
  9
$MAXACTVP
 70
    64
  9
$PINSBASE
 10
0.0
 20
0.0
 30
0.0
  9
$PLIMCHECK
 70
     0
  9
$PEXTMIN
 10
1.0000000000E+20
 20
1.0000000000E+20
 30
1.0000000000E+20
  9
$PEXTMAX
 10
-1.0000000000E+20
 20
-1.0000000000E+20
 30
-1.0000000000E+20
  9
$PLIMMIN
 10
0.0
 20
0.0
  9
$PLIMMAX
 10
420.0
 20
297.0
  9
$UNITMODE
 70
     0
  9
$VISRETAIN
 70
     1
  9
$PLINEGEN
 70
     0
  9
$PSLTSCALE
 70
     1
  9
$TREEDEPTH
 70
  3020
  9
$CMLSTYLE
  2
Standard
  9
$CMLJUST
 70
     0
  9
$CMLSCALE
 40
20.0
  9
$PROXYGRAPHICS
 70
     1
  9
$MEASUREMENT
 70
     1
  9
$CELWEIGHT
370
    -1
  9
$ENDCAPS
280
     0
  9
$JOINSTYLE
280
     0
  9
$LWDISPLAY
290
     1
  9
$INSUNITS
 70
     4
  9
$HYPERLINKBASE
  1

  9
$STYLESHEET
  1

  9
$XEDIT
290
     1
  9
$CEPSNTYPE
380
     0
  9
$PSTYLEMODE
290
     1
  9
$FINGERPRINTGUID
  2
{AF6488D1-E545-43E1-B6E8-E243067DB8D9}
  9
$VERSIONGUID
  2
{FAEB1C32-E019-11D5-929B-00C0DF256EC4}
  9
$EXTNAMES
290
     1
  9
$PSVPSCALE
 40
0.0
  9
$OLESTARTUP
290
     0
  0
ENDSEC
  0
SECTION
  2
CLASSES
  0
CLASS
  1
ACDBDICTIONARYWDFLT
  2
AcDbDictionaryWithDefault
  3
ObjectDBX Classes
 90
        0
280
     0
281
     0
  0
CLASS
  1
VISUALSTYLE
  2
AcDbVisualStyle
  3
ObjectDBX Classes
 90
     4095
280
     0
281
     0
  0
CLASS
  1
MATERIAL
  2
AcDbMaterial
  3
ObjectDBX Classes
 90
     1153
280
     0
281
     0
  0
CLASS
  1
ACDBPLACEHOLDER
  2
AcDbPlaceHolder
  3
ObjectDBX Classes
 90
        0
280
     0
281
     0
  0
CLASS
  1
LAYOUT
  2
AcDbLayout
  3
ObjectDBX Classes
 90
        0
280
     0
281
     0
  0
ENDSEC
  0
SECTION
  2
TABLES
  0
TABLE
  2
VPORT
  5
8
330
0
100
AcDbSymbolTable
 70
     1
  0
VPORT
  5
29
330
8
100
AcDbSymbolTableRecord
100
AcDbViewportTableRecord
  2
*Active
 70
     0
 10
0.0
 20
0.0
 11
1.0
 21
1.0
 12
210.0
 22
148.5
 13
0.0
 23
0.0
 14
10.0
 24
10.0
 15
10.0
 25
10.0
 16
0.0
 26
0.0
 36
1.0
 17
0.0
 27
0.0
 37
0.0
 40
297.0
 41
1.4141414141
 42
50.0
 43
0.0
 44
0.0
 50
0.0
 51
0.0
 71
     0
 72
  2000
 73
     1
 74
     3
 75
     0
 76
     0
 77
     0
 78
     0
281
     0
 65
     1
110
0.0
120
0.0
130
0.0
111
1.0
121
0.0
131
0.0
112
0.0
122
1.0
132
0.0
 79
     0
146
0.0
  0
ENDTAB
  0
TABLE
  2
LTYPE
  5
5
330
0
100
AcDbSymbolTable
 70
     6
  0
LTYPE
  5
14
330
5
100
AcDbSymbolTableRecord
100
AcDbLinetypeTableRecord
  2
ByBlock
 70
     0
  3

 72
    65
 73
     0
 40
0.0
  0
LTYPE
  5
15
330
5
100
AcDbSymbolTableRecord
100
AcDbLinetypeTableRecord
  2
ByLayer
 70
     0
  3

 72
    65
 73
     0
 40
0.0
  0
LTYPE
  5
16
330
5
100
AcDbSymbolTableRecord
100
AcDbLinetypeTableRecord
  2
Continuous
 70
     0
  3
Solid line
 72
    65
 73
     0
 40
0.0
  0
LTYPE
  5
3F
330
5
100
AcDbSymbolTableRecord
100
AcDbLinetypeTableRecord
  2
HIDDEN
 70
     0
  3
Hidden __ __ __ __ __ __ __ __ __ __ __ __ __ __
 72
    65
 73
     2
 40
1.905
 49
1.27
 74
     0
 49
-0.635
 74
     0
  0
LTYPE
  5
40
330
5
100
AcDbSymbolTableRecord
100
AcDbLinetypeTableRecord
  2
PHANTOM
 70
     0
  3
Phantom ______  __  __  ______  __  __  ______
 72
    65
 73
     6
 40
12.7
 49
6.35
 74
     0
 49
-1.27
 74
     0
 49
1.27
 74
     0
 49
-1.27
 74
     0
 49
1.27
 74
     0
 49
-1.27
 74
     0
  0
LTYPE
  5
41
330
5
100
AcDbSymbolTableRecord
100
AcDbLinetypeTableRecord
  2
CENTER
 70
     0
  3
Center ____ _ ____ _ ____ _ ____ _ ____ _ ____
 72
    65
 73
     4
 40
10.16
 49
6.35
 74
     0
 49
-1.27
 74
     0
 49
1.27
 74
     0
 49
-1.27
 74
     0
  0
LTYPE
  5
42
330
5
100
AcDbSymbolTableRecord
100
AcDbLinetypeTableRecord
  2
CENTERX2
 70
     0
  3
Center (2x) ________  __  ________  __  _____
 72
    65
 73
     4
 40
20.32
 49
12.7
 74
     0
 49
-2.54
 74
     0
 49
2.54
 74
     0
 49
-2.54
 74
     0
  0
LTYPE
  5
43
330
5
100
AcDbSymbolTableRecord
100
AcDbLinetypeTableRecord
  2
DOT2
 70
     0
  3
Dot (.5x) ........................................
 72
    65
 73
     2
 40
0.635
 49
0.0
 74
     0
 49
-0.635
 74
     0
  0
ENDTAB
  0
TABLE
  2
LAYER
  5
2
330
0
100
AcDbSymbolTable
 70
     4
  0
LAYER
  5
10
330
2
100
AcDbSymbolTableRecord
100
AcDbLayerTableRecord
  2
0
 70
     0
 62
     7
  6
Continuous
370
    -3
390
F
  0
LAYER
  5
44
330
2
100
AcDbSymbolTableRecord
100
AcDbLayerTableRecord
  2
FORMAT
 70
     0
 62
     7
  6
Continuous
370
    -3
390
F
  0
LAYER
  5
45
330
2
100
AcDbSymbolTableRecord
100
AcDbLayerTableRecord
  2
SLD-0
 70
     0
 62
     1
  6
Continuous
370
    -3
390
F
  0
LAYER
  5
46
330
2
100
AcDbSymbolTableRecord
100
AcDbLayerTableRecord
  2
WATERMARK
 70
     0
 62
    20
  6
Continuous
370
    -3
390
F
  0
ENDTAB
  0
TABLE
  2
STYLE
  5
3
330
0
100
AcDbSymbolTable
 70
     1
  0
STYLE
  5
11
330
3
100
AcDbSymbolTableRecord
100
AcDbTextStyleTableRecord
  2
Standard
 70
     0
 40
0.0
 41
1.0
 50
0.0
 71
     0
 42
2.5
  3
txt
  4

  0
ENDTAB
  0
TABLE
  2
VIEW
  5
6
330
0
100
AcDbSymbolTable
 70
     0
  0
ENDTAB
  0
TABLE
  2
UCS
  5
7
330
0
100
AcDbSymbolTable
 70
     0
  0
ENDTAB
  0
TABLE
  2
APPID
  5
9
330
0
100
AcDbSymbolTable
 70
     1
  0
APPID
  5
12
330
9
100
AcDbSymbolTableRecord
100
AcDbRegAppTableRecord
  2
ACAD
 70
     0
  0
ENDTAB
  0
TABLE
  2
DIMSTYLE
  5
A
330
0
100
AcDbSymbolTable
 70
     1
100
AcDbDimStyleTable
  0
DIMSTYLE
105
27
330
A
100
AcDbSymbolTableRecord
100
AcDbDimStyleTableRecord
  2
ISO-25
 70
     0
 41
2.5
 42
0.625
 43
3.75
 44
1.25
 73
     0
 74
     0
 77
     1
 78
     8
140
2.5
141
2.5
143
0.0393700787
147
0.625
171
     3
172
     1
178
     0
271
     2
272
     2
274
     3
278
    44
283
     0
284
     8
340
11
  0
ENDTAB
  0
TABLE
  2
BLOCK_RECORD
  5
1
330
0
100
AcDbSymbolTable
 70
     1
  0
BLOCK_RECORD
  5
1F
330
1
100
AcDbSymbolTableRecord
100
AcDbBlockTableRecord
  2
*Model_Space
340
22
  0
BLOCK_RECORD
  5
1B
330
1
100
AcDbSymbolTableRecord
100
AcDbBlockTableRecord
  2
*Paper_Space
340
1E
  0
BLOCK_RECORD
  5
23
330
1
100
AcDbSymbolTableRecord
100
AcDbBlockTableRecord
  2
*Paper_Space0
340
26
  0
ENDTAB
  0
ENDSEC
  0
SECTION
  2
BLOCKS
  0
BLOCK
  5
20
330
1F
100
AcDbEntity
  8
0
100
AcDbBlockBegin
  2
*Model_Space
 70
     0
 10
0.0
 20
0.0
 30
0.0
  3
*Model_Space
  1

  0
ENDBLK
  5
21
330
1F
100
AcDbEntity
  8
0
100
AcDbBlockEnd
  0
BLOCK
  5
1C
330
1B
100
AcDbEntity
 67
     1
  8
0
100
AcDbBlockBegin
  2
*Paper_Space
 70
     0
 10
0.0
 20
0.0
 30
0.0
  3
*Paper_Space
  1

  0
ENDBLK
  5
1D
330
1B
100
AcDbEntity
 67
     1
  8
0
100
AcDbBlockEnd
  0
BLOCK
  5
24
330
23
100
AcDbEntity
  8
0
100
AcDbBlockBegin
  2
*Paper_Space0
 70
     0
 10
0.0
 20
0.0
 30
0.0
  3
*Paper_Space0
  1

  0
ENDBLK
  5
25
330
23
100
AcDbEntity
  8
0
100
AcDbBlockEnd
  0
ENDSEC
  0
SECTION
  2
ENTITIES
  0
LINE
  5
47
330
1F
100
AcDbEntity
  8
0
  6
Continuous
 62
     7
370
    15
100
AcDbLine
 10
207.473209733
 20
197.355127242
 30
0.0
 11
207.488209733
 21
197.355127242
 31
0.0
  0
SPLINE
  5
48
330
1F
100
AcDbEntity
  8
0
  6
Continuous
 62
     7
370
    15
100
AcDbSpline
210
0.0
220
0.0
230
1.0
 70
     8
 71
     3
 72
    13
 73
     9
 74
     0
 42
0.00000001
 43
0.00000001
 40
0.0
 40
0.0
 40
0.0
 40
0.0
 40
0.1537005146056054
 40
0.4677837651292916
 40
0.6522647620243519
 40
0.8142558356570473
 40
0.981788083886752
 40
1.0
 40
1.0
 40
1.0
 40
1.0
 10
201.1929711392254
 20
127.7463325678448
 30
0.0
 10
201.1930075332389
 20
127.7456246960821
 30
0.0
 10
201.1931182975308
 20
127.7434703056482
 30
0.0
 10
201.1908915846621
 20
127.7394115428291
 30
0.0
 10
201.1846778402984
 20
127.7346012008999
 30
0.0
 10
201.1775308269534
 20
127.7318400477458
 30
0.0
 10
201.171659695675
 20
127.7307229916903
 30
0.0
 10
201.1685452507845
 20
127.7309108766132
 30
0.0
 10
201.1682398844798
 20
127.7309292984272
 30
0.0
  0
LINE
  5
49
330
1F
100
AcDbEntity
  8
0
  6
Continuous
 62
     7
370
    15
100
AcDbLine
 10
201.168209733
 20
127.7308654525
 30
0.0
 11
200.658209733
 21
127.7308654525
 31
0.0
  0
ARC
  5
4A
330
1F
100
AcDbEntity
  8
0
  6
Continuous
 62
     7
370
    15
100
AcDbCircle
 10
200.658209733
 20
127.7058654525
 30
0.0
 40
0.0250000000000057
100
AcDbArc
 50
90.0
 51
180.0
  0
ARC
  5
4B
330
1F
100
AcDbEntity
  8
0
  6
Continuous
 62
     7
370
    15
100
AcDbCircle
 10
200.658209733
 20
127.262083331
 30
0.0
 40
0.0250000000000199
100
AcDbArc
 50
180.0
 51
270.0
  0
LINE
  5
4C
330
1F
100
AcDbEntity
  8
0
  6
Continuous
 62
     7
370
    15
100
AcDbLine
 10
200.658209733
 20
127.237083331
 30
0.0
 11
201.168209733
 21
127.237083331
 31
0.0
  0
ARC
  5
4D
330
1F
100
AcDbEntity
  8
0
  6
Continuous
 62
     7
370
    15
100
AcDbCircle
 10
201.288209733
 20
127.335127242
 30
0.0
 40
0.0250000000000105
100
AcDbArc
 50
301.0756875733
 51
0.0
  0
LINE
  5
4E
330
1F
100
AcDbEntity
  8
0
  6
Continuous
 62
     7
370
    15
100
AcDbLine
 10
201.168209733
 20
129.123171153
 30
0.0
 11
200.658209733
 21
129.123171153
 31
0.0
  0
ARC
  5
4F
330
1F
100
AcDbEntity
  8
0
  6
Continuous
 62
     7
370
    15
100
AcDbCircle
 10
200.658209733
 20
129.098171153
 30
0.0
 40
0.0250000000000057
100
AcDbArc
 50
90.0
 51
180.0
  0
SPLINE
  5
50
330
1F
100
AcDbEntity
  8
0
  6
Continuous
 62
     7
370
    15
100
AcDbSpline
210
0.0
220
0.0
230
1.0
 70
     8
 71
     3
 72
    13
 73
     9
 74
     0
 42
0.00000001
 43
0.00000001
 40
0.0
 40
0.0
 40
0.0
 40
0.0
 40
0.1560186113415178
 40
0.4086735129027829
 40
0.5953335874232003
 40
0.7561090603056916
 40
0.9249103809600331
 40
1.0
 40
1.0
 40
1.0
 40
1.0
 10
201.1933143383642
 20
128.5357319076644
 30
0.0
 10
201.1932886942824
 20
128.5359537345645
 30
0.0
 10
201.1932215224435
 20
128.5365347856181
 30
0.0
 10
201.1942574067041
 20
128.5388398367838
 30
0.0
 10
201.1988294544163
 20
128.5428154871403
 30
0.0
 10
201.205606902253
 20
128.5458692471888
 30
0.0
 10
201.212492438318
 20
128.547528962088
 30
0.0
 10
201.2168638304806
 20
128.5474143315278
 30
0.0
 10
201.2182097032406
 20
128.547379038847
 30
0.0
  0
ARC
  5
51
330
1F
100
AcDbEntity
  8
0
  6
Continuous
 62
     7
370
    15
100
AcDbCircle
 10
201.728209733
 20
128.5725681756
 30
0.0
 40
0.0250000000000057
100
AcDbArc
 50
270.0
 51
0.0
  0
LINE
  5
52
330
1F
100
AcDbEntity
  8
0
  6
Continuous
 62
     7
370
    15
100
AcDbLine
 10
201.218209733
 20
128.5475681756
 30
0.0
 11
201.728209733
 21
128.5475681756
 31
0.0
  0
ARC
  5
53
330
1F
100
AcDbEntity
  8
0
  6
Continuous
 62
     7
370
    15
100
AcDbCircle
 10
201.728209733
 20
129.0551848728
 30
0.0
 40
0.0249999999999773
100
AcDbArc
 50
0.0
 51
90.0
  0
LINE
  5
54
330
1F
100
AcDbEntity
  8
0
  6
Continuous
 62
     7
370
    15
100
AcDbLine
 10
201.728209733
 20
129.0801848728
 30
0.0
 11
201.218209733
 21
129.0801848728
 31
0.0
  0
ARC
  5
55
330
1F
100
AcDbEntity
  8
0
  6
Continuous
 62
     7
370
    15
100
AcDbCircle
 10
201.098209733
 20
129.025127242
 30
0.0
 40
0.0250000000000057
100
AcDbArc
 50
90.0
 51
180.0
  0
LINE
  5
56
330
1F
100
AcDbEntity
  8
0
  6
Continuous
 62
     7
370
    15
100
AcDbLine
 10
201.1245317742
 20
129.050127242
 30
0.0
 11
201.098209733
 21
129.050127242
 31
0.0
  0
LINE
  5
57
330
1F
100
AcDbEntity
  8
0
  6
Continuous
 62
     7
370
    15
100
AcDbLine
 10
201.2753618346
 20
127.2800696112
 30
0.0
 11
201.728209733
 21
127.2800696112
 31
0.0
  0
ARC
  5
58
330
1F
100
AcDbEntity
  8
0
  6
Continuous
 62
     7
370
    15
100
AcDbCircle
 10
201.728209733
 20
127.3050696112
 30
0.0
 40
0.0250000000000199
100
AcDbArc
 50
270.0
 51
0.0
  0
LINE
  5
59
330
1F
100
AcDbEntity
  8
0
  6
Continuous
 62
     7
370
    15
100
AcDbLine
 10
201.858209733
 20
127.680127242
 30
0.0
 11
201.8778454263
 21
127.6461172234
 31
0.0
  0
LINE
  5
5A
330
1F
100
AcDbEntity
  8
0
  6
Continuous
 62
     7
370
    15
100
AcDbLine
 10
201.8778454263
 20
128.7141372606
 30
0.0
 11
201.858209733
 21
128.680127242
 31
0.0
  0
LINE
  5
5B
330
1F
100
AcDbEntity
  8
0
  6
Continuous
 62
     7
370
    15
100
AcDbLine
 10
201.833209733
 20
128.680127242
 30
0.0
 11
201.8243891213
 21
128.6954049896
 31
0.0
  0
LINE
  5
5C
330
1F
100
AcDbEntity
  8
0
  6
Continuous
 62
     7
370
    15
100
AcDbLine
 10
201.8243891213
 20
127.6648494944
 30
0.0
 11
201.833209733
 21
127.680127242
 31
0.0
  0
LINE
  5
5D
330
1F
100
AcDbEntity
  8
0
  6
Continuous
 62
     7
370
    15
100
AcDbLine
 10
201.313209733
 20
127.680127242
 30
0.0
 11
201.3220303446
 21
127.6648494944
 31
0.0
  0
LINE
  5
5E
330
1F
100
AcDbEntity
  8
0
  6
Continuous
 62
     7
370
    15
100
AcDbLine
 10
201.858209733
 20
128.480127242
 30
0.0
 11
201.833209733
 21
128.480127242
 31
0.0
  0
LINE
  5
5F
330
1F
100
AcDbEntity
  8
0
  6
Continuous
 62
     7
370
    15
100
AcDbLine
 10
201.833209733
 20
127.880127242
 30
0.0
 11
201.858209733
 21
127.880127242
 31
0.0
  0
ARC
  5
60
330
1F
100
AcDbEntity
  8
0
  6
Continuous
 62
     7
370
    15
100
AcDbCircle
 10
271.133209733
 20
108.430127242
 30
0.0
 40
0.2000000000000171
100
AcDbArc
 50
270.0
 51
0.0
  0
ARC
  5
61
330
1F
100
AcDbEntity
  8
0
  6
Continuous
 62
     7
370
    15
100
AcDbCircle
 10
265.833209733
 20
108.430127242
 30
0.0
 40
0.2000000000000171
100
AcDbArc
 50
180.0
 51
270.0
  0
LINE
  5
62
330
1F
100
AcDbEntity
  8
0
  6
Continuous
 62
     7
370
    15
100
AcDbLine
 10
271.333209733
 20
108.430127242
 30
0.0
 11
271.333209733
 21
108.830127242
 31
0.0
  0
LINE
  5
63
330
1F
100
AcDbEntity
  8
0
  6
Continuous
 62
     7
370
    15
100
AcDbLine
 10
265.633209733
 20
108.830127242
 30
0.0
 11
265.633209733
 21
108.430127242
 31
0.0
  0
ARC
  5
64
330
1F
100
AcDbEntity
  8
0
  6
Continuous
 62
     7
370
    15
100
AcDbCircle
 10
212.233209733
 20
108.430127242
 30
0.0
 40
0.2000000000000171
100
AcDbArc
 50
270.0
 51
0.0
  0
ARC
  5
65
330
1F
100
AcDbEntity
  8
0
  6
Continuous
 62
     7
370
    15
100
AcDbCircle
 10
206.933209733
 20
108.430127242
 30
0.0
 40
0.2000000000000171
100
AcDbArc
 50
180.0
 51
270.0
  0
LINE
  5
66
330
1F
100
AcDbEntity
  8
0
  6
Continuous
 62
     7
370
    15
100
AcDbLine
 10
212.433209733
 20
108.430127242
 30
0.0
 11
212.433209733
 21
108.830127242
 31
0.0
  0
LINE
  5
67
330
1F
100
AcDbEntity
  8
0
  6
Continuous
 62
     7
370
    15
100
AcDbLine
 10
206.733209733
 20
108.830127242
 30
0.0
 11
206.733209733
 21
108.430127242
 31
0.0
  0
LINE
  5
68
330
1F
100
AcDbEntity
  8
0
  6
Continuous
 62
     7
370
    15
100
AcDbLine
 10
212.413209733
 20
108.830127242
 30
0.0
 11
212.413209733
 21
115.630127242
 31
0.0
  0
LINE
  5
69
330
1F
100
AcDbEntity
  8
0
  6
Continuous
 62
     7
370
    15
100
AcDbLine
 10
206.753209733
 20
115.630127242
 30
0.0
 11
206.753209733
 21
108.830127242
 31
0.0
  0
LINE
  5
6A
330
1F
100
AcDbEntity
  8
0
  6
Continuous
 62
     7
370
    15
100
AcDbLine
 10
271.313209733
 20
108.830127242
 30
0.0
 11
271.313209733
 21
115.630127242
 31
0.0
  0
LINE
  5
6B
330
1F
100
AcDbEntity
  8
0
  6
Continuous
 62
     7
370
    15
100
AcDbLine
 10
265.653209733
 20
115.630127242
 30
0.0
 11
265.653209733
 21
108.830127242
 31
0.0
  0
ARC
  5
6C
330
1F
100
AcDbEntity
  8
0
  6
Continuous
 62
     7
370
    15
100
AcDbCircle
 10
212.923209733
 20
124.880127242
 30
0.0
 40
0.1500000000000057
100
AcDbArc
 50
90.0
 51
180.0
  0
ARC
  5
6D
330
1F
100
AcDbEntity
  8
0
  6
Continuous
 62
     7
370
    15
100
AcDbCircle
 10
206.243209733
 20
124.880127242
 30
0.0
 40
0.1499999999999915
100
AcDbArc
 50
0.0
 51
90.0
  0
ARC
  5
6E
330
1F
100
AcDbEntity
  8
0
  6
Continuous
 62
     7
370
    15
100
AcDbCircle
 10
212.303209733
 20
116.2333838366
 30
0.0
 40
0.4700000000000001
100
AcDbArc
 50
350.5402980318
 51
0.0
  0
ARC
  5
6F
330
1F
100
AcDbEntity
  8
0
  6
Continuous
 62
     7
370
    15
100
AcDbCircle
 10
206.863209733
 20
116.2333838366
 30
0.0
 40
0.4700000000000273
100
AcDbArc
 50
180.0
 51
189.4597019682
  0
LINE
  5
70
330
1F
100
AcDbEntity
  8
0
  6
Continuous
 62
     7
370
    15
100
AcDbLine
 10
212.773209733
 20
116.2333838366
 30
0.0
 11
212.773209733
 21
124.880127242
 31
0.0
  0
LINE
  5
71
330
1F
100
AcDbEntity
  8
0
  6
Continuous
 62
     7
370
    15
100
AcDbLine
 10
206.393209733
 20
124.880127242
 30
0.0
 11
206.393209733
 21
116.2333838366
 31
0.0
  0
LINE
  5
72
330
1F
100
AcDbEntity
  8
0
  6
Continuous
 62
     7
370
    15
100
AcDbLine
 10
206.3996010557
 20
116.1561375141
 30
0.0
 11
206.4872447109
 21
115.630127242
 31
0.0
  0
LINE
  5
73
330
1F
100
AcDbEntity
  8
0
  6
Continuous
 62
     7
370
    15
100
AcDbLine
 10
212.679174755
 20
115.630127242
 30
0.0
 11
212.7668184103
 21
116.1561375141
 31
0.0
  0
ARC
  5
74
330
1F
100
AcDbEntity
  8
0
  6
Continuous
 62
     7
370
    15
100
AcDbCircle
 10
271.823209733
 20
124.880127242
 30
0.0
 40
0.1500000000000341
100
AcDbArc
 50
90.0
 51
180.0
  0
ARC
  5
75
330
1F
100
AcDbEntity
  8
0
  6
Continuous
 62
     7
370
    15
100
AcDbCircle
 10
265.143209733
 20
124.880127242
 30
0.0
 40
0.1499999999999915
100
AcDbArc
 50
0.0
 51
90.0
  0
LINE
  5
76
330
1F
100
AcDbEntity
  8
0
  6
Continuous
 62
     7
370
    15
100
AcDbLine
 10
271.673209733
 20
116.2333838366
 30
0.0
 11
271.673209733
 21
124.880127242
 31
0.0
  0
LINE
  5
77
330
1F
100
AcDbEntity
  8
0
  6
Continuous
 62
     7
370
    15
100
AcDbLine
 10
265.293209733
 20
124.880127242
 30
0.0
 11
265.293209733
 21
116.2333838366
 31
0.0
  0
ARC
  5
78
330
1F
100
AcDbEntity
  8
0
  6
Continuous
 62
     7
370
    15
100
AcDbCircle
 10
271.203209733
 20
116.2333838366
 30
0.0
 40
0.4700000000000584
100
AcDbArc
 50
350.5402980318
 51
0.0
  0
ARC
  5
79
330
1F
100
AcDbEntity
  8
0
  6
Continuous
 62
     7
370
    15
100
AcDbCircle
 10
265.763209733
 20
116.2333838366
 30
0.0
 40
0.4700000000000273
100
AcDbArc
 50
180.0
 51
189.4597019682
  0
LINE
  5
7A
330
1F
100
AcDbEntity
  8
0
  6
Continuous
 62
     7
370
    15
100
AcDbLine
 10
265.2996010557
 20
116.1561375141
 30
0.0
 11
265.3872447109
 21
115.630127242
 31
0.0
  0
LINE
  5
7B
330
1F
100
AcDbEntity
  8
0
  6
Continuous
 62
     7
370
    15
100
AcDbLine
 10
271.579174755
 20
115.630127242
 30
0.0
 11
271.6668184103
 21
116.1561375141
 31
0.0
  0
LINE
  5
7C
330
1F
100
AcDbEntity
  8
0
  6
Continuous
 62
     7
370
    15
100
AcDbLine
 10
207.683209733
 20
197.135127242
 30
0.0
 11
207.683209733
 21
196.985127242
 31
0.0
  0
LINE
  5
7D
330
1F
100
AcDbEntity
  8
0
  6
Continuous
 62
     7
370
    15
100
AcDbLine
 10
207.683209733
 20
196.985127242
 30
0.0
 11
207.733209733
 21
196.985127242
 31
0.0
  0
ARC
  5
7E
330
1F
100
AcDbEntity
  8
0
  6
Continuous
 62
     7
370
    15
100
AcDbCircle
 10
276.635590267
 20
194.900127242
 30
0.0
 40
2.210000000000029
100
AcDbArc
 50
293.5
 51
70.6373374103
  0
LINE
  5
7F
330
1F
100
AcDbEntity
  8
0
  6
Continuous
 62
     7
370
    15
100
AcDbLine
 10
277.5168257094
 20
192.8734244776
 30
0.0
 11
275.1634031884
 21
191.850127242
 31
0.0
  0
LINE
  5
80
330
1F
100
AcDbEntity
  8
0
  6
Continuous
 62
     7
370
    15
100
AcDbLine
 10
275.1634031884
 20
191.850127242
 30
0.0
 11
275.0727965233
 21
191.850127242
 31
0.0
  0
LINE
  5
81
330
1F
100
AcDbEntity
  8
0
  6
Continuous
 62
     7
370
    15
100
AcDbLine
 10
275.0727965233
 20
192.035127242
 30
0.0
 11
275.0727965233
 21
191.850127242
 31
0.0
  0
LINE
  5
82
330
1F
100
AcDbEntity
  8
0
  6
Continuous
 62
     7
370
    15
100
AcDbLine
 10
275.0127965233
 20
192.035127242
 30
0.0
 11
275.0727965233
 21
192.035127242
 31
0.0
  0
LINE
  5
83
330
1F
100
AcDbEntity
  8
0
  6
Continuous
 62
     7
370
    15
100
AcDbLine
 10
275.0127965233
 20
191.975127242
 30
0.0
 11
275.0127965233
 21
192.035127242
 31
0.0
  0
LINE
  5
84
330
1F
100
AcDbEntity
  8
0
  6
Continuous
 62
     7
370
    15
100
AcDbLine
 10
202.813209733
 20
191.975127242
 30
0.0
 11
202.813209733
 21
192.230127242
 31
0.0
  0
LINE
  5
85
330
1F
100
AcDbEntity
  8
0
  6
Continuous
 62
     7
370
    15
100
AcDbLine
 10
202.813209733
 20
192.230127242
 30
0.0
 11
202.558209733
 21
192.230127242
 31
0.0
  0
LINE
  5
86
330
1F
100
AcDbEntity
  8
0
  6
Continuous
 62
     7
370
    15
100
AcDbLine
 10
202.558209733
 20
197.135127242
 30
0.0
 11
207.683209733
 21
197.135127242
 31
0.0
  0
ARC
  5
87
330
1F
100
AcDbEntity
  8
0
  6
Continuous
 62
     7
370
    15
100
AcDbCircle
 10
275.385590267
 20
193.650127242
 30
0.0
 40
0.3100000000000332
100
AcDbArc
 50
279.8650797973
 51
80.1349202027
  0
ARC
  5
88
330
1F
100
AcDbEntity
  8
0
  6
Continuous
 62
     7
370
    15
100
AcDbCircle
 10
275.434590267
 20
193.9318984258
 30
0.0
 40
0.0240000000000049
100
AcDbArc
 50
80.1349202027
 51
180.0
  0
LINE
  5
89
330
1F
100
AcDbEntity
  8
0
  6
Continuous
 62
     7
370
    15
100
AcDbLine
 10
275.410590267
 20
193.9298681936
 30
0.0
 11
275.410590267
 21
193.9318984258
 31
0.0
  0
ARC
  5
8A
330
1F
100
AcDbEntity
  8
0
  6
Continuous
 62
     7
370
    15
100
AcDbCircle
 10
275.434590267
 20
193.9298681936
 30
0.0
 40
0.0239999999999862
100
AcDbArc
 50
180.0
 51
260.0647455694
  0
ARC
  5
8B
330
1F
100
AcDbEntity
  8
0
  6
Continuous
 62
     7
370
    15
100
AcDbCircle
 10
275.434590267
 20
193.3703862904
 30
0.0
 40
0.0239999999999862
100
AcDbArc
 50
99.9352544306
 51
179.9999999992
  0
LINE
  5
8C
330
1F
100
AcDbEntity
  8
0
  6
Continuous
 62
     7
370
    15
100
AcDbLine
 10
275.410590267
 20
193.3683560582
 30
0.0
 11
275.410590267
 21
193.3703862904
 31
0.0
  0
ARC
  5
8D
330
1F
100
AcDbEntity
  8
0
  6
Continuous
 62
     7
370
    15
100
AcDbCircle
 10
275.434590267
 20
193.3683560582
 30
0.0
 40
0.0240000000000049
100
AcDbArc
 50
180.0
 51
279.8650797973
  0
LINE
  5
8E
330
1F
100
AcDbEntity
  8
0
  6
Continuous
 62
     7
370
    15
100
AcDbLine
 10
275.360590267
 20
193.3703862904
 30
0.0
 11
275.360590267
 21
193.3683560582
 31
0.0
  0
ARC
  5
8F
330
1F
100
AcDbEntity
  8
0
  6
Continuous
 62
     7
370
    15
100
AcDbCircle
 10
275.336590267
 20
193.3703862904
 30
0.0
 40
0.0240000000000009
100
AcDbArc
 50
0.0
 51
80.0647455693
  0
ARC
  5
90
330
1F
100
AcDbEntity
  8
0
  6
Continuous
 62
     7
370
    15
100
AcDbCircle
 10
275.385590267
 20
193.650127242
 30
0.0
 40
0.2600000000000018
100
AcDbArc
 50
99.9352544307
 51
260.0647455693
  0
ARC
  5
91
330
1F
100
AcDbEntity
  8
0
  6
Continuous
 62
     7
370
    15
100
AcDbCircle
 10
275.336590267
 20
193.9298681936
 30
0.0
 40
0.0240000000000009
100
AcDbArc
 50
279.9352544307
 51
0.0
  0
LINE
  5
92
330
1F
100
AcDbEntity
  8
0
  6
Continuous
 62
     7
370
    15
100
AcDbLine
 10
275.360590267
 20
193.9318984258
 30
0.0
 11
275.360590267
 21
193.9298681936
 31
0.0
  0
ARC
  5
93
330
1F
100
AcDbEntity
  8
0
  6
Continuous
 62
     7
370
    15
100
AcDbCircle
 10
275.336590267
 20
193.9318984258
 30
0.0
 40
0.0240000000000146
100
AcDbArc
 50
0.0
 51
99.8650797974
  0
ARC
  5
94
330
1F
100
AcDbEntity
  8
0
  6
Continuous
 62
     7
370
    15
100
AcDbCircle
 10
275.385590267
 20
193.650127242
 30
0.0
 40
0.310000000000043
100
AcDbArc
 50
99.8650797973
 51
260.1349202027
  0
ARC
  5
95
330
1F
100
AcDbEntity
  8
0
  6
Continuous
 62
     7
370
    15
100
AcDbCircle
 10
275.336590267
 20
193.3683560582
 30
0.0
 40
0.0240000000000146
100
AcDbArc
 50
260.1349202026
 51
0.0
  0
ARC
  5
96
330
1F
100
AcDbEntity
  8
0
  6
Continuous
 62
     7
370
    15
100
AcDbCircle
 10
275.385590267
 20
193.650127242
 30
0.0
 40
0.2600000000000116
100
AcDbArc
 50
279.9352544307
 51
80.0647455693
  0
LINE
  5
97
330
1F
100
AcDbEntity
  8
0
  6
Continuous
 62
     7
370
    15
100
AcDbLine
 10
275.0127965233
 20
191.975127242
 30
0.0
 11
275.0127965233
 21
191.730127242
 31
0.0
  0
LINE
  5
98
330
1F
100
AcDbEntity
  8
0
  6
Continuous
 62
     7
370
    15
100
AcDbLine
 10
272.908209733
 20
191.730127242
 30
0.0
 11
275.0127965233
 21
191.730127242
 31
0.0
  0
LINE
  5
99
330
1F
100
AcDbEntity
  8
0
  6
Continuous
 62
     7
370
    15
100
AcDbLine
 10
202.813209733
 20
191.730127242
 30
0.0
 11
202.813209733
 21
191.975127242
 31
0.0
  0
LINE
  5
9A
330
1F
100
AcDbEntity
  8
0
  6
Continuous
 62
     7
370
    15
100
AcDbLine
 10
202.313209733
 20
192.230127242
 30
0.0
 11
202.313209733
 21
197.135127242
 31
0.0
  0
LINE
  5
9B
330
1F
100
AcDbEntity
  8
0
  6
Continuous
 62
     7
370
    15
100
AcDbLine
 10
202.313209733
 20
197.135127242
 30
0.0
 11
202.558209733
 21
197.135127242
 31
0.0
  0
LINE
  5
9C
330
1F
100
AcDbEntity
  8
0
  6
Continuous
 62
     7
370
    15
100
AcDbLine
 10
202.558209733
 20
192.230127242
 30
0.0
 11
202.313209733
 21
192.230127242
 31
0.0
  0
LINE
  5
9D
330
1F
100
AcDbEntity
  8
0
  6
Continuous
 62
     7
370
    15
100
AcDbLine
 10
207.733209733
 20
197.230127242
 30
0.0
 11
276.5564315062
 21
197.230127242
 31
0.0
  0
LINE
  5
9E
330
1F
100
AcDbEntity
  8
0
  6
Continuous
 62
     7
370
    15
100
AcDbLine
 10
207.733209733
 20
196.985127242
 30
0.0
 11
207.733209733
 21
197.2300945868
 31
0.0
  0
LINE
  5
9F
330
1F
100
AcDbEntity
  8
0
  6
Continuous
 62
     7
370
    15
100
AcDbLine
 10
276.5564315062
 20
197.230127242
 30
0.0
 11
276.6164315062
 21
197.2241670566
 31
0.0
  0
SPLINE
  5
A0
330
1F
100
AcDbEntity
  8
0
  6
Continuous
 62
     7
370
    15
100
AcDbSpline
210
0.0
220
0.0
230
1.0
 70
     8
 71
     3
 72
    11
 73
     7
 74
     0
 42
0.00000001
 43
0.00000001
 40
0.0
 40
0.0
 40
0.0
 40
0.0
 40
0.1475890256494178
 40
0.4376830210487549
 40
0.7152524526060505
 40
0.9999999999999999
 40
0.9999999999999999
 40
0.9999999999999999
 40
0.9999999999999999
 10
276.6738380010571
 20
197.2184645007496
 30
0.0
 10
276.7080123610736
 20
197.2159903195179
 30
0.0
 10
276.8093582238068
 20
197.2086530048948
 30
0.0
 10
276.9749234364253
 20
197.1569766486867
 30
0.0
 10
277.1722245839848
 20
197.0783786876802
 30
0.0
 10
277.3023928589025
 20
197.0164744648261
 30
0.0
 10
277.3683078115338
 20
196.9851272420126
 30
0.0
  0
ARC
  5
A1
330
1F
100
AcDbEntity
  8
0
  6
Continuous
 62
     7
370
    15
100
AcDbCircle
 10
276.635590267
 20
194.900127242
 30
0.0
 40
2.330000000000013
100
AcDbArc
 50
293.5
 51
90.0
  0
LINE
  5
A2
330
1F
100
AcDbEntity
  8
0
  6
Continuous
 62
     7
370
    15
100
AcDbLine
 10
275.1997154341
 20
191.8659162558
 30
0.0
 11
275.2475653223
 21
191.7558690468
 31
0.0
  0
LINE
  5
A3
330
1F
100
AcDbEntity
  8
0
  6
Continuous
 62
     7
370
    15
100
AcDbLine
 10
275.2475653223
 20
191.7558690468
 30
0.0
 11
277.5646755976
 21
192.7633772687
 31
0.0
  0
LINE
  5
A4
330
1F
100
AcDbEntity
  8
0
  6
Continuous
 62
     7
370
    15
100
AcDbLine
 10
276.635590267
 20
197.230127242
 30
0.0
 11
276.6164315062
 21
197.230127242
 31
0.0
  0
ARC
  5
A5
330
1F
100
AcDbEntity
  8
0
  6
Continuous
 62
     7
370
    15
100
AcDbCircle
 10
207.733209733
 20
197.355127242
 30
0.0
 40
0.125
100
AcDbArc
 50
180.0
 51
270.0
  0
ARC
  5
A6
330
1F
100
AcDbEntity
  8
0
  6
Continuous
 62
     7
370
    15
100
AcDbCircle
 10
207.733209733
 20
197.355127242
 30
0.0
 40
0.2449999999999879
100
AcDbArc
 50
180.0
 51
243.8910943224
  0
LWPOLYLINE
  5
A7
330
1F
100
AcDbEntity
  8
0
  6
Continuous
 62
     7
370
    15
100
AcDbPolyline
 90
        3
 70
   128
 43
0.0
 10
207.683209733
 20
197.1152835429
 10
207.6854126041
 20
197.1148348483
 10
207.733209733
 20
197.110127242
  0
LINE
  5
A8
330
1F
100
AcDbEntity
  8
0
  6
Continuous
 62
     7
370
    15
100
AcDbLine
 10
207.608209733
 20
198.430127242
 30
0.0
 11
207.598209733
 21
198.430127242
 31
0.0
  0
LINE
  5
A9
330
1F
100
AcDbEntity
  8
0
  6
Continuous
 62
     7
370
    15
100
AcDbLine
 10
207.488209733
 20
197.4332095051
 30
0.0
 11
207.488209733
 21
197.355127242
 31
0.0
  0
LINE
  5
AA
330
1F
100
AcDbEntity
  8
0
  6
Continuous
 62
     7
370
    15
100
AcDbLine
 10
207.733209733
 20
197.2300945868
 30
0.0
 11
207.733209733
 21
197.230127242
 31
0.0
  0
LINE
  5
AB
330
1F
100
AcDbEntity
  8
0
  6
Continuous
 62
     7
370
    15
100
AcDbLine
 10
276.5564315062
 20
197.230127242
 30
0.0
 11
276.6164315062
 21
197.230127242
 31
0.0
  0
LINE
  5
AC
330
1F
100
AcDbEntity
  8
0
  6
Continuous
 62
     7
370
    15
100
AcDbLine
 10
202.393209733
 20
202.108072758
 30
0.0
 11
202.4355621136
 21
202.108072758
 31
0.0
  0
LINE
  5
AD
330
1F
100
AcDbEntity
  8
0
  6
Continuous
 62
     7
370
    15
100
AcDbLine
 10
202.4355621136
 20
202.108072758
 30
0.0
 11
202.4355621136
 21
202.2157812325
 31
0.0
  0
LINE
  5
AE
330
1F
100
AcDbEntity
  8
0
  6
Continuous
 62
     7
370
    15
100
AcDbLine
 10
202.4355621136
 20
202.2157812325
 30
0.0
 11
205.7526691553
 21
201.3269650795
 31
0.0
  0
LINE
  5
AF
330
1F
100
AcDbEntity
  8
0
  6
Continuous
 62
     7
370
    15
100
AcDbLine
 10
207.598209733
 20
198.9218097721
 30
0.0
 11
207.598209733
 21
197.4332095051
 31
0.0
  0
LINE
  5
B0
330
1F
100
AcDbEntity
  8
0
  6
Continuous
 62
     7
370
    15
100
AcDbLine
 10
207.473209733
 20
197.4332095051
 30
0.0
 11
207.598209733
 21
197.4332095051
 31
0.0
  0
ARC
  5
B1
330
1F
100
AcDbEntity
  8
0
  6
Continuous
 62
     7
370
    15
100
AcDbCircle
 10
205.108209733
 20
198.9218097721
 30
0.0
 40
2.490000000000002
100
AcDbArc
 50
0.0
 51
75.0
  0
LINE
  5
B2
330
1F
100
AcDbEntity
  8
0
  6
Continuous
 62
     7
370
    15
100
AcDbLine
 10
202.393209733
 20
197.2282095051
 30
0.0
 11
202.393209733
 21
197.4332095051
 31
0.0
  0
LINE
  5
B3
330
1F
100
AcDbEntity
  8
0
  6
Continuous
 62
     7
370
    15
100
AcDbLine
 10
207.473209733
 20
197.2282095051
 30
0.0
 11
207.473209733
 21
197.4332095051
 31
0.0
  0
LINE
  5
B4
330
1F
100
AcDbEntity
  8
0
  6
Continuous
 62
     7
370
    15
100
AcDbLine
 10
207.473209733
 20
197.2282095051
 30
0.0
 11
202.393209733
 21
197.2282095051
 31
0.0
  0
LINE
  5
B5
330
1F
100
AcDbEntity
  8
0
  6
Continuous
 62
     7
370
    15
100
AcDbLine
 10
202.2307289649
 20
202.108072758
 30
0.0
 11
202.393209733
 21
202.108072758
 31
0.0
  0
LINE
  5
B6
330
1F
100
AcDbEntity
  8
0
  6
Continuous
 62
     7
370
    15
100
AcDbLine
 10
202.188209733
 20
197.4332095051
 30
0.0
 11
202.188209733
 21
202.108072758
 31
0.0
  0
LINE
  5
B7
330
1F
100
AcDbEntity
  8
0
  6
Continuous
 62
     7
370
    15
100
AcDbLine
 10
202.188209733
 20
197.4332095051
 30
0.0
 11
202.393209733
 21
197.4332095051
 31
0.0
  0
LINE
  5
B8
330
1F
100
AcDbEntity
  8
0
  6
Continuous
 62
     7
370
    15
100
AcDbLine
 10
202.4462676372
 20
202.3060875524
 30
0.0
 11
205.7759628693
 21
201.4138984039
 31
0.0
  0
LINE
  5
B9
330
1F
100
AcDbEntity
  8
0
  6
Continuous
 62
     7
370
    15
100
AcDbLine
 10
202.4255621136
 20
202.2288134863
 30
0.0
 11
205.7552573457
 21
201.3366243378
 31
0.0
  0
LINE
  5
BA
330
1F
100
AcDbEntity
  8
0
  6
Continuous
 62
     7
370
    15
100
AcDbLine
 10
202.268209733
 20
192.0709759296
 30
0.0
 11
202.268209733
 21
191.5709759296
 31
0.0
  0
LINE
  5
BB
330
1F
100
AcDbEntity
  8
0
  6
Continuous
 62
     7
370
    15
100
AcDbLine
 10
202.268209733
 20
191.5709759296
 30
0.0
 11
202.188209733
 21
191.5709759296
 31
0.0
  0
LINE
  5
BC
330
1F
100
AcDbEntity
  8
0
  6
Continuous
 62
     7
370
    15
100
AcDbLine
 10
202.188209733
 20
191.5709759296
 30
0.0
 11
202.188209733
 21
192.0709759296
 31
0.0
  0
ARC
  5
BD
330
1F
100
AcDbEntity
  8
0
  6
Continuous
 62
     7
370
    15
100
AcDbCircle
 10
205.108209733
 20
198.9218097721
 30
0.0
 40
2.580000000000003
100
AcDbArc
 50
0.0
 51
75.0
  0
ARC
  5
BE
330
1F
100
AcDbEntity
  8
0
  6
Continuous
 62
     7
370
    15
100
AcDbCircle
 10
205.108209733
 20
198.9218097721
 30
0.0
 40
2.5
100
AcDbArc
 50
0.0
 51
75.0
  0
LINE
  5
BF
330
1F
100
AcDbEntity
  8
0
  6
Continuous
 62
     7
370
    15
100
AcDbLine
 10
202.268209733
 20
197.1882095051
 30
0.0
 11
202.188209733
 21
197.1882095051
 31
0.0
  0
LINE
  5
C0
330
1F
100
AcDbEntity
  8
0
  6
Continuous
 62
     7
370
    15
100
AcDbLine
 10
202.268209733
 20
192.0709759296
 30
0.0
 11
202.268209733
 21
197.1882095051
 31
0.0
  0
LINE
  5
C1
330
1F
100
AcDbEntity
  8
0
  6
Continuous
 62
     7
370
    15
100
AcDbLine
 10
202.188209733
 20
192.0709759296
 30
0.0
 11
202.188209733
 21
197.1882095051
 31
0.0
  0
LINE
  5
C2
330
1F
100
AcDbEntity
  8
0
  6
Continuous
 62
     7
370
    15
100
AcDbLine
 10
202.2307289649
 20
202.108072758
 30
0.0
 11
202.188209733
 21
202.108072758
 31
0.0
  0
ARC
  5
C3
330
1F
100
AcDbEntity
  8
0
  6
Continuous
 62
     7
370
    15
100
AcDbCircle
 10
202.393209733
 20
202.108072758
 30
0.0
 40
0.1250000000000001
100
AcDbArc
 50
75.0
 51
180.0
  0
ARC
  5
C4
330
1F
100
AcDbEntity
  8
0
  6
Continuous
 62
     7
370
    15
100
AcDbCircle
 10
202.393209733
 20
202.108072758
 30
0.0
 40
0.2050000000000125
100
AcDbArc
 50
75.0
 51
180.0
  0
LINE
  5
C5
330
1F
100
AcDbEntity
  8
0
  6
Continuous
 62
     7
370
    15
100
AcDbLine
 10
207.688209733
 20
198.9218097721
 30
0.0
 11
207.688209733
 21
197.355127242
 31
0.0
  0
LINE
  5
C6
330
1F
100
AcDbEntity
  8
0
  6
Continuous
 62
     7
370
    15
100
AcDbLine
 10
207.608209733
 20
198.9218097721
 30
0.0
 11
207.608209733
 21
197.355127242
 31
0.0
  0
LINE
  5
C7
330
1F
100
AcDbEntity
  8
0
  6
Continuous
 62
     7
370
    15
100
AcDbLine
 10
207.608209733
 20
197.355127242
 30
0.0
 11
207.688209733
 21
197.355127242
 31
0.0
  0
LINE
  5
C8
330
1F
100
AcDbEntity
  8
0
  6
Continuous
 62
     7
370
    15
100
AcDbLine
 10
202.268209733
 20
197.2282095051
 30
0.0
 11
202.188209733
 21
197.2282095051
 31
0.0
  0
LINE
  5
C9
330
1F
100
AcDbEntity
  8
0
  6
Continuous
 62
     7
370
    15
100
AcDbLine
 10
202.268209733
 20
197.2282095051
 30
0.0
 11
202.268209733
 21
197.4332095051
 31
0.0
  0
LINE
  5
CA
330
1F
100
AcDbEntity
  8
0
  6
Continuous
 62
     7
370
    15
100
AcDbLine
 10
202.188209733
 20
197.2282095051
 30
0.0
 11
202.188209733
 21
197.4332095051
 31
0.0
  0
LINE
  5
CB
330
1F
100
AcDbEntity
  8
0
  6
Continuous
 62
     7
370
    15
100
AcDbLine
 10
202.268209733
 20
197.1882095051
 30
0.0
 11
202.268209733
 21
197.2282095051
 31
0.0
  0
LINE
  5
CC
330
1F
100
AcDbEntity
  8
0
  6
Continuous
 62
     7
370
    15
100
AcDbLine
 10
202.188209733
 20
197.2282095051
 30
0.0
 11
202.188209733
 21
197.1882095051
 31
0.0
  0
LINE
  5
CD
330
1F
100
AcDbEntity
  8
0
  6
Continuous
 62
     7
370
    15
100
AcDbLine
 10
273.073209733
 20
124.7624491755
 30
0.0
 11
273.073209733
 21
123.9624491755
 31
0.0
  0
LINE
  5
CE
330
1F
100
AcDbEntity
  8
0
  6
Continuous
 62
     7
370
    15
100
AcDbLine
 10
273.073209733
 20
123.8624491755
 30
0.0
 11
273.053209733
 21
123.8624491755
 31
0.0
  0
LINE
  5
CF
330
1F
100
AcDbEntity
  8
0
  6
Continuous
 62
     7
370
    15
100
AcDbLine
 10
273.073209733
 20
123.9624491755
 30
0.0
 11
273.073209733
 21
123.8624491755
 31
0.0
  0
LINE
  5
D0
330
1F
100
AcDbEntity
  8
0
  6
Continuous
 62
     7
370
    15
100
AcDbLine
 10
273.073209733
 20
124.8624491755
 30
0.0
 11
273.053209733
 21
124.8624491755
 31
0.0
  0
LINE
  5
D1
330
1F
100
AcDbEntity
  8
0
  6
Continuous
 62
     7
370
    15
100
AcDbLine
 10
273.073209733
 20
124.8624491755
 30
0.0
 11
273.073209733
 21
124.7624491755
 31
0.0
  0
LINE
  5
D2
330
1F
100
AcDbEntity
  8
0
  6
Continuous
 62
     7
370
    15
100
AcDbLine
 10
202.433209733
 20
197.2282095051
 30
0.0
 11
202.433209733
 21
197.135127242
 31
0.0
  0
LINE
  5
D3
330
1F
100
AcDbEntity
  8
0
  6
Continuous
 62
     7
370
    15
100
AcDbLine
 10
202.433209733
 20
192.230127242
 30
0.0
 11
202.433209733
 21
191.450127242
 31
0.0
  0
LINE
  5
D4
330
1F
100
AcDbEntity
  8
0
  6
Continuous
 62
     7
370
    15
100
AcDbLine
 10
202.433209733
 20
125.585127242
 30
0.0
 11
202.433209733
 21
125.380127242
 31
0.0
  0
LINE
  5
D5
330
1F
100
AcDbEntity
  8
0
  6
Continuous
 62
     7
370
    15
100
AcDbLine
 10
202.513209733
 20
197.2282095051
 30
0.0
 11
202.513209733
 21
197.135127242
 31
0.0
  0
LINE
  5
D6
330
1F
100
AcDbEntity
  8
0
  6
Continuous
 62
     7
370
    15
100
AcDbLine
 10
202.513209733
 20
192.230127242
 30
0.0
 11
202.513209733
 21
191.450127242
 31
0.0
  0
LINE
  5
D7
330
1F
100
AcDbEntity
  8
0
  6
Continuous
 62
     7
370
    15
100
AcDbLine
 10
202.513209733
 20
125.585127242
 30
0.0
 11
202.513209733
 21
125.380127242
 31
0.0
  0
LINE
  5
D8
330
1F
100
AcDbEntity
  8
0
  6
Continuous
 62
     7
370
    15
100
AcDbLine
 10
202.433209733
 20
125.380127242
 30
0.0
 11
202.513209733
 21
125.380127242
 31
0.0
  0
LINE
  5
D9
330
1F
100
AcDbEntity
  8
0
  6
Continuous
 62
     7
370
    15
100
AcDbLine
 10
202.788209733
 20
125.230127242
 30
0.0
 11
272.778209733
 21
125.230127242
 31
0.0
  0
ARC
  5
DA
330
1F
100
AcDbEntity
  8
0
  6
Continuous
 62
     7
370
    15
100
AcDbCircle
 10
272.778209733
 20
125.105127242
 30
0.0
 40
0.2750000000000341
100
AcDbArc
 50
0.0
 51
90.0
  0
ARC
  5
DB
330
1F
100
AcDbEntity
  8
0
  6
Continuous
 62
     7
370
    15
100
AcDbCircle
 10
272.778209733
 20
125.105127242
 30
0.0
 40
0.1250000000000568
100
AcDbArc
 50
0.0
 51
90.0
  0
LINE
  5
DC
330
1F
100
AcDbEntity
  8
0
  6
Continuous
 62
     7
370
    15
100
AcDbLine
 10
273.053209733
 20
123.330127242
 30
0.0
 11
272.903209733
 21
123.330127242
 31
0.0
  0
LINE
  5
DD
330
1F
100
AcDbEntity
  8
0
  6
Continuous
 62
     7
370
    15
100
AcDbLine
 10
272.903209733
 20
124.830127242
 30
0.0
 11
273.053209733
 21
124.830127242
 31
0.0
  0
LINE
  5
DE
330
1F
100
AcDbEntity
  8
0
  6
Continuous
 62
     7
370
    15
100
AcDbLine
 10
272.903209733
 20
123.330127242
 30
0.0
 11
272.903209733
 21
124.830127242
 31
0.0
  0
LINE
  5
DF
330
1F
100
AcDbEntity
  8
0
  6
Continuous
 62
     7
370
    15
100
AcDbLine
 10
273.053209733
 20
124.830127242
 30
0.0
 11
273.053209733
 21
123.330127242
 31
0.0
  0
LINE
  5
E0
330
1F
100
AcDbEntity
  8
0
  6
Continuous
 62
     7
370
    15
100
AcDbLine
 10
272.903209733
 20
124.830127242
 30
0.0
 11
272.903209733
 21
125.105127242
 31
0.0
  0
LINE
  5
E1
330
1F
100
AcDbEntity
  8
0
  6
Continuous
 62
     7
370
    15
100
AcDbLine
 10
273.053209733
 20
124.830127242
 30
0.0
 11
273.053209733
 21
125.105127242
 31
0.0
  0
LINE
  5
E2
330
1F
100
AcDbEntity
  8
0
  6
Continuous
 62
     7
370
    15
100
AcDbLine
 10
202.663209733
 20
125.505127242
 30
0.0
 11
202.663209733
 21
125.585127242
 31
0.0
  0
LINE
  5
E3
330
1F
100
AcDbEntity
  8
0
  6
Continuous
 62
     7
370
    15
100
AcDbLine
 10
202.513209733
 20
125.505127242
 30
0.0
 11
202.513209733
 21
125.585127242
 31
0.0
  0
ARC
  5
E4
330
1F
100
AcDbEntity
  8
0
  6
Continuous
 62
     7
370
    15
100
AcDbCircle
 10
202.788209733
 20
125.505127242
 30
0.0
 40
0.1249999999999877
100
AcDbArc
 50
180.0
 51
267.707557224
  0
ARC
  5
E5
330
1F
100
AcDbEntity
  8
0
  6
Continuous
 62
     7
370
    15
100
AcDbCircle
 10
202.788209733
 20
125.505127242
 30
0.0
 40
0.2749999999999915
100
AcDbArc
 50
180.0
 51
270.0
  0
LINE
  5
E6
330
1F
100
AcDbEntity
  8
0
  6
Continuous
 62
     7
370
    15
100
AcDbLine
 10
207.683209733
 20
197.110127242
 30
0.0
 11
207.733209733
 21
197.110127242
 31
0.0
  0
LINE
  5
E7
330
1F
100
AcDbEntity
  8
0
  6
Continuous
 62
     7
370
    15
100
AcDbLine
 10
202.6402808008
 20
192.230127242
 30
0.0
 11
202.6402808008
 21
191.975127242
 31
0.0
  0
LINE
  5
E8
330
1F
100
AcDbEntity
  8
0
  6
Continuous
 62
     7
370
    15
100
AcDbLine
 10
202.733209733
 20
191.730127242
 30
0.0
 11
202.6402808008
 21
191.730127242
 31
0.0
  0
LINE
  5
E9
330
1F
100
AcDbEntity
  8
0
  6
Continuous
 62
     7
370
    15
100
AcDbLine
 10
202.6402808008
 20
191.730127242
 30
0.0
 11
202.6402808008
 21
191.975127242
 31
0.0
  0
LINE
  5
EA
330
1F
100
AcDbEntity
  8
0
  6
Continuous
 62
     7
370
    15
100
AcDbLine
 10
202.513209733
 20
191.850127242
 30
0.0
 11
202.633209733
 21
191.850127242
 31
0.0
  0
LINE
  5
EB
330
1F
100
AcDbEntity
  8
0
  6
Continuous
 62
     7
370
    15
100
AcDbLine
 10
202.633209733
 20
192.230127242
 30
0.0
 11
202.633209733
 21
191.850127242
 31
0.0
  0
LWPOLYLINE
  5
EC
330
1F
100
AcDbEntity
  8
0
  6
Continuous
 62
     7
370
    15
100
AcDbPolyline
 90
        3
 70
   128
 43
0.0
 10
202.633209733
 20
191.975127242
 10
202.6356115729
 20
191.9507409518
 10
202.6402808008
 20
191.9336812898
  0
ARC
  5
ED
330
1F
100
AcDbEntity
  8
0
  6
Continuous
 62
     7
370
    15
100
AcDbCircle
 10
202.758209733
 20
191.975127242
 30
0.0
 40
0.2450000000000085
100
AcDbArc
 50
210.6774244726
 51
241.2268751811
  0
SPLINE
  5
EE
330
1F
100
AcDbEntity
  8
0
  6
Continuous
 62
     7
370
    15
100
AcDbSpline
210
0.0
220
0.0
230
1.0
 70
     8
 71
     3
 72
    13
 73
     9
 74
     0
 42
0.00000001
 43
0.00000001
 40
0.0
 40
0.0
 40
0.0
 40
0.0
 40
0.0075462231145148
 40
0.2722763788510418
 40
0.4815195415730268
 40
0.6613541616922317
 40
0.8304588949397905
 40
1.0
 40
1.0
 40
1.0
 40
1.0
 10
201.3132097329537
 20
127.7707951590737
 30
0.0
 10
201.3132094145494
 20
127.7708058540006
 30
0.0
 10
201.3131979261593
 20
127.771191739222
 30
0.0
 10
201.3120393601978
 20
127.7718932545276
 30
0.0
 10
201.3077674822707
 20
127.7727801812108
 30
0.0
 10
201.3022003219602
 20
127.7734086021972
 30
0.0
 10
201.2955867426222
 20
127.7738305670242
 30
0.0
 10
201.2906708476823
 20
127.7738865149987
 30
0.0
 10
201.2882097329537
 20
127.7739145250326
 30
0.0
  0
LINE
  5
EF
330
1F
100
AcDbEntity
  8
0
  6
Continuous
 62
     7
370
    15
100
AcDbLine
 10
201.313209733
 20
128.5475681756
 30
0.0
 11
201.313209733
 21
127.7707951591
 31
0.0
  0
SPLINE
  5
F0
330
1F
100
AcDbEntity
  8
0
  6
Continuous
 62
     7
370
    15
100
AcDbSpline
210
0.0
220
0.0
230
1.0
 70
     8
 71
     3
 72
    13
 73
     9
 74
     0
 42
0.00000001
 43
0.00000001
 40
0.0
 40
0.0
 40
0.0
 40
0.0
 40
0.1695411050602761
 40
0.3386458383078987
 40
0.5184804584267914
 40
0.7277236211488552
 40
0.9924537768854822
 40
0.9999999999999999
 40
0.9999999999999999
 40
0.9999999999999999
 40
0.9999999999999999
 10
201.2182097329537
 20
127.7739145250326
 30
0.0
 10
201.215748618225
 20
127.7738865149987
 30
0.0
 10
201.2108327232852
 20
127.7738305670242
 30
0.0
 10
201.2042191439471
 20
127.7734086021972
 30
0.0
 10
201.1986519836367
 20
127.7727801812108
 30
0.0
 10
201.1943801057094
 20
127.7718932545276
 30
0.0
 10
201.1932215397484
 20
127.771191739222
 30
0.0
 10
201.1932100513579
 20
127.7708058540006
 30
0.0
 10
201.1932097329536
 20
127.7707951590737
 30
0.0
  0
LINE
  5
F1
330
1F
100
AcDbEntity
  8
0
  6
Continuous
 62
     7
370
    15
100
AcDbLine
 10
201.193209733
 20
127.7707951591
 30
0.0
 11
201.193209733
 21
128.5198010439
 31
0.0
  0
LINE
  5
F2
330
1F
100
AcDbEntity
  8
0
  6
Continuous
 62
     7
370
    15
100
AcDbLine
 10
201.218209733
 20
127.773914525
 30
0.0
 11
201.288209733
 21
127.773914525
 31
0.0
  0
SPLINE
  5
F3
330
1F
100
AcDbEntity
  8
0
  6
Continuous
 62
     7
370
    15
100
AcDbSpline
210
0.0
220
0.0
230
1.0
 70
     8
 71
     3
 72
    12
 73
     8
 74
     0
 42
0.00000001
 43
0.00000001
 40
0.0
 40
0.0
 40
0.0
 40
0.0
 40
0.2028202020467001
 40
0.4049472449426123
 40
0.609831203074031
 40
0.8226939241826969
 40
1.0
 40
1.0
 40
1.0
 40
1.0
 10
201.1682097329537
 20
127.2390169010836
 30
0.0
 10
201.1839238170072
 20
127.2402392030024
 30
0.0
 10
201.2152982805964
 20
127.242679629496
 30
0.0
 10
201.2573379056434
 20
127.2616447501291
 30
0.0
 10
201.2900457591874
 20
127.2898577657061
 30
0.0
 10
201.309866685814
 20
127.3238223119588
 30
0.0
 10
201.3121652064062
 20
127.3478970767264
 30
0.0
 10
201.3132097329537
 20
127.3588374750894
 30
0.0
  0
SPLINE
  5
F4
330
1F
100
AcDbEntity
  8
0
  6
Continuous
 62
     7
370
    15
100
AcDbSpline
210
0.0
220
0.0
230
1.0
 70
     8
 71
     3
 72
    12
 73
     8
 74
     0
 42
0.00000001
 43
0.00000001
 40
0.0
 40
0.0
 40
0.0
 40
0.0
 40
0.2289440738516321
 40
0.45942143002414
 40
0.6825355698158213
 40
0.894717523162877
 40
1.0
 40
1.0
 40
1.0
 40
1.0
 10
201.3132097329537
 20
127.7463558363958
 30
0.0
 10
201.3114762844959
 20
127.733467878763
 30
0.0
 10
201.307997778344
 20
127.7076056503762
 30
0.0
 10
201.2806107937627
 20
127.6733445650268
 30
0.0
 10
201.2409071403145
 20
127.6486385343324
 30
0.0
 10
201.2008195413792
 20
127.6375300987571
 30
0.0
 10
201.1763310020705
 20
127.636585250022
 30
0.0
 10
201.1682097329537
 20
127.6362719046339
 30
0.0
  0
LINE
  5
F5
330
1F
100
AcDbEntity
  8
0
  6
Continuous
 62
     7
370
    15
100
AcDbLine
 10
201.313209733
 20
127.7463558364
 30
0.0
 11
201.313209733
 21
127.3588374751
 31
0.0
  0
LINE
  5
F6
330
1F
100
AcDbEntity
  8
0
  6
Continuous
 62
     7
370
    15
100
AcDbLine
 10
200.633209733
 20
127.262083331
 30
0.0
 11
200.633209733
 21
127.6496016923
 31
0.0
  0
LINE
  5
F7
330
1F
100
AcDbEntity
  8
0
  6
Continuous
 62
     7
370
    15
100
AcDbLine
 10
200.633209733
 20
127.6496016923
 30
0.0
 11
200.633209733
 21
127.7058654525
 31
0.0
  0
LINE
  5
F8
330
1F
100
AcDbEntity
  8
0
  6
Continuous
 62
     7
370
    15
100
AcDbLine
 10
201.193209733
 20
127.7463558364
 30
0.0
 11
201.193209733
 21
127.7707951591
 31
0.0
  0
LINE
  5
F9
330
1F
100
AcDbEntity
  8
0
  6
Continuous
 62
     7
370
    15
100
AcDbLine
 10
201.313209733
 20
127.7707951591
 30
0.0
 11
201.313209733
 21
127.7463558364
 31
0.0
  0
LINE
  5
FA
330
1F
100
AcDbEntity
  8
0
  6
Continuous
 62
     7
370
    15
100
AcDbLine
 10
201.168209733
 20
127.237083331
 30
0.0
 11
201.168209733
 21
127.2390169011
 31
0.0
  0
LINE
  5
FB
330
1F
100
AcDbEntity
  8
0
  6
Continuous
 62
     7
370
    15
100
AcDbLine
 10
201.313209733
 20
127.3588374751
 30
0.0
 11
201.313209733
 21
127.335127242
 31
0.0
  0
SPLINE
  5
FC
330
1F
100
AcDbEntity
  8
0
  6
Continuous
 62
     7
370
    15
100
AcDbSpline
210
0.0
220
0.0
230
1.0
 70
     8
 71
     3
 72
    10
 73
     6
 74
     0
 42
0.00000001
 43
0.00000001
 40
0.0
 40
0.0
 40
0.0
 40
0.0
 40
0.3816828359346925
 40
0.7620612310505205
 40
1.0
 40
1.0
 40
1.0
 40
1.0
 10
201.1682097329537
 20
129.1212375829425
 30
0.0
 10
201.1838348302182
 20
129.1199519449106
 30
0.0
 10
201.2150316243511
 20
129.1173850626485
 30
0.0
 10
201.2528267093149
 20
129.1016875591937
 30
0.0
 10
201.269099711633
 20
129.086160098835
 30
0.0
 10
201.2753618346401
 20
129.0801848728226
 30
0.0
  0
LINE
  5
FD
330
1F
100
AcDbEntity
  8
0
  6
Continuous
 62
     7
370
    15
100
AcDbLine
 10
200.633209733
 20
129.0419073929
 30
0.0
 11
200.633209733
 21
129.098171153
 31
0.0
  0
LINE
  5
FE
330
1F
100
AcDbEntity
  8
0
  6
Continuous
 62
     7
370
    15
100
AcDbLine
 10
200.633209733
 20
128.7117978372
 30
0.0
 11
200.633209733
 21
129.0419073929
 31
0.0
  0
SPLINE
  5
FF
330
1F
100
AcDbEntity
  8
0
  6
Continuous
 62
     7
370
    15
100
AcDbSpline
210
0.0
220
0.0
230
1.0
 70
     8
 71
     3
 72
    13
 73
     9
 74
     0
 42
0.00000001
 43
0.00000001
 40
0.0
 40
0.0
 40
0.0
 40
0.0
 40
0.0075462231144475
 40
0.2722763788513449
 40
0.4815195415733427
 40
0.66135416169213
 40
0.8304588949397896
 40
1.0
 40
1.0
 40
1.0
 40
1.0
 10
201.0732097329537
 20
128.5134588076937
 30
0.0
 10
201.0732100513579
 20
128.5134373141942
 30
0.0
 10
201.073221539748
 20
128.5126618040974
 30
0.0
 10
201.0743801057095
 20
128.5112668385504
 30
0.0
 10
201.0786519836366
 20
128.5095314658269
 30
0.0
 10
201.0842191439471
 20
128.5083149281382
 30
0.0
 10
201.0908327232852
 20
128.5075041365613
 30
0.0
 10
201.095748618225
 20
128.5073970373449
 30
0.0
 10
201.0982097329537
 20
128.5073434187338
 30
0.0
  0
LINE
  5
100
330
1F
100
AcDbEntity
  8
0
  6
Continuous
 62
     7
370
    15
100
AcDbLine
 10
201.073209733
 20
127.7308654525
 30
0.0
 11
201.073209733
 21
128.5134588077
 31
0.0
  0
SPLINE
  5
101
330
1F
100
AcDbEntity
  8
0
  6
Continuous
 62
     7
370
    15
100
AcDbSpline
210
0.0
220
0.0
230
1.0
 70
     8
 71
     3
 72
    13
 73
     9
 74
     0
 42
0.00000001
 43
0.00000001
 40
0.0
 40
0.0
 40
0.0
 40
0.0
 40
0.1695411050601789
 40
0.3386458383078773
 40
0.5184804584270152
 40
0.7277236211485717
 40
0.9924537768855249
 40
1.0
 40
1.0
 40
1.0
 40
1.0
 10
201.1682097329537
 20
128.5073434187338
 30
0.0
 10
201.1706708476823
 20
128.5073970373449
 30
0.0
 10
201.1755867426222
 20
128.5075041365613
 30
0.0
 10
201.1822003219602
 20
128.5083149281382
 30
0.0
 10
201.1877674822706
 20
128.5095314658269
 30
0.0
 10
201.1920393601979
 20
128.5112668385504
 30
0.0
 10
201.1931979261591
 20
128.5126618040974
 30
0.0
 10
201.1932094145494
 20
128.5134373141942
 30
0.0
 10
201.1932097329536
 20
128.5134588076937
 30
0.0
  0
LINE
  5
102
330
1F
100
AcDbEntity
  8
0
  6
Continuous
 62
     7
370
    15
100
AcDbLine
 10
201.193209733
 20
128.5134588077
 30
0.0
 11
201.193209733
 21
127.7707951591
 31
0.0
  0
LINE
  5
103
330
1F
100
AcDbEntity
  8
0
  6
Continuous
 62
     7
370
    15
100
AcDbLine
 10
201.168209733
 20
128.5073434187
 30
0.0
 11
201.098209733
 21
128.5073434187
 31
0.0
  0
SPLINE
  5
104
330
1F
100
AcDbEntity
  8
0
  6
Continuous
 62
     7
370
    15
100
AcDbSpline
210
0.0
220
0.0
230
1.0
 70
     8
 71
     3
 72
    12
 73
     8
 74
     0
 42
0.00000001
 43
0.00000001
 40
0.0
 40
0.0
 40
0.0
 40
0.0
 40
0.2028202020467029
 40
0.4049472449426286
 40
0.6098312030740567
 40
0.8226939241827144
 40
1.0
 40
1.0
 40
1.0
 40
1.0
 10
201.2182097329537
 20
129.077171245456
 30
0.0
 10
201.2024956489001
 20
129.0760496212027
 30
0.0
 10
201.1711211853109
 20
129.0738102059638
 30
0.0
 10
201.1290815602639
 20
129.0564041391865
 30
0.0
 10
201.09637370672
 20
129.030499692858
 30
0.0
 10
201.0765527800934
 20
128.9992986147025
 30
0.0
 10
201.0742542595011
 20
128.9771630079793
 30
0.0
 10
201.0732097329537
 20
128.9671038295036
 30
0.0
  0
SPLINE
  5
105
330
1F
100
AcDbEntity
  8
0
  6
Continuous
 62
     7
370
    15
100
AcDbSpline
210
0.0
220
0.0
230
1.0
 70
     8
 71
     3
 72
    12
 73
     8
 74
     0
 42
0.00000001
 43
0.00000001
 40
0.0
 40
0.0
 40
0.0
 40
0.0
 40
0.2289440738516393
 40
0.4594214300241774
 40
0.6825355698157956
 40
0.8947175231628811
 40
1.0
 40
1.0
 40
1.0
 40
1.0
 10
201.0732097329537
 20
128.5357073745114
 30
0.0
 10
201.0749431814114
 20
128.5473121903788
 30
0.0
 10
201.0784216875633
 20
128.5705995417886
 30
0.0
 10
201.1058086721445
 20
128.6014883605268
 30
0.0
 10
201.1455123255928
 20
128.623775272702
 30
0.0
 10
201.1855999245281
 20
128.6338002002085
 30
0.0
 10
201.2100884638368
 20
128.6346528985191
 30
0.0
 10
201.2182097329537
 20
128.6349356835545
 30
0.0
  0
LINE
  5
106
330
1F
100
AcDbEntity
  8
0
  6
Continuous
 62
     7
370
    15
100
AcDbLine
 10
201.073209733
 20
128.5357073745
 30
0.0
 11
201.073209733
 21
128.9671038295
 31
0.0
  0
LINE
  5
107
330
1F
100
AcDbEntity
  8
0
  6
Continuous
 62
     7
370
    15
100
AcDbLine
 10
201.753209733
 20
129.0551848728
 30
0.0
 11
201.753209733
 21
128.6237884178
 31
0.0
  0
LINE
  5
108
330
1F
100
AcDbEntity
  8
0
  6
Continuous
 62
     7
370
    15
100
AcDbLine
 10
201.753209733
 20
128.6237884178
 30
0.0
 11
201.753209733
 21
128.5725681756
 31
0.0
  0
LINE
  5
109
330
1F
100
AcDbEntity
  8
0
  6
Continuous
 62
     7
370
    15
100
AcDbLine
 10
201.073209733
 20
128.5134588077
 30
0.0
 11
201.073209733
 21
128.5357073745
 31
0.0
  0
LINE
  5
10A
330
1F
100
AcDbEntity
  8
0
  6
Continuous
 62
     7
370
    15
100
AcDbLine
 10
201.193209733
 20
128.5357073745
 30
0.0
 11
201.193209733
 21
128.5134588077
 31
0.0
  0
LINE
  5
10B
330
1F
100
AcDbEntity
  8
0
  6
Continuous
 62
     7
370
    15
100
AcDbLine
 10
201.218209733
 20
129.0801848728
 30
0.0
 11
201.218209733
 21
129.0771712455
 31
0.0
  0
LINE
  5
10C
330
1F
100
AcDbEntity
  8
0
  6
Continuous
 62
     7
370
    15
100
AcDbLine
 10
201.073209733
 20
128.9671038295
 30
0.0
 11
201.073209733
 21
129.025127242
 31
0.0
  0
LINE
  5
10D
330
1F
100
AcDbEntity
  8
0
  6
Continuous
 62
     7
370
    15
100
AcDbLine
 10
201.753209733
 20
127.3562898534
 30
0.0
 11
201.753209733
 21
127.3050696112
 31
0.0
  0
LINE
  5
10E
330
1F
100
AcDbEntity
  8
0
  6
Continuous
 62
     7
370
    15
100
AcDbLine
 10
201.753209733
 20
127.6299954112
 30
0.0
 11
201.753209733
 21
127.3562898534
 31
0.0
  0
LINE
  5
10F
330
1F
100
AcDbEntity
  8
0
  6
Continuous
 62
     7
370
    15
100
AcDbLine
 10
201.0285515342
 20
128.6408850464
 30
0.0
 11
201.073209733
 21
128.3750497487
 31
0.0
  0
SPLINE
  5
110
330
1F
100
AcDbEntity
  8
0
  6
Continuous
 62
     7
370
    15
100
AcDbSpline
210
0.0
220
0.0
230
1.0
 70
     8
 71
     3
 72
     9
 73
     5
 74
     0
 42
0.00000001
 43
0.00000001
 40
0.0
 40
0.0
 40
0.0
 40
0.0
 40
0.0702005767034051
 40
1.0
 40
1.0
 40
1.0
 40
1.0
 10
201.0732097329537
 20
128.3750497487382
 30
0.0
 10
201.0731651213269
 20
128.3687478792538
 30
0.0
 10
201.0725296332889
 20
128.2789783961478
 30
0.0
 10
201.0497406850994
 20
128.1910086605506
 30
0.0
 10
201.0285515342152
 20
128.1092144511246
 30
0.0
  0
LINE
  5
111
330
1F
100
AcDbEntity
  8
0
  6
Continuous
 62
     7
370
    15
100
AcDbLine
 10
201.0285515342
 20
128.1092144511
 30
0.0
 11
200.5978679317
 21
128.1092144511
 31
0.0
  0
SPLINE
  5
112
330
1F
100
AcDbEntity
  8
0
  6
Continuous
 62
     7
370
    15
100
AcDbSpline
210
0.0
220
0.0
230
1.0
 70
     8
 71
     3
 72
     9
 73
     5
 74
     0
 42
0.00000001
 43
0.00000001
 40
0.0
 40
0.0
 40
0.0
 40
0.0
 40
0.0702005767034049
 40
0.9999999999999999
 40
0.9999999999999999
 40
0.9999999999999999
 40
0.9999999999999999
 10
200.5532097329537
 20
128.3750497487382
 30
0.0
 10
200.5532543445804
 20
128.3687478792538
 30
0.0
 10
200.5538898326184
 20
128.2789783961478
 30
0.0
 10
200.576678780808
 20
128.1910086605505
 30
0.0
 10
200.5978679316922
 20
128.1092144511246
 30
0.0
  0
LINE
  5
113
330
1F
100
AcDbEntity
  8
0
  6
Continuous
 62
     7
370
    15
100
AcDbLine
 10
200.5978679317
 20
128.6408850464
 30
0.0
 11
200.553209733
 21
128.3750497487
 31
0.0
  0
LINE
  5
114
330
1F
100
AcDbEntity
  8
0
  6
Continuous
 62
     7
370
    15
100
AcDbLine
 10
201.0285515342
 20
128.6408850464
 30
0.0
 11
200.5978679317
 21
128.6408850464
 31
0.0
  0
SPLINE
  5
115
330
1F
100
AcDbEntity
  8
0
  6
Continuous
 62
     7
370
    15
100
AcDbSpline
210
0.0
220
0.0
230
1.0
 70
     8
 71
     3
 72
     9
 73
     5
 74
     0
 42
0.00000001
 43
0.00000001
 40
0.0
 40
0.0
 40
0.0
 40
0.0
 40
0.2686336050555831
 40
1.0
 40
1.0
 40
1.0
 40
1.0
 10
201.0732097329537
 20
127.8788355489552
 30
0.0
 10
201.0725468376952
 20
127.8997834375879
 30
0.0
 10
201.0700791819516
 20
127.9777628423922
 30
0.0
 10
201.0460937055916
 20
128.0536864649808
 30
0.0
 10
201.0285515342152
 20
128.1092144511246
 30
0.0
  0
SPLINE
  5
116
330
1F
100
AcDbEntity
  8
0
  6
Continuous
 62
     7
370
    15
100
AcDbSpline
210
0.0
220
0.0
230
1.0
 70
     8
 71
     3
 72
     9
 73
     5
 74
     0
 42
0.00000001
 43
0.00000001
 40
0.0
 40
0.0
 40
0.0
 40
0.0
 40
0.2686336050555821
 40
0.9999999999999999
 40
0.9999999999999999
 40
0.9999999999999999
 40
0.9999999999999999
 10
200.5532097329537
 20
127.8788355489552
 30
0.0
 10
200.5538726282121
 20
127.8997834375879
 30
0.0
 10
200.5563402839557
 20
127.9777628423922
 30
0.0
 10
200.5803257603157
 20
128.0536864649808
 30
0.0
 10
200.5978679316922
 20
128.1092144511246
 30
0.0
  0
LINE
  5
117
330
1F
100
AcDbEntity
  8
0
  6
Continuous
 62
     7
370
    15
100
AcDbLine
 10
200.553209733
 20
127.878835549
 30
0.0
 11
200.553209733
 21
128.3750497487
 31
0.0
  0
LINE
  5
118
330
1F
100
AcDbEntity
  8
0
  6
Continuous
 62
     7
370
    15
100
AcDbLine
 10
201.0511014332
 20
127.7308654525
 30
0.0
 11
201.073209733
 21
127.878835549
 31
0.0
  0
LINE
  5
119
330
1F
100
AcDbEntity
  8
0
  6
Continuous
 62
     7
370
    15
100
AcDbLine
 10
200.633209733
 20
127.6484566468
 30
0.0
 11
200.5978679317
 21
127.6484566468
 31
0.0
  0
SPLINE
  5
11A
330
1F
100
AcDbEntity
  8
0
  6
Continuous
 62
     7
370
    15
100
AcDbSpline
210
0.0
220
0.0
230
1.0
 70
     8
 71
     3
 72
     9
 73
     5
 74
     0
 42
0.00000001
 43
0.00000001
 40
0.0
 40
0.0
 40
0.0
 40
0.0
 40
0.2575513451038141
 40
0.9999999999999999
 40
0.9999999999999999
 40
0.9999999999999999
 40
0.9999999999999999
 10
200.5978679316922
 20
127.6484566467858
 30
0.0
 10
200.5911264094147
 20
127.6677973558895
 30
0.0
 10
200.5649509597203
 20
127.742891932064
 30
0.0
 10
200.558212610941
 20
127.8209106538836
 30
0.0
 10
200.5532097329537
 20
127.8788355489552
 30
0.0
  0
SPLINE
  5
11B
330
1F
100
AcDbEntity
  8
0
  6
Continuous
 62
     7
370
    15
100
AcDbSpline
210
0.0
220
0.0
230
1.0
 70
     8
 71
     3
 72
     9
 73
     5
 74
     0
 42
0.00000001
 43
0.00000001
 40
0.0
 40
0.0
 40
0.0
 40
0.0
 40
0.0702005767033684
 40
1.0
 40
1.0
 40
1.0
 40
1.0
 10
200.5532097329537
 20
128.6763414417961
 30
0.0
 10
200.5532543445804
 20
128.6755009154307
 30
0.0
 10
200.5538898326185
 20
128.6635277037452
 30
0.0
 10
200.576678780808
 20
128.6517945375311
 30
0.0
 10
200.5978679316922
 20
128.6408850463519
 30
0.0
  0
LINE
  5
11C
330
1F
100
AcDbEntity
  8
0
  6
Continuous
 62
     7
370
    15
100
AcDbLine
 10
200.553209733
 20
128.3750497487
 30
0.0
 11
200.553209733
 21
128.6763414418
 31
0.0
  0
SPLINE
  5
11D
330
1F
100
AcDbEntity
  8
0
  6
Continuous
 62
     7
370
    15
100
AcDbSpline
210
0.0
220
0.0
230
1.0
 70
     8
 71
     3
 72
     9
 73
     5
 74
     0
 42
0.00000001
 43
0.00000001
 40
0.0
 40
0.0
 40
0.0
 40
0.0
 40
0.0702005767033686
 40
1.0
 40
1.0
 40
1.0
 40
1.0
 10
201.0732097329537
 20
128.6763414417961
 30
0.0
 10
201.0731651213269
 20
128.6755009154307
 30
0.0
 10
201.0725296332888
 20
128.6635277037451
 30
0.0
 10
201.0497406850993
 20
128.6517945375311
 30
0.0
 10
201.0285515342152
 20
128.6408850463519
 30
0.0
  0
LINE
  5
11E
330
1F
100
AcDbEntity
  8
0
  6
Continuous
 62
     7
370
    15
100
AcDbLine
 10
200.5978679317
 20
127.6484566468
 30
0.0
 11
200.553209733
 21
127.6839130422
 31
0.0
  0
LINE
  5
11F
330
1F
100
AcDbEntity
  8
0
  6
Continuous
 62
     7
370
    15
100
AcDbLine
 10
200.553209733
 20
127.878835549
 30
0.0
 11
200.553209733
 21
127.6801423126
 31
0.0
  0
LINE
  5
120
330
1F
100
AcDbEntity
  8
0
  6
Continuous
 62
     7
370
    15
100
AcDbLine
 10
201.0285515342
 20
128.7117978372
 30
0.0
 11
201.073209733
 21
128.6763414418
 31
0.0
  0
LINE
  5
121
330
1F
100
AcDbEntity
  8
0
  6
Continuous
 62
     7
370
    15
100
AcDbLine
 10
200.5978679317
 20
128.7117978372
 30
0.0
 11
200.553209733
 21
128.6763414418
 31
0.0
  0
LINE
  5
122
330
1F
100
AcDbEntity
  8
0
  6
Continuous
 62
     7
370
    15
100
AcDbLine
 10
201.0285515342
 20
128.7117978372
 30
0.0
 11
200.5978679317
 21
128.7117978372
 31
0.0
  0
LINE
  5
123
330
1F
100
AcDbEntity
  8
0
  6
Continuous
 62
     7
370
    15
100
AcDbLine
 10
202.3335515342
 20
127.9897439731
 30
0.0
 11
202.353209733
 21
127.9068025068
 31
0.0
  0
LINE
  5
124
330
1F
100
AcDbEntity
  8
0
  6
Continuous
 62
     7
370
    15
100
AcDbLine
 10
202.353209733
 20
127.690369237
 30
0.0
 11
202.3335515342
 21
127.6129020725
 31
0.0
  0
LINE
  5
125
330
1F
100
AcDbEntity
  8
0
  6
Continuous
 62
     7
370
    15
100
AcDbLine
 10
202.3335515342
 20
127.6129020725
 30
0.0
 11
201.9028679317
 21
127.6129020725
 31
0.0
  0
SPLINE
  5
126
330
1F
100
AcDbEntity
  8
0
  6
Continuous
 62
     7
370
    15
100
AcDbSpline
210
0.0
220
0.0
230
1.0
 70
     8
 71
     3
 72
     9
 73
     5
 74
     0
 42
0.00000001
 43
0.00000001
 40
0.0
 40
0.0
 40
0.0
 40
0.0
 40
0.0702005767034378
 40
1.0
 40
1.0
 40
1.0
 40
1.0
 10
201.8582097329536
 20
127.8013230228312
 30
0.0
 10
201.8582543445804
 20
127.7968563314342
 30
0.0
 10
201.8588898326185
 20
127.7332287715648
 30
0.0
 10
201.881678780808
 20
127.6708768516834
 30
0.0
 10
201.9028679316922
 20
127.6129020725364
 30
0.0
  0
LINE
  5
127
330
1F
100
AcDbEntity
  8
0
  6
Continuous
 62
     7
370
    15
100
AcDbLine
 10
201.9028679317
 20
127.9897439731
 30
0.0
 11
201.858209733
 21
127.8013230228
 31
0.0
  0
LINE
  5
128
330
1F
100
AcDbEntity
  8
0
  6
Continuous
 62
     7
370
    15
100
AcDbLine
 10
202.3335515342
 20
127.9897439731
 30
0.0
 11
201.9028679317
 21
127.9897439731
 31
0.0
  0
SPLINE
  5
129
330
1F
100
AcDbEntity
  8
0
  6
Continuous
 62
     7
370
    15
100
AcDbSpline
210
0.0
220
0.0
230
1.0
 70
     8
 71
     3
 72
     9
 73
     5
 74
     0
 42
0.00000001
 43
0.00000001
 40
0.0
 40
0.0
 40
0.0
 40
0.0
 40
0.9250528693244594
 40
1.0
 40
1.0
 40
1.0
 40
1.0
 10
202.3335515342151
 20
127.9897439731261
 30
0.0
 10
202.3414069054917
 20
128.0133474531088
 30
0.0
 10
202.3498987134056
 20
128.0388632703831
 30
0.0
 10
202.3529788830751
 20
128.0653813445724
 30
0.0
 10
202.3532097329538
 20
128.0673687981439
 30
0.0
  0
SPLINE
  5
12A
330
1F
100
AcDbEntity
  8
0
  6
Continuous
 62
     7
370
    15
100
AcDbSpline
210
0.0
220
0.0
230
1.0
 70
     8
 71
     3
 72
     9
 73
     5
 74
     0
 42
0.00000001
 43
0.00000001
 40
0.0
 40
0.0
 40
0.0
 40
0.0
 40
0.2575513451038081
 40
0.9999999999999999
 40
0.9999999999999999
 40
0.9999999999999999
 40
0.9999999999999999
 10
201.9028679316922
 20
127.9897439731261
 30
0.0
 10
201.8961264094147
 20
128.0135537423712
 30
0.0
 10
201.8699509597203
 20
128.1060004319253
 30
0.0
 10
201.863212610941
 20
128.2020469498349
 30
0.0
 10
201.8582097329536
 20
128.2733565578644
 30
0.0
  0
LINE
  5
12B
330
1F
100
AcDbEntity
  8
0
  6
Continuous
 62
     7
370
    15
100
AcDbLine
 10
201.858209733
 20
127.8013230228
 30
0.0
 11
201.858209733
 21
128.2733565579
 31
0.0
  0
SPLINE
  5
12C
330
1F
100
AcDbEntity
  8
0
  6
Continuous
 62
     7
370
    15
100
AcDbSpline
210
0.0
220
0.0
230
1.0
 70
     8
 71
     3
 72
     9
 73
     5
 74
     0
 42
0.00000001
 43
0.00000001
 40
0.0
 40
0.0
 40
0.0
 40
0.0
 40
0.2686336050555637
 40
0.9999999999999999
 40
0.9999999999999999
 40
0.9999999999999999
 40
0.9999999999999999
 10
201.8582097329536
 20
128.2733565578644
 30
0.0
 10
201.8588726282121
 20
128.299144877819
 30
0.0
 10
201.8613402839557
 20
128.3951429937256
 30
0.0
 10
201.8853257603158
 20
128.4886102975555
 30
0.0
 10
201.9028679316922
 20
128.5569691426028
 30
0.0
  0
LINE
  5
12D
330
1F
100
AcDbEntity
  8
0
  6
Continuous
 62
     7
370
    15
100
AcDbLine
 10
202.3335515342
 20
128.5569691426
 30
0.0
 11
201.9028679317
 21
128.5569691426
 31
0.0
  0
LINE
  5
12E
330
1F
100
AcDbEntity
  8
0
  6
Continuous
 62
     7
370
    15
100
AcDbLine
 10
202.353209733
 20
128.458273309
 30
0.0
 11
202.3335515342
 21
128.5569691426
 31
0.0
  0
LINE
  5
12F
330
1F
100
AcDbEntity
  8
0
  6
Continuous
 62
     7
370
    15
100
AcDbLine
 10
202.353209733
 20
128.5961061175
 30
0.0
 11
202.3335515342
 21
128.5569691426
 31
0.0
  0
SPLINE
  5
130
330
1F
100
AcDbEntity
  8
0
  6
Continuous
 62
     7
370
    15
100
AcDbSpline
210
0.0
220
0.0
230
1.0
 70
     8
 71
     3
 72
     9
 73
     5
 74
     0
 42
0.00000001
 43
0.00000001
 40
0.0
 40
0.0
 40
0.0
 40
0.0
 40
0.0702005767034443
 40
1.0
 40
1.0
 40
1.0
 40
1.0
 10
201.8582097329536
 20
128.6521607770462
 30
0.0
 10
201.8582543445804
 20
128.6499041720669
 30
0.0
 10
201.8588898326185
 20
128.6177590660682
 30
0.0
 10
201.881678780808
 20
128.5862584226689
 30
0.0
 10
201.9028679316922
 20
128.5569691426028
 30
0.0
  0
LINE
  5
131
330
1F
100
AcDbEntity
  8
0
  6
Continuous
 62
     7
370
    15
100
AcDbLine
 10
201.858209733
 20
128.2733565579
 30
0.0
 11
201.858209733
 21
128.652160777
 31
0.0
  0
LINE
  5
132
330
1F
100
AcDbEntity
  8
0
  6
Continuous
 62
     7
370
    15
100
AcDbLine
 10
202.3335515342
 20
128.7473524115
 30
0.0
 11
202.351146026
 21
128.709848695
 31
0.0
  0
LINE
  5
133
330
1F
100
AcDbEntity
  8
0
  6
Continuous
 62
     7
370
    15
100
AcDbLine
 10
201.9028679317
 20
128.7473524115
 30
0.0
 11
201.858209733
 21
128.652160777
 31
0.0
  0
LINE
  5
134
330
1F
100
AcDbEntity
  8
0
  6
Continuous
 62
     7
370
    15
100
AcDbLine
 10
202.3335515342
 20
128.7473524115
 30
0.0
 11
201.9028679317
 21
128.7473524115
 31
0.0
  0
LINE
  5
135
330
1F
100
AcDbEntity
  8
0
  6
Continuous
 62
     7
370
    15
100
AcDbLine
 10
201.9028679317
 20
127.6129020725
 30
0.0
 11
201.8852734399
 21
127.6504057891
 31
0.0
  0
LINE
  5
136
330
1F
100
AcDbEntity
  8
0
  6
Continuous
 62
     7
370
    15
100
AcDbLine
 10
201.858209733
 20
127.680127242
 30
0.0
 11
201.858209733
 21
127.8013230228
 31
0.0
  0
LINE
  5
137
330
1F
100
AcDbEntity
  8
0
  6
Continuous
 62
     7
370
    15
100
AcDbLine
 10
202.3335515342
 20
127.6129020725
 30
0.0
 11
202.351146026
 21
127.6504057891
 31
0.0
  0
LINE
  5
138
330
1F
100
AcDbEntity
  8
0
  6
Continuous
 62
     7
370
    15
100
AcDbLine
 10
201.858209733
 20
128.652160777
 30
0.0
 11
201.858209733
 21
128.680127242
 31
0.0
  0
LINE
  5
139
330
1F
100
AcDbEntity
  8
0
  6
Continuous
 62
     7
370
    15
100
AcDbLine
 10
201.7885515342
 20
128.7302590728
 30
0.0
 11
201.833209733
 21
128.5168706167
 31
0.0
  0
SPLINE
  5
13A
330
1F
100
AcDbEntity
  8
0
  6
Continuous
 62
     7
370
    15
100
AcDbSpline
210
0.0
220
0.0
230
1.0
 70
     8
 71
     3
 72
     9
 73
     5
 74
     0
 42
0.00000001
 43
0.00000001
 40
0.0
 40
0.0
 40
0.0
 40
0.0
 40
0.0702005767034318
 40
1.0
 40
1.0
 40
1.0
 40
1.0
 10
201.8332097329537
 20
128.51687061674
 30
0.0
 10
201.8331651213269
 20
128.5118120477244
 30
0.0
 10
201.8325296332889
 20
128.4397532520117
 30
0.0
 10
201.8097406850993
 20
128.369139130297
 30
0.0
 10
201.7885515342151
 20
128.30348216065
 30
0.0
  0
LINE
  5
13B
330
1F
100
AcDbEntity
  8
0
  6
Continuous
 62
     7
370
    15
100
AcDbLine
 10
201.7885515342
 20
128.3034821606
 30
0.0
 11
201.3578679317
 21
128.3034821606
 31
0.0
  0
SPLINE
  5
13C
330
1F
100
AcDbEntity
  8
0
  6
Continuous
 62
     7
370
    15
100
AcDbSpline
210
0.0
220
0.0
230
1.0
 70
     8
 71
     3
 72
     9
 73
     5
 74
     0
 42
0.00000001
 43
0.00000001
 40
0.0
 40
0.0
 40
0.0
 40
0.0
 40
0.0702005767034316
 40
1.0
 40
1.0
 40
1.0
 40
1.0
 10
201.3132097329537
 20
128.51687061674
 30
0.0
 10
201.3132543445804
 20
128.5118120477244
 30
0.0
 10
201.3138898326184
 20
128.4397532520117
 30
0.0
 10
201.336678780808
 20
128.3691391302969
 30
0.0
 10
201.3578679316922
 20
128.30348216065
 30
0.0
  0
LINE
  5
13D
330
1F
100
AcDbEntity
  8
0
  6
Continuous
 62
     7
370
    15
100
AcDbLine
 10
201.3196341559
 20
128.5475681756
 30
0.0
 11
201.313209733
 21
128.5168706167
 31
0.0
  0
LINE
  5
13E
330
1F
100
AcDbEntity
  8
0
  6
Continuous
 62
     7
370
    15
100
AcDbLine
 10
201.7885515342
 20
128.7302590728
 30
0.0
 11
201.753209733
 21
128.7302590728
 31
0.0
  0
SPLINE
  5
13F
330
1F
100
AcDbEntity
  8
0
  6
Continuous
 62
     7
370
    15
100
AcDbSpline
210
0.0
220
0.0
230
1.0
 70
     8
 71
     3
 72
     9
 73
     5
 74
     0
 42
0.00000001
 43
0.00000001
 40
0.0
 40
0.0
 40
0.0
 40
0.0
 40
0.2686336050555688
 40
1.0
 40
1.0
 40
1.0
 40
1.0
 10
201.3132097329537
 20
128.0284162452415
 30
0.0
 10
201.3138726282121
 20
128.0534274338024
 30
0.0
 10
201.3163402839557
 20
128.1465326451023
 30
0.0
 10
201.3403257603157
 20
128.2371833103838
 30
0.0
 10
201.3578679316922
 20
128.30348216065
 30
0.0
  0
SPLINE
  5
140
330
1F
100
AcDbEntity
  8
0
  6
Continuous
 62
     7
370
    15
100
AcDbSpline
210
0.0
220
0.0
230
1.0
 70
     8
 71
     3
 72
     9
 73
     5
 74
     0
 42
0.00000001
 43
0.00000001
 40
0.0
 40
0.0
 40
0.0
 40
0.0
 40
0.2686336050555698
 40
0.9999999999999999
 40
0.9999999999999999
 40
0.9999999999999999
 40
0.9999999999999999
 10
201.8332097329537
 20
128.0284162452415
 30
0.0
 10
201.8325468376952
 20
128.0534274338024
 30
0.0
 10
201.8300791819516
 20
128.1465326451022
 30
0.0
 10
201.8060937055916
 20
128.2371833103838
 30
0.0
 10
201.7885515342151
 20
128.30348216065
 30
0.0
  0
LINE
  5
141
330
1F
100
AcDbEntity
  8
0
  6
Continuous
 62
     7
370
    15
100
AcDbLine
 10
201.833209733
 20
128.0284162452
 30
0.0
 11
201.833209733
 21
128.5168706167
 31
0.0
  0
SPLINE
  5
142
330
1F
100
AcDbEntity
  8
0
  6
Continuous
 62
     7
370
    15
100
AcDbSpline
210
0.0
220
0.0
230
1.0
 70
     8
 71
     3
 72
     9
 73
     5
 74
     0
 42
0.00000001
 43
0.00000001
 40
0.0
 40
0.0
 40
0.0
 40
0.0
 40
0.257551345103798
 40
1.0
 40
1.0
 40
1.0
 40
1.0
 10
201.7885515342151
 20
127.753350329833
 30
0.0
 10
201.7952930564926
 20
127.7764425913386
 30
0.0
 10
201.821468506187
 20
127.8661033985702
 30
0.0
 10
201.8282068549663
 20
127.959255553278
 30
0.0
 10
201.8332097329537
 20
128.0284162452415
 30
0.0
  0
LINE
  5
143
330
1F
100
AcDbEntity
  8
0
  6
Continuous
 62
     7
370
    15
100
AcDbLine
 10
201.7885515342
 20
127.7533503298
 30
0.0
 11
201.3578679317
 21
127.7533503298
 31
0.0
  0
SPLINE
  5
144
330
1F
100
AcDbEntity
  8
0
  6
Continuous
 62
     7
370
    15
100
AcDbSpline
210
0.0
220
0.0
230
1.0
 70
     8
 71
     3
 72
     9
 73
     5
 74
     0
 42
0.00000001
 43
0.00000001
 40
0.0
 40
0.0
 40
0.0
 40
0.0
 40
0.2575513451038015
 40
0.9999999999999999
 40
0.9999999999999999
 40
0.9999999999999999
 40
0.9999999999999999
 10
201.3578679316922
 20
127.753350329833
 30
0.0
 10
201.3511264094147
 20
127.7764425913386
 30
0.0
 10
201.3249509597203
 20
127.8661033985702
 30
0.0
 10
201.318212610941
 20
127.959255553278
 30
0.0
 10
201.3132097329537
 20
128.0284162452415
 30
0.0
  0
LINE
  5
145
330
1F
100
AcDbEntity
  8
0
  6
Continuous
 62
     7
370
    15
100
AcDbLine
 10
201.7885515342
 20
127.7533503298
 30
0.0
 11
201.833209733
 21
127.6916728705
 31
0.0
  0
LINE
  5
146
330
1F
100
AcDbEntity
  8
0
  6
Continuous
 62
     7
370
    15
100
AcDbLine
 10
201.833209733
 20
128.0284162452
 30
0.0
 11
201.833209733
 21
127.6916728705
 31
0.0
  0
LINE
  5
147
330
1F
100
AcDbEntity
  8
0
  6
Continuous
 62
     7
370
    15
100
AcDbLine
 10
201.3578679317
 20
127.7533503298
 30
0.0
 11
201.313209733
 21
127.6916728705
 31
0.0
  0
LINE
  5
148
330
1F
100
AcDbEntity
  8
0
  6
Continuous
 62
     7
370
    15
100
AcDbLine
 10
201.8182977248
 20
128.6918881203
 30
0.0
 11
201.7885515342
 21
128.7302590728
 31
0.0
  0
LINE
  5
149
330
1F
100
AcDbEntity
  8
0
  6
Continuous
 62
     7
370
    15
100
AcDbLine
 10
201.833209733
 20
128.680127242
 30
0.0
 11
201.833209733
 21
128.5168706167
 31
0.0
  0
SPLINE
  5
14A
330
1F
100
AcDbEntity
  8
0
  6
Continuous
 62
     7
370
    15
100
AcDbSpline
210
0.0
220
0.0
230
1.0
 70
     8
 71
     3
 72
     9
 73
     5
 74
     0
 42
0.00000001
 43
0.00000001
 40
0.0
 40
0.0
 40
0.0
 40
0.0
 40
0.0702005767034355
 40
1.0
 40
1.0
 40
1.0
 40
1.0
 10
201.8332097329537
 20
127.6916728705145
 30
0.0
 10
201.8331651213269
 20
127.6902107497869
 30
0.0
 10
201.8325296332889
 20
127.6693829902982
 30
0.0
 10
201.8097406850993
 20
127.6489727970798
 30
0.0
 10
201.7885515342151
 20
127.629995411196
 30
0.0
  0
LINE
  5
14B
330
1F
100
AcDbEntity
  8
0
  6
Continuous
 62
     7
370
    15
100
AcDbLine
 10
201.7885515342
 20
127.6299954112
 30
0.0
 11
201.3578679317
 21
127.6299954112
 31
0.0
  0
LINE
  5
14C
330
1F
100
AcDbEntity
  8
0
  6
Continuous
 62
     7
370
    15
100
AcDbLine
 10
201.3281217411
 20
127.6683663638
 30
0.0
 11
201.3578679317
 21
127.6299954112
 31
0.0
  0
LINE
  5
14D
330
1F
100
AcDbEntity
  8
0
  6
Continuous
 62
     7
370
    15
100
AcDbLine
 10
201.833209733
 20
127.6916728705
 30
0.0
 11
201.833209733
 21
127.680127242
 31
0.0
  0
LINE
  5
14E
330
1F
100
AcDbEntity
  8
0
  6
Continuous
 62
     7
370
    15
100
AcDbLine
 10
271.1332097259
 20
108.230127242
 30
0.0
 11
265.833209733
 21
108.230127242
 31
0.0
  0
LINE
  5
14F
330
1F
100
AcDbEntity
  8
0
  6
Continuous
 62
     7
370
    15
100
AcDbLine
 10
271.333209733
 20
108.830127242
 30
0.0
 11
265.633209733
 21
108.830127242
 31
0.0
  0
LINE
  5
150
330
1F
100
AcDbEntity
  8
0
  6
Continuous
 62
     7
370
    15
100
AcDbLine
 10
212.2332097259
 20
108.230127242
 30
0.0
 11
206.933209733
 21
108.230127242
 31
0.0
  0
LINE
  5
151
330
1F
100
AcDbEntity
  8
0
  6
Continuous
 62
     7
370
    15
100
AcDbLine
 10
212.433209733
 20
108.830127242
 30
0.0
 11
206.733209733
 21
108.830127242
 31
0.0
  0
LINE
  5
152
330
1F
100
AcDbEntity
  8
0
  6
Continuous
 62
     7
370
    15
100
AcDbLine
 10
206.083209733
 20
125.030127242
 30
0.0
 11
213.083209733
 21
125.030127242
 31
0.0
  0
LINE
  5
153
330
1F
100
AcDbEntity
  8
0
  6
Continuous
 62
     7
370
    15
100
AcDbLine
 10
213.083209733
 20
125.030127242
 30
0.0
 11
213.083209733
 21
125.230127242
 31
0.0
  0
LINE
  5
154
330
1F
100
AcDbEntity
  8
0
  6
Continuous
 62
     7
370
    15
100
AcDbLine
 10
206.083209733
 20
125.030127242
 30
0.0
 11
206.083209733
 21
125.230127242
 31
0.0
  0
LINE
  5
155
330
1F
100
AcDbEntity
  8
0
  6
Continuous
 62
     7
370
    15
100
AcDbLine
 10
212.679174755
 20
115.630127242
 30
0.0
 11
206.4872447109
 21
115.630127242
 31
0.0
  0
LINE
  5
156
330
1F
100
AcDbEntity
  8
0
  6
Continuous
 62
     7
370
    15
100
AcDbLine
 10
271.983209733
 20
125.030127242
 30
0.0
 11
271.983209733
 21
125.230127242
 31
0.0
  0
LINE
  5
157
330
1F
100
AcDbEntity
  8
0
  6
Continuous
 62
     7
370
    15
100
AcDbLine
 10
264.983209733
 20
125.030127242
 30
0.0
 11
271.983209733
 21
125.030127242
 31
0.0
  0
LINE
  5
158
330
1F
100
AcDbEntity
  8
0
  6
Continuous
 62
     7
370
    15
100
AcDbLine
 10
264.983209733
 20
125.030127242
 30
0.0
 11
264.983209733
 21
125.230127242
 31
0.0
  0
LINE
  5
159
330
1F
100
AcDbEntity
  8
0
  6
Continuous
 62
     7
370
    15
100
AcDbLine
 10
271.579174755
 20
115.630127242
 30
0.0
 11
265.3872447109
 21
115.630127242
 31
0.0
  0
LINE
  5
15A
330
1F
100
AcDbEntity
  8
0
  6
Continuous
 62
     7
370
    15
100
AcDbLine
 10
202.733209733
 20
191.640127242
 30
0.0
 11
202.728209733
 21
191.640127242
 31
0.0
  0
LINE
  5
15B
330
1F
100
AcDbEntity
  8
0
  6
Continuous
 62
     7
370
    15
100
AcDbLine
 10
202.728209733
 20
191.5813229157
 30
0.0
 11
202.728209733
 21
191.640127242
 31
0.0
  0
LINE
  5
15C
330
1F
100
AcDbEntity
  8
0
  6
Continuous
 62
     7
370
    15
100
AcDbLine
 10
273.113209733
 20
125.4671983098
 30
0.0
 11
273.113209733
 21
125.5308379201
 31
0.0
  0
LINE
  5
15D
330
1F
100
AcDbEntity
  8
0
  6
Continuous
 62
     7
370
    15
100
AcDbLine
 10
273.033209733
 20
125.4671983098
 30
0.0
 11
273.113209733
 21
125.4671983098
 31
0.0
  0
LINE
  5
15E
330
1F
100
AcDbEntity
  8
0
  6
Continuous
 62
     7
370
    15
100
AcDbLine
 10
273.033209733
 20
125.4671983098
 30
0.0
 11
273.033209733
 21
125.5308379201
 31
0.0
  0
LINE
  5
15F
330
1F
100
AcDbEntity
  8
0
  6
Continuous
 62
     7
370
    15
100
AcDbLine
 10
273.0261386651
 20
125.460127242
 30
0.0
 11
273.0261386651
 21
125.380127242
 31
0.0
  0
LINE
  5
160
330
1F
100
AcDbEntity
  8
0
  6
Continuous
 62
     7
370
    15
100
AcDbLine
 10
272.9624990548
 20
125.380127242
 30
0.0
 11
273.0261386651
 21
125.380127242
 31
0.0
  0
LINE
  5
161
330
1F
100
AcDbEntity
  8
0
  6
Continuous
 62
     7
370
    15
100
AcDbLine
 10
272.9624990548
 20
125.460127242
 30
0.0
 11
273.0261386651
 21
125.460127242
 31
0.0
  0
SPLINE
  5
162
330
1F
100
AcDbEntity
  8
0
  6
Continuous
 62
     7
370
    15
100
AcDbSpline
210
0.0
220
0.0
230
1.0
 70
     8
 71
     3
 72
    11
 73
     7
 74
     0
 42
0.00000001
 43
0.00000001
 40
0.0
 40
0.0
 40
0.0
 40
0.0
 40
0.2506719719564522
 40
0.5014887651676756
 40
0.7523060046713537
 40
1.0
 40
1.0
 40
1.0
 40
1.0
 10
273.0261386651417
 20
125.460127242012
 30
0.0
 10
273.0162845841086
 20
125.4620166172389
 30
0.0
 10
272.9965707290229
 20
125.4657964592456
 30
0.0
 10
272.9669971977954
 20
125.4948703433885
 30
0.0
 10
272.9375392929848
 20
125.5362422103551
 30
0.0
 10
272.9179453333109
 20
125.568900434274
 30
0.0
 10
272.9082097329537
 20
125.585127242012
 30
0.0
  0
SPLINE
  5
163
330
1F
100
AcDbEntity
  8
0
  6
Continuous
 62
     7
370
    15
100
AcDbSpline
210
0.0
220
0.0
230
1.0
 70
     8
 71
     3
 72
    11
 73
     7
 74
     0
 42
0.00000001
 43
0.00000001
 40
0.0
 40
0.0
 40
0.0
 40
0.0
 40
0.2506719719565152
 40
0.5014887651677886
 40
0.752306004671443
 40
1.0
 40
1.0
 40
1.0
 40
1.0
 10
272.9082097329537
 20
125.585127242012
 30
0.0
 10
272.9246336928693
 20
125.5752731609788
 30
0.0
 10
272.9574911013503
 20
125.5555593058931
 30
0.0
 10
272.9988960741673
 20
125.5259857746656
 30
0.0
 10
273.0276517653907
 20
125.4965278698549
 30
0.0
 10
273.0313648313958
 20
125.4769339101811
 30
0.0
 10
273.0332097329537
 20
125.4671983098238
 30
0.0
  0
LINE
  5
164
330
1F
100
AcDbEntity
  8
0
  6
Continuous
 62
     7
370
    15
100
AcDbLine
 10
272.908209733
 20
191.730127242
 30
0.0
 11
202.733209733
 21
191.730127242
 31
0.0
  0
LINE
  5
165
330
1F
100
AcDbEntity
  8
0
  6
Continuous
 62
     7
370
    15
100
AcDbLine
 10
272.908209733
 20
191.730127242
 30
0.0
 11
272.908209733
 21
191.650127242
 31
0.0
  0
LINE
  5
166
330
1F
100
AcDbEntity
  8
0
  6
Continuous
 62
     7
370
    15
100
AcDbLine
 10
202.733209733
 20
191.525127242
 30
0.0
 11
202.733209733
 21
191.730127242
 31
0.0
  0
SPLINE
  5
167
330
1F
100
AcDbEntity
  8
0
  6
Continuous
 62
     7
370
    15
100
AcDbSpline
210
0.0
220
0.0
230
1.0
 70
     8
 71
     3
 72
    11
 73
     7
 74
     0
 42
0.00000001
 43
0.00000001
 40
0.0
 40
0.0
 40
0.0
 40
0.0
 40
0.2500000000000067
 40
0.4999999999999967
 40
0.7500000000000081
 40
1.0
 40
1.0
 40
1.0
 40
1.0
 10
272.9082097329538
 20
125.5851272420123
 30
0.0
 10
272.9127338431106
 20
125.558264648032
 30
0.0
 10
272.9217820634241
 20
125.5045394600715
 30
0.0
 10
272.9353543938944
 20
125.4367777479665
 30
0.0
 10
272.9489267243649
 20
125.3893716592765
 30
0.0
 10
272.9579749446784
 20
125.3832087144337
 30
0.0
 10
272.9624990548352
 20
125.3801272420123
 30
0.0
  0
LINE
  5
168
330
1F
100
AcDbEntity
  8
0
  6
Continuous
 62
     7
370
    15
100
AcDbLine
 10
272.9624990548
 20
125.380127242
 30
0.0
 11
202.783209733
 21
125.380127242
 31
0.0
  0
LINE
  5
169
330
1F
100
AcDbEntity
  8
0
  6
Continuous
 62
     7
370
    15
100
AcDbLine
 10
202.783209733
 20
125.380127242
 30
0.0
 11
202.783209733
 21
125.585127242
 31
0.0
  0
LINE
  5
16A
330
1F
100
AcDbEntity
  8
0
  6
Continuous
 62
     7
370
    15
100
AcDbLine
 10
202.558209733
 20
125.585127242
 30
0.0
 11
202.353209733
 21
125.585127242
 31
0.0
  0
LINE
  5
16B
330
1F
100
AcDbEntity
  8
0
  6
Continuous
 62
     7
370
    15
100
AcDbLine
 10
202.353209733
 20
191.450127242
 30
0.0
 11
202.353209733
 21
125.585127242
 31
0.0
  0
LINE
  5
16C
330
1F
100
AcDbEntity
  8
0
  6
Continuous
 62
     7
370
    15
100
AcDbLine
 10
202.353209733
 20
191.450127242
 30
0.0
 11
202.558209733
 21
191.450127242
 31
0.0
  0
LINE
  5
16D
330
1F
100
AcDbEntity
  8
0
  6
Continuous
 62
     7
370
    15
100
AcDbLine
 10
202.743209733
 20
125.625127242
 30
0.0
 11
202.743209733
 21
125.585127242
 31
0.0
  0
LINE
  5
16E
330
1F
100
AcDbEntity
  8
0
  6
Continuous
 62
     7
370
    15
100
AcDbLine
 10
202.743209733
 20
125.585127242
 30
0.0
 11
202.558209733
 21
125.585127242
 31
0.0
  0
LINE
  5
16F
330
1F
100
AcDbEntity
  8
0
  6
Continuous
 62
     7
370
    15
100
AcDbLine
 10
202.783209733
 20
125.625127242
 30
0.0
 11
202.743209733
 21
125.625127242
 31
0.0
  0
LINE
  5
170
330
1F
100
AcDbEntity
  8
0
  6
Continuous
 62
     7
370
    15
100
AcDbLine
 10
202.783209733
 20
125.585127242
 30
0.0
 11
202.783209733
 21
125.625127242
 31
0.0
  0
LINE
  5
171
330
1F
100
AcDbEntity
  8
0
  6
Continuous
 62
     7
370
    15
100
AcDbLine
 10
202.558209733
 20
191.450127242
 30
0.0
 11
202.733209733
 21
191.450127242
 31
0.0
  0
LINE
  5
172
330
1F
100
AcDbEntity
  8
0
  6
Continuous
 62
     7
370
    15
100
AcDbLine
 10
202.733209733
 20
191.450127242
 30
0.0
 11
202.733209733
 21
191.525127242
 31
0.0
  0
SPLINE
  5
173
330
1F
100
AcDbEntity
  8
0
  6
Continuous
 62
     7
370
    15
100
AcDbSpline
210
0.0
220
0.0
230
1.0
 70
     8
 71
     3
 72
    11
 73
     7
 74
     0
 42
0.00000001
 43
0.00000001
 40
0.0
 40
0.0
 40
0.0
 40
0.0
 40
0.2499999999999998
 40
0.5000000000000322
 40
0.7499999999999986
 40
1.0
 40
1.0
 40
1.0
 40
1.0
 10
272.9082097329538
 20
125.5851272420123
 30
0.0
 10
272.9127338431106
 20
125.5687476115365
 30
0.0
 10
272.9217820634241
 20
125.5359883505849
 30
0.0
 10
272.9353543938946
 20
125.4946702334478
 30
0.0
 10
272.9489267243648
 20
125.4657640818075
 30
0.0
 10
272.9579749446784
 20
125.4620061886107
 30
0.0
 10
272.9624990548352
 20
125.4601272420123
 30
0.0
  0
LINE
  5
174
330
1F
100
AcDbEntity
  8
0
  6
Continuous
 62
     7
370
    15
100
AcDbLine
 10
272.9624990548
 20
125.380127242
 30
0.0
 11
272.9624990548
 21
125.460127242
 31
0.0
  0
SPLINE
  5
175
330
1F
100
AcDbEntity
  8
0
  6
Continuous
 62
     7
370
    15
100
AcDbSpline
210
0.0
220
0.0
230
1.0
 70
     8
 71
     3
 72
    11
 73
     7
 74
     0
 42
0.00000001
 43
0.00000001
 40
0.0
 40
0.0
 40
0.0
 40
0.0
 40
0.2499999999999918
 40
0.4999999999999876
 40
0.7499999999999618
 40
0.9999999999999999
 40
0.9999999999999999
 40
0.9999999999999999
 40
0.9999999999999999
 10
273.1132097329537
 20
125.5308379201309
 30
0.0
 10
273.1101282605324
 20
125.5353620302877
 30
0.0
 10
273.1039653156896
 20
125.5444102506013
 30
0.0
 10
273.0565592269996
 20
125.5579825810716
 30
0.0
 10
272.9887975148947
 20
125.5715549115419
 30
0.0
 10
272.9350723269341
 20
125.5806031318555
 30
0.0
 10
272.9082097329538
 20
125.5851272420123
 30
0.0
  0
LINE
  5
176
330
1F
100
AcDbEntity
  8
0
  6
Continuous
 62
     7
370
    15
100
AcDbLine
 10
273.113209733
 20
125.5308379201
 30
0.0
 11
273.033209733
 21
125.5308379201
 31
0.0
  0
SPLINE
  5
177
330
1F
100
AcDbEntity
  8
0
  6
Continuous
 62
     7
370
    15
100
AcDbSpline
210
0.0
220
0.0
230
1.0
 70
     8
 71
     3
 72
    11
 73
     7
 74
     0
 42
0.00000001
 43
0.00000001
 40
0.0
 40
0.0
 40
0.0
 40
0.0
 40
0.2499999999999876
 40
0.5000000000000088
 40
0.7500000000000225
 40
1.0
 40
1.0
 40
1.0
 40
1.0
 10
273.0332097329538
 20
125.5308379201309
 30
0.0
 10
273.0313307863554
 20
125.5353620302877
 30
0.0
 10
273.0275728931586
 20
125.5444102506013
 30
0.0
 10
272.9986667415183
 20
125.5579825810716
 30
0.0
 10
272.9573486243812
 20
125.5715549115419
 30
0.0
 10
272.9245893634296
 20
125.5806031318555
 30
0.0
 10
272.9082097329538
 20
125.5851272420123
 30
0.0
  0
LINE
  5
178
330
1F
100
AcDbEntity
  8
0
  6
Continuous
 62
     7
370
    15
100
AcDbLine
 10
273.113209733
 20
125.5308379201
 30
0.0
 11
273.113209733
 21
191.650127242
 31
0.0
  0
LINE
  5
179
330
1F
100
AcDbEntity
  8
0
  6
Continuous
 62
     7
370
    15
100
AcDbLine
 10
272.908209733
 20
191.650127242
 30
0.0
 11
273.113209733
 21
191.650127242
 31
0.0
  0
LINE
  5
17A
330
1F
100
AcDbEntity
  8
0
  6
Continuous
 62
     7
370
    15
100
AcDbLine
 10
272.908209733
 20
191.650127242
 30
0.0
 11
272.908209733
 21
191.525127242
 31
0.0
  0
SPLINE
  5
17B
330
1F
100
AcDbEntity
  8
0
  6
Continuous
 62
     7
370
    15
100
AcDbSpline
210
0.0
220
0.0
230
1.0
 70
    24
 71
     3
 72
     9
 73
     5
 74
     0
 42
0.00000001
 43
0.00000001
 40
0.0
 40
0.0
 40
0.0
 40
0.0
 40
0.7724330880166427
 40
1.0
 40
1.0
 40
1.0
 40
1.0
 10
202.7332097329545
 20
191.560127242011
 30
0.0
 10
202.7332097329545
 20
191.5592189824893
 30
0.0
 10
202.7332097329545
 20
191.5580431401598
 30
0.0
 10
202.7332097329545
 20
191.5454866774554
 30
0.0
 10
202.7332097329545
 20
191.5426292420123
 30
0.0
  0
ENDSEC
  0
SECTION
  2
OBJECTS
  0
DICTIONARY
  5
C
330
0
100
AcDbDictionary
281
     1
  3
ACAD_GROUP
350
D
  3
ACAD_LAYOUT
350
1A
  3
ACAD_MLINESTYLE
350
17
  3
ACAD_PLOTSETTINGS
350
19
  3
ACAD_PLOTSTYLENAME
350
E
  0
DICTIONARY
  5
D
102
{ACAD_REACTORS
330
C
102
}
330
C
100
AcDbDictionary
281
     1
  0
DICTIONARY
  5
1A
102
{ACAD_REACTORS
330
C
102
}
330
C
100
AcDbDictionary
281
     1
  3
Layout1
350
1E
  3
Layout2
350
26
  3
Model
350
22
  0
DICTIONARY
  5
17
102
{ACAD_REACTORS
330
C
102
}
330
C
100
AcDbDictionary
281
     1
  3
Standard
350
18
  0
DICTIONARY
  5
19
102
{ACAD_REACTORS
330
C
102
}
330
C
100
AcDbDictionary
281
     1
  0
ACDBDICTIONARYWDFLT
  5
E
102
{ACAD_REACTORS
330
C
102
}
330
C
100
AcDbDictionary
281
     1
  3
Normal
350
F
100
AcDbDictionaryWithDefault
340
F
  0
LAYOUT
  5
1E
102
{ACAD_REACTORS
330
1A
102
}
330
1A
100
AcDbPlotSettings
  1

  2
none_device
  4

  6

 40
0.0
 41
0.0
 42
0.0
 43
0.0
 44
0.0
 45
0.0
 46
0.0
 47
0.0
 48
0.0
 49
0.0
140
0.0
141
0.0
142
1.0
143
1.0
 70
   688
 72
     0
 73
     0
 74
     5
  7

 75
    16
147
1.0
148
0.0
149
0.0
100
AcDbLayout
  1
Layout1
 70
     1
 71
     1
 10
0.0
 20
0.0
 11
420.0
 21
297.0
 12
0.0
 22
0.0
 32
0.0
 14
1.0000000000E+20
 24
1.0000000000E+20
 34
1.0000000000E+20
 15
-1.0000000000E+20
 25
-1.0000000000E+20
 35
-1.0000000000E+20
146
0.0
 13
0.0
 23
0.0
 33
0.0
 16
1.0
 26
0.0
 36
0.0
 17
0.0
 27
1.0
 37
0.0
 76
     0
330
1B
  0
LAYOUT
  5
26
102
{ACAD_REACTORS
330
1A
102
}
330
1A
100
AcDbPlotSettings
  1

  2
none_device
  4

  6

 40
0.0
 41
0.0
 42
0.0
 43
0.0
 44
0.0
 45
0.0
 46
0.0
 47
0.0
 48
0.0
 49
0.0
140
0.0
141
0.0
142
1.0
143
1.0
 70
   688
 72
     0
 73
     0
 74
     5
  7

 75
    16
147
1.0
148
0.0
149
0.0
100
AcDbLayout
  1
Layout2
 70
     1
 71
     2
 10
0.0
 20
0.0
 11
0.0
 21
0.0
 12
0.0
 22
0.0
 32
0.0
 14
0.0
 24
0.0
 34
0.0
 15
0.0
 25
0.0
 35
0.0
146
0.0
 13
0.0
 23
0.0
 33
0.0
 16
1.0
 26
0.0
 36
0.0
 17
0.0
 27
1.0
 37
0.0
 76
     0
330
23
  0
LAYOUT
  5
22
102
{ACAD_REACTORS
330
1A
102
}
330
1A
100
AcDbPlotSettings
  1

  2
none_device
  4

  6

 40
0.0
 41
0.0
 42
0.0
 43
0.0
 44
0.0
 45
0.0
 46
0.0
 47
0.0
 48
0.0
 49
0.0
140
0.0
141
0.0
142
1.0
143
1.0
 70
  1712
 72
     0
 73
     0
 74
     0
  7

 75
     0
147
1.0
148
0.0
149
0.0
100
AcDbLayout
  1
Model
 70
     1
 71
     0
 10
0.0
 20
0.0
 11
420.0
 21
297.0
 12
0.0
 22
0.0
 32
0.0
 14
0.0
 24
0.0
 34
0.0
 15
420.0
 25
297.0
 35
0.0
146
0.0
 13
0.0
 23
0.0
 33
0.0
 16
1.0
 26
0.0
 36
0.0
 17
0.0
 27
1.0
 37
0.0
 76
     0
330
1F
331
29
  0
MLINESTYLE
  5
18
102
{ACAD_REACTORS
330
17
102
}
330
17
100
AcDbMlineStyle
  2
Standard
 70
     0
  3

 62
   256
 51
90.0
 52
90.0
 71
     2
 49
0.5
 62
   256
  6
BYLAYER
 49
-0.5
 62
   256
  6
BYLAYER
  0
ACDBPLACEHOLDER
  5
F
102
{ACAD_REACTORS
330
E
102
}
330
E
  0
ENDSEC
  0
EOF
