  0
SECTION
  2
HEADER
  9
$ACADVER
  1
AC1015
  9
$ACADMAINTVER
 70
     6
  9
$DWGCODEPAGE
  3
ANSI_1252
  9
$INSBASE
 10
0.0
 20
0.0
 30
0.0
  9
$EXTMIN
 10
0.0
 20
0.0
 30
0.0
  9
$EXTMAX
 10
420.0
 20
297.0
 30
0.0
  9
$LIMMIN
 10
0.0
 20
0.0
  9
$LIMMAX
 10
420.0
 20
297.0
  9
$ORTHOMODE
 70
     0
  9
$REGENMODE
 70
     1
  9
$FILLMODE
 70
     1
  9
$QTEXTMODE
 70
     0
  9
$MIRRTEXT
 70
     1
  9
$LTSCALE
 40
1.0
  9
$ATTMODE
 70
     1
  9
$TEXTSIZE
 40
3.5
  9
$TRACEWID
 40
1.0
  9
$TEXTSTYLE
  7
Standard
  9
$CLAYER
  8
0
  9
$CELTYPE
  6
ByLayer
  9
$CECOLOR
 62
   256
  9
$CELTSCALE
 40
1.0
  9
$DISPSILH
 70
     0
  9
$DIMSCALE
 40
1.0
  9
$DIMASZ
 40
3.302
  9
$DIMEXO
 40
1.0
  9
$DIMDLI
 40
3.75
  9
$DIMRND
 40
0.0
  9
$DIMDLE
 40
0.0
  9
$DIMEXE
 40
1.0
  9
$DIMTP
 40
0.0
  9
$DIMTM
 40
0.0
  9
$DIMTXT
 40
3.5
  9
$DIMCEN
 40
2.5
  9
$DIMTSZ
 40
0.0
  9
$DIMTOL
 70
     0
  9
$DIMLIM
 70
     0
  9
$DIMTIH
 70
     1
  9
$DIMTOH
 70
     1
  9
$DIMSE1
 70
     0
  9
$DIMSE2
 70
     0
  9
$DIMTAD
 70
     1
  9
$DIMZIN
 70
     0
  9
$DIMBLK
  1

  9
$DIMASO
 70
     1
  9
$DIMSHO
 70
     1
  9
$DIMPOST
  1

  9
$DIMAPOST
  1

  9
$DIMALT
 70
     0
  9
$DIMALTD
 70
     3
  9
$DIMALTF
 40
0.0393700787
  9
$DIMLFAC
 40
10.0
  9
$DIMTOFL
 70
     1
  9
$DIMTVP
 40
0.0
  9
$DIMTIX
 70
     0
  9
$DIMSOXD
 70
     0
  9
$DIMSAH
 70
     0
  9
$DIMBLK1
  1

  9
$DIMBLK2
  1

  9
$DIMSTYLE
  2
ISO-25
  9
$DIMCLRD
 70
     0
  9
$DIMCLRE
 70
     0
  9
$DIMCLRT
 70
     0
  9
$DIMTFAC
 40
1.0
  9
$DIMGAP
 40
1.524
  9
$DIMJUST
 70
     0
  9
$DIMSD1
 70
     0
  9
$DIMSD2
 70
     0
  9
$DIMTOLJ
 70
     0
  9
$DIMTZIN
 70
     0
  9
$DIMALTZ
 70
     0
  9
$DIMALTTZ
 70
     0
  9
$DIMUPT
 70
     0
  9
$DIMDEC
 70
     3
  9
$DIMTDEC
 70
     3
  9
$DIMALTU
 70
     2
  9
$DIMALTTD
 70
     3
  9
$DIMTXSTY
  7
Standard
  9
$DIMAUNIT
 70
     0
  9
$DIMADEC
 70
     2
  9
$DIMALTRND
 40
0.0
  9
$DIMAZIN
 70
     0
  9
$DIMDSEP
 70
    44
  9
$DIMATFIT
 70
     3
  9
$DIMFRAC
 70
     0
  9
$DIMLDRBLK
  1

  9
$DIMLUNIT
 70
     2
  9
$DIMLWD
 70
    -2
  9
$DIMLWE
 70
    -2
  9
$DIMTMOVE
 70
     0
  9
$LUNITS
 70
     2
  9
$LUPREC
 70
     8
  9
$SKETCHINC
 40
1.0
  9
$FILLETRAD
 40
10.0
  9
$AUNITS
 70
     0
  9
$AUPREC
 70
     8
  9
$MENU
  1
.
  9
$ELEVATION
 40
0.0
  9
$PELEVATION
 40
0.0
  9
$THICKNESS
 40
0.0
  9
$LIMCHECK
 70
     0
  9
$CHAMFERA
 40
10.0
  9
$CHAMFERB
 40
10.0
  9
$CHAMFERC
 40
20.0
  9
$CHAMFERD
 40
0.0
  9
$SKPOLY
 70
     0
  9
$TDCREATE
 40
2455855.525895324
  9
$TDUCREATE
 40
2455855.484228658
  9
$TDUPDATE
 40
2455855.525895336
  9
$TDUUPDATE
 40
2455855.484228669
  9
$TDINDWG
 40
0.0000000116
  9
$TDUSRTIMER
 40
0.0000000116
  9
$USRTIMER
 70
     1
  9
$ANGBASE
 50
0.0
  9
$ANGDIR
 70
     0
  9
$PDMODE
 70
     0
  9
$PDSIZE
 40
-1.0
  9
$PLINEWID
 40
0.0
  9
$SPLFRAME
 70
     0
  9
$SPLINETYPE
 70
     6
  9
$SPLINESEGS
 70
     8
  9
$HANDSEED
  5
1D8
  9
$SURFTAB1
 70
     6
  9
$SURFTAB2
 70
     6
  9
$SURFTYPE
 70
     6
  9
$SURFU
 70
     6
  9
$SURFV
 70
     6
  9
$UCSBASE
  2

  9
$UCSNAME
  2

  9
$UCSORG
 10
0.0
 20
0.0
 30
0.0
  9
$UCSXDIR
 10
1.0
 20
0.0
 30
0.0
  9
$UCSYDIR
 10
0.0
 20
1.0
 30
0.0
  9
$UCSORTHOREF
  2

  9
$UCSORTHOVIEW
 70
     0
  9
$UCSORGTOP
 10
0.0
 20
0.0
 30
0.0
  9
$UCSORGBOTTOM
 10
0.0
 20
0.0
 30
0.0
  9
$UCSORGLEFT
 10
0.0
 20
0.0
 30
0.0
  9
$UCSORGRIGHT
 10
0.0
 20
0.0
 30
0.0
  9
$UCSORGFRONT
 10
0.0
 20
0.0
 30
0.0
  9
$UCSORGBACK
 10
0.0
 20
0.0
 30
0.0
  9
$PUCSBASE
  2

  9
$PUCSNAME
  2

  9
$PUCSORG
 10
0.0
 20
0.0
 30
0.0
  9
$PUCSXDIR
 10
1.0
 20
0.0
 30
0.0
  9
$PUCSYDIR
 10
0.0
 20
1.0
 30
0.0
  9
$PUCSORTHOREF
  2

  9
$PUCSORTHOVIEW
 70
     0
  9
$PUCSORGTOP
 10
0.0
 20
0.0
 30
0.0
  9
$PUCSORGBOTTOM
 10
0.0
 20
0.0
 30
0.0
  9
$PUCSORGLEFT
 10
0.0
 20
0.0
 30
0.0
  9
$PUCSORGRIGHT
 10
0.0
 20
0.0
 30
0.0
  9
$PUCSORGFRONT
 10
0.0
 20
0.0
 30
0.0
  9
$PUCSORGBACK
 10
0.0
 20
0.0
 30
0.0
  9
$USERI1
 70
     0
  9
$USERI2
 70
     0
  9
$USERI3
 70
     0
  9
$USERI4
 70
     0
  9
$USERI5
 70
     0
  9
$USERR1
 40
0.0
  9
$USERR2
 40
0.0
  9
$USERR3
 40
0.0
  9
$USERR4
 40
0.0
  9
$USERR5
 40
0.0
  9
$WORLDVIEW
 70
     1
  9
$SHADEDGE
 70
     3
  9
$SHADEDIF
 70
    70
  9
$TILEMODE
 70
     1
  9
$MAXACTVP
 70
    64
  9
$PINSBASE
 10
0.0
 20
0.0
 30
0.0
  9
$PLIMCHECK
 70
     0
  9
$PEXTMIN
 10
1.0000000000E+20
 20
1.0000000000E+20
 30
1.0000000000E+20
  9
$PEXTMAX
 10
-1.0000000000E+20
 20
-1.0000000000E+20
 30
-1.0000000000E+20
  9
$PLIMMIN
 10
0.0
 20
0.0
  9
$PLIMMAX
 10
420.0
 20
297.0
  9
$UNITMODE
 70
     0
  9
$VISRETAIN
 70
     1
  9
$PLINEGEN
 70
     0
  9
$PSLTSCALE
 70
     1
  9
$TREEDEPTH
 70
  3020
  9
$CMLSTYLE
  2
Standard
  9
$CMLJUST
 70
     0
  9
$CMLSCALE
 40
20.0
  9
$PROXYGRAPHICS
 70
     1
  9
$MEASUREMENT
 70
     1
  9
$CELWEIGHT
370
    -1
  9
$ENDCAPS
280
     0
  9
$JOINSTYLE
280
     0
  9
$LWDISPLAY
290
     1
  9
$INSUNITS
 70
     4
  9
$HYPERLINKBASE
  1

  9
$STYLESHEET
  1

  9
$XEDIT
290
     1
  9
$CEPSNTYPE
380
     0
  9
$PSTYLEMODE
290
     1
  9
$FINGERPRINTGUID
  2
{5563ED4D-87FF-494A-B6CD-D318D97E1C68}
  9
$VERSIONGUID
  2
{FAEB1C32-E019-11D5-929B-00C0DF256EC4}
  9
$EXTNAMES
290
     1
  9
$PSVPSCALE
 40
0.0
  9
$OLESTARTUP
290
     0
  0
ENDSEC
  0
SECTION
  2
CLASSES
  0
CLASS
  1
ACDBDICTIONARYWDFLT
  2
AcDbDictionaryWithDefault
  3
ObjectDBX Classes
 90
        0
280
     0
281
     0
  0
CLASS
  1
VISUALSTYLE
  2
AcDbVisualStyle
  3
ObjectDBX Classes
 90
     4095
280
     0
281
     0
  0
CLASS
  1
MATERIAL
  2
AcDbMaterial
  3
ObjectDBX Classes
 90
     1153
280
     0
281
     0
  0
CLASS
  1
ACDBPLACEHOLDER
  2
AcDbPlaceHolder
  3
ObjectDBX Classes
 90
        0
280
     0
281
     0
  0
CLASS
  1
LAYOUT
  2
AcDbLayout
  3
ObjectDBX Classes
 90
        0
280
     0
281
     0
  0
ENDSEC
  0
SECTION
  2
TABLES
  0
TABLE
  2
VPORT
  5
8
330
0
100
AcDbSymbolTable
 70
     1
  0
VPORT
  5
29
330
8
100
AcDbSymbolTableRecord
100
AcDbViewportTableRecord
  2
*Active
 70
     0
 10
0.0
 20
0.0
 11
1.0
 21
1.0
 12
210.0
 22
148.5
 13
0.0
 23
0.0
 14
10.0
 24
10.0
 15
10.0
 25
10.0
 16
0.0
 26
0.0
 36
1.0
 17
0.0
 27
0.0
 37
0.0
 40
297.0
 41
1.4141414141
 42
50.0
 43
0.0
 44
0.0
 50
0.0
 51
0.0
 71
     0
 72
  2000
 73
     1
 74
     3
 75
     0
 76
     0
 77
     0
 78
     0
281
     0
 65
     1
110
0.0
120
0.0
130
0.0
111
1.0
121
0.0
131
0.0
112
0.0
122
1.0
132
0.0
 79
     0
146
0.0
  0
ENDTAB
  0
TABLE
  2
LTYPE
  5
5
330
0
100
AcDbSymbolTable
 70
     6
  0
LTYPE
  5
14
330
5
100
AcDbSymbolTableRecord
100
AcDbLinetypeTableRecord
  2
ByBlock
 70
     0
  3

 72
    65
 73
     0
 40
0.0
  0
LTYPE
  5
15
330
5
100
AcDbSymbolTableRecord
100
AcDbLinetypeTableRecord
  2
ByLayer
 70
     0
  3

 72
    65
 73
     0
 40
0.0
  0
LTYPE
  5
16
330
5
100
AcDbSymbolTableRecord
100
AcDbLinetypeTableRecord
  2
Continuous
 70
     0
  3
Solid line
 72
    65
 73
     0
 40
0.0
  0
LTYPE
  5
3F
330
5
100
AcDbSymbolTableRecord
100
AcDbLinetypeTableRecord
  2
HIDDEN
 70
     0
  3
Hidden __ __ __ __ __ __ __ __ __ __ __ __ __ __
 72
    65
 73
     2
 40
1.905
 49
1.27
 74
     0
 49
-0.635
 74
     0
  0
LTYPE
  5
40
330
5
100
AcDbSymbolTableRecord
100
AcDbLinetypeTableRecord
  2
PHANTOM
 70
     0
  3
Phantom ______  __  __  ______  __  __  ______
 72
    65
 73
     6
 40
12.7
 49
6.35
 74
     0
 49
-1.27
 74
     0
 49
1.27
 74
     0
 49
-1.27
 74
     0
 49
1.27
 74
     0
 49
-1.27
 74
     0
  0
LTYPE
  5
41
330
5
100
AcDbSymbolTableRecord
100
AcDbLinetypeTableRecord
  2
CENTER
 70
     0
  3
Center ____ _ ____ _ ____ _ ____ _ ____ _ ____
 72
    65
 73
     4
 40
10.16
 49
6.35
 74
     0
 49
-1.27
 74
     0
 49
1.27
 74
     0
 49
-1.27
 74
     0
  0
LTYPE
  5
42
330
5
100
AcDbSymbolTableRecord
100
AcDbLinetypeTableRecord
  2
CENTERX2
 70
     0
  3
Center (2x) ________  __  ________  __  _____
 72
    65
 73
     4
 40
20.32
 49
12.7
 74
     0
 49
-2.54
 74
     0
 49
2.54
 74
     0
 49
-2.54
 74
     0
  0
LTYPE
  5
43
330
5
100
AcDbSymbolTableRecord
100
AcDbLinetypeTableRecord
  2
DOT2
 70
     0
  3
Dot (.5x) ........................................
 72
    65
 73
     2
 40
0.635
 49
0.0
 74
     0
 49
-0.635
 74
     0
  0
ENDTAB
  0
TABLE
  2
LAYER
  5
2
330
0
100
AcDbSymbolTable
 70
     4
  0
LAYER
  5
10
330
2
100
AcDbSymbolTableRecord
100
AcDbLayerTableRecord
  2
0
 70
     0
 62
     7
  6
Continuous
370
    -3
390
F
  0
LAYER
  5
44
330
2
100
AcDbSymbolTableRecord
100
AcDbLayerTableRecord
  2
FORMAT
 70
     0
 62
     7
  6
Continuous
370
    -3
390
F
  0
LAYER
  5
45
330
2
100
AcDbSymbolTableRecord
100
AcDbLayerTableRecord
  2
SLD-0
 70
     0
 62
     1
  6
Continuous
370
    -3
390
F
  0
LAYER
  5
46
330
2
100
AcDbSymbolTableRecord
100
AcDbLayerTableRecord
  2
WATERMARK
 70
     0
 62
    20
  6
Continuous
370
    -3
390
F
  0
ENDTAB
  0
TABLE
  2
STYLE
  5
3
330
0
100
AcDbSymbolTable
 70
     1
  0
STYLE
  5
11
330
3
100
AcDbSymbolTableRecord
100
AcDbTextStyleTableRecord
  2
Standard
 70
     0
 40
0.0
 41
1.0
 50
0.0
 71
     0
 42
2.5
  3
txt
  4

  0
ENDTAB
  0
TABLE
  2
VIEW
  5
6
330
0
100
AcDbSymbolTable
 70
     0
  0
ENDTAB
  0
TABLE
  2
UCS
  5
7
330
0
100
AcDbSymbolTable
 70
     0
  0
ENDTAB
  0
TABLE
  2
APPID
  5
9
330
0
100
AcDbSymbolTable
 70
     1
  0
APPID
  5
12
330
9
100
AcDbSymbolTableRecord
100
AcDbRegAppTableRecord
  2
ACAD
 70
     0
  0
ENDTAB
  0
TABLE
  2
DIMSTYLE
  5
A
330
0
100
AcDbSymbolTable
 70
     1
100
AcDbDimStyleTable
  0
DIMSTYLE
105
27
330
A
100
AcDbSymbolTableRecord
100
AcDbDimStyleTableRecord
  2
ISO-25
 70
     0
 41
2.5
 42
0.625
 43
3.75
 44
1.25
 73
     0
 74
     0
 77
     1
 78
     8
140
2.5
141
2.5
143
0.0393700787
147
0.625
171
     3
172
     1
178
     0
271
     2
272
     2
274
     3
278
    44
283
     0
284
     8
340
11
  0
ENDTAB
  0
TABLE
  2
BLOCK_RECORD
  5
1
330
0
100
AcDbSymbolTable
 70
     1
  0
BLOCK_RECORD
  5
1F
330
1
100
AcDbSymbolTableRecord
100
AcDbBlockTableRecord
  2
*Model_Space
340
22
  0
BLOCK_RECORD
  5
1B
330
1
100
AcDbSymbolTableRecord
100
AcDbBlockTableRecord
  2
*Paper_Space
340
1E
  0
BLOCK_RECORD
  5
23
330
1
100
AcDbSymbolTableRecord
100
AcDbBlockTableRecord
  2
*Paper_Space0
340
26
  0
ENDTAB
  0
ENDSEC
  0
SECTION
  2
BLOCKS
  0
BLOCK
  5
20
330
1F
100
AcDbEntity
  8
0
100
AcDbBlockBegin
  2
*Model_Space
 70
     0
 10
0.0
 20
0.0
 30
0.0
  3
*Model_Space
  1

  0
ENDBLK
  5
21
330
1F
100
AcDbEntity
  8
0
100
AcDbBlockEnd
  0
BLOCK
  5
1C
330
1B
100
AcDbEntity
 67
     1
  8
0
100
AcDbBlockBegin
  2
*Paper_Space
 70
     0
 10
0.0
 20
0.0
 30
0.0
  3
*Paper_Space
  1

  0
ENDBLK
  5
1D
330
1B
100
AcDbEntity
 67
     1
  8
0
100
AcDbBlockEnd
  0
BLOCK
  5
24
330
23
100
AcDbEntity
  8
0
100
AcDbBlockBegin
  2
*Paper_Space0
 70
     0
 10
0.0
 20
0.0
 30
0.0
  3
*Paper_Space0
  1

  0
ENDBLK
  5
25
330
23
100
AcDbEntity
  8
0
100
AcDbBlockEnd
  0
ENDSEC
  0
SECTION
  2
ENTITIES
  0
LINE
  5
47
330
1F
100
AcDbEntity
  8
0
  6
Continuous
 62
     7
370
    15
100
AcDbLine
 10
208.4093
 20
207.659072758
 30
0.0
 11
118.5693
 21
207.659072758
 31
0.0
  0
ARC
  5
48
330
1F
100
AcDbEntity
  8
0
  6
Continuous
 62
     7
370
    15
100
AcDbCircle
 10
130.1813
 20
130.776127242
 30
0.0
 40
0.0499999999999829
100
AcDbArc
 50
270.0
 51
0.0
  0
ARC
  5
49
330
1F
100
AcDbEntity
  8
0
  6
Continuous
 62
     7
370
    15
100
AcDbCircle
 10
129.0013
 20
130.776127242
 30
0.0
 40
0.0499999999999829
100
AcDbArc
 50
180.0
 51
270.0
  0
ARC
  5
4A
330
1F
100
AcDbEntity
  8
0
  6
Continuous
 62
     7
370
    15
100
AcDbCircle
 10
130.1813
 20
130.801127242
 30
0.0
 40
0.0499999999999829
100
AcDbArc
 50
0.0
 51
90.0
  0
ARC
  5
4B
330
1F
100
AcDbEntity
  8
0
  6
Continuous
 62
     7
370
    15
100
AcDbCircle
 10
129.0013
 20
130.801127242
 30
0.0
 40
0.0499999999999829
100
AcDbArc
 50
90.0
 51
180.0
  0
LINE
  5
4C
330
1F
100
AcDbEntity
  8
0
  6
Continuous
 62
     7
370
    15
100
AcDbLine
 10
130.2313
 20
130.776127242
 30
0.0
 11
130.2313
 21
130.801127242
 31
0.0
  0
LINE
  5
4D
330
1F
100
AcDbEntity
  8
0
  6
Continuous
 62
     7
370
    15
100
AcDbLine
 10
128.9513
 20
130.801127242
 30
0.0
 11
128.9513
 21
130.776127242
 31
0.0
  0
ARC
  5
4E
330
1F
100
AcDbEntity
  8
0
  6
Continuous
 62
     7
370
    15
100
AcDbCircle
 10
130.1113
 20
130.901127242
 30
0.0
 40
0.0499999999999924
100
AcDbArc
 50
185.7391705214
 51
270.0
  0
ARC
  5
4F
330
1F
100
AcDbEntity
  8
0
  6
Continuous
 62
     7
370
    15
100
AcDbCircle
 10
129.0713
 20
130.901127242
 30
0.0
 40
0.0499999999999924
100
AcDbArc
 50
270.0
 51
354.2608294786
  0
ARC
  5
50
330
1F
100
AcDbEntity
  8
0
  6
Continuous
 62
     7
370
    15
100
AcDbCircle
 10
197.9813
 20
130.776127242
 30
0.0
 40
0.0500000000000114
100
AcDbArc
 50
270.0
 51
0.0
  0
ARC
  5
51
330
1F
100
AcDbEntity
  8
0
  6
Continuous
 62
     7
370
    15
100
AcDbCircle
 10
196.8013
 20
130.776127242
 30
0.0
 40
0.0500000000000114
100
AcDbArc
 50
180.0
 51
270.0
  0
ARC
  5
52
330
1F
100
AcDbEntity
  8
0
  6
Continuous
 62
     7
370
    15
100
AcDbCircle
 10
197.9813
 20
130.801127242
 30
0.0
 40
0.0500000000000114
100
AcDbArc
 50
0.0
 51
90.0
  0
ARC
  5
53
330
1F
100
AcDbEntity
  8
0
  6
Continuous
 62
     7
370
    15
100
AcDbCircle
 10
196.8013
 20
130.801127242
 30
0.0
 40
0.0500000000000114
100
AcDbArc
 50
90.0
 51
180.0
  0
LINE
  5
54
330
1F
100
AcDbEntity
  8
0
  6
Continuous
 62
     7
370
    15
100
AcDbLine
 10
198.0313
 20
130.776127242
 30
0.0
 11
198.0313
 21
130.801127242
 31
0.0
  0
LINE
  5
55
330
1F
100
AcDbEntity
  8
0
  6
Continuous
 62
     7
370
    15
100
AcDbLine
 10
196.7513
 20
130.801127242
 30
0.0
 11
196.7513
 21
130.776127242
 31
0.0
  0
ARC
  5
56
330
1F
100
AcDbEntity
  8
0
  6
Continuous
 62
     7
370
    15
100
AcDbCircle
 10
197.9113
 20
130.901127242
 30
0.0
 40
0.0499999999999924
100
AcDbArc
 50
185.7391705214
 51
270.0
  0
ARC
  5
57
330
1F
100
AcDbEntity
  8
0
  6
Continuous
 62
     7
370
    15
100
AcDbCircle
 10
196.8713
 20
130.901127242
 30
0.0
 40
0.0499999999999924
100
AcDbArc
 50
270.0
 51
354.2608294786
  0
LINE
  5
58
330
1F
100
AcDbEntity
  8
0
  6
Continuous
 62
     7
370
    15
100
AcDbLine
 10
203.7413
 20
113.776127242
 30
0.0
 11
203.7413
 21
114.176127242
 31
0.0
  0
LINE
  5
59
330
1F
100
AcDbEntity
  8
0
  6
Continuous
 62
     7
370
    15
100
AcDbLine
 10
198.0413
 20
114.176127242
 30
0.0
 11
198.0413
 21
113.776127242
 31
0.0
  0
ARC
  5
5A
330
1F
100
AcDbEntity
  8
0
  6
Continuous
 62
     7
370
    15
100
AcDbCircle
 10
203.5413
 20
113.776127242
 30
0.0
 40
0.1999999999999886
100
AcDbArc
 50
270.0
 51
0.0
  0
ARC
  5
5B
330
1F
100
AcDbEntity
  8
0
  6
Continuous
 62
     7
370
    15
100
AcDbCircle
 10
198.2413
 20
113.776127242
 30
0.0
 40
0.1999999999999886
100
AcDbArc
 50
180.0
 51
270.0
  0
ARC
  5
5C
330
1F
100
AcDbEntity
  8
0
  6
Continuous
 62
     7
370
    15
100
AcDbCircle
 10
128.7413
 20
113.776127242
 30
0.0
 40
0.1999999999999886
100
AcDbArc
 50
270.0
 51
0.0
  0
ARC
  5
5D
330
1F
100
AcDbEntity
  8
0
  6
Continuous
 62
     7
370
    15
100
AcDbCircle
 10
123.4413
 20
113.776127242
 30
0.0
 40
0.2000000000000028
100
AcDbArc
 50
180.0
 51
270.0
  0
LINE
  5
5E
330
1F
100
AcDbEntity
  8
0
  6
Continuous
 62
     7
370
    15
100
AcDbLine
 10
128.9413
 20
113.776127242
 30
0.0
 11
128.9413
 21
114.176127242
 31
0.0
  0
LINE
  5
5F
330
1F
100
AcDbEntity
  8
0
  6
Continuous
 62
     7
370
    15
100
AcDbLine
 10
123.2413
 20
114.176127242
 30
0.0
 11
123.2413
 21
113.776127242
 31
0.0
  0
LINE
  5
60
330
1F
100
AcDbEntity
  8
0
  6
Continuous
 62
     7
370
    15
100
AcDbLine
 10
128.9213
 20
114.176127242
 30
0.0
 11
128.9213
 21
120.976127242
 31
0.0
  0
LINE
  5
61
330
1F
100
AcDbEntity
  8
0
  6
Continuous
 62
     7
370
    15
100
AcDbLine
 10
123.2613
 20
120.976127242
 30
0.0
 11
123.2613
 21
114.176127242
 31
0.0
  0
LINE
  5
62
330
1F
100
AcDbEntity
  8
0
  6
Continuous
 62
     7
370
    15
100
AcDbLine
 10
203.7213
 20
114.176127242
 30
0.0
 11
203.7213
 21
120.976127242
 31
0.0
  0
LINE
  5
63
330
1F
100
AcDbEntity
  8
0
  6
Continuous
 62
     7
370
    15
100
AcDbLine
 10
198.0613
 20
120.976127242
 30
0.0
 11
198.0613
 21
114.176127242
 31
0.0
  0
LINE
  5
64
330
1F
100
AcDbEntity
  8
0
  6
Continuous
 62
     7
370
    15
100
AcDbLine
 10
129.2813
 20
121.5793838366
 30
0.0
 11
129.2813
 21
128.676127242
 31
0.0
  0
LINE
  5
65
330
1F
100
AcDbEntity
  8
0
  6
Continuous
 62
     7
370
    15
100
AcDbLine
 10
122.9013
 20
128.676127242
 30
0.0
 11
122.9013
 21
121.5793838366
 31
0.0
  0
ARC
  5
66
330
1F
100
AcDbEntity
  8
0
  6
Continuous
 62
     7
370
    15
100
AcDbCircle
 10
128.8113
 20
121.5793838366
 30
0.0
 40
0.4700000000000273
100
AcDbArc
 50
350.5402980318
 51
0.0
  0
ARC
  5
67
330
1F
100
AcDbEntity
  8
0
  6
Continuous
 62
     7
370
    15
100
AcDbCircle
 10
123.3713
 20
121.5793838366
 30
0.0
 40
0.4699999999999989
100
AcDbArc
 50
180.0
 51
189.4597019682
  0
LINE
  5
68
330
1F
100
AcDbEntity
  8
0
  6
Continuous
 62
     7
370
    15
100
AcDbLine
 10
122.9076913227
 20
121.5021375141
 30
0.0
 11
122.995334978
 21
120.976127242
 31
0.0
  0
LINE
  5
69
330
1F
100
AcDbEntity
  8
0
  6
Continuous
 62
     7
370
    15
100
AcDbLine
 10
129.187265022
 20
120.976127242
 30
0.0
 11
129.2749086773
 21
121.5021375141
 31
0.0
  0
ARC
  5
6A
330
1F
100
AcDbEntity
  8
0
  6
Continuous
 62
     7
370
    15
100
AcDbCircle
 10
203.6113
 20
121.5793838366
 30
0.0
 40
0.4700000000000273
100
AcDbArc
 50
350.5402980318
 51
0.0
  0
ARC
  5
6B
330
1F
100
AcDbEntity
  8
0
  6
Continuous
 62
     7
370
    15
100
AcDbCircle
 10
198.1713
 20
121.5793838366
 30
0.0
 40
0.4700000000000001
100
AcDbArc
 50
180.0
 51
189.4597019682
  0
LINE
  5
6C
330
1F
100
AcDbEntity
  8
0
  6
Continuous
 62
     7
370
    15
100
AcDbLine
 10
204.0813
 20
121.5793838366
 30
0.0
 11
204.0813
 21
128.676127242
 31
0.0
  0
LINE
  5
6D
330
1F
100
AcDbEntity
  8
0
  6
Continuous
 62
     7
370
    15
100
AcDbLine
 10
197.7013
 20
128.676127242
 30
0.0
 11
197.7013
 21
121.5793838366
 31
0.0
  0
LINE
  5
6E
330
1F
100
AcDbEntity
  8
0
  6
Continuous
 62
     7
370
    15
100
AcDbLine
 10
197.7076913227
 20
121.5021375141
 30
0.0
 11
197.795334978
 21
120.976127242
 31
0.0
  0
LINE
  5
6F
330
1F
100
AcDbEntity
  8
0
  6
Continuous
 62
     7
370
    15
100
AcDbLine
 10
203.987265022
 20
120.976127242
 30
0.0
 11
204.0749086773
 21
121.5021375141
 31
0.0
  0
LINE
  5
70
330
1F
100
AcDbEntity
  8
0
  6
Continuous
 62
     7
370
    15
100
AcDbLine
 10
205.0313
 20
130.856127242
 30
0.0
 11
205.0313
 21
130.881127242
 31
0.0
  0
LINE
  5
71
330
1F
100
AcDbEntity
  8
0
  6
Continuous
 62
     7
370
    15
100
AcDbLine
 10
203.7513
 20
130.881127242
 30
0.0
 11
203.7513
 21
130.856127242
 31
0.0
  0
LWPOLYLINE
  5
72
330
1F
100
AcDbEntity
  8
0
  6
Continuous
 62
     7
370
    15
100
AcDbPolyline
 90
        3
 70
   128
 43
0.0
 10
205.0313
 20
130.881127242
 10
205.030339264
 20
130.8908817581
 10
205.0289969601
 20
130.896127242
  0
LWPOLYLINE
  5
73
330
1F
100
AcDbEntity
  8
0
  6
Continuous
 62
     7
370
    15
100
AcDbPolyline
 90
        3
 70
   128
 43
0.0
 10
203.7536030399
 20
130.896127242
 10
203.752260736
 20
130.8908817581
 10
203.7513
 20
130.881127242
  0
ARC
  5
74
330
1F
100
AcDbEntity
  8
0
  6
Continuous
 62
     7
370
    15
100
AcDbCircle
 10
204.9813
 20
130.856127242
 30
0.0
 40
0.0499999999999829
100
AcDbArc
 50
270.0
 51
0.0
  0
ARC
  5
75
330
1F
100
AcDbEntity
  8
0
  6
Continuous
 62
     7
370
    15
100
AcDbCircle
 10
203.8013
 20
130.856127242
 30
0.0
 40
0.0500000000000114
100
AcDbArc
 50
180.0
 51
270.0
  0
LWPOLYLINE
  5
76
330
1F
100
AcDbEntity
  8
0
  6
Continuous
 62
     7
370
    15
100
AcDbPolyline
 90
        3
 70
   128
 43
0.0
 10
123.2313
 20
130.881127242
 10
123.230339264
 20
130.8908817581
 10
123.2289969601
 20
130.896127242
  0
LWPOLYLINE
  5
77
330
1F
100
AcDbEntity
  8
0
  6
Continuous
 62
     7
370
    15
100
AcDbPolyline
 90
        3
 70
   128
 43
0.0
 10
121.9536030399
 20
130.896127242
 10
121.952260736
 20
130.8908817581
 10
121.9513
 20
130.881127242
  0
LINE
  5
78
330
1F
100
AcDbEntity
  8
0
  6
Continuous
 62
     7
370
    15
100
AcDbLine
 10
123.2313
 20
130.856127242
 30
0.0
 11
123.2313
 21
130.881127242
 31
0.0
  0
LINE
  5
79
330
1F
100
AcDbEntity
  8
0
  6
Continuous
 62
     7
370
    15
100
AcDbLine
 10
121.9513
 20
130.881127242
 30
0.0
 11
121.9513
 21
130.856127242
 31
0.0
  0
ARC
  5
7A
330
1F
100
AcDbEntity
  8
0
  6
Continuous
 62
     7
370
    15
100
AcDbCircle
 10
123.1813
 20
130.856127242
 30
0.0
 40
0.0499999999999972
100
AcDbArc
 50
270.0
 51
0.0
  0
ARC
  5
7B
330
1F
100
AcDbEntity
  8
0
  6
Continuous
 62
     7
370
    15
100
AcDbCircle
 10
122.0013
 20
130.856127242
 30
0.0
 40
0.0499999999999972
100
AcDbArc
 50
180.0
 51
270.0
  0
LINE
  5
7C
330
1F
100
AcDbEntity
  8
0
  6
Continuous
 62
     7
370
    15
100
AcDbLine
 10
208.4093
 20
206.7598984039
 30
0.0
 11
208.4093
 21
204.2678097721
 31
0.0
  0
LINE
  5
7D
330
1F
100
AcDbEntity
  8
0
  6
Continuous
 62
     7
370
    15
100
AcDbLine
 10
118.5693
 20
206.7598984039
 30
0.0
 11
118.5693
 21
204.2678097721
 31
0.0
  0
LINE
  5
7E
330
1F
100
AcDbEntity
  8
0
  6
Continuous
 62
     7
370
    15
100
AcDbLine
 10
208.4093
 20
204.2678097721
 30
0.0
 11
208.4093
 21
202.701127242
 31
0.0
  0
CIRCLE
  5
7F
330
1F
100
AcDbEntity
  8
0
  6
Continuous
 62
     7
370
    15
100
AcDbCircle
 10
198.9893
 20
203.176127242
 30
0.0
 40
0.2700000000000102
  0
CIRCLE
  5
80
330
1F
100
AcDbEntity
  8
0
  6
Continuous
 62
     7
370
    15
100
AcDbCircle
 10
163.4893
 20
203.176127242
 30
0.0
 40
0.2700000000000102
  0
CIRCLE
  5
81
330
1F
100
AcDbEntity
  8
0
  6
Continuous
 62
     7
370
    15
100
AcDbCircle
 10
127.9893
 20
203.176127242
 30
0.0
 40
0.269999999999996
  0
LINE
  5
82
330
1F
100
AcDbEntity
  8
0
  6
Continuous
 62
     7
370
    15
100
AcDbLine
 10
208.4093
 20
202.701127242
 30
0.0
 11
118.5693
 21
202.701127242
 31
0.0
  0
LINE
  5
83
330
1F
100
AcDbEntity
  8
0
  6
Continuous
 62
     7
370
    15
100
AcDbLine
 10
118.5693
 20
204.2678097721
 30
0.0
 11
118.5693
 21
202.701127242
 31
0.0
  0
LINE
  5
84
330
1F
100
AcDbEntity
  8
0
  6
Continuous
 62
     7
370
    15
100
AcDbLine
 10
208.4893
 20
204.2678097721
 30
0.0
 11
208.4893
 21
202.7792095051
 31
0.0
  0
LINE
  5
85
330
1F
100
AcDbEntity
  8
0
  6
Continuous
 62
     7
370
    15
100
AcDbLine
 10
208.4093
 20
202.7792095051
 30
0.0
 11
208.4893
 21
202.7792095051
 31
0.0
  0
LINE
  5
86
330
1F
100
AcDbEntity
  8
0
  6
Continuous
 62
     7
370
    15
100
AcDbLine
 10
208.4893
 20
206.6729650795
 30
0.0
 11
208.4893
 21
204.2678097721
 31
0.0
  0
LINE
  5
87
330
1F
100
AcDbEntity
  8
0
  6
Continuous
 62
     7
370
    15
100
AcDbLine
 10
118.4893
 20
204.2678097721
 30
0.0
 11
118.4893
 21
202.7792095051
 31
0.0
  0
LINE
  5
88
330
1F
100
AcDbEntity
  8
0
  6
Continuous
 62
     7
370
    15
100
AcDbLine
 10
118.5693
 20
202.7792095051
 30
0.0
 11
118.4893
 21
202.7792095051
 31
0.0
  0
LINE
  5
89
330
1F
100
AcDbEntity
  8
0
  6
Continuous
 62
     7
370
    15
100
AcDbLine
 10
118.4893
 20
206.6729650795
 30
0.0
 11
118.4893
 21
204.2678097721
 31
0.0
  0
ARC
  5
8A
330
1F
100
AcDbEntity
  8
0
  6
Continuous
 62
     7
370
    15
100
AcDbCircle
 10
118.6943
 20
202.7792095051
 30
0.0
 40
0.2049999999999983
100
AcDbArc
 50
180.0
 51
262.1567806739
  0
ARC
  5
8B
330
1F
100
AcDbEntity
  8
0
  6
Continuous
 62
     7
370
    15
100
AcDbCircle
 10
118.6943
 20
202.7792095051
 30
0.0
 40
0.1249999999999899
100
AcDbArc
 50
218.6570976347
 51
270.0
  0
LINE
  5
8C
330
1F
100
AcDbEntity
  8
0
  6
Continuous
 62
     7
370
    15
100
AcDbLine
 10
118.6943
 20
202.6542095051
 30
0.0
 11
118.7293
 21
202.6542095051
 31
0.0
  0
LINE
  5
8D
330
1F
100
AcDbEntity
  8
0
  6
Continuous
 62
     7
370
    15
100
AcDbLine
 10
208.2843
 20
202.6542095051
 30
0.0
 11
208.2493
 21
202.6542095051
 31
0.0
  0
ARC
  5
8E
330
1F
100
AcDbEntity
  8
0
  6
Continuous
 62
     7
370
    15
100
AcDbCircle
 10
208.2843
 20
202.7792095051
 30
0.0
 40
0.2050000000000125
100
AcDbArc
 50
277.8432193261
 51
0.0
  0
ARC
  5
8F
330
1F
100
AcDbEntity
  8
0
  6
Continuous
 62
     7
370
    15
100
AcDbCircle
 10
208.2843
 20
202.7792095051
 30
0.0
 40
0.1249999999999899
100
AcDbArc
 50
270.0
 51
321.3429023653
  0
LINE
  5
90
330
1F
100
AcDbEntity
  8
0
  6
Continuous
 62
     7
370
    15
100
AcDbLine
 10
208.4093
 20
207.6520875524
 30
0.0
 11
208.4093
 21
206.7598984039
 31
0.0
  0
LINE
  5
91
330
1F
100
AcDbEntity
  8
0
  6
Continuous
 62
     7
370
    15
100
AcDbLine
 10
118.5693
 20
207.6520875524
 30
0.0
 11
118.5693
 21
206.7598984039
 31
0.0
  0
LINE
  5
92
330
1F
100
AcDbEntity
  8
0
  6
Continuous
 62
     7
370
    15
100
AcDbLine
 10
208.4893
 20
207.5617812325
 30
0.0
 11
208.4093
 21
207.5617812325
 31
0.0
  0
LINE
  5
93
330
1F
100
AcDbEntity
  8
0
  6
Continuous
 62
     7
370
    15
100
AcDbLine
 10
208.4893
 20
207.5617812325
 30
0.0
 11
208.4893
 21
206.6729650795
 31
0.0
  0
LINE
  5
94
330
1F
100
AcDbEntity
  8
0
  6
Continuous
 62
     7
370
    15
100
AcDbLine
 10
118.4893
 20
207.5617812325
 30
0.0
 11
118.5693
 21
207.5617812325
 31
0.0
  0
LINE
  5
95
330
1F
100
AcDbEntity
  8
0
  6
Continuous
 62
     7
370
    15
100
AcDbLine
 10
118.4893
 20
207.5617812325
 30
0.0
 11
118.4893
 21
206.6729650795
 31
0.0
  0
LINE
  5
96
330
1F
100
AcDbEntity
  8
0
  6
Continuous
 62
     7
370
    15
100
AcDbLine
 10
208.4093
 20
207.659072758
 30
0.0
 11
208.4093
 21
207.6520875524
 31
0.0
  0
LINE
  5
97
330
1F
100
AcDbEntity
  8
0
  6
Continuous
 62
     7
370
    15
100
AcDbLine
 10
118.5693
 20
207.659072758
 30
0.0
 11
118.5693
 21
207.6520875524
 31
0.0
  0
LINE
  5
98
330
1F
100
AcDbEntity
  8
0
  6
Continuous
 62
     7
370
    15
100
AcDbLine
 10
118.5693
 20
202.5342095051
 30
0.0
 11
118.6040778136
 21
202.5342095051
 31
0.0
  0
LINE
  5
99
330
1F
100
AcDbEntity
  8
0
  6
Continuous
 62
     7
370
    15
100
AcDbLine
 10
118.6943
 20
202.6542095051
 30
0.0
 11
118.6943
 21
202.701127242
 31
0.0
  0
LINE
  5
9A
330
1F
100
AcDbEntity
  8
0
  6
Continuous
 62
     7
370
    15
100
AcDbLine
 10
208.2843
 20
202.701127242
 30
0.0
 11
208.2843
 21
202.6542095051
 31
0.0
  0
LINE
  5
9B
330
1F
100
AcDbEntity
  8
0
  6
Continuous
 62
     7
370
    15
100
AcDbLine
 10
208.3693
 20
202.5342095051
 30
0.0
 11
208.4093
 21
202.5342095051
 31
0.0
  0
LINE
  5
9C
330
1F
100
AcDbEntity
  8
0
  6
Continuous
 62
     7
370
    15
100
AcDbLine
 10
208.4093
 20
202.5120183531
 30
0.0
 11
208.4093
 21
202.5342095051
 31
0.0
  0
LINE
  5
9D
330
1F
100
AcDbEntity
  8
0
  6
Continuous
 62
     7
370
    15
100
AcDbLine
 10
118.5693
 20
202.509360382
 30
0.0
 11
118.5693
 21
202.5342095051
 31
0.0
  0
LINE
  5
9E
330
1F
100
AcDbEntity
  8
0
  6
Continuous
 62
     7
370
    15
100
AcDbLine
 10
208.3693
 20
202.576127242
 30
0.0
 11
118.6093
 21
202.576127242
 31
0.0
  0
LINE
  5
9F
330
1F
100
AcDbEntity
  8
0
  6
Continuous
 62
     7
370
    15
100
AcDbLine
 10
118.6093
 20
198.1093772687
 30
0.0
 11
118.6093
 21
202.576127242
 31
0.0
  0
LINE
  5
A0
330
1F
100
AcDbEntity
  8
0
  6
Continuous
 62
     7
370
    15
100
AcDbLine
 10
208.3693
 20
198.1093772687
 30
0.0
 11
208.3693
 21
202.576127242
 31
0.0
  0
LINE
  5
A1
330
1F
100
AcDbEntity
  8
0
  6
Continuous
 62
     7
370
    15
100
AcDbLine
 10
118.4883
 20
202.331127242
 30
0.0
 11
118.4883
 21
198.2194244776
 31
0.0
  0
LINE
  5
A2
330
1F
100
AcDbEntity
  8
0
  6
Continuous
 62
     7
370
    15
100
AcDbLine
 10
118.6083
 20
202.331127242
 30
0.0
 11
118.4883
 21
202.331127242
 31
0.0
  0
LINE
  5
A3
330
1F
100
AcDbEntity
  8
0
  6
Continuous
 62
     7
370
    15
100
AcDbLine
 10
118.6083
 20
202.331127242
 30
0.0
 11
118.6083
 21
198.2194244776
 31
0.0
  0
LINE
  5
A4
330
1F
100
AcDbEntity
  8
0
  6
Continuous
 62
     7
370
    15
100
AcDbLine
 10
208.4903
 20
202.331127242
 30
0.0
 11
208.4903
 21
198.2194244776
 31
0.0
  0
LINE
  5
A5
330
1F
100
AcDbEntity
  8
0
  6
Continuous
 62
     7
370
    15
100
AcDbLine
 10
208.3703
 20
202.331127242
 30
0.0
 11
208.4903
 21
202.331127242
 31
0.0
  0
LINE
  5
A6
330
1F
100
AcDbEntity
  8
0
  6
Continuous
 62
     7
370
    15
100
AcDbLine
 10
208.3703
 20
202.331127242
 30
0.0
 11
208.3703
 21
198.2194244776
 31
0.0
  0
LINE
  5
A7
330
1F
100
AcDbEntity
  8
0
  6
Continuous
 62
     7
370
    15
100
AcDbLine
 10
208.3693
 20
197.1018690468
 30
0.0
 11
208.3693
 21
198.1093772687
 31
0.0
  0
LINE
  5
A8
330
1F
100
AcDbEntity
  8
0
  6
Continuous
 62
     7
370
    15
100
AcDbLine
 10
208.3693
 20
197.1018690468
 30
0.0
 11
118.6093
 21
197.1018690468
 31
0.0
  0
LINE
  5
A9
330
1F
100
AcDbEntity
  8
0
  6
Continuous
 62
     7
370
    15
100
AcDbLine
 10
118.6093
 20
197.1018690468
 30
0.0
 11
118.6093
 21
198.1093772687
 31
0.0
  0
LINE
  5
AA
330
1F
100
AcDbEntity
  8
0
  6
Continuous
 62
     7
370
    15
100
AcDbLine
 10
208.4903
 20
197.196127242
 30
0.0
 11
208.3703
 21
197.196127242
 31
0.0
  0
LINE
  5
AB
330
1F
100
AcDbEntity
  8
0
  6
Continuous
 62
     7
370
    15
100
AcDbLine
 10
208.4903
 20
198.2194244776
 30
0.0
 11
208.4903
 21
197.196127242
 31
0.0
  0
LINE
  5
AC
330
1F
100
AcDbEntity
  8
0
  6
Continuous
 62
     7
370
    15
100
AcDbLine
 10
208.3703
 20
198.2194244776
 30
0.0
 11
208.3703
 21
197.196127242
 31
0.0
  0
LINE
  5
AD
330
1F
100
AcDbEntity
  8
0
  6
Continuous
 62
     7
370
    15
100
AcDbLine
 10
118.4883
 20
197.196127242
 30
0.0
 11
118.6083
 21
197.196127242
 31
0.0
  0
LINE
  5
AE
330
1F
100
AcDbEntity
  8
0
  6
Continuous
 62
     7
370
    15
100
AcDbLine
 10
118.6083
 20
198.2194244776
 30
0.0
 11
118.6083
 21
197.196127242
 31
0.0
  0
LINE
  5
AF
330
1F
100
AcDbEntity
  8
0
  6
Continuous
 62
     7
370
    15
100
AcDbLine
 10
118.4883
 20
198.2194244776
 30
0.0
 11
118.4883
 21
197.196127242
 31
0.0
  0
SPLINE
  5
B0
330
1F
100
AcDbEntity
  8
0
  6
Continuous
 62
     7
370
    15
100
AcDbSpline
210
0.0
220
0.0
230
1.0
 70
     8
 71
     3
 72
    10
 73
     6
 74
     0
 42
0.00000001
 43
0.00000001
 40
0.0
 40
0.0
 40
0.0
 40
0.0
 40
0.2663735608851167
 40
0.6285043186301371
 40
1.0
 40
1.0
 40
1.0
 40
1.0
 10
118.6092999999987
 20
202.5379408136234
 30
0.0
 10
118.5902289143521
 20
202.5261515500854
 30
0.0
 10
118.5452309811862
 20
202.4983349641507
 30
0.0
 10
118.4990717515738
 20
202.4234293566715
 30
0.0
 10
118.4919210108506
 20
202.3621553395779
 30
0.0
 10
118.4882999999987
 20
202.3311272420111
 30
0.0
  0
SPLINE
  5
B1
330
1F
100
AcDbEntity
  8
0
  6
Continuous
 62
     7
370
    15
100
AcDbSpline
210
0.0
220
0.0
230
1.0
 70
     8
 71
     3
 72
    10
 73
     6
 74
     0
 42
0.00000001
 43
0.00000001
 40
0.0
 40
0.0
 40
0.0
 40
0.0
 40
0.4238374500451589
 40
0.8121789621292611
 40
1.0
 40
1.0
 40
1.0
 40
1.0
 10
208.4902999999987
 20
202.3311272420111
 30
0.0
 10
208.4857836777601
 20
202.365526452226
 30
0.0
 10
208.4771292704914
 20
202.4314439751995
 30
0.0
 10
208.4289580182442
 20
202.5032640470661
 30
0.0
 10
208.3879680226683
 20
202.5266017395027
 30
0.0
 10
208.3746058499412
 20
202.5342095050808
 30
0.0
  0
LINE
  5
B2
330
1F
100
AcDbEntity
  8
0
  6
Continuous
 62
     7
370
    15
100
AcDbLine
 10
208.3693
 20
197.3053475082
 30
0.0
 11
208.3703
 21
197.321127242
 31
0.0
  0
ARC
  5
B3
330
1F
100
AcDbEntity
  8
0
  6
Continuous
 62
     7
370
    15
100
AcDbCircle
 10
208.2453
 20
197.321127242
 30
0.0
 40
0.2450000000000045
100
AcDbArc
 50
270.0
 51
296.5003791586
  0
ARC
  5
B4
330
1F
100
AcDbEntity
  8
0
  6
Continuous
 62
     7
370
    15
100
AcDbCircle
 10
208.2453
 20
197.321127242
 30
0.0
 40
0.244999999999967
100
AcDbArc
 50
300.4058914097
 51
329.3225755274
  0
ARC
  5
B5
330
1F
100
AcDbEntity
  8
0
  6
Continuous
 62
     7
370
    15
100
AcDbCircle
 10
118.7333
 20
197.321127242
 30
0.0
 40
0.245000000000017
100
AcDbArc
 50
210.6774244726
 51
239.5941085903
  0
ARC
  5
B6
330
1F
100
AcDbEntity
  8
0
  6
Continuous
 62
     7
370
    15
100
AcDbCircle
 10
118.7333
 20
197.321127242
 30
0.0
 40
0.2450000000000401
100
AcDbArc
 50
243.4996208414
 51
270.0
  0
LINE
  5
B7
330
1F
100
AcDbEntity
  8
0
  6
Continuous
 62
     7
370
    15
100
AcDbLine
 10
118.6083
 20
197.321127242
 30
0.0
 11
118.6093
 21
197.3053475082
 31
0.0
  0
LINE
  5
B8
330
1F
100
AcDbEntity
  8
0
  6
Continuous
 62
     7
370
    15
100
AcDbLine
 10
118.7333
 20
197.076127242
 30
0.0
 11
119.8583
 21
197.076127242
 31
0.0
  0
LINE
  5
B9
330
1F
100
AcDbEntity
  8
0
  6
Continuous
 62
     7
370
    15
100
AcDbLine
 10
119.8583
 20
197.076127242
 30
0.0
 11
119.8583
 21
197.1018690468
 31
0.0
  0
LINE
  5
BA
330
1F
100
AcDbEntity
  8
0
  6
Continuous
 62
     7
370
    15
100
AcDbLine
 10
207.1203
 20
197.076127242
 30
0.0
 11
207.1203
 21
197.1018690468
 31
0.0
  0
LINE
  5
BB
330
1F
100
AcDbEntity
  8
0
  6
Continuous
 62
     7
370
    15
100
AcDbLine
 10
208.2453
 20
197.076127242
 30
0.0
 11
207.1203
 21
197.076127242
 31
0.0
  0
LINE
  5
BC
330
1F
100
AcDbEntity
  8
0
  6
Continuous
 62
     7
370
    15
100
AcDbLine
 10
208.2493
 20
202.701127242
 30
0.0
 11
208.2493
 21
202.576127242
 31
0.0
  0
LINE
  5
BD
330
1F
100
AcDbEntity
  8
0
  6
Continuous
 62
     7
370
    15
100
AcDbLine
 10
118.7293
 20
202.576127242
 30
0.0
 11
118.7293
 21
202.701127242
 31
0.0
  0
LINE
  5
BE
330
1F
100
AcDbEntity
  8
0
  6
Continuous
 62
     7
370
    15
100
AcDbLine
 10
118.5434541767
 20
202.481127242
 30
0.0
 11
118.4883
 21
202.481127242
 31
0.0
  0
LINE
  5
BF
330
1F
100
AcDbEntity
  8
0
  6
Continuous
 62
     7
370
    15
100
AcDbLine
 10
118.4883
 20
202.481127242
 30
0.0
 11
118.4883
 21
202.331127242
 31
0.0
  0
LINE
  5
C0
330
1F
100
AcDbEntity
  8
0
  6
Continuous
 62
     7
370
    15
100
AcDbLine
 10
208.433536291
 20
202.481127242
 30
0.0
 11
208.4903
 21
202.481127242
 31
0.0
  0
LINE
  5
C1
330
1F
100
AcDbEntity
  8
0
  6
Continuous
 62
     7
370
    15
100
AcDbLine
 10
208.4903
 20
202.481127242
 30
0.0
 11
208.4903
 21
202.331127242
 31
0.0
  0
LINE
  5
C2
330
1F
100
AcDbEntity
  8
0
  6
Continuous
 62
     7
370
    15
100
AcDbLine
 10
118.6083
 20
197.576127242
 30
0.0
 11
118.6093
 21
197.576127242
 31
0.0
  0
LINE
  5
C3
330
1F
100
AcDbEntity
  8
0
  6
Continuous
 62
     7
370
    15
100
AcDbLine
 10
208.3693
 20
197.576127242
 30
0.0
 11
208.3703
 21
197.576127242
 31
0.0
  0
CIRCLE
  5
C4
330
1F
100
AcDbEntity
  8
0
  6
Continuous
 62
     7
370
    15
100
AcDbCircle
 10
205.1913
 20
185.926127242
 30
0.0
 40
0.2199999999999989
  0
CIRCLE
  5
C5
330
1F
100
AcDbEntity
  8
0
  6
Continuous
 62
     7
370
    15
100
AcDbCircle
 10
121.7913
 20
185.926127242
 30
0.0
 40
0.2199999999999989
  0
ARC
  5
C6
330
1F
100
AcDbEntity
  8
0
  6
Continuous
 62
     7
370
    15
100
AcDbCircle
 10
205.1963
 20
164.376127242
 30
0.0
 40
0.5
100
AcDbArc
 50
270.0
 51
0.0
  0
LINE
  5
C7
330
1F
100
AcDbEntity
  8
0
  6
Continuous
 62
     7
370
    15
100
AcDbLine
 10
205.1963
 20
163.876127242
 30
0.0
 11
121.7863
 21
163.876127242
 31
0.0
  0
ARC
  5
C8
330
1F
100
AcDbEntity
  8
0
  6
Continuous
 62
     7
370
    15
100
AcDbCircle
 10
121.7863
 20
164.376127242
 30
0.0
 40
0.5
100
AcDbArc
 50
180.0
 51
270.0
  0
LINE
  5
C9
330
1F
100
AcDbEntity
  8
0
  6
Continuous
 62
     7
370
    15
100
AcDbLine
 10
205.6963
 20
164.376127242
 30
0.0
 11
205.6963
 21
165.631127242
 31
0.0
  0
LINE
  5
CA
330
1F
100
AcDbEntity
  8
0
  6
Continuous
 62
     7
370
    15
100
AcDbLine
 10
121.2863
 20
164.376127242
 30
0.0
 11
121.2863
 21
165.631127242
 31
0.0
  0
LINE
  5
CB
330
1F
100
AcDbEntity
  8
0
  6
Continuous
 62
     7
370
    15
100
AcDbLine
 10
205.6963
 20
165.876127242
 30
0.0
 11
205.6963
 21
165.631127242
 31
0.0
  0
LINE
  5
CC
330
1F
100
AcDbEntity
  8
0
  6
Continuous
 62
     7
370
    15
100
AcDbLine
 10
121.2863
 20
165.631127242
 30
0.0
 11
121.2863
 21
165.876127242
 31
0.0
  0
LINE
  5
CD
330
1F
100
AcDbEntity
  8
0
  6
Continuous
 62
     7
370
    15
100
AcDbLine
 10
121.2863
 20
165.876127242
 30
0.0
 11
205.6963
 21
165.876127242
 31
0.0
  0
LINE
  5
CE
330
1F
100
AcDbEntity
  8
0
  6
Continuous
 62
     7
370
    15
100
AcDbLine
 10
205.8213
 20
167.256127242
 30
0.0
 11
205.8213
 21
167.756127242
 31
0.0
  0
LINE
  5
CF
330
1F
100
AcDbEntity
  8
0
  6
Continuous
 62
     7
370
    15
100
AcDbLine
 10
205.8213
 20
167.756127242
 30
0.0
 11
205.9413
 21
167.756127242
 31
0.0
  0
LINE
  5
D0
330
1F
100
AcDbEntity
  8
0
  6
Continuous
 62
     7
370
    15
100
AcDbLine
 10
205.9413
 20
167.756127242
 30
0.0
 11
205.9413
 21
167.256127242
 31
0.0
  0
LINE
  5
D1
330
1F
100
AcDbEntity
  8
0
  6
Continuous
 62
     7
370
    15
100
AcDbLine
 10
205.8213
 20
166.001127242
 30
0.0
 11
205.8213
 21
167.256127242
 31
0.0
  0
LINE
  5
D2
330
1F
100
AcDbEntity
  8
0
  6
Continuous
 62
     7
370
    15
100
AcDbLine
 10
205.9413
 20
167.256127242
 30
0.0
 11
205.9413
 21
166.001127242
 31
0.0
  0
LINE
  5
D3
330
1F
100
AcDbEntity
  8
0
  6
Continuous
 62
     7
370
    15
100
AcDbLine
 10
121.0413
 20
167.256127242
 30
0.0
 11
121.0413
 21
166.001127242
 31
0.0
  0
LINE
  5
D4
330
1F
100
AcDbEntity
  8
0
  6
Continuous
 62
     7
370
    15
100
AcDbLine
 10
121.1613
 20
166.001127242
 30
0.0
 11
121.1613
 21
167.256127242
 31
0.0
  0
LINE
  5
D5
330
1F
100
AcDbEntity
  8
0
  6
Continuous
 62
     7
370
    15
100
AcDbLine
 10
121.0413
 20
167.756127242
 30
0.0
 11
121.1613
 21
167.756127242
 31
0.0
  0
LINE
  5
D6
330
1F
100
AcDbEntity
  8
0
  6
Continuous
 62
     7
370
    15
100
AcDbLine
 10
121.0413
 20
167.256127242
 30
0.0
 11
121.0413
 21
167.756127242
 31
0.0
  0
LINE
  5
D7
330
1F
100
AcDbEntity
  8
0
  6
Continuous
 62
     7
370
    15
100
AcDbLine
 10
121.1613
 20
167.756127242
 30
0.0
 11
121.1613
 21
167.256127242
 31
0.0
  0
ARC
  5
D8
330
1F
100
AcDbEntity
  8
0
  6
Continuous
 62
     7
370
    15
100
AcDbCircle
 10
205.6963
 20
166.001127242
 30
0.0
 40
0.125
100
AcDbArc
 50
270.0
 51
0.0
  0
ARC
  5
D9
330
1F
100
AcDbEntity
  8
0
  6
Continuous
 62
     7
370
    15
100
AcDbCircle
 10
205.6963
 20
166.001127242
 30
0.0
 40
0.2450000000000045
100
AcDbArc
 50
270.0
 51
0.0
  0
ARC
  5
DA
330
1F
100
AcDbEntity
  8
0
  6
Continuous
 62
     7
370
    15
100
AcDbCircle
 10
121.2863
 20
166.001127242
 30
0.0
 40
0.2449999999999903
100
AcDbArc
 50
180.0
 51
270.0
  0
ARC
  5
DB
330
1F
100
AcDbEntity
  8
0
  6
Continuous
 62
     7
370
    15
100
AcDbCircle
 10
121.2863
 20
166.001127242
 30
0.0
 40
0.125
100
AcDbArc
 50
180.0
 51
270.0
  0
SPLINE
  5
DC
330
1F
100
AcDbEntity
  8
0
  6
Continuous
 62
     7
370
    15
100
AcDbSpline
210
0.0
220
0.0
230
1.0
 70
     8
 71
     3
 72
     9
 73
     5
 74
     0
 42
0.00000001
 43
0.00000001
 40
0.0
 40
0.0
 40
0.0
 40
0.0
 40
0.5592384655984327
 40
1.0
 40
1.0
 40
1.0
 40
1.0
 10
205.787084966392
 20
165.9157205078722
 30
0.0
 10
205.792158712444
 20
165.9310137748721
 30
0.0
 10
205.8012313109224
 20
165.9583603683928
 30
0.0
 10
205.8102526659183
 20
165.9880438882521
 30
0.0
 10
205.8142289321888
 20
166.0011272420116
 30
0.0
  0
SPLINE
  5
DD
330
1F
100
AcDbEntity
  8
0
  6
Continuous
 62
     7
370
    15
100
AcDbSpline
210
0.0
220
0.0
230
1.0
 70
     8
 71
     3
 72
    11
 73
     7
 74
     0
 42
0.00000001
 43
0.00000001
 40
0.0
 40
0.0
 40
0.0
 40
0.0
 40
0.2726962473694013
 40
0.5235847753928917
 40
0.7744195977108865
 40
1.0
 40
1.0
 40
1.0
 40
1.0
 10
205.6963000000006
 20
165.8761272420116
 30
0.0
 10
205.7070314254641
 20
165.8783628022691
 30
0.0
 10
205.7276360764086
 20
165.8826551433869
 30
0.0
 10
205.7580661017494
 20
165.9141158579955
 30
0.0
 10
205.7866667577306
 20
165.9551825234441
 30
0.0
 10
205.8053720587781
 20
165.9863632923509
 30
0.0
 10
205.8142289321888
 20
166.0011272420116
 30
0.0
  0
LINE
  5
DE
330
1F
100
AcDbEntity
  8
0
  6
Continuous
 62
     7
370
    15
100
AcDbLine
 10
121.1683710678
 20
166.001127242
 30
0.0
 11
121.1940562553
 21
165.9190358708
 31
0.0
  0
SPLINE
  5
DF
330
1F
100
AcDbEntity
  8
0
  6
Continuous
 62
     7
370
    15
100
AcDbSpline
210
0.0
220
0.0
230
1.0
 70
     8
 71
     3
 72
    11
 73
     7
 74
     0
 42
0.00000001
 43
0.00000001
 40
0.0
 40
0.0
 40
0.0
 40
0.0
 40
0.2726962473693682
 40
0.5235847753929121
 40
0.7744195977108633
 40
1.0
 40
1.0
 40
1.0
 40
1.0
 10
121.1683710678125
 20
166.0011272420116
 30
0.0
 10
121.1791024932759
 20
165.9832442481054
 30
0.0
 10
121.1997071442204
 20
165.9489083764605
 30
0.0
 10
121.2301371695612
 20
165.9073200161962
 30
0.0
 10
121.2587378255424
 20
165.8808942062146
 30
0.0
 10
121.27744312659
 20
165.8776590659453
 30
0.0
 10
121.2863000000006
 20
165.8761272420116
 30
0.0
  0
LINE
  5
E0
330
1F
100
AcDbEntity
  8
0
  6
Continuous
 62
     7
370
    15
100
AcDbLine
 10
121.1683710678
 20
166.001127242
 30
0.0
 11
121.1683710678
 21
167.756127242
 31
0.0
  0
LINE
  5
E1
330
1F
100
AcDbEntity
  8
0
  6
Continuous
 62
     7
370
    15
100
AcDbLine
 10
121.1683710678
 20
167.756127242
 30
0.0
 11
205.8142289322
 21
167.756127242
 31
0.0
  0
LINE
  5
E2
330
1F
100
AcDbEntity
  8
0
  6
Continuous
 62
     7
370
    15
100
AcDbLine
 10
205.8142289322
 20
166.001127242
 30
0.0
 11
205.8142289322
 21
167.756127242
 31
0.0
  0
ARC
  5
E3
330
1F
100
AcDbEntity
  8
0
  6
Continuous
 62
     7
370
    15
100
AcDbCircle
 10
121.7863
 20
131.396127242
 30
0.0
 40
0.5
100
AcDbArc
 50
180.0
 51
270.0
  0
LINE
  5
E4
330
1F
100
AcDbEntity
  8
0
  6
Continuous
 62
     7
370
    15
100
AcDbLine
 10
121.2863
 20
131.396127242
 30
0.0
 11
121.2863
 21
134.431127242
 31
0.0
  0
ARC
  5
E5
330
1F
100
AcDbEntity
  8
0
  6
Continuous
 62
     7
370
    15
100
AcDbCircle
 10
205.1963
 20
131.396127242
 30
0.0
 40
0.5
100
AcDbArc
 50
270.0
 51
0.0
  0
LINE
  5
E6
330
1F
100
AcDbEntity
  8
0
  6
Continuous
 62
     7
370
    15
100
AcDbLine
 10
205.1963
 20
130.896127242
 30
0.0
 11
121.7863
 21
130.896127242
 31
0.0
  0
LINE
  5
E7
330
1F
100
AcDbEntity
  8
0
  6
Continuous
 62
     7
370
    15
100
AcDbLine
 10
205.6963
 20
134.431127242
 30
0.0
 11
205.6963
 21
131.396127242
 31
0.0
  0
LINE
  5
E8
330
1F
100
AcDbEntity
  8
0
  6
Continuous
 62
     7
370
    15
100
AcDbLine
 10
205.6963
 20
134.641840317
 30
0.0
 11
205.6963
 21
134.431127242
 31
0.0
  0
LINE
  5
E9
330
1F
100
AcDbEntity
  8
0
  6
Continuous
 62
     7
370
    15
100
AcDbLine
 10
121.2863
 20
134.431127242
 30
0.0
 11
121.2863
 21
134.641840317
 31
0.0
  0
LINE
  5
EA
330
1F
100
AcDbEntity
  8
0
  6
Continuous
 62
     7
370
    15
100
AcDbLine
 10
121.2863
 20
134.676127242
 30
0.0
 11
205.6963
 21
134.676127242
 31
0.0
  0
LINE
  5
EB
330
1F
100
AcDbEntity
  8
0
  6
Continuous
 62
     7
370
    15
100
AcDbLine
 10
205.9413
 20
136.056127242
 30
0.0
 11
205.9413
 21
134.801127242
 31
0.0
  0
LINE
  5
EC
330
1F
100
AcDbEntity
  8
0
  6
Continuous
 62
     7
370
    15
100
AcDbLine
 10
205.8213
 20
136.056127242
 30
0.0
 11
205.8213
 21
134.801127242
 31
0.0
  0
LINE
  5
ED
330
1F
100
AcDbEntity
  8
0
  6
Continuous
 62
     7
370
    15
100
AcDbLine
 10
205.8213
 20
136.556127242
 30
0.0
 11
205.9413
 21
136.556127242
 31
0.0
  0
LINE
  5
EE
330
1F
100
AcDbEntity
  8
0
  6
Continuous
 62
     7
370
    15
100
AcDbLine
 10
205.9413
 20
136.556127242
 30
0.0
 11
205.9413
 21
136.056127242
 31
0.0
  0
LINE
  5
EF
330
1F
100
AcDbEntity
  8
0
  6
Continuous
 62
     7
370
    15
100
AcDbLine
 10
205.8213
 20
136.056127242
 30
0.0
 11
205.8213
 21
136.556127242
 31
0.0
  0
LINE
  5
F0
330
1F
100
AcDbEntity
  8
0
  6
Continuous
 62
     7
370
    15
100
AcDbLine
 10
121.0413
 20
136.556127242
 30
0.0
 11
121.1613
 21
136.556127242
 31
0.0
  0
LINE
  5
F1
330
1F
100
AcDbEntity
  8
0
  6
Continuous
 62
     7
370
    15
100
AcDbLine
 10
121.1613
 20
136.556127242
 30
0.0
 11
121.1613
 21
136.056127242
 31
0.0
  0
LINE
  5
F2
330
1F
100
AcDbEntity
  8
0
  6
Continuous
 62
     7
370
    15
100
AcDbLine
 10
121.0413
 20
136.056127242
 30
0.0
 11
121.0413
 21
136.556127242
 31
0.0
  0
LINE
  5
F3
330
1F
100
AcDbEntity
  8
0
  6
Continuous
 62
     7
370
    15
100
AcDbLine
 10
121.0413
 20
134.801127242
 30
0.0
 11
121.0413
 21
136.056127242
 31
0.0
  0
LINE
  5
F4
330
1F
100
AcDbEntity
  8
0
  6
Continuous
 62
     7
370
    15
100
AcDbLine
 10
121.1613
 20
134.801127242
 30
0.0
 11
121.1613
 21
136.056127242
 31
0.0
  0
ARC
  5
F5
330
1F
100
AcDbEntity
  8
0
  6
Continuous
 62
     7
370
    15
100
AcDbCircle
 10
205.6963
 20
134.801127242
 30
0.0
 40
0.2450000000000045
100
AcDbArc
 50
270.0
 51
0.0
  0
LINE
  5
F6
330
1F
100
AcDbEntity
  8
0
  6
Continuous
 62
     7
370
    15
100
AcDbLine
 10
205.6963
 20
134.676127242
 30
0.0
 11
205.6963
 21
134.641840317
 31
0.0
  0
ARC
  5
F7
330
1F
100
AcDbEntity
  8
0
  6
Continuous
 62
     7
370
    15
100
AcDbCircle
 10
205.6963
 20
134.801127242
 30
0.0
 40
0.125
100
AcDbArc
 50
270.0
 51
0.0
  0
LINE
  5
F8
330
1F
100
AcDbEntity
  8
0
  6
Continuous
 62
     7
370
    15
100
AcDbLine
 10
121.2863
 20
134.676127242
 30
0.0
 11
121.2863
 21
134.641840317
 31
0.0
  0
ARC
  5
F9
330
1F
100
AcDbEntity
  8
0
  6
Continuous
 62
     7
370
    15
100
AcDbCircle
 10
121.2863
 20
134.801127242
 30
0.0
 40
0.2450000000000045
100
AcDbArc
 50
180.0
 51
270.0
  0
ARC
  5
FA
330
1F
100
AcDbEntity
  8
0
  6
Continuous
 62
     7
370
    15
100
AcDbCircle
 10
121.2863
 20
134.801127242
 30
0.0
 40
0.125
100
AcDbArc
 50
180.0
 51
270.0
  0
SPLINE
  5
FB
330
1F
100
AcDbEntity
  8
0
  6
Continuous
 62
     7
370
    15
100
AcDbSpline
210
0.0
220
0.0
230
1.0
 70
     8
 71
     3
 72
     9
 73
     5
 74
     0
 42
0.00000001
 43
0.00000001
 40
0.0
 40
0.0
 40
0.0
 40
0.0
 40
0.5592384655984516
 40
1.0
 40
1.0
 40
1.0
 40
1.0
 10
205.7870849663918
 20
134.7157205078339
 30
0.0
 10
205.7921587124439
 20
134.7310137748337
 30
0.0
 10
205.8012313109222
 20
134.7583603683545
 30
0.0
 10
205.8102526659182
 20
134.7880438882137
 30
0.0
 10
205.8142289321886
 20
134.8011272419733
 30
0.0
  0
LINE
  5
FC
330
1F
100
AcDbEntity
  8
0
  6
Continuous
 62
     7
370
    15
100
AcDbLine
 10
121.1683710678
 20
134.801127242
 30
0.0
 11
121.1940562553
 21
134.7190358708
 31
0.0
  0
SPLINE
  5
FD
330
1F
100
AcDbEntity
  8
0
  6
Continuous
 62
     7
370
    15
100
AcDbSpline
210
0.0
220
0.0
230
1.0
 70
     8
 71
     3
 72
    11
 73
     7
 74
     0
 42
0.00000001
 43
0.00000001
 40
0.0
 40
0.0
 40
0.0
 40
0.0
 40
0.2726962473694045
 40
0.5235847753928846
 40
0.7744195977108885
 40
0.9999999999999999
 40
0.9999999999999999
 40
0.9999999999999999
 40
0.9999999999999999
 10
205.6963000000005
 20
134.6761272419733
 30
0.0
 10
205.7070314254639
 20
134.6783628022307
 30
0.0
 10
205.7276360764084
 20
134.6826551433486
 30
0.0
 10
205.7580661017492
 20
134.7141158579572
 30
0.0
 10
205.7866667577304
 20
134.7551825234058
 30
0.0
 10
205.805372058778
 20
134.7863632923126
 30
0.0
 10
205.8142289321886
 20
134.8011272419733
 30
0.0
  0
SPLINE
  5
FE
330
1F
100
AcDbEntity
  8
0
  6
Continuous
 62
     7
370
    15
100
AcDbSpline
210
0.0
220
0.0
230
1.0
 70
     8
 71
     3
 72
    11
 73
     7
 74
     0
 42
0.00000001
 43
0.00000001
 40
0.0
 40
0.0
 40
0.0
 40
0.0
 40
0.2726962473693627
 40
0.5235847753929147
 40
0.7744195977108628
 40
1.0
 40
1.0
 40
1.0
 40
1.0
 10
121.1683710678123
 20
134.8011272419733
 30
0.0
 10
121.1791024932758
 20
134.7832442480671
 30
0.0
 10
121.1997071442203
 20
134.7489083764222
 30
0.0
 10
121.230137169561
 20
134.7073200161579
 30
0.0
 10
121.2587378255423
 20
134.6808942061763
 30
0.0
 10
121.2774431265898
 20
134.677659065907
 30
0.0
 10
121.2863000000005
 20
134.6761272419733
 30
0.0
  0
LINE
  5
FF
330
1F
100
AcDbEntity
  8
0
  6
Continuous
 62
     7
370
    15
100
AcDbLine
 10
121.1683710678
 20
136.556127242
 30
0.0
 11
205.8142289322
 21
136.556127242
 31
0.0
  0
LINE
  5
100
330
1F
100
AcDbEntity
  8
0
  6
Continuous
 62
     7
370
    15
100
AcDbLine
 10
205.8142289322
 20
134.801127242
 30
0.0
 11
205.8142289322
 21
136.556127242
 31
0.0
  0
LINE
  5
101
330
1F
100
AcDbEntity
  8
0
  6
Continuous
 62
     7
370
    15
100
AcDbLine
 10
121.1683710678
 20
134.801127242
 30
0.0
 11
121.1683710678
 21
136.556127242
 31
0.0
  0
LINE
  5
102
330
1F
100
AcDbEntity
  8
0
  6
Continuous
 62
     7
370
    15
100
AcDbLine
 10
204.0632289322
 20
197.1018690468
 30
0.0
 11
204.0632289322
 21
197.076127242
 31
0.0
  0
LINE
  5
103
330
1F
100
AcDbEntity
  8
0
  6
Continuous
 62
     7
370
    15
100
AcDbLine
 10
122.9103
 20
197.076127242
 30
0.0
 11
204.0632289322
 21
197.076127242
 31
0.0
  0
LINE
  5
104
330
1F
100
AcDbEntity
  8
0
  6
Continuous
 62
     7
370
    15
100
AcDbLine
 10
122.9103
 20
197.076127242
 30
0.0
 11
122.9103
 21
197.1018690468
 31
0.0
  0
LINE
  5
105
330
1F
100
AcDbEntity
  8
0
  6
Continuous
 62
     7
370
    15
100
AcDbLine
 10
122.7903
 20
197.076127242
 30
0.0
 11
122.7903
 21
197.1018690468
 31
0.0
  0
LINE
  5
106
330
1F
100
AcDbEntity
  8
0
  6
Continuous
 62
     7
370
    15
100
AcDbLine
 10
120.8353
 20
197.076127242
 30
0.0
 11
122.7903
 21
197.076127242
 31
0.0
  0
ARC
  5
107
330
1F
100
AcDbEntity
  8
0
  6
Continuous
 62
     7
370
    15
100
AcDbCircle
 10
120.8353
 20
197.321127242
 30
0.0
 40
0.245000000000033
100
AcDbArc
 50
243.4996208424
 51
270.0
  0
LINE
  5
108
330
1F
100
AcDbEntity
  8
0
  6
Continuous
 62
     7
370
    15
100
AcDbLine
 10
204.1903
 20
197.076127242
 30
0.0
 11
204.1903
 21
197.1018690468
 31
0.0
  0
LINE
  5
109
330
1F
100
AcDbEntity
  8
0
  6
Continuous
 62
     7
370
    15
100
AcDbLine
 10
204.1903
 20
197.076127242
 30
0.0
 11
206.1453
 21
197.076127242
 31
0.0
  0
ARC
  5
10A
330
1F
100
AcDbEntity
  8
0
  6
Continuous
 62
     7
370
    15
100
AcDbCircle
 10
206.1453
 20
197.321127242
 30
0.0
 40
0.245000000000033
100
AcDbArc
 50
270.0
 51
296.5003791577
  0
LINE
  5
10B
330
1F
100
AcDbEntity
  8
0
  6
Continuous
 62
     7
370
    15
100
AcDbLine
 10
204.0703
 20
197.076127242
 30
0.0
 11
204.0703
 21
197.1018690468
 31
0.0
  0
LINE
  5
10C
330
1F
100
AcDbEntity
  8
0
  6
Continuous
 62
     7
370
    15
100
AcDbLine
 10
204.0632289322
 20
197.076127242
 30
0.0
 11
204.0703
 21
197.076127242
 31
0.0
  0
LINE
  5
10D
330
1F
100
AcDbEntity
  8
0
  6
Continuous
 62
     7
370
    15
100
AcDbLine
 10
207.9913
 20
130.451127242
 30
0.0
 11
207.9913
 21
130.176127242
 31
0.0
  0
LINE
  5
10E
330
1F
100
AcDbEntity
  8
0
  6
Continuous
 62
     7
370
    15
100
AcDbLine
 10
206.4913
 20
128.676127242
 30
0.0
 11
207.9913
 21
130.176127242
 31
0.0
  0
LINE
  5
10F
330
1F
100
AcDbEntity
  8
0
  6
Continuous
 62
     7
370
    15
100
AcDbLine
 10
206.4913
 20
128.676127242
 30
0.0
 11
120.4913
 21
128.676127242
 31
0.0
  0
LINE
  5
110
330
1F
100
AcDbEntity
  8
0
  6
Continuous
 62
     7
370
    15
100
AcDbLine
 10
118.9913
 20
130.176127242
 30
0.0
 11
120.4913
 21
128.676127242
 31
0.0
  0
LINE
  5
111
330
1F
100
AcDbEntity
  8
0
  6
Continuous
 62
     7
370
    15
100
AcDbLine
 10
118.9913
 20
130.176127242
 30
0.0
 11
118.9913
 21
130.451127242
 31
0.0
  0
LINE
  5
112
330
1F
100
AcDbEntity
  8
0
  6
Continuous
 62
     7
370
    15
100
AcDbLine
 10
207.9913
 20
130.726127242
 30
0.0
 11
207.9913
 21
130.451127242
 31
0.0
  0
LINE
  5
113
330
1F
100
AcDbEntity
  8
0
  6
Continuous
 62
     7
370
    15
100
AcDbLine
 10
118.9913
 20
130.451127242
 30
0.0
 11
118.9913
 21
130.726127242
 31
0.0
  0
LINE
  5
114
330
1F
100
AcDbEntity
  8
0
  6
Continuous
 62
     7
370
    15
100
AcDbLine
 10
120.4713
 20
130.726127242
 30
0.0
 11
121.1163
 21
130.726127242
 31
0.0
  0
LINE
  5
115
330
1F
100
AcDbEntity
  8
0
  6
Continuous
 62
     7
370
    15
100
AcDbLine
 10
123.9913
 20
130.726127242
 30
0.0
 11
202.9913
 21
130.726127242
 31
0.0
  0
LINE
  5
116
330
1F
100
AcDbEntity
  8
0
  6
Continuous
 62
     7
370
    15
100
AcDbLine
 10
205.8663
 20
130.726127242
 30
0.0
 11
206.5113
 21
130.726127242
 31
0.0
  0
LINE
  5
117
330
1F
100
AcDbEntity
  8
0
  6
Continuous
 62
     7
370
    15
100
AcDbLine
 10
207.9913
 20
130.806127242
 30
0.0
 11
207.9913
 21
130.8131983098
 31
0.0
  0
LINE
  5
118
330
1F
100
AcDbEntity
  8
0
  6
Continuous
 62
     7
370
    15
100
AcDbLine
 10
118.9913
 20
130.851127242
 30
0.0
 11
118.9913
 21
130.806127242
 31
0.0
  0
LINE
  5
119
330
1F
100
AcDbEntity
  8
0
  6
Continuous
 62
     7
370
    15
100
AcDbLine
 10
119.3600559525
 20
132.626127242
 30
0.0
 11
119.6225440475
 21
132.626127242
 31
0.0
  0
LINE
  5
11A
330
1F
100
AcDbEntity
  8
0
  6
Continuous
 62
     7
370
    15
100
AcDbLine
 10
120.9913
 20
132.626127242
 30
0.0
 11
121.2863
 21
132.626127242
 31
0.0
  0
LINE
  5
11B
330
1F
100
AcDbEntity
  8
0
  6
Continuous
 62
     7
370
    15
100
AcDbLine
 10
205.6963
 20
132.626127242
 30
0.0
 11
205.9913
 21
132.626127242
 31
0.0
  0
LINE
  5
11C
330
1F
100
AcDbEntity
  8
0
  6
Continuous
 62
     7
370
    15
100
AcDbLine
 10
207.3600559525
 20
132.626127242
 30
0.0
 11
207.6225440475
 21
132.626127242
 31
0.0
  0
LINE
  5
11D
330
1F
100
AcDbEntity
  8
0
  6
Continuous
 62
     7
370
    15
100
AcDbLine
 10
118.9913
 20
130.851127242
 30
0.0
 11
118.9913
 21
130.8768379201
 31
0.0
  0
LINE
  5
11E
330
1F
100
AcDbEntity
  8
0
  6
Continuous
 62
     7
370
    15
100
AcDbLine
 10
130.1813
 20
130.851127242
 30
0.0
 11
129.0013
 21
130.851127242
 31
0.0
  0
LINE
  5
11F
330
1F
100
AcDbEntity
  8
0
  6
Continuous
 62
     7
370
    15
100
AcDbLine
 10
197.9813
 20
130.851127242
 30
0.0
 11
196.8013
 21
130.851127242
 31
0.0
  0
LINE
  5
120
330
1F
100
AcDbEntity
  8
0
  6
Continuous
 62
     7
370
    15
100
AcDbLine
 10
163.8522639415
 20
129.5253699528
 30
0.0
 11
163.8522639415
 21
129.4894725169
 31
0.0
  0
LINE
  5
121
330
1F
100
AcDbEntity
  8
0
  6
Continuous
 62
     7
370
    15
100
AcDbLine
 10
163.8522639415
 20
129.4894725169
 30
0.0
 11
163.7176485568
 21
129.4894725169
 31
0.0
  0
LINE
  5
122
330
1F
100
AcDbEntity
  8
0
  6
Continuous
 62
     7
370
    15
100
AcDbLine
 10
163.7176485568
 20
129.4894725169
 30
0.0
 11
163.7176485568
 21
129.5253699528
 31
0.0
  0
LINE
  5
123
330
1F
100
AcDbEntity
  8
0
  6
Continuous
 62
     7
370
    15
100
AcDbLine
 10
163.7176485568
 20
129.5253699528
 30
0.0
 11
163.8522639415
 21
129.5253699528
 31
0.0
  0
SPLINE
  5
124
330
1F
100
AcDbEntity
  8
0
  6
Continuous
 62
     7
370
    15
100
AcDbSpline
210
0.0
220
0.0
230
1.0
 70
     8
 71
     3
 72
    10
 73
     6
 74
     0
 42
0.00000001
 43
0.00000001
 40
0.0
 40
0.0
 40
0.0
 40
0.0
 40
0.5593206424960885
 40
0.7797817160351028
 40
1.0
 40
1.0
 40
1.0
 40
1.0
 10
163.5004410247946
 20
129.4580622605365
 30
0.0
 10
163.5108425367948
 20
129.4420773236191
 30
0.0
 10
163.5253438948006
 20
129.4197917854266
 30
0.0
 10
163.5549967337935
 20
129.4020486233337
 30
0.0
 10
163.569857622778
 20
129.4005018751896
 30
0.0
 10
163.5772839735126
 20
129.3997289272032
 30
0.0
  0
SPLINE
  5
125
330
1F
100
AcDbEntity
  8
0
  6
Continuous
 62
     7
370
    15
100
AcDbSpline
210
0.0
220
0.0
230
1.0
 70
     8
 71
     3
 72
     9
 73
     5
 74
     0
 42
0.00000001
 43
0.00000001
 40
0.0
 40
0.0
 40
0.0
 40
0.0
 40
0.5589902170858756
 40
1.0
 40
1.0
 40
1.0
 40
1.0
 10
163.6458536850511
 20
129.4590438310493
 30
0.0
 10
163.644992701433
 20
129.4660170267937
 30
0.0
 10
163.6434524533361
 20
129.4784916561007
 30
0.0
 10
163.6364095806689
 20
129.4888365844101
 30
0.0
 10
163.6333036049228
 20
129.4933987989981
 30
0.0
  0
SPLINE
  5
126
330
1F
100
AcDbEntity
  8
0
  6
Continuous
 62
     7
370
    15
100
AcDbSpline
210
0.0
220
0.0
230
1.0
 70
     8
 71
     3
 72
     9
 73
     5
 74
     0
 42
0.00000001
 43
0.00000001
 40
0.0
 40
0.0
 40
0.0
 40
0.0
 40
0.5604126915225546
 40
1.0
 40
1.0
 40
1.0
 40
1.0
 10
163.5702026433844
 20
129.5492080938699
 30
0.0
 10
163.5587916755684
 20
129.5572720200928
 30
0.0
 10
163.5384299528799
 20
129.5716612841921
 30
0.0
 10
163.5206616159646
 20
129.5891336385269
 30
0.0
 10
163.5128508805639
 20
129.5968142637416
 30
0.0
  0
SPLINE
  5
127
330
1F
100
AcDbEntity
  8
0
  6
Continuous
 62
     7
370
    15
100
AcDbSpline
210
0.0
220
0.0
230
1.0
 70
     8
 71
     3
 72
     9
 73
     5
 74
     0
 42
0.00000001
 43
0.00000001
 40
0.0
 40
0.0
 40
0.0
 40
0.0
 40
0.559840459640731
 40
1.0
 40
1.0
 40
1.0
 40
1.0
 10
163.5128508805639
 20
129.5968142637416
 30
0.0
 10
163.506683145867
 20
129.6058930967233
 30
0.0
 10
163.4956661952507
 20
129.6221099185434
 30
0.0
 10
163.4940159525539
 20
129.641544988634
 30
0.0
 10
163.493289582487
 20
129.6500995201519
 30
0.0
  0
SPLINE
  5
128
330
1F
100
AcDbEntity
  8
0
  6
Continuous
 62
     7
370
    15
100
AcDbSpline
210
0.0
220
0.0
230
1.0
 70
     8
 71
     3
 72
    11
 73
     7
 74
     0
 42
0.00000001
 43
0.00000001
 40
0.0
 40
0.0
 40
0.0
 40
0.0
 40
0.2795526256224906
 40
0.5587984019499385
 40
0.7793777274872606
 40
1.0
 40
1.0
 40
1.0
 40
1.0
 10
163.493289582487
 20
129.6500995201519
 30
0.0
 10
163.4948057900639
 20
129.662526479041
 30
0.0
 10
163.4978365409613
 20
129.687366756441
 30
0.0
 10
163.5217442497721
 20
129.7143479892142
 30
0.0
 10
163.55032223635
 20
129.729284152226
 30
0.0
 10
163.5697918225582
 20
129.7309481362537
 30
0.0
 10
163.5795275632562
 20
129.7317802092545
 30
0.0
  0
LINE
  5
129
330
1F
100
AcDbEntity
  8
0
  6
Continuous
 62
     7
370
    15
100
AcDbLine
 10
163.672776762
 20
129.6725354176
 30
0.0
 11
163.6443813293
 21
129.6510109785
 31
0.0
  0
SPLINE
  5
12A
330
1F
100
AcDbEntity
  8
0
  6
Continuous
 62
     7
370
    15
100
AcDbSpline
210
0.0
220
0.0
230
1.0
 70
     8
 71
     3
 72
    10
 73
     6
 74
     0
 42
0.00000001
 43
0.00000001
 40
0.0
 40
0.0
 40
0.0
 40
0.0
 40
0.5598184745602564
 40
0.7798479484877452
 40
1.0
 40
1.0
 40
1.0
 40
1.0
 10
163.6443813292818
 20
129.6510109784853
 30
0.0
 10
163.6344866149782
 20
129.6636977955027
 30
0.0
 10
163.6207029100789
 20
129.6813710032896
 30
0.0
 10
163.5948018944511
 20
129.6944546375841
 30
0.0
 10
163.582283096377
 20
129.6954066397312
 30
0.0
 10
163.5760219542818
 20
129.695882773357
 30
0.0
  0
SPLINE
  5
12B
330
1F
100
AcDbEntity
  8
0
  6
Continuous
 62
     7
370
    15
100
AcDbSpline
210
0.0
220
0.0
230
1.0
 70
     8
 71
     3
 72
    11
 73
     7
 74
     0
 42
0.00000001
 43
0.00000001
 40
0.0
 40
0.0
 40
0.0
 40
0.0
 40
0.2802742650357002
 40
0.5599313893785679
 40
0.7799200827089801
 40
1.0
 40
1.0
 40
1.0
 40
1.0
 10
163.5760219542818
 20
129.695882773357
 30
0.0
 10
163.5689157988765
 20
129.6953357814325
 30
0.0
 10
163.554719135231
 20
129.6942430020143
 30
0.0
 10
163.5376289984555
 20
129.683333174245
 30
0.0
 10
163.5264156187492
 20
129.6683394070567
 30
0.0
 10
163.5252718445474
 20
129.6571618253181
 30
0.0
 10
163.5246998388972
 20
129.6515718759211
 30
0.0
  0
SPLINE
  5
12C
330
1F
100
AcDbEntity
  8
0
  6
Continuous
 62
     7
370
    15
100
AcDbSpline
210
0.0
220
0.0
230
1.0
 70
     8
 71
     3
 72
    10
 73
     6
 74
     0
 42
0.00000001
 43
0.00000001
 40
0.0
 40
0.0
 40
0.0
 40
0.0
 40
0.2799464048566246
 40
0.5597740877081179
 40
1.0
 40
1.0
 40
1.0
 40
1.0
 10
163.5246998388972
 20
129.6515718759211
 30
0.0
 10
163.5251100193944
 20
129.6466873359708
 30
0.0
 10
163.5259302064362
 20
129.6369203275464
 30
0.0
 10
163.5335104993042
 20
129.6208184057057
 30
0.0
 10
163.5423577310132
 20
129.6118392131974
 30
0.0
 10
163.5477667459485
 20
129.6063495201519
 30
0.0
  0
SPLINE
  5
12D
330
1F
100
AcDbEntity
  8
0
  6
Continuous
 62
     7
370
    15
100
AcDbSpline
210
0.0
220
0.0
230
1.0
 70
     8
 71
     3
 72
     9
 73
     5
 74
     0
 42
0.00000001
 43
0.00000001
 40
0.0
 40
0.0
 40
0.0
 40
0.0
 40
0.5599057797395629
 40
1.0
 40
1.0
 40
1.0
 40
1.0
 10
163.5477667459485
 20
129.6063495201519
 30
0.0
 10
163.5564006379665
 20
129.5996476214002
 30
0.0
 10
163.5718208967501
 20
129.5876779311518
 30
0.0
 10
163.5877859088381
 20
129.5764466075499
 30
0.0
 10
163.5948120183844
 20
129.5715037669468
 30
0.0
  0
SPLINE
  5
12E
330
1F
100
AcDbEntity
  8
0
  6
Continuous
 62
     7
370
    15
100
AcDbSpline
210
0.0
220
0.0
230
1.0
 70
     8
 71
     3
 72
    10
 73
     6
 74
     0
 42
0.00000001
 43
0.00000001
 40
0.0
 40
0.0
 40
0.0
 40
0.0
 40
0.5601153992618905
 40
0.7802837543288825
 40
1.0
 40
1.0
 40
1.0
 40
1.0
 10
163.5948120183844
 20
129.5715037669468
 30
0.0
 10
163.6167494629421
 20
129.5552552895069
 30
0.0
 10
163.64731000747
 20
129.5326199129476
 30
0.0
 10
163.6733310502164
 20
129.4904935877571
 30
0.0
 10
163.6759538762853
 20
129.4691925954589
 30
0.0
 10
163.6772639414613
 20
129.458553045793
 30
0.0
  0
SPLINE
  5
12F
330
1F
100
AcDbEntity
  8
0
  6
Continuous
 62
     7
370
    15
100
AcDbSpline
210
0.0
220
0.0
230
1.0
 70
     8
 71
     3
 72
    11
 73
     7
 74
     0
 42
0.00000001
 43
0.00000001
 40
0.0
 40
0.0
 40
0.0
 40
0.0
 40
0.2791829157711667
 40
0.5590850636576217
 40
0.7794460377649872
 40
1.0
 40
1.0
 40
1.0
 40
1.0
 10
163.6772639414613
 20
129.458553045793
 30
0.0
 10
163.67530780536
 20
129.4442371662464
 30
0.0
 10
163.671390493752
 20
129.4155685265288
 30
0.0
 10
163.6434102851541
 20
129.3850726530033
 30
0.0
 10
163.6110881045507
 20
129.3665623694271
 30
0.0
 10
163.5885553047217
 20
129.3647420495971
 30
0.0
 10
163.5772839735126
 20
129.3638314913057
 30
0.0
  0
SPLINE
  5
130
330
1F
100
AcDbEntity
  8
0
  6
Continuous
 62
     7
370
    15
100
AcDbSpline
210
0.0
220
0.0
230
1.0
 70
     8
 71
     3
 72
    10
 73
     6
 74
     0
 42
0.00000001
 43
0.00000001
 40
0.0
 40
0.0
 40
0.0
 40
0.0
 40
0.2798798232940207
 40
0.5596657815356192
 40
1.0
 40
1.0
 40
1.0
 40
1.0
 10
163.5772839735126
 20
129.3638314913057
 30
0.0
 10
163.564334446012
 20
129.3651284806319
 30
0.0
 10
163.538439733975
 20
129.3677220243049
 30
0.0
 10
163.4985485286186
 20
129.3941029084294
 30
0.0
 10
163.4813624886271
 20
129.4227853398324
 30
0.0
 10
163.4708536850511
 20
129.4403238791263
 30
0.0
  0
SPLINE
  5
131
330
1F
100
AcDbEntity
  8
0
  6
Continuous
 62
     7
370
    15
100
AcDbSpline
210
0.0
220
0.0
230
1.0
 70
     8
 71
     3
 72
    10
 73
     6
 74
     0
 42
0.00000001
 43
0.00000001
 40
0.0
 40
0.0
 40
0.0
 40
0.0
 40
0.2797499242147568
 40
0.5595011693086177
 40
1.0
 40
1.0
 40
1.0
 40
1.0
 10
163.5795275632562
 20
129.7317802092545
 30
0.0
 10
163.5903037402989
 20
129.7307280383665
 30
0.0
 10
163.6118561452656
 20
129.7286236916227
 30
0.0
 10
163.6455891323176
 20
129.7080268750433
 30
0.0
 10
163.6624591825164
 20
129.6860042612124
 30
0.0
 10
163.6727767619741
 20
129.6725354175878
 30
0.0
  0
SPLINE
  5
132
330
1F
100
AcDbEntity
  8
0
  6
Continuous
 62
     7
370
    15
100
AcDbSpline
210
0.0
220
0.0
230
1.0
 70
     8
 71
     3
 72
    11
 73
     7
 74
     0
 42
0.00000001
 43
0.00000001
 40
0.0
 40
0.0
 40
0.0
 40
0.0
 40
0.280276382363252
 40
0.5601477676939703
 40
0.7801531370642795
 40
1.0
 40
1.0
 40
1.0
 40
1.0
 10
163.5772839735126
 20
129.3997289272032
 30
0.0
 10
163.5866928125474
 20
129.4006723970037
 30
0.0
 10
163.6054968949231
 20
129.4025579732986
 30
0.0
 10
163.6284831560559
 20
129.4167034632831
 30
0.0
 10
163.6430829305175
 20
129.4368690731795
 30
0.0
 10
163.644930322117
 20
129.4516540210751
 30
0.0
 10
163.6458536850511
 20
129.4590438310493
 30
0.0
  0
LINE
  5
133
330
1F
100
AcDbEntity
  8
0
  6
Continuous
 62
     7
370
    15
100
AcDbLine
 10
163.4708536851
 20
129.4403238791
 30
0.0
 11
163.5004410248
 21
129.4580622605
 31
0.0
  0
SPLINE
  5
134
330
1F
100
AcDbEntity
  8
0
  6
Continuous
 62
     7
370
    15
100
AcDbSpline
210
0.0
220
0.0
230
1.0
 70
     8
 71
     3
 72
     9
 73
     5
 74
     0
 42
0.00000001
 43
0.00000001
 40
0.0
 40
0.0
 40
0.0
 40
0.0
 40
0.5594957846125458
 40
1.0
 40
1.0
 40
1.0
 40
1.0
 10
163.6333036049228
 20
129.4933987989981
 30
0.0
 10
163.6225187693298
 20
129.5049368477351
 30
0.0
 10
163.6032427785367
 20
129.5255590741295
 30
0.0
 10
163.5803062714447
 20
129.5419762560355
 30
0.0
 10
163.5702026433844
 20
129.5492080938699
 30
0.0
  0
LINE
  5
135
330
1F
100
AcDbEntity
  8
0
  6
Continuous
 62
     7
370
    15
100
AcDbLine
 10
162.3355972748
 20
129.5253699528
 30
0.0
 11
162.3355972748
 21
129.4894725169
 31
0.0
  0
LINE
  5
136
330
1F
100
AcDbEntity
  8
0
  6
Continuous
 62
     7
370
    15
100
AcDbLine
 10
162.3355972748
 20
129.4894725169
 30
0.0
 11
162.2009818902
 21
129.4894725169
 31
0.0
  0
LINE
  5
137
330
1F
100
AcDbEntity
  8
0
  6
Continuous
 62
     7
370
    15
100
AcDbLine
 10
162.2009818902
 20
129.4894725169
 30
0.0
 11
162.2009818902
 21
129.5253699528
 31
0.0
  0
LINE
  5
138
330
1F
100
AcDbEntity
  8
0
  6
Continuous
 62
     7
370
    15
100
AcDbLine
 10
162.2009818902
 20
129.5253699528
 30
0.0
 11
162.3355972748
 21
129.5253699528
 31
0.0
  0
LINE
  5
139
330
1F
100
AcDbEntity
  8
0
  6
Continuous
 62
     7
370
    15
100
AcDbLine
 10
163.2061100953
 20
129.7228058503
 30
0.0
 11
163.2061100953
 21
129.5792161067
 31
0.0
  0
LINE
  5
13A
330
1F
100
AcDbEntity
  8
0
  6
Continuous
 62
     7
370
    15
100
AcDbLine
 10
163.2061100953
 20
129.5792161067
 30
0.0
 11
163.3855972748
 21
129.5792161067
 31
0.0
  0
LINE
  5
13B
330
1F
100
AcDbEntity
  8
0
  6
Continuous
 62
     7
370
    15
100
AcDbLine
 10
163.3855972748
 20
129.5792161067
 30
0.0
 11
163.3855972748
 21
129.7228058503
 31
0.0
  0
LINE
  5
13C
330
1F
100
AcDbEntity
  8
0
  6
Continuous
 62
     7
370
    15
100
AcDbLine
 10
163.3855972748
 20
129.7228058503
 30
0.0
 11
163.4170075312
 21
129.7228058503
 31
0.0
  0
LINE
  5
13D
330
1F
100
AcDbEntity
  8
0
  6
Continuous
 62
     7
370
    15
100
AcDbLine
 10
163.4170075312
 20
129.7228058503
 30
0.0
 11
163.4170075312
 21
129.3728058503
 31
0.0
  0
LINE
  5
13E
330
1F
100
AcDbEntity
  8
0
  6
Continuous
 62
     7
370
    15
100
AcDbLine
 10
163.4170075312
 20
129.3728058503
 30
0.0
 11
163.3855972748
 21
129.3728058503
 31
0.0
  0
LINE
  5
13F
330
1F
100
AcDbEntity
  8
0
  6
Continuous
 62
     7
370
    15
100
AcDbLine
 10
163.3855972748
 20
129.3728058503
 30
0.0
 11
163.3855972748
 21
129.5433186708
 31
0.0
  0
LINE
  5
140
330
1F
100
AcDbEntity
  8
0
  6
Continuous
 62
     7
370
    15
100
AcDbLine
 10
163.3855972748
 20
129.5433186708
 30
0.0
 11
163.2061100953
 21
129.5433186708
 31
0.0
  0
LINE
  5
141
330
1F
100
AcDbEntity
  8
0
  6
Continuous
 62
     7
370
    15
100
AcDbLine
 10
163.2061100953
 20
129.5433186708
 30
0.0
 11
163.2061100953
 21
129.3728058503
 31
0.0
  0
LINE
  5
142
330
1F
100
AcDbEntity
  8
0
  6
Continuous
 62
     7
370
    15
100
AcDbLine
 10
163.2061100953
 20
129.3728058503
 30
0.0
 11
163.1746998389
 21
129.3728058503
 31
0.0
  0
LINE
  5
143
330
1F
100
AcDbEntity
  8
0
  6
Continuous
 62
     7
370
    15
100
AcDbLine
 10
163.1746998389
 20
129.3728058503
 30
0.0
 11
163.1746998389
 21
129.7228058503
 31
0.0
  0
LINE
  5
144
330
1F
100
AcDbEntity
  8
0
  6
Continuous
 62
     7
370
    15
100
AcDbLine
 10
163.1746998389
 20
129.7228058503
 30
0.0
 11
163.2061100953
 21
129.7228058503
 31
0.0
  0
LINE
  5
145
330
1F
100
AcDbEntity
  8
0
  6
Continuous
 62
     7
370
    15
100
AcDbLine
 10
162.6586741979
 20
129.5253699528
 30
0.0
 11
162.6586741979
 21
129.4894725169
 31
0.0
  0
LINE
  5
146
330
1F
100
AcDbEntity
  8
0
  6
Continuous
 62
     7
370
    15
100
AcDbLine
 10
162.5240588133
 20
129.4894725169
 30
0.0
 11
162.5240588133
 21
129.5253699528
 31
0.0
  0
LINE
  5
147
330
1F
100
AcDbEntity
  8
0
  6
Continuous
 62
     7
370
    15
100
AcDbLine
 10
162.5240588133
 20
129.5253699528
 30
0.0
 11
162.6586741979
 21
129.5253699528
 31
0.0
  0
LINE
  5
148
330
1F
100
AcDbEntity
  8
0
  6
Continuous
 62
     7
370
    15
100
AcDbLine
 10
162.6586741979
 20
129.4894725169
 30
0.0
 11
162.5240588133
 21
129.4894725169
 31
0.0
  0
LINE
  5
149
330
1F
100
AcDbEntity
  8
0
  6
Continuous
 62
     7
370
    15
100
AcDbLine
 10
162.6855972748
 20
129.5253699528
 30
0.0
 11
162.8202126594
 21
129.5253699528
 31
0.0
  0
LINE
  5
14A
330
1F
100
AcDbEntity
  8
0
  6
Continuous
 62
     7
370
    15
100
AcDbLine
 10
162.8202126594
 20
129.5253699528
 30
0.0
 11
162.8202126594
 21
129.4894725169
 31
0.0
  0
LINE
  5
14B
330
1F
100
AcDbEntity
  8
0
  6
Continuous
 62
     7
370
    15
100
AcDbLine
 10
162.8202126594
 20
129.4894725169
 30
0.0
 11
162.6855972748
 21
129.4894725169
 31
0.0
  0
LINE
  5
14C
330
1F
100
AcDbEntity
  8
0
  6
Continuous
 62
     7
370
    15
100
AcDbLine
 10
162.6855972748
 20
129.4894725169
 30
0.0
 11
162.6855972748
 21
129.5253699528
 31
0.0
  0
LINE
  5
14D
330
1F
100
AcDbEntity
  8
0
  6
Continuous
 62
     7
370
    15
100
AcDbLine
 10
162.8471357363
 20
129.5253699528
 30
0.0
 11
162.9817511209
 21
129.5253699528
 31
0.0
  0
LINE
  5
14E
330
1F
100
AcDbEntity
  8
0
  6
Continuous
 62
     7
370
    15
100
AcDbLine
 10
162.9817511209
 20
129.5253699528
 30
0.0
 11
162.9817511209
 21
129.4894725169
 31
0.0
  0
LINE
  5
14F
330
1F
100
AcDbEntity
  8
0
  6
Continuous
 62
     7
370
    15
100
AcDbLine
 10
162.9817511209
 20
129.4894725169
 30
0.0
 11
162.8471357363
 21
129.4894725169
 31
0.0
  0
LINE
  5
150
330
1F
100
AcDbEntity
  8
0
  6
Continuous
 62
     7
370
    15
100
AcDbLine
 10
162.8471357363
 20
129.4894725169
 30
0.0
 11
162.8471357363
 21
129.5253699528
 31
0.0
  0
LINE
  5
151
330
1F
100
AcDbEntity
  8
0
  6
Continuous
 62
     7
370
    15
100
AcDbLine
 10
162.0125203517
 20
129.4894725169
 30
0.0
 11
161.8779049671
 21
129.4894725169
 31
0.0
  0
LINE
  5
152
330
1F
100
AcDbEntity
  8
0
  6
Continuous
 62
     7
370
    15
100
AcDbLine
 10
161.8779049671
 20
129.4894725169
 30
0.0
 11
161.8779049671
 21
129.5253699528
 31
0.0
  0
LINE
  5
153
330
1F
100
AcDbEntity
  8
0
  6
Continuous
 62
     7
370
    15
100
AcDbLine
 10
161.8779049671
 20
129.5253699528
 30
0.0
 11
162.0125203517
 21
129.5253699528
 31
0.0
  0
LINE
  5
154
330
1F
100
AcDbEntity
  8
0
  6
Continuous
 62
     7
370
    15
100
AcDbLine
 10
162.0125203517
 20
129.5253699528
 30
0.0
 11
162.0125203517
 21
129.4894725169
 31
0.0
  0
LINE
  5
155
330
1F
100
AcDbEntity
  8
0
  6
Continuous
 62
     7
370
    15
100
AcDbLine
 10
161.6849562492
 20
129.7228058503
 30
0.0
 11
161.6849562492
 21
129.6869084144
 31
0.0
  0
LINE
  5
156
330
1F
100
AcDbEntity
  8
0
  6
Continuous
 62
     7
370
    15
100
AcDbLine
 10
161.6849562492
 20
129.6869084144
 30
0.0
 11
161.5458536851
 21
129.6869084144
 31
0.0
  0
LINE
  5
157
330
1F
100
AcDbEntity
  8
0
  6
Continuous
 62
     7
370
    15
100
AcDbLine
 10
161.5458536851
 20
129.6869084144
 30
0.0
 11
161.5458536851
 21
129.5792161067
 31
0.0
  0
LINE
  5
158
330
1F
100
AcDbEntity
  8
0
  6
Continuous
 62
     7
370
    15
100
AcDbLine
 10
161.6849562492
 20
129.5792161067
 30
0.0
 11
161.6849562492
 21
129.5433186708
 31
0.0
  0
LINE
  5
159
330
1F
100
AcDbEntity
  8
0
  6
Continuous
 62
     7
370
    15
100
AcDbLine
 10
161.6849562492
 20
129.5433186708
 30
0.0
 11
161.5458536851
 21
129.5433186708
 31
0.0
  0
LINE
  5
15A
330
1F
100
AcDbEntity
  8
0
  6
Continuous
 62
     7
370
    15
100
AcDbLine
 10
161.5458536851
 20
129.5433186708
 30
0.0
 11
161.5458536851
 21
129.3728058503
 31
0.0
  0
LINE
  5
15B
330
1F
100
AcDbEntity
  8
0
  6
Continuous
 62
     7
370
    15
100
AcDbLine
 10
161.5458536851
 20
129.3728058503
 30
0.0
 11
161.5144434286
 21
129.3728058503
 31
0.0
  0
LINE
  5
15C
330
1F
100
AcDbEntity
  8
0
  6
Continuous
 62
     7
370
    15
100
AcDbLine
 10
161.5144434286
 20
129.7228058503
 30
0.0
 11
161.6849562492
 21
129.7228058503
 31
0.0
  0
LINE
  5
15D
330
1F
100
AcDbEntity
  8
0
  6
Continuous
 62
     7
370
    15
100
AcDbLine
 10
161.5458536851
 20
129.5792161067
 30
0.0
 11
161.6849562492
 21
129.5792161067
 31
0.0
  0
LINE
  5
15E
330
1F
100
AcDbEntity
  8
0
  6
Continuous
 62
     7
370
    15
100
AcDbLine
 10
161.5144434286
 20
129.3728058503
 30
0.0
 11
161.5144434286
 21
129.7228058503
 31
0.0
  0
LINE
  5
15F
330
1F
100
AcDbEntity
  8
0
  6
Continuous
 62
     7
370
    15
100
AcDbLine
 10
161.7163665056
 20
129.5253699528
 30
0.0
 11
161.8509818902
 21
129.5253699528
 31
0.0
  0
LINE
  5
160
330
1F
100
AcDbEntity
  8
0
  6
Continuous
 62
     7
370
    15
100
AcDbLine
 10
161.8509818902
 20
129.5253699528
 30
0.0
 11
161.8509818902
 21
129.4894725169
 31
0.0
  0
LINE
  5
161
330
1F
100
AcDbEntity
  8
0
  6
Continuous
 62
     7
370
    15
100
AcDbLine
 10
161.8509818902
 20
129.4894725169
 30
0.0
 11
161.7163665056
 21
129.4894725169
 31
0.0
  0
LINE
  5
162
330
1F
100
AcDbEntity
  8
0
  6
Continuous
 62
     7
370
    15
100
AcDbLine
 10
161.7163665056
 20
129.4894725169
 30
0.0
 11
161.7163665056
 21
129.5253699528
 31
0.0
  0
LINE
  5
163
330
1F
100
AcDbEntity
  8
0
  6
Continuous
 62
     7
370
    15
100
AcDbLine
 10
163.8791870184
 20
129.5253699528
 30
0.0
 11
164.013802403
 21
129.5253699528
 31
0.0
  0
LINE
  5
164
330
1F
100
AcDbEntity
  8
0
  6
Continuous
 62
     7
370
    15
100
AcDbLine
 10
164.013802403
 20
129.5253699528
 30
0.0
 11
164.013802403
 21
129.4894725169
 31
0.0
  0
LINE
  5
165
330
1F
100
AcDbEntity
  8
0
  6
Continuous
 62
     7
370
    15
100
AcDbLine
 10
164.013802403
 20
129.4894725169
 30
0.0
 11
163.8791870184
 21
129.4894725169
 31
0.0
  0
LINE
  5
166
330
1F
100
AcDbEntity
  8
0
  6
Continuous
 62
     7
370
    15
100
AcDbLine
 10
163.8791870184
 20
129.4894725169
 30
0.0
 11
163.8791870184
 21
129.5253699528
 31
0.0
  0
LINE
  5
167
330
1F
100
AcDbEntity
  8
0
  6
Continuous
 62
     7
370
    15
100
AcDbLine
 10
162.0394434286
 20
129.4894725169
 30
0.0
 11
162.0394434286
 21
129.5253699528
 31
0.0
  0
LINE
  5
168
330
1F
100
AcDbEntity
  8
0
  6
Continuous
 62
     7
370
    15
100
AcDbLine
 10
162.1740588133
 20
129.4894725169
 30
0.0
 11
162.0394434286
 21
129.4894725169
 31
0.0
  0
LINE
  5
169
330
1F
100
AcDbEntity
  8
0
  6
Continuous
 62
     7
370
    15
100
AcDbLine
 10
162.0394434286
 20
129.5253699528
 30
0.0
 11
162.1740588133
 21
129.5253699528
 31
0.0
  0
LINE
  5
16A
330
1F
100
AcDbEntity
  8
0
  6
Continuous
 62
     7
370
    15
100
AcDbLine
 10
162.1740588133
 20
129.5253699528
 30
0.0
 11
162.1740588133
 21
129.4894725169
 31
0.0
  0
LINE
  5
16B
330
1F
100
AcDbEntity
  8
0
  6
Continuous
 62
     7
370
    15
100
AcDbLine
 10
164.1753408645
 20
129.4894725169
 30
0.0
 11
164.0407254799
 21
129.4894725169
 31
0.0
  0
LINE
  5
16C
330
1F
100
AcDbEntity
  8
0
  6
Continuous
 62
     7
370
    15
100
AcDbLine
 10
164.0407254799
 20
129.5253699528
 30
0.0
 11
164.1753408645
 21
129.5253699528
 31
0.0
  0
LINE
  5
16D
330
1F
100
AcDbEntity
  8
0
  6
Continuous
 62
     7
370
    15
100
AcDbLine
 10
164.1753408645
 20
129.5253699528
 30
0.0
 11
164.1753408645
 21
129.4894725169
 31
0.0
  0
LINE
  5
16E
330
1F
100
AcDbEntity
  8
0
  6
Continuous
 62
     7
370
    15
100
AcDbLine
 10
164.0407254799
 20
129.4894725169
 30
0.0
 11
164.0407254799
 21
129.5253699528
 31
0.0
  0
LINE
  5
16F
330
1F
100
AcDbEntity
  8
0
  6
Continuous
 62
     7
370
    15
100
AcDbLine
 10
162.4971357363
 20
129.4894725169
 30
0.0
 11
162.3625203517
 21
129.4894725169
 31
0.0
  0
LINE
  5
170
330
1F
100
AcDbEntity
  8
0
  6
Continuous
 62
     7
370
    15
100
AcDbLine
 10
162.3625203517
 20
129.5253699528
 30
0.0
 11
162.4971357363
 21
129.5253699528
 31
0.0
  0
LINE
  5
171
330
1F
100
AcDbEntity
  8
0
  6
Continuous
 62
     7
370
    15
100
AcDbLine
 10
162.4971357363
 20
129.5253699528
 30
0.0
 11
162.4971357363
 21
129.4894725169
 31
0.0
  0
LINE
  5
172
330
1F
100
AcDbEntity
  8
0
  6
Continuous
 62
     7
370
    15
100
AcDbLine
 10
162.3625203517
 20
129.4894725169
 30
0.0
 11
162.3625203517
 21
129.5253699528
 31
0.0
  0
LINE
  5
173
330
1F
100
AcDbEntity
  8
0
  6
Continuous
 62
     7
370
    15
100
AcDbLine
 10
164.9562241671
 20
130.1170717056
 30
0.0
 11
160.9562241671
 21
130.1170717056
 31
0.0
  0
LINE
  5
174
330
1F
100
AcDbEntity
  8
0
  6
Continuous
 62
     7
370
    15
100
AcDbLine
 10
164.9562241671
 20
129.1170717056
 30
0.0
 11
164.9562241671
 21
130.1170717056
 31
0.0
  0
LINE
  5
175
330
1F
100
AcDbEntity
  8
0
  6
Continuous
 62
     7
370
    15
100
AcDbLine
 10
160.9562241671
 20
130.1170717056
 30
0.0
 11
160.9562241671
 21
129.1170717056
 31
0.0
  0
LINE
  5
176
330
1F
100
AcDbEntity
  8
0
  6
Continuous
 62
     7
370
    15
100
AcDbLine
 10
160.9562241671
 20
129.1170717056
 30
0.0
 11
164.9562241671
 21
129.1170717056
 31
0.0
  0
LINE
  5
177
330
1F
100
AcDbEntity
  8
0
  6
Continuous
 62
     7
370
    15
100
AcDbLine
 10
203.7413
 20
114.176127242
 30
0.0
 11
198.0413
 21
114.176127242
 31
0.0
  0
LINE
  5
178
330
1F
100
AcDbEntity
  8
0
  6
Continuous
 62
     7
370
    15
100
AcDbLine
 10
203.5413
 20
113.576127242
 30
0.0
 11
198.2413
 21
113.576127242
 31
0.0
  0
LINE
  5
179
330
1F
100
AcDbEntity
  8
0
  6
Continuous
 62
     7
370
    15
100
AcDbLine
 10
128.7413
 20
113.576127242
 30
0.0
 11
123.4413
 21
113.576127242
 31
0.0
  0
LINE
  5
17A
330
1F
100
AcDbEntity
  8
0
  6
Continuous
 62
     7
370
    15
100
AcDbLine
 10
128.9413
 20
114.176127242
 30
0.0
 11
123.2413
 21
114.176127242
 31
0.0
  0
LINE
  5
17B
330
1F
100
AcDbEntity
  8
0
  6
Continuous
 62
     7
370
    15
100
AcDbLine
 10
129.187265022
 20
120.976127242
 30
0.0
 11
122.995334978
 21
120.976127242
 31
0.0
  0
LINE
  5
17C
330
1F
100
AcDbEntity
  8
0
  6
Continuous
 62
     7
370
    15
100
AcDbLine
 10
203.987265022
 20
120.976127242
 30
0.0
 11
197.795334978
 21
120.976127242
 31
0.0
  0
SPLINE
  5
17D
330
1F
100
AcDbEntity
  8
0
  6
Continuous
 62
     7
370
    15
100
AcDbSpline
210
0.0
220
0.0
230
1.0
 70
     8
 71
     3
 72
     9
 73
     5
 74
     0
 42
0.00000001
 43
0.00000001
 40
0.0
 40
0.0
 40
0.0
 40
0.0
 40
0.5527790483230522
 40
1.0
 40
1.0
 40
1.0
 40
1.0
 10
121.2383710678128
 20
165.5111272420117
 30
0.0
 10
121.2472024343902
 20
165.5403144416137
 30
0.0
 10
121.2631787392163
 20
165.5931152843566
 30
0.0
 10
121.2791550562794
 20
165.6364749691953
 30
0.0
 10
121.2863000000006
 20
165.6558663287132
 30
0.0
  0
LINE
  5
17E
330
1F
100
AcDbEntity
  8
0
  6
Continuous
 62
     7
370
    15
100
AcDbLine
 10
121.2383710678
 20
165.511127242
 30
0.0
 11
121.2383710678
 21
164.436127242
 31
0.0
  0
LINE
  5
17F
330
1F
100
AcDbEntity
  8
0
  6
Continuous
 62
     7
370
    15
100
AcDbLine
 10
121.2383710678
 20
164.436127242
 30
0.0
 11
121.2863
 21
164.436127242
 31
0.0
  0
LINE
  5
180
330
1F
100
AcDbEntity
  8
0
  6
Continuous
 62
     7
370
    15
100
AcDbLine
 10
121.1113
 20
165.511127242
 30
0.0
 11
121.2313
 21
165.511127242
 31
0.0
  0
LINE
  5
181
330
1F
100
AcDbEntity
  8
0
  6
Continuous
 62
     7
370
    15
100
AcDbLine
 10
121.2313
 20
165.511127242
 30
0.0
 11
121.2313
 21
164.436127242
 31
0.0
  0
LINE
  5
182
330
1F
100
AcDbEntity
  8
0
  6
Continuous
 62
     7
370
    15
100
AcDbLine
 10
121.1113
 20
164.436127242
 30
0.0
 11
121.2313
 21
164.436127242
 31
0.0
  0
LINE
  5
183
330
1F
100
AcDbEntity
  8
0
  6
Continuous
 62
     7
370
    15
100
AcDbLine
 10
121.1113
 20
165.511127242
 30
0.0
 11
121.1113
 21
164.436127242
 31
0.0
  0
SPLINE
  5
184
330
1F
100
AcDbEntity
  8
0
  6
Continuous
 62
     7
370
    15
100
AcDbSpline
210
0.0
220
0.0
230
1.0
 70
     8
 71
     3
 72
     9
 73
     5
 74
     0
 42
0.00000001
 43
0.00000001
 40
0.0
 40
0.0
 40
0.0
 40
0.0
 40
0.4650003374331135
 40
1.0
 40
1.0
 40
1.0
 40
1.0
 10
121.2643663355604
 20
165.5942096481183
 30
0.0
 10
121.2553316184433
 20
165.5829512053282
 30
0.0
 10
121.2359021333658
 20
165.5587395179728
 30
0.0
 10
121.2329040002215
 20
165.5277217417985
 30
0.0
 10
121.2313000000009
 20
165.5111272420117
 30
0.0
  0
SPLINE
  5
185
330
1F
100
AcDbEntity
  8
0
  6
Continuous
 62
     7
370
    15
100
AcDbSpline
210
0.0
220
0.0
230
1.0
 70
     8
 71
     3
 72
    11
 73
     7
 74
     0
 42
0.00000001
 43
0.00000001
 40
0.0
 40
0.0
 40
0.0
 40
0.0
 40
0.0895693796819112
 40
0.3930462531212646
 40
0.6965231265606215
 40
1.0
 40
1.0
 40
1.0
 40
1.0
 10
121.2902145056335
 20
165.7429820198776
 30
0.0
 10
121.280871335411
 20
165.7415018783754
 30
0.0
 10
121.2398718547707
 20
165.7350067561185
 30
0.0
 10
121.1794175850437
 20
165.6871932137932
 30
0.0
 10
121.1222448755423
 20
165.6077469104604
 30
0.0
 10
121.1149482918481
 20
165.5433337981613
 30
0.0
 10
121.1113000000009
 20
165.5111272420116
 30
0.0
  0
LINE
  5
186
330
1F
100
AcDbEntity
  8
0
  6
Continuous
 62
     7
370
    15
100
AcDbLine
 10
121.0363
 20
165.636127242
 30
0.0
 11
121.1508251251
 21
165.636127242
 31
0.0
  0
LINE
  5
187
330
1F
100
AcDbEntity
  8
0
  6
Continuous
 62
     7
370
    15
100
AcDbLine
 10
121.0363
 20
165.756127242
 30
0.0
 11
121.2863
 21
165.756127242
 31
0.0
  0
LINE
  5
188
330
1F
100
AcDbEntity
  8
0
  6
Continuous
 62
     7
370
    15
100
AcDbLine
 10
120.9913
 20
165.6402953504
 30
0.0
 11
121.0363
 21
165.636127242
 31
0.0
  0
LWPOLYLINE
  5
189
330
1F
100
AcDbEntity
  8
0
  6
Continuous
 62
     7
370
    15
100
AcDbPolyline
 90
        3
 70
   128
 43
0.0
 10
120.9913
 20
165.7645082041
 10
121.0119137097
 20
165.758529082
 10
121.0363
 20
165.756127242
  0
SPLINE
  5
18A
330
1F
100
AcDbEntity
  8
0
  6
Continuous
 62
     7
370
    15
100
AcDbSpline
210
0.0
220
0.0
230
1.0
 70
     8
 71
     3
 72
    12
 73
     8
 74
     0
 42
0.00000001
 43
0.00000001
 40
0.0
 40
0.0
 40
0.0
 40
0.0
 40
0.2286697549031896
 40
0.457413428452385
 40
0.6861574263647269
 40
0.9149012395109383
 40
0.9999999999999999
 40
0.9999999999999999
 40
0.9999999999999999
 40
0.9999999999999999
 10
205.9913000000009
 20
196.7811272420131
 30
0.0
 10
205.9938736148251
 20
196.79011899142
 30
0.0
 10
205.9990216764074
 20
196.8081053968618
 30
0.0
 10
206.0389828960705
 20
196.8350912933884
 30
0.0
 10
206.0971195294704
 20
196.8620611029283
 30
0.0
 10
206.1536698233191
 20
196.8834419338813
 30
0.0
 10
206.1872064945535
 20
196.8957254777214
 30
0.0
 10
206.1963000000009
 20
196.8990561742012
 30
0.0
  0
LINE
  5
18B
330
1F
100
AcDbEntity
  8
0
  6
Continuous
 62
     7
370
    15
100
AcDbLine
 10
206.1963
 20
130.931127242
 30
0.0
 11
205.9913
 21
130.931127242
 31
0.0
  0
LINE
  5
18C
330
1F
100
AcDbEntity
  8
0
  6
Continuous
 62
     7
370
    15
100
AcDbLine
 10
205.9913
 20
130.931127242
 30
0.0
 11
205.9913
 21
196.781127242
 31
0.0
  0
CIRCLE
  5
18D
330
1F
100
AcDbEntity
  8
0
  6
Continuous
 62
     7
370
    15
100
AcDbCircle
 10
207.4913
 20
132.726127242
 30
0.0
 40
0.164999999999992
  0
LINE
  5
18E
330
1F
100
AcDbEntity
  8
0
  6
Continuous
 62
     7
370
    15
100
AcDbLine
 10
206.1963
 20
130.931127242
 30
0.0
 11
206.5113
 21
130.931127242
 31
0.0
  0
LINE
  5
18F
330
1F
100
AcDbEntity
  8
0
  6
Continuous
 62
     7
370
    15
100
AcDbLine
 10
206.1963
 20
196.8990561742
 30
0.0
 11
206.5113
 21
196.8990561742
 31
0.0
  0
CIRCLE
  5
190
330
1F
100
AcDbEntity
  8
0
  6
Continuous
 62
     7
370
    15
100
AcDbCircle
 10
207.4913
 20
195.076127242
 30
0.0
 40
0.164999999999992
  0
SPLINE
  5
191
330
1F
100
AcDbEntity
  8
0
  6
Continuous
 62
     7
370
    15
100
AcDbSpline
210
0.0
220
0.0
230
1.0
 70
     8
 71
     3
 72
    12
 73
     8
 74
     0
 42
0.00000001
 43
0.00000001
 40
0.0
 40
0.0
 40
0.0
 40
0.0
 40
0.2286697549031819
 40
0.4574134284524643
 40
0.6861574263647939
 40
0.9149012395111078
 40
1.0
 40
1.0
 40
1.0
 40
1.0
 10
206.1963000000009
 20
196.9861272420131
 30
0.0
 10
206.1717528145802
 20
196.9835536271889
 30
0.0
 10
206.122650508738
 20
196.9784055656066
 30
0.0
 10
206.0583339548371
 20
196.9384443459434
 30
0.0
 10
206.0119171411533
 20
196.8803077125436
 30
0.0
 10
205.993039085912
 20
196.8237574186949
 30
0.0
 10
205.9916709669646
 20
196.7902207474605
 30
0.0
 10
205.9913000000009
 20
196.7811272420131
 30
0.0
  0
LINE
  5
192
330
1F
100
AcDbEntity
  8
0
  6
Continuous
 62
     7
370
    15
100
AcDbLine
 10
206.1963
 20
196.986127242
 30
0.0
 11
206.1963
 21
196.906127242
 31
0.0
  0
SPLINE
  5
193
330
1F
100
AcDbEntity
  8
0
  6
Continuous
 62
     7
370
    15
100
AcDbSpline
210
0.0
220
0.0
230
1.0
 70
     8
 71
     3
 72
    10
 73
     6
 74
     0
 42
0.00000001
 43
0.00000001
 40
0.0
 40
0.0
 40
0.0
 40
0.0
 40
0.4688817609107142
 40
0.9380344098845329
 40
1.0
 40
1.0
 40
1.0
 40
1.0
 10
206.1963000000009
 20
196.9061272420131
 30
0.0
 10
206.1801873243013
 20
196.9040350599907
 30
0.0
 10
206.1479526640914
 20
196.8998494872252
 30
0.0
 10
206.1152081694858
 20
196.8813519191856
 30
0.0
 10
206.1052864377799
 20
196.8657433148538
 30
0.0
 10
206.1041288688717
 20
196.863922258247
 30
0.0
  0
LINE
  5
194
330
1F
100
AcDbEntity
  8
0
  6
Continuous
 62
     7
370
    15
100
AcDbLine
 10
206.1963
 20
196.906127242
 30
0.0
 11
206.5113
 21
196.906127242
 31
0.0
  0
LINE
  5
195
330
1F
100
AcDbEntity
  8
0
  6
Continuous
 62
     7
370
    15
100
AcDbLine
 10
206.1963
 20
196.986127242
 30
0.0
 11
206.5113
 21
196.986127242
 31
0.0
  0
ARC
  5
196
330
1F
100
AcDbEntity
  8
0
  6
Continuous
 62
     7
370
    15
100
AcDbCircle
 10
205.8663
 20
130.931127242
 30
0.0
 40
0.2050000000000125
100
AcDbArc
 50
270.0
 51
0.0
  0
ARC
  5
197
330
1F
100
AcDbEntity
  8
0
  6
Continuous
 62
     7
370
    15
100
AcDbCircle
 10
205.8663
 20
130.931127242
 30
0.0
 40
0.125
100
AcDbArc
 50
270.0
 51
0.0
  0
LINE
  5
198
330
1F
100
AcDbEntity
  8
0
  6
Continuous
 62
     7
370
    15
100
AcDbLine
 10
202.9913
 20
130.806127242
 30
0.0
 11
205.8663
 21
130.806127242
 31
0.0
  0
LINE
  5
199
330
1F
100
AcDbEntity
  8
0
  6
Continuous
 62
     7
370
    15
100
AcDbLine
 10
202.9913
 20
130.726127242
 30
0.0
 11
202.9913
 21
130.806127242
 31
0.0
  0
LINE
  5
19A
330
1F
100
AcDbEntity
  8
0
  6
Continuous
 62
     7
370
    15
100
AcDbLine
 10
202.9913
 20
130.726127242
 30
0.0
 11
205.8663
 21
130.726127242
 31
0.0
  0
LINE
  5
19B
330
1F
100
AcDbEntity
  8
0
  6
Continuous
 62
     7
370
    15
100
AcDbLine
 10
207.6517386884
 20
132.6875989763
 30
0.0
 11
207.3308613116
 21
132.6875989763
 31
0.0
  0
LINE
  5
19C
330
1F
100
AcDbEntity
  8
0
  6
Continuous
 62
     7
370
    15
100
AcDbLine
 10
208.4913
 20
196.871127242
 30
0.0
 11
208.4913
 21
130.931127242
 31
0.0
  0
LINE
  5
19D
330
1F
100
AcDbEntity
  8
0
  6
Continuous
 62
     7
370
    15
100
AcDbLine
 10
208.2863
 20
196.996127242
 30
0.0
 11
208.4913
 21
196.996127242
 31
0.0
  0
LINE
  5
19E
330
1F
100
AcDbEntity
  8
0
  6
Continuous
 62
     7
370
    15
100
AcDbLine
 10
208.4913
 20
196.996127242
 30
0.0
 11
208.4913
 21
196.871127242
 31
0.0
  0
SPLINE
  5
19F
330
1F
100
AcDbEntity
  8
0
  6
Continuous
 62
     7
370
    15
100
AcDbSpline
210
0.0
220
0.0
230
1.0
 70
     8
 71
     3
 72
    12
 73
     8
 74
     0
 42
0.00000001
 43
0.00000001
 40
0.0
 40
0.0
 40
0.0
 40
0.0
 40
0.22866975490325
 40
0.4574134284524607
 40
0.6861574263648295
 40
0.9149012395110224
 40
1.0
 40
1.0
 40
1.0
 40
1.0
 10
208.4913000000005
 20
130.9311272420116
 30
0.0
 10
208.4887263851764
 20
130.9221354926048
 30
0.0
 10
208.4835783235941
 20
130.904149087163
 30
0.0
 10
208.4436171039308
 20
130.8771631906363
 30
0.0
 10
208.385480470531
 20
130.8501933810964
 30
0.0
 10
208.3289301766823
 20
130.8288125501434
 30
0.0
 10
208.2953935054479
 20
130.8165290063033
 30
0.0
 10
208.2863000000006
 20
130.8131983098235
 30
0.0
  0
LINE
  5
1A0
330
1F
100
AcDbEntity
  8
0
  6
Continuous
 62
     7
370
    15
100
AcDbLine
 10
206.5113
 20
130.8131983098
 30
0.0
 11
208.2863
 21
130.8131983098
 31
0.0
  0
LINE
  5
1A1
330
1F
100
AcDbEntity
  8
0
  6
Continuous
 62
     7
370
    15
100
AcDbLine
 10
206.5113
 20
130.8131983098
 30
0.0
 11
206.5113
 21
196.996127242
 31
0.0
  0
CIRCLE
  5
1A2
330
1F
100
AcDbEntity
  8
0
  6
Continuous
 62
     7
370
    15
100
AcDbCircle
 10
207.4913
 20
195.076127242
 30
0.0
 40
0.2099999999999795
  0
CIRCLE
  5
1A3
330
1F
100
AcDbEntity
  8
0
  6
Continuous
 62
     7
370
    15
100
AcDbCircle
 10
207.4913
 20
132.726127242
 30
0.0
 40
0.210000000000008
  0
LINE
  5
1A4
330
1F
100
AcDbEntity
  8
0
  6
Continuous
 62
     7
370
    15
100
AcDbLine
 10
206.5113
 20
196.996127242
 30
0.0
 11
208.2863
 21
196.996127242
 31
0.0
  0
LINE
  5
1A5
330
1F
100
AcDbEntity
  8
0
  6
Continuous
 62
     7
370
    15
100
AcDbLine
 10
208.2863
 20
130.726127242
 30
0.0
 11
208.2863
 21
130.806127242
 31
0.0
  0
SPLINE
  5
1A6
330
1F
100
AcDbEntity
  8
0
  6
Continuous
 62
     7
370
    15
100
AcDbSpline
210
0.0
220
0.0
230
1.0
 70
     8
 71
     3
 72
    10
 73
     6
 74
     0
 42
0.00000001
 43
0.00000001
 40
0.0
 40
0.0
 40
0.0
 40
0.0
 40
0.4688817609108346
 40
0.9380344098846652
 40
1.0
 40
1.0
 40
1.0
 40
1.0
 10
208.2863000000005
 20
130.8061272420116
 30
0.0
 10
208.3024126757002
 20
130.808219424034
 30
0.0
 10
208.33464733591
 20
130.8124049967995
 30
0.0
 10
208.3673918305156
 20
130.8309025648391
 30
0.0
 10
208.3773135622216
 20
130.846511169171
 30
0.0
 10
208.3784711311297
 20
130.8483322257778
 30
0.0
  0
SPLINE
  5
1A7
330
1F
100
AcDbEntity
  8
0
  6
Continuous
 62
     7
370
    15
100
AcDbSpline
210
0.0
220
0.0
230
1.0
 70
     8
 71
     3
 72
    12
 73
     8
 74
     0
 42
0.00000001
 43
0.00000001
 40
0.0
 40
0.0
 40
0.0
 40
0.0
 40
0.2286697549032507
 40
0.4574134284524914
 40
0.6861574263647191
 40
0.9149012395109951
 40
1.0
 40
1.0
 40
1.0
 40
1.0
 10
208.2863000000005
 20
130.7261272420116
 30
0.0
 10
208.3108471854212
 20
130.7287008568358
 30
0.0
 10
208.3599494912634
 20
130.7338489184181
 30
0.0
 10
208.4242660451643
 20
130.7738101380812
 30
0.0
 10
208.4706828588481
 20
130.8319467714812
 30
0.0
 10
208.4895609140893
 20
130.8884970653299
 30
0.0
 10
208.4909290330368
 20
130.9220337365643
 30
0.0
 10
208.4913000000005
 20
130.9311272420117
 30
0.0
  0
LINE
  5
1A8
330
1F
100
AcDbEntity
  8
0
  6
Continuous
 62
     7
370
    15
100
AcDbLine
 10
208.2863
 20
130.726127242
 30
0.0
 11
206.5113
 21
130.726127242
 31
0.0
  0
LINE
  5
1A9
330
1F
100
AcDbEntity
  8
0
  6
Continuous
 62
     7
370
    15
100
AcDbLine
 10
206.5113
 20
130.806127242
 30
0.0
 11
206.5113
 21
130.726127242
 31
0.0
  0
LINE
  5
1AA
330
1F
100
AcDbEntity
  8
0
  6
Continuous
 62
     7
370
    15
100
AcDbLine
 10
208.2863
 20
130.806127242
 30
0.0
 11
206.5113
 21
130.806127242
 31
0.0
  0
ARC
  5
1AB
330
1F
100
AcDbEntity
  8
0
  6
Continuous
 62
     7
370
    15
100
AcDbCircle
 10
208.2863
 20
196.871127242
 30
0.0
 40
0.204999999999995
100
AcDbArc
 50
37.5718693197
 51
90.0
  0
LINE
  5
1AC
330
1F
100
AcDbEntity
  8
0
  6
Continuous
 62
     7
370
    15
100
AcDbLine
 10
204.0913
 20
197.076127242
 30
0.0
 11
204.0913
 21
196.996127242
 31
0.0
  0
LINE
  5
1AD
330
1F
100
AcDbEntity
  8
0
  6
Continuous
 62
     7
370
    15
100
AcDbLine
 10
206.5113
 20
196.996127242
 30
0.0
 11
204.0913
 21
196.996127242
 31
0.0
  0
LINE
  5
1AE
330
1F
100
AcDbEntity
  8
0
  6
Continuous
 62
     7
370
    15
100
AcDbLine
 10
208.2863
 20
197.076127242
 30
0.0
 11
208.2453
 21
197.076127242
 31
0.0
  0
LINE
  5
1AF
330
1F
100
AcDbEntity
  8
0
  6
Continuous
 62
     7
370
    15
100
AcDbLine
 10
207.1203
 20
197.076127242
 30
0.0
 11
206.1453
 21
197.076127242
 31
0.0
  0
LINE
  5
1B0
330
1F
100
AcDbEntity
  8
0
  6
Continuous
 62
     7
370
    15
100
AcDbLine
 10
204.1903
 20
197.076127242
 30
0.0
 11
204.0913
 21
197.076127242
 31
0.0
  0
LINE
  5
1B1
330
1F
100
AcDbEntity
  8
0
  6
Continuous
 62
     7
370
    15
100
AcDbLine
 10
120.4713
 20
196.996127242
 30
0.0
 11
118.6963
 21
196.996127242
 31
0.0
  0
LINE
  5
1B2
330
1F
100
AcDbEntity
  8
0
  6
Continuous
 62
     7
370
    15
100
AcDbLine
 10
120.4713
 20
130.8768379201
 30
0.0
 11
120.4713
 21
196.996127242
 31
0.0
  0
LINE
  5
1B3
330
1F
100
AcDbEntity
  8
0
  6
Continuous
 62
     7
370
    15
100
AcDbLine
 10
118.6963
 20
130.8768379201
 30
0.0
 11
120.4713
 21
130.8768379201
 31
0.0
  0
CIRCLE
  5
1B4
330
1F
100
AcDbEntity
  8
0
  6
Continuous
 62
     7
370
    15
100
AcDbCircle
 10
119.4913
 20
195.076127242
 30
0.0
 40
0.210000000000008
  0
CIRCLE
  5
1B5
330
1F
100
AcDbEntity
  8
0
  6
Continuous
 62
     7
370
    15
100
AcDbCircle
 10
119.4913
 20
132.726127242
 30
0.0
 40
0.2099999999999795
  0
LINE
  5
1B6
330
1F
100
AcDbEntity
  8
0
  6
Continuous
 62
     7
370
    15
100
AcDbLine
 10
118.4913
 20
196.996127242
 30
0.0
 11
118.4913
 21
196.871127242
 31
0.0
  0
LINE
  5
1B7
330
1F
100
AcDbEntity
  8
0
  6
Continuous
 62
     7
370
    15
100
AcDbLine
 10
118.4913
 20
196.996127242
 30
0.0
 11
118.6963
 21
196.996127242
 31
0.0
  0
LINE
  5
1B8
330
1F
100
AcDbEntity
  8
0
  6
Continuous
 62
     7
370
    15
100
AcDbLine
 10
118.4913
 20
130.931127242
 30
0.0
 11
118.4913
 21
196.871127242
 31
0.0
  0
SPLINE
  5
1B9
330
1F
100
AcDbEntity
  8
0
  6
Continuous
 62
     7
370
    15
100
AcDbSpline
210
0.0
220
0.0
230
1.0
 70
     8
 71
     3
 72
    11
 73
     7
 74
     0
 42
0.00000001
 43
0.00000001
 40
0.0
 40
0.0
 40
0.0
 40
0.0
 40
0.2499999999999828
 40
0.5000000000000087
 40
0.7499999999999972
 40
1.0
 40
1.0
 40
1.0
 40
1.0
 10
118.6963000000014
 20
130.8768379201296
 30
0.0
 10
118.6694374060211
 20
130.8813620302864
 30
0.0
 10
118.6157122180605
 20
130.8904102505999
 30
0.0
 10
118.5479505059557
 20
130.9039825810702
 30
0.0
 10
118.5005444172656
 20
130.9175549115406
 30
0.0
 10
118.4943814724228
 20
130.9266031318541
 30
0.0
 10
118.4913000000014
 20
130.9311272420109
 30
0.0
  0
LINE
  5
1BA
330
1F
100
AcDbEntity
  8
0
  6
Continuous
 62
     7
370
    15
100
AcDbLine
 10
118.6963
 20
130.726127242
 30
0.0
 11
118.6963
 21
130.806127242
 31
0.0
  0
SPLINE
  5
1BB
330
1F
100
AcDbEntity
  8
0
  6
Continuous
 62
     7
370
    15
100
AcDbSpline
210
0.0
220
0.0
230
1.0
 70
     8
 71
     3
 72
    11
 73
     7
 74
     0
 42
0.00000001
 43
0.00000001
 40
0.0
 40
0.0
 40
0.0
 40
0.0
 40
0.2499999999999935
 40
0.4999999999999962
 40
0.7499999999999742
 40
1.0
 40
1.0
 40
1.0
 40
1.0
 10
118.4913000000014
 20
130.9311272420109
 30
0.0
 10
118.4943814724228
 20
130.9042646480306
 30
0.0
 10
118.5005444172656
 20
130.8505394600701
 30
0.0
 10
118.5479505059557
 20
130.7827777479652
 30
0.0
 10
118.6157122180605
 20
130.7353716592751
 30
0.0
 10
118.6694374060211
 20
130.7292087144323
 30
0.0
 10
118.6963000000014
 20
130.7261272420109
 30
0.0
  0
SPLINE
  5
1BC
330
1F
100
AcDbEntity
  8
0
  6
Continuous
 62
     7
370
    15
100
AcDbSpline
210
0.0
220
0.0
230
1.0
 70
     8
 71
     3
 72
    11
 73
     7
 74
     0
 42
0.00000001
 43
0.00000001
 40
0.0
 40
0.0
 40
0.0
 40
0.0
 40
0.0963281961544869
 40
0.3975521307696326
 40
0.6987760653848197
 40
1.0
 40
1.0
 40
1.0
 40
1.0
 10
118.577772244404
 20
130.8985890721228
 30
0.0
 10
118.5785785201821
 20
130.8934200787973
 30
0.0
 10
118.5819060677367
 20
130.8720873393451
 30
0.0
 10
118.606435906986
 20
130.8408695113071
 30
0.0
 10
118.6470128796868
 20
130.811714262341
 30
0.0
 10
118.6798709598965
 20
130.807989582121
 30
0.0
 10
118.6963000000014
 20
130.8061272420109
 30
0.0
  0
LINE
  5
1BD
330
1F
100
AcDbEntity
  8
0
  6
Continuous
 62
     7
370
    15
100
AcDbLine
 10
120.4713
 20
130.726127242
 30
0.0
 11
120.4713
 21
130.806127242
 31
0.0
  0
LINE
  5
1BE
330
1F
100
AcDbEntity
  8
0
  6
Continuous
 62
     7
370
    15
100
AcDbLine
 10
120.4713
 20
130.726127242
 30
0.0
 11
118.6963
 21
130.726127242
 31
0.0
  0
LINE
  5
1BF
330
1F
100
AcDbEntity
  8
0
  6
Continuous
 62
     7
370
    15
100
AcDbLine
 10
118.6963
 20
130.806127242
 30
0.0
 11
120.4713
 21
130.806127242
 31
0.0
  0
LINE
  5
1C0
330
1F
100
AcDbEntity
  8
0
  6
Continuous
 62
     7
370
    15
100
AcDbLine
 10
118.6963
 20
197.076127242
 30
0.0
 11
118.7333
 21
197.076127242
 31
0.0
  0
LINE
  5
1C1
330
1F
100
AcDbEntity
  8
0
  6
Continuous
 62
     7
370
    15
100
AcDbLine
 10
119.8583
 20
197.076127242
 30
0.0
 11
120.8353
 21
197.076127242
 31
0.0
  0
LINE
  5
1C2
330
1F
100
AcDbEntity
  8
0
  6
Continuous
 62
     7
370
    15
100
AcDbLine
 10
122.7903
 20
197.076127242
 30
0.0
 11
122.8913
 21
197.076127242
 31
0.0
  0
LINE
  5
1C3
330
1F
100
AcDbEntity
  8
0
  6
Continuous
 62
     7
370
    15
100
AcDbLine
 10
122.8913
 20
197.076127242
 30
0.0
 11
122.8913
 21
196.996127242
 31
0.0
  0
LINE
  5
1C4
330
1F
100
AcDbEntity
  8
0
  6
Continuous
 62
     7
370
    15
100
AcDbLine
 10
120.4713
 20
196.996127242
 30
0.0
 11
122.8913
 21
196.996127242
 31
0.0
  0
ARC
  5
1C5
330
1F
100
AcDbEntity
  8
0
  6
Continuous
 62
     7
370
    15
100
AcDbCircle
 10
118.6963
 20
196.871127242
 30
0.0
 40
0.2050000000000236
100
AcDbArc
 50
90.0
 51
142.4281306803
  0
LINE
  5
1C6
330
1F
100
AcDbEntity
  8
0
  6
Continuous
 62
     7
370
    15
100
AcDbLine
 10
120.4713
 20
130.931127242
 30
0.0
 11
120.7863
 21
130.931127242
 31
0.0
  0
CIRCLE
  5
1C7
330
1F
100
AcDbEntity
  8
0
  6
Continuous
 62
     7
370
    15
100
AcDbCircle
 10
119.4913
 20
132.726127242
 30
0.0
 40
0.1649999999996083
  0
CIRCLE
  5
1C8
330
1F
100
AcDbEntity
  8
0
  6
Continuous
 62
     7
370
    15
100
AcDbCircle
 10
119.4913
 20
195.076127242
 30
0.0
 40
0.1649999999996083
  0
LINE
  5
1C9
330
1F
100
AcDbEntity
  8
0
  6
Continuous
 62
     7
370
    15
100
AcDbLine
 10
120.7863
 20
196.781127242
 30
0.0
 11
120.7863
 21
196.906127242
 31
0.0
  0
LINE
  5
1CA
330
1F
100
AcDbEntity
  8
0
  6
Continuous
 62
     7
370
    15
100
AcDbLine
 10
120.4713
 20
196.906127242
 30
0.0
 11
120.7863
 21
196.906127242
 31
0.0
  0
LINE
  5
1CB
330
1F
100
AcDbEntity
  8
0
  6
Continuous
 62
     7
370
    15
100
AcDbLine
 10
120.9913
 20
130.931127242
 30
0.0
 11
120.7863
 21
130.931127242
 31
0.0
  0
LINE
  5
1CC
330
1F
100
AcDbEntity
  8
0
  6
Continuous
 62
     7
370
    15
100
AcDbLine
 10
120.9913
 20
196.781127242
 30
0.0
 11
120.9913
 21
130.931127242
 31
0.0
  0
LINE
  5
1CD
330
1F
100
AcDbEntity
  8
0
  6
Continuous
 62
     7
370
    15
100
AcDbLine
 10
120.9913
 20
196.781127242
 30
0.0
 11
120.7863
 21
196.781127242
 31
0.0
  0
ARC
  5
1CE
330
1F
100
AcDbEntity
  8
0
  6
Continuous
 62
     7
370
    15
100
AcDbCircle
 10
121.1163
 20
130.931127242
 30
0.0
 40
0.2049999999999983
100
AcDbArc
 50
180.0
 51
270.0
  0
ARC
  5
1CF
330
1F
100
AcDbEntity
  8
0
  6
Continuous
 62
     7
370
    15
100
AcDbCircle
 10
121.1163
 20
130.931127242
 30
0.0
 40
0.1250000000000142
100
AcDbArc
 50
180.0
 51
270.0
  0
LINE
  5
1D0
330
1F
100
AcDbEntity
  8
0
  6
Continuous
 62
     7
370
    15
100
AcDbLine
 10
120.7863
 20
196.986127242
 30
0.0
 11
120.4713
 21
196.986127242
 31
0.0
  0
LINE
  5
1D1
330
1F
100
AcDbEntity
  8
0
  6
Continuous
 62
     7
370
    15
100
AcDbLine
 10
121.1163
 20
130.806127242
 30
0.0
 11
123.9913
 21
130.806127242
 31
0.0
  0
LINE
  5
1D2
330
1F
100
AcDbEntity
  8
0
  6
Continuous
 62
     7
370
    15
100
AcDbLine
 10
123.9913
 20
130.726127242
 30
0.0
 11
123.9913
 21
130.806127242
 31
0.0
  0
LINE
  5
1D3
330
1F
100
AcDbEntity
  8
0
  6
Continuous
 62
     7
370
    15
100
AcDbLine
 10
123.9913
 20
130.726127242
 30
0.0
 11
121.1163
 21
130.726127242
 31
0.0
  0
ARC
  5
1D4
330
1F
100
AcDbEntity
  8
0
  6
Continuous
 62
     7
370
    15
100
AcDbCircle
 10
120.7863
 20
196.781127242
 30
0.0
 40
0.2049999999999983
100
AcDbArc
 50
0.0
 51
90.0
  0
ARC
  5
1D5
330
1F
100
AcDbEntity
  8
0
  6
Continuous
 62
     7
370
    15
100
AcDbCircle
 10
120.7863
 20
196.781127242
 30
0.0
 40
0.1250000000000142
100
AcDbArc
 50
0.0
 51
90.0
  0
LINE
  5
1D6
330
1F
100
AcDbEntity
  8
0
  6
Continuous
 62
     7
370
    15
100
AcDbLine
 10
120.9112674239
 20
196.7839808312
 30
0.0
 11
120.7863
 21
196.7839808312
 31
0.0
  0
LINE
  5
1D7
330
1F
100
AcDbEntity
  8
0
  6
Continuous
 62
     7
370
    15
100
AcDbLine
 10
119.3322704279
 20
132.6821432087
 30
0.0
 11
119.6503295721
 21
132.6821432087
 31
0.0
  0
ENDSEC
  0
SECTION
  2
OBJECTS
  0
DICTIONARY
  5
C
330
0
100
AcDbDictionary
281
     1
  3
ACAD_GROUP
350
D
  3
ACAD_LAYOUT
350
1A
  3
ACAD_MLINESTYLE
350
17
  3
ACAD_PLOTSETTINGS
350
19
  3
ACAD_PLOTSTYLENAME
350
E
  0
DICTIONARY
  5
D
102
{ACAD_REACTORS
330
C
102
}
330
C
100
AcDbDictionary
281
     1
  0
DICTIONARY
  5
1A
102
{ACAD_REACTORS
330
C
102
}
330
C
100
AcDbDictionary
281
     1
  3
Layout1
350
1E
  3
Layout2
350
26
  3
Model
350
22
  0
DICTIONARY
  5
17
102
{ACAD_REACTORS
330
C
102
}
330
C
100
AcDbDictionary
281
     1
  3
Standard
350
18
  0
DICTIONARY
  5
19
102
{ACAD_REACTORS
330
C
102
}
330
C
100
AcDbDictionary
281
     1
  0
ACDBDICTIONARYWDFLT
  5
E
102
{ACAD_REACTORS
330
C
102
}
330
C
100
AcDbDictionary
281
     1
  3
Normal
350
F
100
AcDbDictionaryWithDefault
340
F
  0
LAYOUT
  5
1E
102
{ACAD_REACTORS
330
1A
102
}
330
1A
100
AcDbPlotSettings
  1

  2
none_device
  4

  6

 40
0.0
 41
0.0
 42
0.0
 43
0.0
 44
0.0
 45
0.0
 46
0.0
 47
0.0
 48
0.0
 49
0.0
140
0.0
141
0.0
142
1.0
143
1.0
 70
   688
 72
     0
 73
     0
 74
     5
  7

 75
    16
147
1.0
148
0.0
149
0.0
100
AcDbLayout
  1
Layout1
 70
     1
 71
     1
 10
0.0
 20
0.0
 11
420.0
 21
297.0
 12
0.0
 22
0.0
 32
0.0
 14
1.0000000000E+20
 24
1.0000000000E+20
 34
1.0000000000E+20
 15
-1.0000000000E+20
 25
-1.0000000000E+20
 35
-1.0000000000E+20
146
0.0
 13
0.0
 23
0.0
 33
0.0
 16
1.0
 26
0.0
 36
0.0
 17
0.0
 27
1.0
 37
0.0
 76
     0
330
1B
  0
LAYOUT
  5
26
102
{ACAD_REACTORS
330
1A
102
}
330
1A
100
AcDbPlotSettings
  1

  2
none_device
  4

  6

 40
0.0
 41
0.0
 42
0.0
 43
0.0
 44
0.0
 45
0.0
 46
0.0
 47
0.0
 48
0.0
 49
0.0
140
0.0
141
0.0
142
1.0
143
1.0
 70
   688
 72
     0
 73
     0
 74
     5
  7

 75
    16
147
1.0
148
0.0
149
0.0
100
AcDbLayout
  1
Layout2
 70
     1
 71
     2
 10
0.0
 20
0.0
 11
0.0
 21
0.0
 12
0.0
 22
0.0
 32
0.0
 14
0.0
 24
0.0
 34
0.0
 15
0.0
 25
0.0
 35
0.0
146
0.0
 13
0.0
 23
0.0
 33
0.0
 16
1.0
 26
0.0
 36
0.0
 17
0.0
 27
1.0
 37
0.0
 76
     0
330
23
  0
LAYOUT
  5
22
102
{ACAD_REACTORS
330
1A
102
}
330
1A
100
AcDbPlotSettings
  1

  2
none_device
  4

  6

 40
0.0
 41
0.0
 42
0.0
 43
0.0
 44
0.0
 45
0.0
 46
0.0
 47
0.0
 48
0.0
 49
0.0
140
0.0
141
0.0
142
1.0
143
1.0
 70
  1712
 72
     0
 73
     0
 74
     0
  7

 75
     0
147
1.0
148
0.0
149
0.0
100
AcDbLayout
  1
Model
 70
     1
 71
     0
 10
0.0
 20
0.0
 11
420.0
 21
297.0
 12
0.0
 22
0.0
 32
0.0
 14
0.0
 24
0.0
 34
0.0
 15
420.0
 25
297.0
 35
0.0
146
0.0
 13
0.0
 23
0.0
 33
0.0
 16
1.0
 26
0.0
 36
0.0
 17
0.0
 27
1.0
 37
0.0
 76
     0
330
1F
331
29
  0
MLINESTYLE
  5
18
102
{ACAD_REACTORS
330
17
102
}
330
17
100
AcDbMlineStyle
  2
Standard
 70
     0
  3

 62
   256
 51
90.0
 52
90.0
 71
     2
 49
0.5
 62
   256
  6
BYLAYER
 49
-0.5
 62
   256
  6
BYLAYER
  0
ACDBPLACEHOLDER
  5
F
102
{ACAD_REACTORS
330
E
102
}
330
E
  0
ENDSEC
  0
EOF
