  0
SECTION
  2
HEADER
  9
$LIMMIN
 10
0.000000
 20
0.000000
  9
$LIMMAX
 10
7000.000000
 20
3500.000000
  9
$EXTMIN
 10
0.000000
 20
0.000000
  9
$EXTMAX
 10
7000.000000
 20
3500.000000
  9
$ANGBASE
 50
0.0
  9
$ANGDIR
 70
0
  9
$DIMRND
 40
0.100000
  9
$DIMSE1
 70
0
  9
$DIMSE2
 70
0
  9
$DIMTXT
 40
3.500000
  9
$LTSCALE
 40
1.000000
  9
$LUPREC
 70
5
  9
$AUPREC
 70
5
  9
$PDMODE
 70
2
  9
$PDSIZE
 40
35.000000
  0
ENDSEC
  0
SECTION
  2
TABLES
  0
TABLE
  2
VPORT
  70
1
  0
VPORT
  2
*ACTIVE
 70
0
  10
0.0
 20
0.0
 11
1.0
 21
1.0
 12
594.0
 22
420.0
 13
0.0
 23
0.0
 14
10.0
 24
10.0
 15
10.0
 25
10.0
 16
0.0
 26
0.0
 36
1.0
 17
594.0
 27
420.0
 37
100.0
 40
1000.0
 41
1.0
 42
50.0
 43
0.0
 44
0.0
 50
0.0
 51
0.0
 71
0
 72
2000
 73
1
 74
3
 75
0
 76
0
 77
0
 78
1
  0
ENDTAB
  0
TABLE
  2
LTYPE
 70
4
  0
LTYPE
  2
CONTINUOUS
 70
0
  3
Solid line
 72
65
 73
0
 40
0.0
  0
LTYPE
  2
DASHED
 70
0
  3
Dashed line
 72
65
 73
2
 40
6.000000
 49
3.000000
 49
-3.000000
  0
LTYPE
  2
CENTER
 70
0
  3
Chain line
 72
65
 73
4
 40
24.000000
 49
15.000000
 49
-3.000000
 49
3.000000
 49
-3.000000
  0
LTYPE
  2
RANDOM
 70
0
  3
Random line
 72
65
 73
4
 40
22.500000
 49
6.000000
 49
-3.000000
 49
4.500000
 49
-9.000000
  0
ENDTAB
  0
TABLE
  2
STYLE
 70
9
  0
STYLE
  2
STANDARD
 40
0
 41
1.0
 50
0.0
 71
0
 42
0
  3
simplex
  4

 70
0
  0
ENDTAB
  0
TABLE
  2
LAYER
 70
3
  0
LAYER
  2
0
 70
0
 62
7
  6
CONTINUOUS
  0
LAYER
  2
0
 62
1
  6
CONTINUOUS
 70
0
  0
LAYER
  2
73CONTINUOUS
 62
1
  6
CONTINUOUS
 70
0
  0
ENDTAB
  0
ENDSEC
  0
SECTION
  2
BLOCKS
  0
ENDSEC
  0
SECTION
  2
ENTITIES
  0
LINE
  8
0
  6
CONTINUOUS
 62
1
 10
1844.269479
 20
2107.294964
 11
2294.269479
 21
2107.294964
  0
LINE
  8
0
  6
CONTINUOUS
 62
1
 10
1969.499479
 20
2007.294964
 11
1969.499479
 21
1987.294964
  0
LINE
  8
0
  6
CONTINUOUS
 62
1
 10
1959.499479
 20
1987.294964
 11
1959.499479
 21
2007.294964
  0
LINE
  8
0
  6
CONTINUOUS
 62
1
 10
1939.499479
 20
1987.294964
 11
1939.499479
 21
2007.294964
  0
ARC
  8
0
  6
CONTINUOUS
 62
1
 10
1919.499479
 20
2007.294964
 40
20.000000
 50
0.001000
 51
179.999000
  0
LINE
  8
0
  6
CONTINUOUS
 62
1
 10
1899.499479
 20
2007.294964
 11
1899.499479
 21
1987.294964
  0
ARC
  8
0
  6
CONTINUOUS
 62
1
 10
1919.499479
 20
2007.294964
 40
10.000000
 50
0.001000
 51
179.999000
  0
LINE
  8
0
  6
CONTINUOUS
 62
1
 10
1929.499479
 20
2007.294964
 11
1929.499479
 21
1987.294964
  0
LINE
  8
0
  6
CONTINUOUS
 62
1
 10
1879.499479
 20
1987.294964
 11
1879.499479
 21
2007.294964
  0
LINE
  8
0
  6
CONTINUOUS
 62
1
 10
1869.499479
 20
2007.294964
 11
1869.499479
 21
1987.294964
  0
LINE
  8
0
  6
CONTINUOUS
 62
1
 10
1909.499479
 20
1987.294964
 11
1909.499479
 21
2007.294964
  0
LINE
  8
0
  6
CONTINUOUS
 62
1
 10
2229.269479
 20
1987.294964
 11
2229.269479
 21
2007.294964
  0
LINE
  8
0
  6
CONTINUOUS
 62
1
 10
2229.269479
 20
2007.294964
 11
2209.269479
 21
2007.294964
  0
LINE
  8
0
  6
CONTINUOUS
 62
1
 10
2368.269464
 20
1825.794964
 11
1770.269494
 21
1825.794964
  0
LINE
  8
0
  6
CONTINUOUS
 62
1
 10
1770.269494
 20
1825.794964
 11
1770.269509
 21
1937.294964
  0
LINE
  8
0
  6
CONTINUOUS
 62
1
 10
1799.269540
 20
1928.794964
 11
1859.269555
 21
1928.794964
  0
LINE
  8
0
  6
CONTINUOUS
 62
1
 10
1799.269540
 20
1928.794964
 11
1801.547111
 21
1937.294964
  0
LINE
  8
0
  6
CONTINUOUS
 62
1
 10
1859.269555
 20
1928.794964
 11
1856.991985
 21
1937.294964
  0
CIRCLE
  8
0
  6
CONTINUOUS
 62
1
 10
1989.269433
 20
1890.794964
 40
5.000000
  0
CIRCLE
  8
0
  6
CONTINUOUS
 62
1
 10
2149.269464
 20
1890.794964
 40
5.000000
  0
LINE
  8
0
  6
CONTINUOUS
 62
1
 10
1879.269525
 20
1928.794964
 11
1939.269555
 21
1928.794964
  0
LINE
  8
0
  6
CONTINUOUS
 62
1
 10
1879.269525
 20
1928.794964
 11
1881.547095
 21
1937.294964
  0
LINE
  8
0
  6
CONTINUOUS
 62
1
 10
1939.269555
 20
1928.794964
 11
1936.991985
 21
1937.294964
  0
LINE
  8
0
  6
CONTINUOUS
 62
1
 10
1959.269525
 20
1928.794964
 11
2019.269555
 21
1928.794964
  0
LINE
  8
0
  6
CONTINUOUS
 62
1
 10
1959.269525
 20
1928.794964
 11
1961.547095
 21
1937.294964
  0
LINE
  8
0
  6
CONTINUOUS
 62
1
 10
2019.269555
 20
1928.794964
 11
2016.991985
 21
1937.294964
  0
LINE
  8
0
  6
CONTINUOUS
 62
1
 10
2039.269525
 20
1928.794964
 11
2099.269586
 21
1928.794964
  0
LINE
  8
0
  6
CONTINUOUS
 62
1
 10
2039.269525
 20
1928.794964
 11
2041.547095
 21
1937.294964
  0
LINE
  8
0
  6
CONTINUOUS
 62
1
 10
2099.269586
 20
1928.794964
 11
2096.991959
 21
1937.294964
  0
LINE
  8
0
  6
CONTINUOUS
 62
1
 10
2119.269525
 20
1928.794964
 11
2179.269586
 21
1928.794964
  0
LINE
  8
0
  6
CONTINUOUS
 62
1
 10
2119.269525
 20
1928.794964
 11
2121.547095
 21
1937.294964
  0
CIRCLE
  8
0
  6
CONTINUOUS
 62
1
 10
1924.269433
 20
1920.794964
 40
1.800000
  0
LINE
  8
0
  6
CONTINUOUS
 62
1
 10
2368.269464
 20
1825.794964
 11
2368.269464
 21
1937.294964
  0
LINE
  8
0
  6
CONTINUOUS
 62
1
 10
2203.119439
 20
1904.444958
 11
2225.419427
 21
1904.444958
  0
LINE
  8
0
  6
CONTINUOUS
 62
1
 10
2203.119439
 20
1904.444958
 11
2203.119439
 21
1877.144970
  0
LINE
  8
0
  6
CONTINUOUS
 62
1
 10
2225.419427
 20
1904.444958
 11
2225.419427
 21
1877.144970
  0
LINE
  8
0
  6
CONTINUOUS
 62
1
 10
2203.119439
 20
1877.144970
 11
2225.419427
 21
1877.144970
  0
LINE
  8
0
  6
CONTINUOUS
 62
1
 10
2179.269586
 20
1928.794964
 11
2176.991959
 21
1937.294964
  0
LINE
  8
0
  6
CONTINUOUS
 62
1
 10
2199.269525
 20
1928.794964
 11
2259.269586
 21
1928.794964
  0
LINE
  8
0
  6
CONTINUOUS
 62
1
 10
2199.269525
 20
1928.794964
 11
2201.547095
 21
1937.294964
  0
LINE
  8
0
  6
CONTINUOUS
 62
1
 10
2259.269586
 20
1928.794964
 11
2256.991959
 21
1937.294964
  0
LINE
  8
0
  6
CONTINUOUS
 62
1
 10
2279.269525
 20
1928.794964
 11
2339.269586
 21
1928.794964
  0
LINE
  8
0
  6
CONTINUOUS
 62
1
 10
2279.269525
 20
1928.794964
 11
2281.547095
 21
1937.294964
  0
LINE
  8
0
  6
CONTINUOUS
 62
1
 10
2339.269586
 20
1928.794964
 11
2336.991959
 21
1937.294964
  0
CIRCLE
  8
0
  6
CONTINUOUS
 62
1
 10
1989.269433
 20
1890.794964
 40
6.000000
  0
CIRCLE
  8
0
  6
CONTINUOUS
 62
1
 10
2149.269464
 20
1890.794964
 40
6.000000
  0
LINE
  8
0
  6
CONTINUOUS
 62
1
 10
2201.619439
 20
1875.644970
 11
2201.619439
 21
1905.944958
  0
LINE
  8
0
  6
CONTINUOUS
 62
1
 10
2201.619439
 20
1905.944958
 11
2226.919427
 21
1905.944958
  0
LINE
  8
0
  6
CONTINUOUS
 62
1
 10
2226.919427
 20
1905.944958
 11
2226.919427
 21
1875.644970
  0
LINE
  8
0
  6
CONTINUOUS
 62
1
 10
2226.919427
 20
1875.644970
 11
2201.619439
 21
1875.644970
  0
LINE
  8
0
  6
CONTINUOUS
 62
1
 10
2362.769479
 20
1232.294964
 11
2273.769479
 21
1232.294964
  0
LINE
  8
0
  6
CONTINUOUS
 62
1
 10
2362.769479
 20
1222.294964
 11
2273.769479
 21
1222.294964
  0
LINE
  8
0
  6
CONTINUOUS
 62
1
 10
2273.769479
 20
1232.294964
 11
2273.769479
 21
1222.294964
  0
LINE
  8
0
  6
CONTINUOUS
 62
1
 10
2295.831330
 20
1216.357464
 11
2296.801385
 21
1123.232457
  0
ARC
  8
0
  6
CONTINUOUS
 62
1
 10
2289.831658
 20
1216.294964
 40
6.000000
 50
0.596809
 51
90.000000
  0
ARC
  8
0
  6
CONTINUOUS
 62
1
 10
2346.707315
 20
1216.294964
 40
6.000000
 50
90.000000
 51
179.403198
  0
LINE
  8
0
  6
CONTINUOUS
 62
1
 10
2362.769479
 20
1232.294964
 11
2362.769479
 21
1222.294964
  0
LINE
  8
0
  6
CONTINUOUS
 62
1
 10
2301.769479
 20
1088.294964
 11
2302.269479
 21
1088.294964
  0
LINE
  8
0
  6
CONTINUOUS
 62
1
 10
2302.269479
 20
1088.294964
 11
2301.769479
 21
1088.294964
  0
LINE
  8
0
  6
CONTINUOUS
 62
1
 10
2344.269479
 20
1088.294964
 11
2333.269479
 21
1092.294949
  0
LINE
  8
0
  6
CONTINUOUS
 62
1
 10
2292.269479
 20
1088.294964
 11
2303.269479
 21
1092.294949
  0
ARC
  8
0
  6
CONTINUOUS
 62
1
 10
2333.737908
 20
1123.294957
 40
5.999996
 50
269.999969
 51
359.403160
  0
ARC
  8
0
  6
CONTINUOUS
 62
1
 10
2302.801065
 20
1123.294957
 40
6.000000
 50
180.596802
 51
270.000000
  0
LINE
  8
0
  6
CONTINUOUS
 62
1
 10
2339.769479
 20
1126.294957
 11
2296.769479
 21
1126.294957
  0
LINE
  8
0
  6
CONTINUOUS
 62
1
 10
2340.707635
 20
1216.357464
 11
2339.737588
 21
1123.232457
  0
LINE
  8
0
  6
CONTINUOUS
 62
1
 10
2303.269479
 20
1117.294957
 11
2303.269479
 21
1092.294949
  0
LINE
  8
0
  6
CONTINUOUS
 62
1
 10
2333.269479
 20
1117.294957
 11
2333.269479
 21
1092.294949
  0
LINE
  8
0
  6
CONTINUOUS
 62
1
 10
2344.269479
 20
1088.294964
 11
2334.269479
 21
1088.294964
  0
LINE
  8
0
  6
CONTINUOUS
 62
1
 10
2292.269479
 20
1088.294964
 11
2292.269479
 21
1087.294964
  0
LINE
  8
0
  6
CONTINUOUS
 62
1
 10
2334.769479
 20
1088.294964
 11
2292.269479
 21
1088.294964
  0
LINE
  8
0
  6
CONTINUOUS
 62
1
 10
2333.269479
 20
1092.294949
 11
2303.300424
 21
1092.294949
  0
LINE
  8
0
  6
CONTINUOUS
 62
1
 10
2333.737908
 20
1117.294957
 11
2302.801065
 21
1117.294957
  0
LINE
  8
0
  6
CONTINUOUS
 62
1
 10
2344.269479
 20
1087.294964
 11
2292.269479
 21
1087.294964
  0
LINE
  8
0
  6
CONTINUOUS
 62
1
 10
2344.269479
 20
1088.294964
 11
2344.269479
 21
1087.294964
  0
LINE
  8
0
  6
CONTINUOUS
 62
1
 10
1864.769479
 20
1232.294964
 11
1775.769479
 21
1232.294964
  0
LINE
  8
0
  6
CONTINUOUS
 62
1
 10
1864.769479
 20
1222.294964
 11
1775.769479
 21
1222.294964
  0
LINE
  8
0
  6
CONTINUOUS
 62
1
 10
1775.769479
 20
1232.294964
 11
1775.769479
 21
1222.294964
  0
LINE
  8
0
  6
CONTINUOUS
 62
1
 10
1797.831330
 20
1216.357464
 11
1798.801385
 21
1123.232457
  0
ARC
  8
0
  6
CONTINUOUS
 62
1
 10
1791.831658
 20
1216.294964
 40
6.000000
 50
0.596809
 51
90.000000
  0
ARC
  8
0
  6
CONTINUOUS
 62
1
 10
1848.707315
 20
1216.294964
 40
6.000000
 50
90.000000
 51
179.403198
  0
LINE
  8
0
  6
CONTINUOUS
 62
1
 10
1864.769479
 20
1232.294964
 11
1864.769479
 21
1222.294964
  0
LINE
  8
0
  6
CONTINUOUS
 62
1
 10
1803.769479
 20
1088.294964
 11
1804.269479
 21
1088.294964
  0
LINE
  8
0
  6
CONTINUOUS
 62
1
 10
1804.269479
 20
1088.294964
 11
1803.769479
 21
1088.294964
  0
LINE
  8
0
  6
CONTINUOUS
 62
1
 10
1846.269479
 20
1088.294964
 11
1835.269479
 21
1092.294949
  0
LINE
  8
0
  6
CONTINUOUS
 62
1
 10
1794.269479
 20
1088.294964
 11
1805.269479
 21
1092.294949
  0
ARC
  8
0
  6
CONTINUOUS
 62
1
 10
1835.737908
 20
1123.294957
 40
5.999996
 50
269.999969
 51
359.403160
  0
ARC
  8
0
  6
CONTINUOUS
 62
1
 10
1804.801065
 20
1123.294957
 40
6.000000
 50
180.596802
 51
270.000000
  0
LINE
  8
0
  6
CONTINUOUS
 62
1
 10
1841.769479
 20
1126.294957
 11
1798.769479
 21
1126.294957
  0
LINE
  8
0
  6
CONTINUOUS
 62
1
 10
1842.707635
 20
1216.357464
 11
1841.737588
 21
1123.232457
  0
LINE
  8
0
  6
CONTINUOUS
 62
1
 10
1805.269479
 20
1117.294957
 11
1805.269479
 21
1092.294949
  0
LINE
  8
0
  6
CONTINUOUS
 62
1
 10
1835.269479
 20
1117.294957
 11
1835.269479
 21
1092.294949
  0
LINE
  8
0
  6
CONTINUOUS
 62
1
 10
1846.269479
 20
1088.294964
 11
1836.269479
 21
1088.294964
  0
LINE
  8
0
  6
CONTINUOUS
 62
1
 10
1794.269479
 20
1088.294964
 11
1794.269479
 21
1087.294964
  0
LINE
  8
0
  6
CONTINUOUS
 62
1
 10
1836.769479
 20
1088.294964
 11
1794.269479
 21
1088.294964
  0
LINE
  8
0
  6
CONTINUOUS
 62
1
 10
1835.269479
 20
1092.294949
 11
1805.300424
 21
1092.294949
  0
LINE
  8
0
  6
CONTINUOUS
 62
1
 10
1835.737908
 20
1117.294957
 11
1804.801065
 21
1117.294957
  0
LINE
  8
0
  6
CONTINUOUS
 62
1
 10
1846.269479
 20
1087.294964
 11
1794.269479
 21
1087.294964
  0
LINE
  8
0
  6
CONTINUOUS
 62
1
 10
1846.269479
 20
1088.294964
 11
1846.269479
 21
1087.294964
  0
LINE
  8
0
  6
CONTINUOUS
 62
1
 10
1769.269479
 20
1232.294964
 11
2369.269479
 21
1232.294964
  0
LINE
  8
0
  6
CONTINUOUS
 62
1
 10
2369.269479
 20
1232.294964
 11
2369.269479
 21
2242.294964
  0
LINE
  8
0
  6
CONTINUOUS
 62
1
 10
2369.269479
 20
2242.294964
 11
1769.269479
 21
2242.294964
  0
LINE
  8
0
  6
CONTINUOUS
 62
1
 10
1769.269479
 20
2242.294964
 11
1769.269479
 21
1232.294964
  0
LINE
  8
0
  6
CONTINUOUS
 62
1
 10
2369.269479
 20
1987.294964
 11
1769.269479
 21
1987.294964
  0
LINE
  8
0
  6
CONTINUOUS
 62
1
 10
2294.269479
 20
2087.294964
 11
1844.269479
 21
2087.294964
  0
LINE
  8
0
  6
CONTINUOUS
 62
1
 10
1829.269479
 20
2043.904964
 11
1844.269479
 21
2043.904964
  0
LINE
  8
0
  6
CONTINUOUS
 62
1
 10
2294.269479
 20
2043.904964
 11
2309.499479
 21
2043.904964
  0
LINE
  8
0
  6
CONTINUOUS
 62
1
 10
1829.269479
 20
1987.294964
 11
1829.269479
 21
2079.904964
  0
LINE
  8
0
  6
CONTINUOUS
 62
1
 10
1844.269479
 20
2079.904964
 11
1844.269479
 21
2007.294964
  0
LINE
  8
0
  6
CONTINUOUS
 62
1
 10
2239.269479
 20
2007.294964
 11
2294.269479
 21
2007.294964
  0
LINE
  8
0
  6
CONTINUOUS
 62
1
 10
2294.269479
 20
2007.294964
 11
2294.269479
 21
2079.904964
  0
LINE
  8
0
  6
CONTINUOUS
 62
1
 10
2169.269479
 20
2007.294964
 11
2169.269479
 21
1987.294964
  0
LINE
  8
0
  6
CONTINUOUS
 62
1
 10
2179.269479
 20
1987.294964
 11
2179.269479
 21
2007.294964
  0
LINE
  8
0
  6
CONTINUOUS
 62
1
 10
2199.269479
 20
1987.294964
 11
2199.269479
 21
2007.294964
  0
ARC
  8
0
  6
CONTINUOUS
 62
1
 10
2219.269479
 20
2007.294964
 40
20.000000
 50
0.001000
 51
179.999000
  0
LINE
  8
0
  6
CONTINUOUS
 62
1
 10
2239.269479
 20
2007.294964
 11
2239.269479
 21
1987.294964
  0
LINE
  8
0
  6
CONTINUOUS
 62
1
 10
2229.269479
 20
1987.294964
 11
2229.269479
 21
2007.294964
  0
ARC
  8
0
  6
CONTINUOUS
 62
1
 10
2219.269479
 20
2007.294964
 40
10.000000
 50
0.001000
 51
179.999000
  0
LINE
  8
0
  6
CONTINUOUS
 62
1
 10
2209.269479
 20
2007.294964
 11
2209.269479
 21
1987.294964
  0
LINE
  8
0
  6
CONTINUOUS
 62
1
 10
2259.269479
 20
1987.294964
 11
2259.269479
 21
2007.294964
  0
LINE
  8
0
  6
CONTINUOUS
 62
1
 10
2269.269479
 20
2007.294964
 11
2269.269479
 21
1987.294964
  0
LINE
  8
0
  6
CONTINUOUS
 62
1
 10
2309.499479
 20
1987.294964
 11
2309.499479
 21
2079.904964
  0
LINE
  8
0
  6
CONTINUOUS
 62
1
 10
1794.269479
 20
1987.294964
 11
1794.269479
 21
2107.294964
  0
LINE
  8
0
  6
CONTINUOUS
 62
1
 10
1794.269479
 20
2107.294964
 11
1829.269479
 21
2107.294964
  0
LINE
  8
0
  6
CONTINUOUS
 62
1
 10
1829.269479
 20
2107.294964
 11
1829.269479
 21
2079.904964
  0
LINE
  8
0
  6
CONTINUOUS
 62
1
 10
1829.269479
 20
2079.904964
 11
1844.269479
 21
2079.904964
  0
LINE
  8
0
  6
CONTINUOUS
 62
1
 10
1844.269479
 20
2079.904964
 11
1844.269479
 21
2107.294964
  0
LINE
  8
0
  6
CONTINUOUS
 62
1
 10
1844.269479
 20
2107.294964
 11
2294.269479
 21
2107.294964
  0
LINE
  8
0
  6
CONTINUOUS
 62
1
 10
2294.269479
 20
2107.294964
 11
2294.269479
 21
2079.904964
  0
LINE
  8
0
  6
CONTINUOUS
 62
1
 10
2294.269479
 20
2079.904964
 11
2309.499479
 21
2079.904964
  0
LINE
  8
0
  6
CONTINUOUS
 62
1
 10
2309.499479
 20
2079.904964
 11
2309.499479
 21
2107.294964
  0
LINE
  8
0
  6
CONTINUOUS
 62
1
 10
2309.499479
 20
2107.294964
 11
2344.499479
 21
2107.294964
  0
LINE
  8
0
  6
CONTINUOUS
 62
1
 10
2344.499479
 20
2107.294964
 11
2344.499479
 21
1987.294964
  0
CIRCLE
  8
0
  6
CONTINUOUS
 62
1
 10
1924.269433
 20
1920.794964
 40
1.800000
  0
LINE
  8
0
  6
CONTINUOUS
 62
1
 10
1814.894548
 20
1892.494992
 11
1839.894548
 21
1892.494992
  0
LINE
  8
0
  6
CONTINUOUS
 62
1
 10
1839.894548
 20
1892.494992
 11
1839.894548
 21
1917.494992
  0
LINE
  8
0
  6
CONTINUOUS
 62
1
 10
1839.894548
 20
1917.494992
 11
1814.894548
 21
1917.494992
  0
LINE
  8
0
  6
CONTINUOUS
 62
1
 10
1814.894548
 20
1917.494992
 11
1814.894548
 21
1892.494992
  0
CIRCLE
  8
0
  6
CONTINUOUS
 62
1
 10
1924.269433
 20
1890.794964
 40
28.000000
  0
ARC
  8
0
  6
CONTINUOUS
 62
1
 10
1924.269445
 20
1901.794964
 40
2.500000
 50
270.000000
 51
0.000000
  0
ARC
  8
0
  6
CONTINUOUS
 62
1
 10
1924.269445
 20
1901.794964
 40
2.500000
 50
180.000000
 51
270.000000
  0
LINE
  8
0
  6
CONTINUOUS
 62
1
 10
1926.769445
 20
1901.794964
 11
1926.769445
 21
1909.125256
  0
LINE
  8
0
  6
CONTINUOUS
 62
1
 10
1921.769445
 20
1901.794964
 11
1921.769445
 21
1909.125256
  0
ARC
  8
0
  6
CONTINUOUS
 62
1
 10
1924.269433
 20
1890.794964
 40
18.500000
 50
90.000000
 51
82.233551
  0
ARC
  8
0
  6
CONTINUOUS
 62
1
 10
1924.269433
 20
1890.794964
 40
18.500000
 50
82.233528
 51
90.000000
  0
LINE
  8
0
  6
CONTINUOUS
 62
1
 10
2369.269479
 20
1937.294964
 11
1769.269479
 21
1937.294964
  0
LINE
  8
0
  6
CONTINUOUS
 62
1
 10
2369.269479
 20
1822.787396
 11
1769.269479
 21
1822.787396
  0
LINE
  8
0
  6
CONTINUOUS
 62
1
 10
2369.269479
 20
1797.787396
 11
1769.269479
 21
1797.787396
  0
LINE
  8
0
  6
CONTINUOUS
 62
1
 10
2369.269479
 20
1786.095013
 11
1769.269479
 21
1786.095013
  0
LINE
  8
0
  6
CONTINUOUS
 62
1
 10
1769.269479
 20
1244.095013
 11
2367.269479
 21
1244.095013
  0
LINE
  8
0
  6
CONTINUOUS
 62
1
 10
1769.269479
 20
1786.095013
 11
1769.269479
 21
1244.095013
  0
LINE
  8
0
  6
CONTINUOUS
 62
1
 10
2367.269479
 20
1786.095013
 11
2367.269479
 21
1244.095013
  0
LINE
  8
0
  6
CONTINUOUS
 62
1
 10
1769.269479
 20
1786.095013
 11
2367.269479
 21
1786.095013
  0
LINE
  8
0
  6
CONTINUOUS
 62
1
 10
2270.269479
 20
1319.595013
 11
2339.269479
 21
1319.595013
  0
LINE
  8
0
  6
CONTINUOUS
 62
1
 10
2342.269479
 20
1322.595013
 11
2342.269479
 21
1341.595013
  0
LINE
  8
0
  6
CONTINUOUS
 62
1
 10
2339.269479
 20
1344.595013
 11
2270.269479
 21
1344.595013
  0
LINE
  8
0
  6
CONTINUOUS
 62
1
 10
2267.269479
 20
1341.595013
 11
2267.269479
 21
1322.595013
  0
ARC
  8
0
  6
CONTINUOUS
 62
1
 10
2270.269479
 20
1341.595013
 40
3.000000
 50
90.000000
 51
180.000000
  0
ARC
  8
0
  6
CONTINUOUS
 62
1
 10
2270.269479
 20
1322.595013
 40
3.000000
 50
180.000000
 51
270.000000
  0
ARC
  8
0
  6
CONTINUOUS
 62
1
 10
2339.269479
 20
1322.595013
 40
3.000000
 50
270.000000
 51
0.000000
  0
ARC
  8
0
  6
CONTINUOUS
 62
1
 10
2339.269479
 20
1341.595013
 40
3.000000
 50
0.000000
 51
90.000000
  0
LINE
  8
0
  6
CONTINUOUS
 62
1
 10
1801.269479
 20
1749.095013
 11
1801.269479
 21
1709.095013
  0
LINE
  8
0
  6
CONTINUOUS
 62
1
 10
1776.269479
 20
1744.937925
 11
1776.269479
 21
1713.252101
  0
LINE
  8
0
  6
CONTINUOUS
 62
1
 10
1801.269479
 20
1709.095013
 11
1779.112471
 21
1710.256213
  0
LINE
  8
0
  6
CONTINUOUS
 62
1
 10
1801.269479
 20
1749.095013
 11
1779.112471
 21
1747.933814
  0
ARC
  8
0
  6
CONTINUOUS
 62
1
 10
1779.269479
 20
1744.937925
 40
3.000000
 50
93.000000
 51
180.000000
  0
ARC
  8
0
  6
CONTINUOUS
 62
1
 10
1779.269479
 20
1713.252101
 40
3.000000
 50
180.000000
 51
267.000000
  0
LINE
  8
0
  6
CONTINUOUS
 62
1
 10
2239.190975
 20
1749.095013
 11
2239.190975
 21
1709.095013
  0
LINE
  8
0
  6
CONTINUOUS
 62
1
 10
2264.190975
 20
1744.937925
 11
2264.190975
 21
1713.252101
  0
LINE
  8
0
  6
CONTINUOUS
 62
1
 10
2239.190975
 20
1709.095013
 11
2261.347983
 21
1710.256213
  0
LINE
  8
0
  6
CONTINUOUS
 62
1
 10
2239.190975
 20
1749.095013
 11
2261.347983
 21
1747.933814
  0
ARC
  8
0
  6
CONTINUOUS
 62
1
 10
2261.190975
 20
1744.937925
 40
3.000000
 50
0.000000
 51
87.000000
  0
ARC
  8
0
  6
CONTINUOUS
 62
1
 10
2261.190975
 20
1713.252101
 40
3.000000
 50
273.000000
 51
0.000000
  0
LINE
  8
0
  6
CONTINUOUS
 62
1
 10
1801.269479
 20
1749.095013
 11
2239.190975
 21
1749.095013
  0
LINE
  8
0
  6
CONTINUOUS
 62
1
 10
1801.269479
 20
1709.095013
 11
2239.190975
 21
1709.095013
  0
LINE
  8
0
  6
CONTINUOUS
 62
1
 10
1844.269479
 20
2007.294964
 11
1899.499479
 21
2007.294964
  0
LINE
  8
0
  6
CONTINUOUS
 62
1
 10
1909.499479
 20
2007.294964
 11
1929.499479
 21
2007.294964
  0
LINE
  8
0
  6
CONTINUOUS
 62
1
 10
1939.499479
 20
2007.294964
 11
2199.269479
 21
2007.294964
  0
LINE
  8
0
  6
CONTINUOUS
 62
1
 10
2199.269479
 20
2007.294964
 11
1939.499479
 21
2007.294964
  0
ENDSEC
  0
EOF
