  0
SECTION
  2
HEADER
  9
$LIMMIN
 10
0.000000
 20
0.000000
  9
$LIMMAX
 10
7000.000000
 20
3500.000000
  9
$EXTMIN
 10
0.000000
 20
0.000000
  9
$EXTMAX
 10
7000.000000
 20
3500.000000
  9
$ANGBASE
 50
0.0
  9
$ANGDIR
 70
0
  9
$DIMRND
 40
0.100000
  9
$DIMSE1
 70
0
  9
$DIMSE2
 70
0
  9
$DIMTXT
 40
3.500000
  9
$LTSCALE
 40
1.000000
  9
$LUPREC
 70
5
  9
$AUPREC
 70
5
  9
$PDMODE
 70
2
  9
$PDSIZE
 40
35.000000
  0
ENDSEC
  0
SECTION
  2
TABLES
  0
TABLE
  2
VPORT
  70
1
  0
VPORT
  2
*ACTIVE
 70
0
  10
0.0
 20
0.0
 11
1.0
 21
1.0
 12
594.0
 22
420.0
 13
0.0
 23
0.0
 14
10.0
 24
10.0
 15
10.0
 25
10.0
 16
0.0
 26
0.0
 36
1.0
 17
594.0
 27
420.0
 37
100.0
 40
1000.0
 41
1.0
 42
50.0
 43
0.0
 44
0.0
 50
0.0
 51
0.0
 71
0
 72
2000
 73
1
 74
3
 75
0
 76
0
 77
0
 78
1
  0
ENDTAB
  0
TABLE
  2
LTYPE
 70
4
  0
LTYPE
  2
CONTINUOUS
 70
0
  3
Solid line
 72
65
 73
0
 40
0.0
  0
LTYPE
  2
DASHED
 70
0
  3
Dashed line
 72
65
 73
2
 40
6.000000
 49
3.000000
 49
-3.000000
  0
LTYPE
  2
CENTER
 70
0
  3
Chain line
 72
65
 73
4
 40
24.000000
 49
15.000000
 49
-3.000000
 49
3.000000
 49
-3.000000
  0
LTYPE
  2
RANDOM
 70
0
  3
Random line
 72
65
 73
4
 40
22.500000
 49
6.000000
 49
-3.000000
 49
4.500000
 49
-9.000000
  0
ENDTAB
  0
TABLE
  2
STYLE
 70
9
  0
STYLE
  2
STANDARD
 40
0
 41
1.0
 50
0.0
 71
0
 42
0
  3
simplex
  4

 70
0
  0
ENDTAB
  0
TABLE
  2
LAYER
 70
3
  0
LAYER
  2
0
 70
0
 62
7
  6
CONTINUOUS
  0
LAYER
  2
0
 62
1
  6
CONTINUOUS
 70
0
  0
LAYER
  2
73CONTINUOUS
 62
1
  6
CONTINUOUS
 70
0
  0
ENDTAB
  0
ENDSEC
  0
SECTION
  2
BLOCKS
  0
ENDSEC
  0
SECTION
  2
ENTITIES
  0
LINE
  8
0
  6
CONTINUOUS
 62
1
 10
1593.185249
 20
997.128462
 11
1593.185249
 21
1688.538462
  0
LINE
  8
0
  6
CONTINUOUS
 62
1
 10
1858.825249
 20
1511.538462
 11
1653.825249
 21
1511.538462
  0
LINE
  8
0
  6
CONTINUOUS
 62
1
 10
1653.825249
 20
1511.538462
 11
1653.825249
 21
1211.538462
  0
LINE
  8
0
  6
CONTINUOUS
 62
1
 10
1653.825249
 20
1211.538462
 11
1858.825249
 21
1211.538462
  0
LINE
  8
0
  6
CONTINUOUS
 62
1
 10
1858.825249
 20
1211.538462
 11
1858.825249
 21
1511.538462
  0
LINE
  8
0
  6
CONTINUOUS
 62
1
 10
1788.185249
 20
1511.538462
 11
1778.185249
 21
1551.538462
  0
LINE
  8
0
  6
CONTINUOUS
 62
1
 10
1778.185249
 20
1551.538462
 11
1738.185249
 21
1551.538462
  0
LINE
  8
0
  6
CONTINUOUS
 62
1
 10
1738.185249
 20
1551.538462
 11
1728.185249
 21
1511.538462
  0
LINE
  8
0
  6
CONTINUOUS
 62
1
 10
1858.825249
 20
1246.318462
 11
1653.825249
 21
1246.318462
  0
LINE
  8
0
  6
CONTINUOUS
 62
1
 10
1858.825249
 20
1276.318462
 11
1653.825249
 21
1276.318462
  0
LINE
  8
0
  6
CONTINUOUS
 62
1
 10
1858.825249
 20
1306.318462
 11
1653.825249
 21
1306.318462
  0
LINE
  8
0
  6
CONTINUOUS
 62
1
 10
1858.825249
 20
1336.318462
 11
1653.825249
 21
1336.318462
  0
LINE
  8
0
  6
CONTINUOUS
 62
1
 10
1858.825249
 20
1366.318462
 11
1653.825249
 21
1366.318462
  0
LINE
  8
0
  6
CONTINUOUS
 62
1
 10
1858.825249
 20
1396.318462
 11
1653.825249
 21
1396.318462
  0
LINE
  8
0
  6
CONTINUOUS
 62
1
 10
1858.825249
 20
1426.318462
 11
1653.825249
 21
1426.318462
  0
LINE
  8
0
  6
CONTINUOUS
 62
1
 10
1858.825249
 20
1456.318462
 11
1653.825249
 21
1456.318462
  0
LINE
  8
0
  6
CONTINUOUS
 62
1
 10
1858.825249
 20
1486.318462
 11
1653.825249
 21
1486.318462
  0
LINE
  8
0
  6
CONTINUOUS
 62
1
 10
1846.325249
 20
1211.538462
 11
1846.325249
 21
1511.538462
  0
LINE
  8
0
  6
CONTINUOUS
 62
1
 10
1816.325249
 20
1211.538462
 11
1816.325249
 21
1511.538462
  0
LINE
  8
0
  6
CONTINUOUS
 62
1
 10
1786.325249
 20
1211.538462
 11
1786.325249
 21
1511.538462
  0
LINE
  8
0
  6
CONTINUOUS
 62
1
 10
1756.325249
 20
1211.538462
 11
1756.325249
 21
1511.538462
  0
LINE
  8
0
  6
CONTINUOUS
 62
1
 10
1726.325249
 20
1211.538462
 11
1726.325249
 21
1511.538462
  0
LINE
  8
0
  6
CONTINUOUS
 62
1
 10
1696.325249
 20
1211.538462
 11
1696.325249
 21
1511.538462
  0
LINE
  8
0
  6
CONTINUOUS
 62
1
 10
1666.325249
 20
1211.538462
 11
1666.325249
 21
1511.538462
  0
LINE
  8
0
  6
CONTINUOUS
 62
1
 10
1746.325249
 20
1211.538462
 11
1746.325249
 21
1017.128462
  0
LINE
  8
0
  6
CONTINUOUS
 62
1
 10
1746.325249
 20
1017.128462
 11
1766.325249
 21
1017.128462
  0
LINE
  8
0
  6
CONTINUOUS
 62
1
 10
1766.325249
 20
1017.128462
 11
1766.325249
 21
1211.538462
  0
LINE
  8
0
  6
CONTINUOUS
 62
1
 10
1766.325249
 20
1211.538462
 11
1746.325249
 21
1211.538462
  0
LINE
  8
0
  6
CONTINUOUS
 62
1
 10
1578.185249
 20
1773.538462
 11
1578.185249
 21
923.538462
  0
LINE
  8
0
  6
CONTINUOUS
 62
1
 10
1578.185249
 20
923.538462
 11
2178.185249
 21
923.538462
  0
LINE
  8
0
  6
CONTINUOUS
 62
1
 10
2178.185249
 20
923.538462
 11
2178.185249
 21
1773.538462
  0
LINE
  8
0
  6
CONTINUOUS
 62
1
 10
2178.185249
 20
1773.538462
 11
1578.185249
 21
1773.538462
  0
LINE
  8
0
  6
CONTINUOUS
 62
1
 10
2178.185249
 20
923.538462
 11
2178.185249
 21
873.538462
  0
LINE
  8
0
  6
CONTINUOUS
 62
1
 10
2178.185249
 20
873.538462
 11
1578.185249
 21
873.538462
  0
LINE
  8
0
  6
CONTINUOUS
 62
1
 10
1578.185249
 20
873.538462
 11
1578.185249
 21
923.538462
  0
LINE
  8
0
  6
CONTINUOUS
 62
1
 10
2163.185249
 20
1693.538462
 11
2163.185249
 21
997.128462
  0
LINE
  8
0
  6
CONTINUOUS
 62
1
 10
2163.185249
 20
997.128462
 11
1593.185249
 21
997.128462
  0
LINE
  8
0
  6
CONTINUOUS
 62
1
 10
2178.185249
 20
1693.538462
 11
1578.185249
 21
1693.538462
  0
LINE
  8
0
  6
CONTINUOUS
 62
1
 10
1897.545249
 20
1511.538462
 11
2102.545249
 21
1511.538462
  0
LINE
  8
0
  6
CONTINUOUS
 62
1
 10
2102.545249
 20
1511.538462
 11
2102.545249
 21
1211.538462
  0
LINE
  8
0
  6
CONTINUOUS
 62
1
 10
2102.545249
 20
1211.538462
 11
1897.545249
 21
1211.538462
  0
LINE
  8
0
  6
CONTINUOUS
 62
1
 10
1897.545249
 20
1211.538462
 11
1897.545249
 21
1511.538462
  0
LINE
  8
0
  6
CONTINUOUS
 62
1
 10
1968.185249
 20
1511.538462
 11
1978.185249
 21
1551.538462
  0
LINE
  8
0
  6
CONTINUOUS
 62
1
 10
1978.185249
 20
1551.538462
 11
2018.185249
 21
1551.538462
  0
LINE
  8
0
  6
CONTINUOUS
 62
1
 10
2018.185249
 20
1551.538462
 11
2028.185249
 21
1511.538462
  0
LINE
  8
0
  6
CONTINUOUS
 62
1
 10
1897.545249
 20
1246.318462
 11
2102.545249
 21
1246.318462
  0
LINE
  8
0
  6
CONTINUOUS
 62
1
 10
1897.545249
 20
1276.318462
 11
2102.545249
 21
1276.318462
  0
LINE
  8
0
  6
CONTINUOUS
 62
1
 10
1897.545249
 20
1306.318462
 11
2102.545249
 21
1306.318462
  0
LINE
  8
0
  6
CONTINUOUS
 62
1
 10
1897.545249
 20
1336.318462
 11
2102.545249
 21
1336.318462
  0
LINE
  8
0
  6
CONTINUOUS
 62
1
 10
1897.545249
 20
1366.318462
 11
2102.545249
 21
1366.318462
  0
LINE
  8
0
  6
CONTINUOUS
 62
1
 10
1897.545249
 20
1396.318462
 11
2102.545249
 21
1396.318462
  0
LINE
  8
0
  6
CONTINUOUS
 62
1
 10
1897.545249
 20
1426.318462
 11
2102.545249
 21
1426.318462
  0
LINE
  8
0
  6
CONTINUOUS
 62
1
 10
1897.545249
 20
1456.318462
 11
2102.545249
 21
1456.318462
  0
LINE
  8
0
  6
CONTINUOUS
 62
1
 10
1897.545249
 20
1486.318462
 11
2102.545249
 21
1486.318462
  0
LINE
  8
0
  6
CONTINUOUS
 62
1
 10
1910.045249
 20
1211.538462
 11
1910.045249
 21
1511.538462
  0
LINE
  8
0
  6
CONTINUOUS
 62
1
 10
1940.045249
 20
1211.538462
 11
1940.045249
 21
1511.538462
  0
LINE
  8
0
  6
CONTINUOUS
 62
1
 10
1970.045249
 20
1211.538462
 11
1970.045249
 21
1511.538462
  0
LINE
  8
0
  6
CONTINUOUS
 62
1
 10
2000.045249
 20
1211.538462
 11
2000.045249
 21
1511.538462
  0
LINE
  8
0
  6
CONTINUOUS
 62
1
 10
2030.045249
 20
1211.538462
 11
2030.045249
 21
1511.538462
  0
LINE
  8
0
  6
CONTINUOUS
 62
1
 10
2060.045249
 20
1211.538462
 11
2060.045249
 21
1511.538462
  0
LINE
  8
0
  6
CONTINUOUS
 62
1
 10
2090.045249
 20
1211.538462
 11
2090.045249
 21
1511.538462
  0
LINE
  8
0
  6
CONTINUOUS
 62
1
 10
2138.185249
 20
1628.538462
 11
2138.185249
 21
1126.528462
  0
LINE
  8
0
  6
CONTINUOUS
 62
1
 10
2138.185249
 20
1126.528462
 11
2010.355249
 21
1126.528462
  0
LINE
  8
0
  6
CONTINUOUS
 62
1
 10
2123.185249
 20
1628.538462
 11
2123.185249
 21
1583.538462
  0
LINE
  8
0
  6
CONTINUOUS
 62
1
 10
2123.185249
 20
1583.538462
 11
1633.185249
 21
1583.538462
  0
LINE
  8
0
  6
CONTINUOUS
 62
1
 10
1633.185249
 20
1583.538462
 11
1633.185249
 21
1628.538462
  0
LINE
  8
0
  6
CONTINUOUS
 62
1
 10
1638.185249
 20
1628.538462
 11
1603.185249
 21
1628.538462
  0
LINE
  8
0
  6
CONTINUOUS
 62
1
 10
1603.185249
 20
1628.538462
 11
1603.185249
 21
1688.538462
  0
LINE
  8
0
  6
CONTINUOUS
 62
1
 10
1603.185249
 20
1688.538462
 11
1638.185249
 21
1688.538462
  0
LINE
  8
0
  6
CONTINUOUS
 62
1
 10
2118.185249
 20
1688.538462
 11
2118.185249
 21
1628.538462
  0
LINE
  8
0
  6
CONTINUOUS
 62
1
 10
2103.185249
 20
1583.538462
 11
2103.185249
 21
1688.538462
  0
LINE
  8
0
  6
CONTINUOUS
 62
1
 10
1653.185249
 20
1688.538462
 11
1653.185249
 21
1583.538462
  0
LINE
  8
0
  6
CONTINUOUS
 62
1
 10
1638.185249
 20
1628.538462
 11
1638.185249
 21
1688.538462
  0
LINE
  8
0
  6
CONTINUOUS
 62
1
 10
2103.185249
 20
1603.538462
 11
1653.185249
 21
1603.538462
  0
LINE
  8
0
  6
CONTINUOUS
 62
1
 10
1653.185249
 20
1613.538462
 11
2103.185249
 21
1613.538462
  0
LINE
  8
0
  6
CONTINUOUS
 62
1
 10
2078.185249
 20
1603.538462
 11
2078.185249
 21
1613.538462
  0
LINE
  8
0
  6
CONTINUOUS
 62
1
 10
2068.185249
 20
1613.538462
 11
2068.185249
 21
1603.538462
  0
LINE
  8
0
  6
CONTINUOUS
 62
1
 10
2048.185249
 20
1603.538462
 11
2048.185249
 21
1613.538462
  0
LINE
  8
0
  6
CONTINUOUS
 62
1
 10
2038.185249
 20
1613.538462
 11
2038.185249
 21
1603.538462
  0
LINE
  8
0
  6
CONTINUOUS
 62
1
 10
2018.185249
 20
1603.538462
 11
2018.185249
 21
1613.538462
  0
LINE
  8
0
  6
CONTINUOUS
 62
1
 10
2008.185249
 20
1613.538462
 11
2008.185249
 21
1603.538462
  0
LINE
  8
0
  6
CONTINUOUS
 62
1
 10
1988.185249
 20
1603.538462
 11
1988.185249
 21
1613.538462
  0
LINE
  8
0
  6
CONTINUOUS
 62
1
 10
1978.185249
 20
1613.538462
 11
1978.185249
 21
1603.538462
  0
LINE
  8
0
  6
CONTINUOUS
 62
1
 10
1986.015249
 20
1126.528462
 11
1766.325249
 21
1126.528462
  0
LINE
  8
0
  6
CONTINUOUS
 62
1
 10
1618.185249
 20
1126.528462
 11
1618.185249
 21
1628.538462
  0
LINE
  8
0
  6
CONTINUOUS
 62
1
 10
2118.185249
 20
1670.538462
 11
2103.185249
 21
1670.538462
  0
LINE
  8
0
  6
CONTINUOUS
 62
1
 10
1653.185249
 20
1670.538462
 11
1638.185249
 21
1670.538462
  0
LINE
  8
0
  6
CONTINUOUS
 62
1
 10
1638.185249
 20
1646.538462
 11
1653.185249
 21
1646.538462
  0
LINE
  8
0
  6
CONTINUOUS
 62
1
 10
2103.185249
 20
1646.538462
 11
2118.185249
 21
1646.538462
  0
LINE
  8
0
  6
CONTINUOUS
 62
1
 10
2118.185249
 20
1688.538462
 11
2153.185249
 21
1688.538462
  0
LINE
  8
0
  6
CONTINUOUS
 62
1
 10
2153.185249
 20
1688.538462
 11
2153.185249
 21
1628.538462
  0
LINE
  8
0
  6
CONTINUOUS
 62
1
 10
2153.185249
 20
1628.538462
 11
2118.185249
 21
1628.538462
  0
LINE
  8
0
  6
CONTINUOUS
 62
1
 10
1653.185249
 20
1688.538462
 11
2103.185249
 21
1688.538462
  0
LINE
  8
0
  6
CONTINUOUS
 62
1
 10
2010.045249
 20
1211.538462
 11
2010.045249
 21
1017.128462
  0
LINE
  8
0
  6
CONTINUOUS
 62
1
 10
2010.045249
 20
1017.128462
 11
1990.045249
 21
1017.128462
  0
LINE
  8
0
  6
CONTINUOUS
 62
1
 10
1990.045249
 20
1017.128462
 11
1990.045249
 21
1211.538462
  0
LINE
  8
0
  6
CONTINUOUS
 62
1
 10
1990.045249
 20
1211.538462
 11
2010.045249
 21
1211.538462
  0
LINE
  8
0
  6
CONTINUOUS
 62
1
 10
2163.185249
 20
1011.128462
 11
1593.185249
 21
1011.128462
  0
LINE
  8
0
  6
CENTER
 62
4
 10
2133.185249
 20
1827.778462
 11
2133.185249
 21
1738.118462
  0
LINE
  8
0
  6
CONTINUOUS
 62
1
 10
1585.185249
 20
873.538462
 11
1585.185249
 21
857.695550
  0
LINE
  8
0
  6
CONTINUOUS
 62
1
 10
1610.185249
 20
853.538462
 11
1610.185249
 21
873.538462
  0
LINE
  8
0
  6
CONTINUOUS
 62
1
 10
1585.185249
 20
873.538462
 11
1610.185249
 21
873.538462
  0
LINE
  8
0
  6
CONTINUOUS
 62
1
 10
1610.185249
 20
853.538462
 11
1588.028241
 21
854.699661
  0
ARC
  8
0
  6
CONTINUOUS
 62
1
 10
1588.185249
 20
857.695550
 40
3.000000
 50
180.000000
 51
267.000000
  0
LINE
  8
0
  6
CONTINUOUS
 62
1
 10
1610.185249
 20
853.538462
 11
2048.106745
 21
853.538462
  0
LINE
  8
0
  6
CONTINUOUS
 62
1
 10
2073.106745
 20
873.538462
 11
2073.106745
 21
857.695550
  0
LINE
  8
0
  6
CONTINUOUS
 62
1
 10
2048.106745
 20
853.538462
 11
2048.106745
 21
873.538462
  0
LINE
  8
0
  6
CONTINUOUS
 62
1
 10
2073.106745
 20
873.538462
 11
2048.106745
 21
873.538462
  0
LINE
  8
0
  6
CONTINUOUS
 62
1
 10
2048.106745
 20
853.538462
 11
2070.263753
 21
854.699661
  0
ARC
  8
0
  6
CONTINUOUS
 62
1
 10
2070.106745
 20
857.695550
 40
3.000000
 50
273.000000
 51
0.000000
  0
LINE
  8
0
  6
CONTINUOUS
 62
1
 10
1746.325249
 20
1126.528462
 11
1618.185249
 21
1126.528462
  0
ENDSEC
  0
EOF
