  0
SECTION
  2
HEADER
  9
$LIMMIN
 10
0.000000
 20
0.000000
  9
$LIMMAX
 10
3500.000000
 20
2500.000000
  9
$EXTMIN
 10
0.000000
 20
0.000000
  9
$EXTMAX
 10
3500.000000
 20
2500.000000
  9
$ANGBASE
 50
0.0
  9
$ANGDIR
 70
0
  9
$DIMRND
 40
0.100000
  9
$DIMSE1
 70
0
  9
$DIMSE2
 70
0
  9
$DIMTXT
 40
3.500000
  9
$LTSCALE
 40
1.000000
  9
$LUPREC
 70
5
  9
$AUPREC
 70
5
  9
$PDMODE
 70
2
  9
$PDSIZE
 40
17.500000
  0
ENDSEC
  0
SECTION
  2
TABLES
  0
TABLE
  2
VPORT
  70
1
  0
VPORT
  2
*ACTIVE
 70
0
  10
0.0
 20
0.0
 11
1.0
 21
1.0
 12
594.0
 22
420.0
 13
0.0
 23
0.0
 14
10.0
 24
10.0
 15
10.0
 25
10.0
 16
0.0
 26
0.0
 36
1.0
 17
594.0
 27
420.0
 37
100.0
 40
1000.0
 41
1.0
 42
50.0
 43
0.0
 44
0.0
 50
0.0
 51
0.0
 71
0
 72
2000
 73
1
 74
3
 75
0
 76
0
 77
0
 78
1
  0
ENDTAB
  0
TABLE
  2
LTYPE
 70
4
  0
LTYPE
  2
CONTINUOUS
 70
0
  3
Solid line
 72
65
 73
0
 40
0.0
  0
LTYPE
  2
DASHED
 70
0
  3
Dashed line
 72
65
 73
2
 40
6.000000
 49
3.000000
 49
-3.000000
  0
LTYPE
  2
CENTER
 70
0
  3
Chain line
 72
65
 73
4
 40
24.000000
 49
15.000000
 49
-3.000000
 49
3.000000
 49
-3.000000
  0
LTYPE
  2
RANDOM
 70
0
  3
Random line
 72
65
 73
4
 40
22.500000
 49
6.000000
 49
-3.000000
 49
4.500000
 49
-9.000000
  0
ENDTAB
  0
TABLE
  2
STYLE
 70
9
  0
STYLE
  2
STANDARD
 40
0
 41
1.0
 50
0.0
 71
0
 42
0
  3
simplex
  4

 70
0
  0
ENDTAB
  0
TABLE
  2
LAYER
 70
4
  0
LAYER
  2
0
 70
0
 62
7
  6
CONTINUOUS
  0
LAYER
  2
0
 62
1
  6
CONTINUOUS
 70
0
  0
LAYER
  2
73CONTINUOUS
 62
1
  6
CONTINUOUS
 70
0
  0
LAYER
  2
73ADSDOT
 62
1
  6
CONTINUOUS
 70
0
  0
ENDTAB
  0
ENDSEC
  0
SECTION
  2
BLOCKS
  0
ENDSEC
  0
SECTION
  2
ENTITIES
  0
LINE
  8
0
  6
CONTINUOUS
 62
1
 10
1960.140677
 20
882.120187
 11
1972.750677
 21
882.120187
  0
LINE
  8
0
  6
CONTINUOUS
 62
1
 10
1972.750677
 20
882.120187
 11
1972.750677
 21
732.120187
  0
LINE
  8
0
  6
CONTINUOUS
 62
1
 10
1972.750677
 20
732.120187
 11
1960.140677
 21
732.120187
  0
LINE
  8
0
  6
CONTINUOUS
 62
1
 10
1972.750677
 20
823.280187
 11
1999.320677
 21
823.280187
  0
LINE
  8
0
  6
CONTINUOUS
 62
1
 10
1999.320677
 20
823.280187
 11
1999.320677
 21
807.120187
  0
LINE
  8
0
  6
CONTINUOUS
 62
1
 10
1972.750677
 20
790.970187
 11
1999.320677
 21
790.970187
  0
LINE
  8
0
  6
CONTINUOUS
 62
1
 10
1999.320677
 20
790.970187
 11
1999.320677
 21
807.120187
  0
LINE
  8
0
  6
CONTINUOUS
 62
1
 10
2049.330677
 20
867.120187
 11
2036.130677
 21
867.120187
  0
ARC
  8
0
  6
CONTINUOUS
 62
1
 10
2036.130677
 20
852.120187
 40
15.000000
 50
90.000000
 51
180.000000
  0
LINE
  8
0
  6
CONTINUOUS
 62
1
 10
2021.130677
 20
852.120187
 11
2021.130677
 21
839.060187
  0
LINE
  8
0
  6
CONTINUOUS
 62
1
 10
2021.130677
 20
839.060187
 11
2049.330677
 21
839.050187
  0
LINE
  8
0
  6
CONTINUOUS
 62
1
 10
2042.140677
 20
738.040187
 11
2078.140677
 21
738.040187
  0
LINE
  8
0
  6
CONTINUOUS
 62
1
 10
2078.140677
 20
738.040187
 11
2065.730677
 21
825.020187
  0
LINE
  8
0
  6
CONTINUOUS
 62
1
 10
2065.730677
 20
825.020187
 11
2070.950677
 21
825.020187
  0
LINE
  8
0
  6
CONTINUOUS
 62
1
 10
2070.950677
 20
825.020187
 11
2070.950677
 21
875.490187
  0
LINE
  8
0
  6
CONTINUOUS
 62
1
 10
2070.950677
 20
875.490187
 11
2049.330677
 21
875.490187
  0
LINE
  8
0
  6
CONTINUOUS
 62
1
 10
2049.330677
 20
875.490187
 11
2049.330677
 21
825.020187
  0
LINE
  8
0
  6
CONTINUOUS
 62
1
 10
2049.330677
 20
825.020187
 11
2054.550677
 21
825.020187
  0
LINE
  8
0
  6
CONTINUOUS
 62
1
 10
2054.550677
 20
825.020187
 11
2042.140677
 21
738.040187
  0
LINE
  8
0
  6
CONTINUOUS
 62
1
 10
2092.470677
 20
839.050187
 11
2085.070677
 21
747.120187
  0
LINE
  8
0
  6
CONTINUOUS
 62
1
 10
2085.070677
 20
747.120187
 11
2076.840677
 21
747.120187
  0
LINE
  8
0
  6
CONTINUOUS
 62
1
 10
1999.320677
 20
797.930187
 11
2017.280677
 21
797.930187
  0
ARC
  8
0
  6
CONTINUOUS
 62
1
 10
2017.280677
 20
782.930187
 40
15.000000
 50
4.605000
 51
90.001000
  0
LINE
  8
0
  6
CONTINUOUS
 62
1
 10
2032.230677
 20
784.130187
 11
2035.210677
 21
747.120187
  0
LINE
  8
0
  6
CONTINUOUS
 62
1
 10
2035.210677
 20
747.120187
 11
2043.440677
 21
747.120187
  0
LINE
  8
0
  6
CONTINUOUS
 62
1
 10
2027.810677
 20
839.050187
 11
2028.330677
 21
832.520187
  0
ARC
  8
0
  6
CONTINUOUS
 62
1
 10
2013.380677
 20
831.310187
 40
15.000000
 50
269.999000
 51
4.600000
  0
LINE
  8
0
  6
CONTINUOUS
 62
1
 10
2013.380677
 20
816.310187
 11
1999.320677
 21
816.310187
  0
LINE
  8
0
  6
CONTINUOUS
 62
1
 10
2070.950677
 20
839.050187
 11
2099.150677
 21
839.060187
  0
LINE
  8
0
  6
CONTINUOUS
 62
1
 10
2099.150677
 20
839.060187
 11
2099.150677
 21
852.120187
  0
ARC
  8
0
  6
CONTINUOUS
 62
1
 10
2084.150677
 20
852.120187
 40
15.000000
 50
0.002000
 51
90.001000
  0
LINE
  8
0
  6
CONTINUOUS
 62
1
 10
2084.150677
 20
867.120187
 11
2070.950677
 21
867.120187
  0
LINE
  8
0
  6
CONTINUOUS
 62
1
 10
1567.140677
 20
1298.770187
 11
1567.140677
 21
1344.120187
  0
LINE
  8
0
  6
CONTINUOUS
 62
1
 10
1567.140677
 20
1344.120187
 11
1547.140677
 21
1344.120187
  0
LINE
  8
0
  6
CONTINUOUS
 62
1
 10
1547.140677
 20
1344.120187
 11
1547.140677
 21
1298.770187
  0
LINE
  8
0
  6
CONTINUOUS
 62
1
 10
1413.160677
 20
1261.120187
 11
1144.140677
 21
1261.120187
  0
LINE
  8
0
  6
CONTINUOUS
 62
1
 10
1144.140677
 20
1261.120187
 11
1144.140677
 21
1241.120187
  0
LINE
  8
0
  6
CONTINUOUS
 62
1
 10
1144.140677
 20
1241.120187
 11
1970.140677
 21
1241.120187
  0
LINE
  8
0
  6
CONTINUOUS
 62
1
 10
1970.140677
 20
1241.120187
 11
1970.140677
 21
1261.120187
  0
LINE
  8
0
  6
CONTINUOUS
 62
1
 10
1970.140677
 20
1261.120187
 11
1439.160677
 21
1261.120187
  0
LINE
  8
0
  6
CONTINUOUS
 62
1
 10
1880.280677
 20
610.120187
 11
1888.590677
 21
427.120187
  0
LINE
  8
0
  6
CONTINUOUS
 62
1
 10
1888.590677
 20
427.120187
 11
1893.590677
 21
427.120187
  0
LINE
  8
0
  6
CONTINUOUS
 62
1
 10
1893.590677
 20
427.120187
 11
1893.590677
 21
407.120187
  0
LINE
  8
0
  6
CONTINUOUS
 62
1
 10
1893.590677
 20
407.120187
 11
1883.590677
 21
397.120187
  0
LINE
  8
0
  6
CONTINUOUS
 62
1
 10
1883.590677
 20
397.120187
 11
1933.590677
 21
397.120187
  0
LINE
  8
0
  6
CONTINUOUS
 62
1
 10
1933.590677
 20
397.120187
 11
1923.590677
 21
407.120187
  0
LINE
  8
0
  6
CONTINUOUS
 62
1
 10
1923.590677
 20
407.120187
 11
1923.590677
 21
427.120187
  0
LINE
  8
0
  6
CONTINUOUS
 62
1
 10
1923.590677
 20
427.120187
 11
1928.590677
 21
427.120187
  0
LINE
  8
0
  6
CONTINUOUS
 62
1
 10
1928.590677
 20
427.120187
 11
1936.910677
 21
610.120187
  0
LINE
  8
0
  6
CONTINUOUS
 62
1
 10
1893.590677
 20
427.120187
 11
1923.590677
 21
427.120187
  0
LINE
  8
0
  6
CONTINUOUS
 62
1
 10
1923.590677
 20
407.120187
 11
1893.590677
 21
407.120187
  0
LINE
  8
0
  6
CONTINUOUS
 62
1
 10
1314.290677
 20
610.120187
 11
1322.610677
 21
427.120187
  0
LINE
  8
0
  6
CONTINUOUS
 62
1
 10
1322.610677
 20
427.120187
 11
1327.610677
 21
427.120187
  0
LINE
  8
0
  6
CONTINUOUS
 62
1
 10
1327.610677
 20
427.120187
 11
1327.610677
 21
407.120187
  0
LINE
  8
0
  6
CONTINUOUS
 62
1
 10
1327.610677
 20
407.120187
 11
1317.610677
 21
397.120187
  0
LINE
  8
0
  6
CONTINUOUS
 62
1
 10
1317.610677
 20
397.120187
 11
1367.610677
 21
397.120187
  0
LINE
  8
0
  6
CONTINUOUS
 62
1
 10
1367.610677
 20
397.120187
 11
1357.610677
 21
407.120187
  0
LINE
  8
0
  6
CONTINUOUS
 62
1
 10
1357.610677
 20
407.120187
 11
1357.610677
 21
427.120187
  0
LINE
  8
0
  6
CONTINUOUS
 62
1
 10
1357.610677
 20
427.120187
 11
1362.610677
 21
427.120187
  0
LINE
  8
0
  6
CONTINUOUS
 62
1
 10
1362.610677
 20
427.120187
 11
1370.930677
 21
610.120187
  0
LINE
  8
0
  6
CONTINUOUS
 62
1
 10
1327.610677
 20
427.120187
 11
1357.610677
 21
427.120187
  0
LINE
  8
0
  6
CONTINUOUS
 62
1
 10
1357.610677
 20
407.120187
 11
1327.610677
 21
407.120187
  0
LINE
  8
0
  6
CONTINUOUS
 62
1
 10
1364.060677
 20
1221.120187
 11
1459.970677
 21
1221.120187
  0
LINE
  8
0
  6
CONTINUOUS
 62
1
 10
1459.970677
 20
1221.120187
 11
1459.970677
 21
1241.120187
  0
LINE
  8
0
  6
CONTINUOUS
 62
1
 10
1459.970677
 20
1241.120187
 11
1364.060677
 21
1241.120187
  0
LINE
  8
0
  6
CONTINUOUS
 62
1
 10
1364.060677
 20
1241.120187
 11
1364.060677
 21
1221.120187
  0
LINE
  8
0
  6
CONTINUOUS
 62
1
 10
1364.060677
 20
1221.120187
 11
1393.320677
 21
1191.120187
  0
LINE
  8
0
  6
CONTINUOUS
 62
1
 10
1393.320677
 20
1191.120187
 11
1393.320677
 21
1221.120187
  0
LINE
  8
0
  6
CONTINUOUS
 62
1
 10
1393.320677
 20
1191.120187
 11
1489.240677
 21
1190.930187
  0
LINE
  8
0
  6
CONTINUOUS
 62
1
 10
1489.240677
 20
1190.930187
 11
1489.240677
 21
1241.120187
  0
LINE
  8
0
  6
CONTINUOUS
 62
1
 10
1459.970677
 20
1221.120187
 11
1489.240677
 21
1191.120187
  0
LINE
  8
0
  6
CONTINUOUS
 62
1
 10
1436.160677
 20
1312.120187
 11
1436.160677
 21
1361.120187
  0
LINE
  8
0
  6
CONTINUOUS
 62
1
 10
1436.160677
 20
1361.120187
 11
1416.160677
 21
1361.120187
  0
LINE
  8
0
  6
CONTINUOUS
 62
1
 10
1416.160677
 20
1361.120187
 11
1416.160677
 21
1292.670187
  0
LINE
  8
0
  6
CONTINUOUS
 62
1
 10
1416.160677
 20
1292.670187
 11
1411.260677
 21
1241.120187
  0
LINE
  8
0
  6
CONTINUOUS
 62
1
 10
1411.260677
 20
1241.120187
 11
1441.060677
 21
1241.120187
  0
LINE
  8
0
  6
CONTINUOUS
 62
1
 10
1441.060677
 20
1241.120187
 11
1436.160677
 21
1292.670187
  0
LINE
  8
0
  6
CONTINUOUS
 62
1
 10
1436.160677
 20
1296.560187
 11
1448.120677
 21
1296.560187
  0
LINE
  8
0
  6
CONTINUOUS
 62
1
 10
1448.120677
 20
1296.560187
 11
1448.120677
 21
1312.120187
  0
LINE
  8
0
  6
CONTINUOUS
 62
1
 10
1448.120677
 20
1312.120187
 11
1436.160677
 21
1312.120187
  0
LINE
  8
0
  6
CONTINUOUS
 62
1
 10
1436.160677
 20
1312.120187
 11
1436.160677
 21
1296.560187
  0
LINE
  8
0
  6
CONTINUOUS
 62
1
 10
1448.120677
 20
1296.560187
 11
1474.060677
 21
1292.670187
  0
LINE
  8
0
  6
CONTINUOUS
 62
1
 10
1474.060677
 20
1292.670187
 11
1474.060677
 21
1316.010187
  0
LINE
  8
0
  6
CONTINUOUS
 62
1
 10
1474.060677
 20
1316.010187
 11
1448.120677
 21
1312.120187
  0
LINE
  8
0
  6
CONTINUOUS
 62
1
 10
1474.060677
 20
1299.120187
 11
1457.850677
 21
1299.120187
  0
LINE
  8
0
  6
CONTINUOUS
 62
1
 10
1457.850677
 20
1299.120187
 11
1474.060677
 21
1296.560187
  0
LINE
  8
0
  6
CONTINUOUS
 62
1
 10
1474.060677
 20
1309.560187
 11
1457.850677
 21
1309.560187
  0
LINE
  8
0
  6
CONTINUOUS
 62
1
 10
1457.850677
 20
1309.560187
 11
1474.060677
 21
1312.120187
  0
LINE
  8
0
  6
CONTINUOUS
 62
1
 10
1418.160677
 20
1361.120187
 11
1418.160677
 21
1410.520187
  0
ARC
  8
0
  6
CONTINUOUS
 62
1
 10
1488.750677
 20
1410.520187
 40
70.590000
 50
0.000000
 51
180.000000
  0
LINE
  8
0
  6
CONTINUOUS
 62
1
 10
1559.340677
 20
1410.520187
 11
1559.340677
 21
1396.120187
  0
LINE
  8
0
  6
CONTINUOUS
 62
1
 10
1559.340677
 20
1396.120187
 11
1543.340677
 21
1396.120187
  0
LINE
  8
0
  6
CONTINUOUS
 62
1
 10
1543.340677
 20
1396.120187
 11
1543.340677
 21
1410.520187
  0
ARC
  8
0
  6
CONTINUOUS
 62
1
 10
1488.750677
 20
1410.520187
 40
54.590000
 50
0.000000
 51
180.000000
  0
LINE
  8
0
  6
CONTINUOUS
 62
1
 10
1434.160677
 20
1410.520187
 11
1434.160677
 21
1361.120187
  0
LINE
  8
0
  6
CONTINUOUS
 62
1
 10
1416.160677
 20
1221.120187
 11
1416.160677
 21
1196.660187
  0
LINE
  8
0
  6
CONTINUOUS
 62
1
 10
1416.160677
 20
1196.660187
 11
1436.160677
 21
1196.660187
  0
LINE
  8
0
  6
CONTINUOUS
 62
1
 10
1436.160677
 20
1196.660187
 11
1436.160677
 21
1221.120187
  0
LINE
  8
0
  6
CONTINUOUS
 62
1
 10
1416.160677
 20
1200.320187
 11
1436.160677
 21
1203.840187
  0
LINE
  8
0
  6
CONTINUOUS
 62
1
 10
1416.160677
 20
1203.870187
 11
1436.160677
 21
1207.400187
  0
LINE
  8
0
  6
CONTINUOUS
 62
1
 10
1416.160677
 20
1207.430187
 11
1436.160677
 21
1210.950187
  0
LINE
  8
0
  6
CONTINUOUS
 62
1
 10
1416.160677
 20
1210.980187
 11
1436.160677
 21
1214.510187
  0
LINE
  8
0
  6
CONTINUOUS
 62
1
 10
1416.160677
 20
1214.530187
 11
1436.160677
 21
1218.060187
  0
LINE
  8
0
  6
CONTINUOUS
 62
1
 10
1416.160677
 20
1218.090187
 11
1423.480677
 21
1219.380187
  0
LINE
  8
0
  6
CONTINUOUS
 62
1
 10
1960.140677
 20
684.120187
 11
1975.610677
 21
684.120187
  0
ARC
  8
0
  6
CONTINUOUS
 62
1
 10
1975.610677
 20
690.120187
 40
6.000000
 50
269.999000
 51
90.001000
  0
LINE
  8
0
  6
CONTINUOUS
 62
1
 10
1975.610677
 20
696.120187
 11
1960.140677
 21
696.120187
  0
LINE
  8
0
  6
CONTINUOUS
 62
1
 10
1154.140677
 20
1241.120187
 11
1154.140677
 21
610.120187
  0
LINE
  8
0
  6
CONTINUOUS
 62
1
 10
1154.140677
 20
610.120187
 11
1960.140677
 21
610.120187
  0
LINE
  8
0
  6
CONTINUOUS
 62
1
 10
1960.140677
 20
610.120187
 11
1960.140677
 21
684.120187
  0
LINE
  8
0
  6
CONTINUOUS
 62
1
 10
1960.140677
 20
684.120187
 11
1960.140677
 21
696.120187
  0
LINE
  8
0
  6
CONTINUOUS
 62
1
 10
1960.140677
 20
696.120187
 11
1960.140677
 21
1241.120187
  0
ARC
  8
0
  6
CONTINUOUS
 62
1
 10
1557.910677
 20
-322.489813
 40
1621.210000
 50
77.635000
 51
92.965000
  0
ARC
  8
0
  6
CONTINUOUS
 62
1
 10
1557.310677
 20
-327.879813
 40
1626.680000
 50
94.978000
 51
102.357000
  0
LINE
  8
0
  6
CONTINUOUS
 62
1
 10
1172.140677
 20
610.120187
 11
1172.140677
 21
545.120187
  0
LINE
  8
0
  6
CONTINUOUS
 62
1
 10
1172.140677
 20
545.120187
 11
1287.140677
 21
545.120187
  0
LINE
  8
0
  6
CONTINUOUS
 62
1
 10
1287.140677
 20
545.120187
 11
1287.140677
 21
610.120187
  0
LINE
  8
0
  6
CONTINUOUS
 62
1
 10
1287.140677
 20
565.120187
 11
1172.140677
 21
565.120187
  0
ENDSEC
  0
EOF
