  0
SECTION
  2
HEADER
  9
$LIMMIN
 10
0.000000
 20
0.000000
  9
$LIMMAX
 10
3500.000000
 20
2500.000000
  9
$EXTMIN
 10
0.000000
 20
0.000000
  9
$EXTMAX
 10
3500.000000
 20
2500.000000
  9
$ANGBASE
 50
0.0
  9
$ANGDIR
 70
0
  9
$DIMRND
 40
0.100000
  9
$DIMSE1
 70
0
  9
$DIMSE2
 70
0
  9
$DIMTXT
 40
3.500000
  9
$LTSCALE
 40
1.000000
  9
$LUPREC
 70
5
  9
$AUPREC
 70
5
  9
$PDMODE
 70
2
  9
$PDSIZE
 40
17.500000
  0
ENDSEC
  0
SECTION
  2
TABLES
  0
TABLE
  2
VPORT
  70
1
  0
VPORT
  2
*ACTIVE
 70
0
  10
0.0
 20
0.0
 11
1.0
 21
1.0
 12
594.0
 22
420.0
 13
0.0
 23
0.0
 14
10.0
 24
10.0
 15
10.0
 25
10.0
 16
0.0
 26
0.0
 36
1.0
 17
594.0
 27
420.0
 37
100.0
 40
1000.0
 41
1.0
 42
50.0
 43
0.0
 44
0.0
 50
0.0
 51
0.0
 71
0
 72
2000
 73
1
 74
3
 75
0
 76
0
 77
0
 78
1
  0
ENDTAB
  0
TABLE
  2
LTYPE
 70
4
  0
LTYPE
  2
CONTINUOUS
 70
0
  3
Solid line
 72
65
 73
0
 40
0.0
  0
LTYPE
  2
DASHED
 70
0
  3
Dashed line
 72
65
 73
2
 40
6.000000
 49
3.000000
 49
-3.000000
  0
LTYPE
  2
CENTER
 70
0
  3
Chain line
 72
65
 73
4
 40
24.000000
 49
15.000000
 49
-3.000000
 49
3.000000
 49
-3.000000
  0
LTYPE
  2
RANDOM
 70
0
  3
Random line
 72
65
 73
4
 40
22.500000
 49
6.000000
 49
-3.000000
 49
4.500000
 49
-9.000000
  0
ENDTAB
  0
TABLE
  2
STYLE
 70
9
  0
STYLE
  2
STANDARD
 40
0
 41
1.0
 50
0.0
 71
0
 42
0
  3
simplex
  4

 70
0
  0
ENDTAB
  0
TABLE
  2
LAYER
 70
4
  0
LAYER
  2
0
 70
0
 62
7
  6
CONTINUOUS
  0
LAYER
  2
0
 62
1
  6
CONTINUOUS
 70
0
  0
LAYER
  2
73CONTINUOUS
 62
1
  6
CONTINUOUS
 70
0
  0
LAYER
  2
73ADSDOT
 62
1
  6
CONTINUOUS
 70
0
  0
ENDTAB
  0
ENDSEC
  0
SECTION
  2
BLOCKS
  0
ENDSEC
  0
SECTION
  2
ENTITIES
  0
LINE
  8
0
  6
CONTINUOUS
 62
1
 10
1025.485514
 20
1330.197047
 11
1025.485514
 21
1310.197047
  0
LINE
  8
0
  6
CONTINUOUS
 62
1
 10
1025.485514
 20
1310.197047
 11
1851.485514
 21
1310.197047
  0
LINE
  8
0
  6
CONTINUOUS
 62
1
 10
1851.485514
 20
1310.197047
 11
1851.485514
 21
1330.197047
  0
LINE
  8
0
  6
CONTINUOUS
 62
1
 10
1851.485514
 20
1330.197047
 11
1025.485514
 21
1330.197047
  0
LINE
  8
0
  6
CONTINUOUS
 62
1
 10
1841.485514
 20
765.197047
 11
1841.485514
 21
1310.197047
  0
LINE
  8
0
  6
CONTINUOUS
 62
1
 10
1383.395514
 20
900.747047
 11
1379.855514
 21
883.057047
  0
ARC
  8
0
  6
CONTINUOUS
 62
1
 10
1414.175514
 20
876.197047
 40
35.000000
 50
168.690000
 51
191.310000
  0
LINE
  8
0
  6
CONTINUOUS
 62
1
 10
1379.855514
 20
869.337047
 11
1384.095514
 21
848.117047
  0
ARC
  8
0
  6
CONTINUOUS
 62
1
 10
1438.485514
 20
876.197047
 40
10.000000
 50
0.000000
 51
180.000000
  0
ARC
  8
0
  6
CONTINUOUS
 62
1
 10
1438.485514
 20
876.197047
 40
10.000000
 50
180.000000
 51
0.000000
  0
LINE
  8
0
  6
CONTINUOUS
 62
1
 10
1468.905514
 20
908.137047
 11
1461.905514
 21
816.197047
  0
LINE
  8
0
  6
CONTINUOUS
 62
1
 10
1461.905514
 20
816.197047
 11
1415.055514
 21
816.197047
  0
LINE
  8
0
  6
CONTINUOUS
 62
1
 10
1415.055514
 20
816.197047
 11
1408.055514
 21
908.137047
  0
LINE
  8
0
  6
CONTINUOUS
 62
1
 10
1420.055514
 20
936.197047
 11
1456.905514
 21
936.197047
  0
ARC
  8
0
  6
CONTINUOUS
 62
1
 10
1456.905514
 20
921.197047
 40
15.000000
 50
0.000000
 51
90.000000
  0
LINE
  8
0
  6
CONTINUOUS
 62
1
 10
1471.905514
 20
921.197047
 11
1471.905514
 21
908.137047
  0
LINE
  8
0
  6
CONTINUOUS
 62
1
 10
1471.905514
 20
908.137047
 11
1405.055514
 21
908.137047
  0
LINE
  8
0
  6
CONTINUOUS
 62
1
 10
1405.055514
 20
908.137047
 11
1405.055514
 21
921.197047
  0
ARC
  8
0
  6
CONTINUOUS
 62
1
 10
1420.055514
 20
921.197047
 40
15.000000
 50
90.000000
 51
180.000000
  0
LINE
  8
0
  6
CONTINUOUS
 62
1
 10
1383.395514
 20
908.137047
 11
1383.395514
 21
890.127047
  0
LINE
  8
0
  6
CONTINUOUS
 62
1
 10
1383.395514
 20
890.127047
 11
1403.395514
 21
890.127047
  0
LINE
  8
0
  6
CONTINUOUS
 62
1
 10
1403.395514
 20
890.127047
 11
1403.395514
 21
908.137047
  0
LINE
  8
0
  6
CONTINUOUS
 62
1
 10
1398.895514
 20
890.127047
 11
1406.395514
 21
807.117047
  0
LINE
  8
0
  6
CONTINUOUS
 62
1
 10
1406.395514
 20
807.117047
 11
1380.395514
 21
807.117047
  0
LINE
  8
0
  6
CONTINUOUS
 62
1
 10
1380.395514
 20
807.117047
 11
1387.895514
 21
890.127047
  0
LINE
  8
0
  6
CONTINUOUS
 62
1
 10
1409.845514
 20
932.187047
 11
1397.405514
 21
932.187047
  0
ARC
  8
0
  6
CONTINUOUS
 62
1
 10
1406.035514
 20
906.397047
 40
27.200000
 50
108.489000
 51
176.342000
  0
LINE
  8
0
  6
CONTINUOUS
 62
1
 10
1378.895514
 20
908.137047
 11
1405.055514
 21
908.137047
  0
ARC
  8
0
  6
CONTINUOUS
 62
1
 10
1409.875514
 20
821.197047
 40
20.000000
 50
224.768000
 51
270.002000
  0
LINE
  8
0
  6
CONTINUOUS
 62
1
 10
1409.875514
 20
801.197047
 11
1467.085514
 21
801.197047
  0
ARC
  8
0
  6
CONTINUOUS
 62
1
 10
1467.085514
 20
821.197047
 40
20.000000
 50
270.000000
 51
348.690000
  0
LINE
  8
0
  6
CONTINUOUS
 62
1
 10
1486.695514
 20
817.277047
 11
1497.105514
 21
869.337047
  0
ARC
  8
0
  6
CONTINUOUS
 62
1
 10
1462.795514
 20
876.197047
 40
35.000000
 50
348.690000
 51
11.310000
  0
LINE
  8
0
  6
CONTINUOUS
 62
1
 10
1497.105514
 20
883.057047
 11
1486.695514
 21
935.117047
  0
ARC
  8
0
  6
CONTINUOUS
 62
1
 10
1467.085514
 20
931.197047
 40
20.000000
 50
11.312000
 51
90.001000
  0
LINE
  8
0
  6
CONTINUOUS
 62
1
 10
1467.085514
 20
951.197047
 11
1409.875514
 21
951.197047
  0
ARC
  8
0
  6
CONTINUOUS
 62
1
 10
1409.875514
 20
931.197047
 40
20.000000
 50
89.999000
 51
168.689000
  0
LINE
  8
0
  6
CONTINUOUS
 62
1
 10
1390.265514
 20
935.117047
 11
1388.715514
 21
927.367047
  0
LINE
  8
0
  6
CONTINUOUS
 62
1
 10
1107.225514
 20
679.197047
 11
1115.545514
 21
496.197047
  0
LINE
  8
0
  6
CONTINUOUS
 62
1
 10
1115.545514
 20
496.197047
 11
1120.545514
 21
496.197047
  0
LINE
  8
0
  6
CONTINUOUS
 62
1
 10
1120.545514
 20
496.197047
 11
1120.545514
 21
476.197047
  0
LINE
  8
0
  6
CONTINUOUS
 62
1
 10
1120.545514
 20
476.197047
 11
1110.545514
 21
466.197047
  0
LINE
  8
0
  6
CONTINUOUS
 62
1
 10
1110.545514
 20
466.197047
 11
1160.545514
 21
466.197047
  0
LINE
  8
0
  6
CONTINUOUS
 62
1
 10
1160.545514
 20
466.197047
 11
1150.545514
 21
476.197047
  0
LINE
  8
0
  6
CONTINUOUS
 62
1
 10
1150.545514
 20
476.197047
 11
1150.545514
 21
496.197047
  0
LINE
  8
0
  6
CONTINUOUS
 62
1
 10
1150.545514
 20
496.197047
 11
1155.545514
 21
496.197047
  0
LINE
  8
0
  6
CONTINUOUS
 62
1
 10
1155.545514
 20
496.197047
 11
1163.855514
 21
679.197047
  0
LINE
  8
0
  6
CONTINUOUS
 62
1
 10
1120.545514
 20
496.197047
 11
1150.545514
 21
496.197047
  0
LINE
  8
0
  6
CONTINUOUS
 62
1
 10
1150.545514
 20
476.197047
 11
1120.545514
 21
476.197047
  0
LINE
  8
0
  6
CONTINUOUS
 62
1
 10
1410.165514
 20
679.197047
 11
1418.485514
 21
496.197047
  0
LINE
  8
0
  6
CONTINUOUS
 62
1
 10
1418.485514
 20
496.197047
 11
1423.485514
 21
496.197047
  0
LINE
  8
0
  6
CONTINUOUS
 62
1
 10
1423.485514
 20
496.197047
 11
1423.485514
 21
476.197047
  0
LINE
  8
0
  6
CONTINUOUS
 62
1
 10
1423.485514
 20
476.197047
 11
1413.485514
 21
466.197047
  0
LINE
  8
0
  6
CONTINUOUS
 62
1
 10
1413.485514
 20
466.197047
 11
1463.485514
 21
466.197047
  0
LINE
  8
0
  6
CONTINUOUS
 62
1
 10
1463.485514
 20
466.197047
 11
1453.485514
 21
476.197047
  0
LINE
  8
0
  6
CONTINUOUS
 62
1
 10
1453.485514
 20
476.197047
 11
1453.485514
 21
496.197047
  0
LINE
  8
0
  6
CONTINUOUS
 62
1
 10
1453.485514
 20
496.197047
 11
1458.485514
 21
496.197047
  0
LINE
  8
0
  6
CONTINUOUS
 62
1
 10
1458.485514
 20
496.197047
 11
1466.805514
 21
679.197047
  0
LINE
  8
0
  6
CONTINUOUS
 62
1
 10
1423.485514
 20
496.197047
 11
1453.485514
 21
496.197047
  0
LINE
  8
0
  6
CONTINUOUS
 62
1
 10
1453.485514
 20
476.197047
 11
1423.485514
 21
476.197047
  0
ARC
  8
0
  6
CONTINUOUS
 62
1
 10
1991.575514
 20
759.197047
 40
6.000000
 50
270.002000
 51
89.998000
  0
LINE
  8
0
  6
CONTINUOUS
 62
1
 10
1991.575514
 20
765.197047
 11
1659.465514
 21
765.197047
  0
ARC
  8
0
  6
CONTINUOUS
 62
1
 10
1659.465514
 20
759.197047
 40
6.000000
 50
89.998000
 51
270.002000
  0
LINE
  8
0
  6
CONTINUOUS
 62
1
 10
1659.465514
 20
753.197047
 11
1991.575514
 21
753.197047
  0
LINE
  8
0
  6
CONTINUOUS
 62
1
 10
1667.385514
 20
765.197047
 11
1667.385514
 21
776.697047
  0
LINE
  8
0
  6
CONTINUOUS
 62
1
 10
1667.385514
 20
776.697047
 11
1647.385514
 21
776.697047
  0
LINE
  8
0
  6
CONTINUOUS
 62
1
 10
1647.385514
 20
776.697047
 11
1647.385514
 21
741.697047
  0
LINE
  8
0
  6
CONTINUOUS
 62
1
 10
1647.385514
 20
741.697047
 11
1667.385514
 21
741.697047
  0
LINE
  8
0
  6
CONTINUOUS
 62
1
 10
1667.385514
 20
741.697047
 11
1667.385514
 21
753.197047
  0
LINE
  8
0
  6
CONTINUOUS
 62
1
 10
1037.445514
 20
1310.197047
 11
932.295514
 21
1310.197047
  0
LINE
  8
0
  6
CONTINUOUS
 62
1
 10
932.295514
 20
1310.197047
 11
932.295514
 21
1290.197047
  0
LINE
  8
0
  6
CONTINUOUS
 62
1
 10
932.295514
 20
1290.197047
 11
1037.445514
 21
1260.197047
  0
ARC
  8
0
  6
CONTINUOUS
 62
1
 10
994.395514
 20
1522.197047
 40
8.000000
 50
90.000000
 51
179.998000
  0
LINE
  8
0
  6
CONTINUOUS
 62
1
 10
986.395514
 20
1522.197047
 11
986.395514
 21
1410.197047
  0
LINE
  8
0
  6
CONTINUOUS
 62
1
 10
986.395514
 20
1410.197047
 11
1002.395514
 21
1410.197047
  0
LINE
  8
0
  6
CONTINUOUS
 62
1
 10
1002.395514
 20
1410.197047
 11
1002.395514
 21
1522.197047
  0
ARC
  8
0
  6
CONTINUOUS
 62
1
 10
994.395514
 20
1522.197047
 40
8.000000
 50
0.000000
 51
90.000000
  0
LINE
  8
0
  6
CONTINUOUS
 62
1
 10
1004.395514
 20
1361.197047
 11
1004.395514
 21
1410.197047
  0
LINE
  8
0
  6
CONTINUOUS
 62
1
 10
1004.395514
 20
1410.197047
 11
984.395514
 21
1410.197047
  0
LINE
  8
0
  6
CONTINUOUS
 62
1
 10
984.395514
 20
1410.197047
 11
984.295514
 21
1359.257047
  0
LINE
  8
0
  6
CONTINUOUS
 62
1
 10
984.395514
 20
1341.747047
 11
1004.395514
 21
1341.747047
  0
LINE
  8
0
  6
CONTINUOUS
 62
1
 10
1004.395514
 20
1341.747047
 11
1004.395514
 21
1345.637047
  0
ARC
  8
0
  6
CONTINUOUS
 62
1
 10
994.395514
 20
1353.417047
 40
11.670000
 50
90.000000
 51
270.000000
  0
ARC
  8
0
  6
CONTINUOUS
 62
1
 10
994.395514
 20
1353.417047
 40
11.670000
 50
270.000000
 51
90.000000
  0
LINE
  8
0
  6
CONTINUOUS
 62
1
 10
984.155514
 20
1347.827047
 11
984.395514
 21
1341.747047
  0
LINE
  8
0
  6
CONTINUOUS
 62
1
 10
984.395514
 20
1341.747047
 11
981.395514
 21
1310.197047
  0
LINE
  8
0
  6
CONTINUOUS
 62
1
 10
981.395514
 20
1310.197047
 11
1007.395514
 21
1310.197047
  0
LINE
  8
0
  6
CONTINUOUS
 62
1
 10
1007.395514
 20
1310.197047
 11
1004.395514
 21
1341.747047
  0
LINE
  8
0
  6
CONTINUOUS
 62
1
 10
986.395514
 20
1445.197047
 11
1002.395514
 21
1445.197047
  0
LINE
  8
0
  6
CONTINUOUS
 62
1
 10
1508.485514
 20
1364.607047
 11
1508.485514
 21
1413.197047
  0
LINE
  8
0
  6
CONTINUOUS
 62
1
 10
1508.485514
 20
1413.197047
 11
1368.485514
 21
1413.197047
  0
LINE
  8
0
  6
CONTINUOUS
 62
1
 10
1368.485514
 20
1413.197047
 11
1368.485514
 21
1364.607047
  0
LINE
  8
0
  6
CONTINUOUS
 62
1
 10
1488.485514
 20
1366.367047
 11
1488.485514
 21
1393.197047
  0
LINE
  8
0
  6
CONTINUOUS
 62
1
 10
1488.485514
 20
1393.197047
 11
1388.485514
 21
1393.197047
  0
LINE
  8
0
  6
CONTINUOUS
 62
1
 10
1388.485514
 20
1393.197047
 11
1388.485514
 21
1366.367047
  0
LINE
  8
0
  6
CONTINUOUS
 62
1
 10
1488.485514
 20
1388.907047
 11
1388.485514
 21
1388.907047
  0
LINE
  8
0
  6
CONTINUOUS
 62
1
 10
1388.485514
 20
1267.517047
 11
1488.485514
 21
1267.517047
  0
LINE
  8
0
  6
CONTINUOUS
 62
1
 10
1488.485514
 20
1267.517047
 11
1488.485514
 21
1307.517047
  0
LINE
  8
0
  6
CONTINUOUS
 62
1
 10
1488.485514
 20
1307.517047
 11
1388.485514
 21
1307.517047
  0
LINE
  8
0
  6
CONTINUOUS
 62
1
 10
1388.485514
 20
1307.517047
 11
1388.485514
 21
1267.517047
  0
LINE
  8
0
  6
CONTINUOUS
 62
1
 10
1037.445514
 20
1310.197047
 11
1037.445514
 21
679.197047
  0
LINE
  8
0
  6
CONTINUOUS
 62
1
 10
1037.445514
 20
679.197047
 11
1841.485514
 21
679.197047
  0
LINE
  8
0
  6
CONTINUOUS
 62
1
 10
1841.485514
 20
679.197047
 11
1841.485514
 21
753.197047
  0
LINE
  8
0
  6
CONTINUOUS
 62
1
 10
1756.425514
 20
496.197047
 11
1726.425514
 21
496.197047
  0
LINE
  8
0
  6
CONTINUOUS
 62
1
 10
1726.425514
 20
476.197047
 11
1756.425514
 21
476.197047
  0
LINE
  8
0
  6
CONTINUOUS
 62
1
 10
1769.745514
 20
679.197047
 11
1761.425514
 21
496.197047
  0
LINE
  8
0
  6
CONTINUOUS
 62
1
 10
1761.425514
 20
496.197047
 11
1756.425514
 21
496.197047
  0
LINE
  8
0
  6
CONTINUOUS
 62
1
 10
1756.425514
 20
496.197047
 11
1756.425514
 21
476.197047
  0
LINE
  8
0
  6
CONTINUOUS
 62
1
 10
1756.425514
 20
476.197047
 11
1766.425514
 21
466.197047
  0
LINE
  8
0
  6
CONTINUOUS
 62
1
 10
1766.425514
 20
466.197047
 11
1716.425514
 21
466.197047
  0
LINE
  8
0
  6
CONTINUOUS
 62
1
 10
1716.425514
 20
466.197047
 11
1726.425514
 21
476.197047
  0
LINE
  8
0
  6
CONTINUOUS
 62
1
 10
1726.425514
 20
476.197047
 11
1726.425514
 21
496.197047
  0
LINE
  8
0
  6
CONTINUOUS
 62
1
 10
1726.425514
 20
496.197047
 11
1721.425514
 21
496.197047
  0
LINE
  8
0
  6
CONTINUOUS
 62
1
 10
1721.425514
 20
496.197047
 11
1713.105514
 21
679.197047
  0
ARC
  8
0
  6
CONTINUOUS
 62
1
 10
1438.485514
 20
-256.892953
 40
1624.780000
 50
77.635000
 51
102.365000
  0
LINE
  8
0
  6
CONTINUOUS
 62
1
 10
1841.485514
 20
679.197047
 11
1964.485514
 21
679.197047
  0
LINE
  8
0
  6
CONTINUOUS
 62
1
 10
1964.485514
 20
679.197047
 11
1964.485514
 21
753.197047
  0
LINE
  8
0
  6
CONTINUOUS
 62
1
 10
1464.755514
 20
634.197047
 11
1715.155514
 21
634.197047
  0
LINE
  8
0
  6
CONTINUOUS
 62
1
 10
1324.485514
 20
634.197047
 11
1324.485514
 21
614.197047
  0
LINE
  8
0
  6
CONTINUOUS
 62
1
 10
1324.485514
 20
614.197047
 11
1413.115514
 21
614.197047
  0
LINE
  8
0
  6
CONTINUOUS
 62
1
 10
1841.485514
 20
691.197047
 11
1952.485514
 21
691.197047
  0
LINE
  8
0
  6
CONTINUOUS
 62
1
 10
1952.485514
 20
691.197047
 11
1952.485514
 21
753.197047
  0
LINE
  8
0
  6
CONTINUOUS
 62
1
 10
1964.485514
 20
634.197047
 11
1964.485514
 21
679.197047
  0
LINE
  8
0
  6
CONTINUOUS
 62
1
 10
1964.485514
 20
679.197047
 11
1324.485514
 21
679.197047
  0
LINE
  8
0
  6
CONTINUOUS
 62
1
 10
1324.485514
 20
679.197047
 11
1324.485514
 21
634.197047
  0
LINE
  8
0
  6
CONTINUOUS
 62
1
 10
1324.485514
 20
634.197047
 11
1412.205514
 21
634.197047
  0
LINE
  8
0
  6
CONTINUOUS
 62
1
 10
1766.785514
 20
614.197047
 11
1874.485514
 21
614.197047
  0
LINE
  8
0
  6
CONTINUOUS
 62
1
 10
1874.485514
 20
614.197047
 11
1874.485514
 21
634.197047
  0
LINE
  8
0
  6
CONTINUOUS
 62
1
 10
1874.485514
 20
634.197047
 11
1767.695514
 21
634.197047
  0
LINE
  8
0
  6
CONTINUOUS
 62
1
 10
1463.845514
 20
614.197047
 11
1716.065514
 21
614.197047
  0
ARC
  8
0
  6
CONTINUOUS
 62
1
 10
1876.985514
 20
1134.197047
 40
32.500000
 50
180.000000
 51
0.000000
  0
ARC
  8
0
  6
CONTINUOUS
 62
1
 10
1876.985514
 20
1134.197047
 40
32.500000
 50
0.000000
 51
180.000000
  0
ARC
  8
0
  6
CONTINUOUS
 62
1
 10
1921.985514
 20
1134.197047
 40
5.000000
 50
180.000000
 51
0.000000
  0
ARC
  8
0
  6
CONTINUOUS
 62
1
 10
1921.985514
 20
1134.197047
 40
5.000000
 50
0.000000
 51
180.000000
  0
LINE
  8
0
  6
CONTINUOUS
 62
1
 10
1874.485514
 20
634.197047
 11
1964.485514
 21
634.197047
  0
LINE
  8
0
  6
CONTINUOUS
 62
1
 10
1952.485514
 20
765.197047
 11
1952.485514
 21
1207.197047
  0
LINE
  8
0
  6
CONTINUOUS
 62
1
 10
1952.485514
 20
1207.197047
 11
1841.485514
 21
1207.197047
  0
LINE
  8
0
  6
CONTINUOUS
 62
1
 10
1964.485514
 20
765.197047
 11
1964.485514
 21
1219.197047
  0
LINE
  8
0
  6
CONTINUOUS
 62
1
 10
1964.485514
 20
1219.197047
 11
1841.485514
 21
1219.197047
  0
ENDSEC
  0
EOF
