  0
SECTION
  2
HEADER
  9
$LIMMIN
 10
0.000000
 20
0.000000
  9
$LIMMAX
 10
3500.000000
 20
2500.000000
  9
$EXTMIN
 10
0.000000
 20
0.000000
  9
$EXTMAX
 10
3500.000000
 20
2500.000000
  9
$ANGBASE
 50
0.0
  9
$ANGDIR
 70
0
  9
$DIMRND
 40
0.100000
  9
$DIMSE1
 70
0
  9
$DIMSE2
 70
0
  9
$DIMTXT
 40
3.500000
  9
$LTSCALE
 40
1.000000
  9
$LUPREC
 70
5
  9
$AUPREC
 70
5
  9
$PDMODE
 70
2
  9
$PDSIZE
 40
17.500000
  0
ENDSEC
  0
SECTION
  2
TABLES
  0
TABLE
  2
VPORT
  70
1
  0
VPORT
  2
*ACTIVE
 70
0
  10
0.0
 20
0.0
 11
1.0
 21
1.0
 12
594.0
 22
420.0
 13
0.0
 23
0.0
 14
10.0
 24
10.0
 15
10.0
 25
10.0
 16
0.0
 26
0.0
 36
1.0
 17
594.0
 27
420.0
 37
100.0
 40
1000.0
 41
1.0
 42
50.0
 43
0.0
 44
0.0
 50
0.0
 51
0.0
 71
0
 72
2000
 73
1
 74
3
 75
0
 76
0
 77
0
 78
1
  0
ENDTAB
  0
TABLE
  2
LTYPE
 70
5
  0
LTYPE
  2
CONTINUOUS
 70
0
  3
Solid line
 72
65
 73
0
 40
0.0
  0
LTYPE
  2
DASHED
 70
0
  3
Dashed line
 72
65
 73
2
 40
6.000000
 49
3.000000
 49
-3.000000
  0
LTYPE
  2
CENTER
 70
0
  3
Chain line
 72
65
 73
4
 40
24.000000
 49
15.000000
 49
-3.000000
 49
3.000000
 49
-3.000000
  0
LTYPE
  2
RANDOM
 70
0
  3
Random line
 72
65
 73
4
 40
22.500000
 49
6.000000
 49
-3.000000
 49
4.500000
 49
-9.000000
  0
LTYPE
  2
DASH_2_83887493
  3
DASH_2_83887493
 70
0
 72
65
 73
2
 40
3.000000
 49
1.500000
 49
-1.500000
  0
ENDTAB
  0
TABLE
  2
STYLE
 70
9
  0
STYLE
  2
STANDARD
 40
0
 41
1.0
 50
0.0
 71
0
 42
0
  3
simplex
  4

 70
0
  0
ENDTAB
  0
TABLE
  2
LAYER
 70
4
  0
LAYER
  2
0
 70
0
 62
7
  6
CONTINUOUS
  0
LAYER
  2
0
 62
1
  6
CONTINUOUS
 70
0
  0
LAYER
  2
73CONTINUOUS
 62
1
  6
CONTINUOUS
 70
0
  0
LAYER
  2
73ADSDOT
 62
1
  6
CONTINUOUS
 70
0
  0
ENDTAB
  0
ENDSEC
  0
SECTION
  2
BLOCKS
  0
ENDSEC
  0
SECTION
  2
ENTITIES
  0
ARC
  8
0
  6
CONTINUOUS
 62
1
 10
1348.296383
 20
973.827305
 40
413.000000
 50
180.000000
 51
0.000000
  0
ARC
  8
0
  6
CONTINUOUS
 62
1
 10
1348.296383
 20
973.827305
 40
413.000000
 50
0.000000
 51
180.000000
  0
ARC
  8
0
  6
CONTINUOUS
 62
1
 10
1348.296383
 20
483.827305
 40
39.010000
 50
204.217000
 51
155.783000
  0
LINE
  8
0
  6
CONTINUOUS
 62
1
 10
1312.726383
 20
499.827305
 11
1288.706383
 21
499.827305
  0
LINE
  8
0
  6
CONTINUOUS
 62
1
 10
1288.706383
 20
499.827305
 11
1288.706383
 21
467.827305
  0
LINE
  8
0
  6
CONTINUOUS
 62
1
 10
1288.706383
 20
467.827305
 11
1312.726383
 21
467.827305
  0
ARC
  8
0
  6
CONTINUOUS
 62
1
 10
1348.296383
 20
483.827305
 40
18.000000
 50
180.000000
 51
0.000000
  0
ARC
  8
0
  6
CONTINUOUS
 62
1
 10
1348.296383
 20
483.827305
 40
18.000000
 50
0.000000
 51
180.000000
  0
LINE
  8
0
  6
CONTINUOUS
 62
1
 10
1288.706383
 20
471.827305
 11
1310.806383
 21
471.827305
  0
LINE
  8
0
  6
CONTINUOUS
 62
1
 10
1310.806383
 20
471.827305
 11
1310.806383
 21
495.827305
  0
LINE
  8
0
  6
CONTINUOUS
 62
1
 10
1310.806383
 20
495.827305
 11
1288.706383
 21
495.827305
  0
LINE
  8
0
  6
CONTINUOUS
 62
1
 10
1298.786383
 20
495.827305
 11
1298.786383
 21
471.827305
  0
LINE
  8
0
  6
CONTINUOUS
 62
1
 10
1319.296383
 20
560.827305
 11
1319.296383
 21
544.647305
  0
LINE
  8
0
  6
CONTINUOUS
 62
1
 10
1319.296383
 20
544.647305
 11
1377.306383
 21
544.647305
  0
LINE
  8
0
  6
CONTINUOUS
 62
1
 10
1377.306383
 20
544.647305
 11
1377.306383
 21
560.827305
  0
LINE
  8
0
  6
CONTINUOUS
 62
1
 10
1325.076383
 20
544.647305
 11
1325.076383
 21
515.167305
  0
LINE
  8
0
  6
CONTINUOUS
 62
1
 10
1371.516383
 20
515.167305
 11
1371.516383
 21
544.647305
  0
LINE
  8
0
  6
CONTINUOUS
 62
1
 10
1563.276383
 20
621.197305
 11
1563.276383
 21
574.997305
  0
ARC
  8
0
  6
CONTINUOUS
 62
1
 10
1590.436383
 20
574.997305
 40
27.160000
 50
180.000000
 51
322.635000
  0
LINE
  8
0
  6
CONTINUOUS
 62
1
 10
1612.016383
 20
558.517305
 11
1901.806383
 21
938.017305
  0
ARC
  8
0
  6
CONTINUOUS
 62
1
 10
1880.226383
 20
954.507305
 40
27.160000
 50
322.635000
 51
89.999000
  0
LINE
  8
0
  6
CONTINUOUS
 62
1
 10
1880.226383
 20
981.657305
 11
1761.216383
 21
981.657305
  0
LINE
  8
0
  6
CONTINUOUS
 62
1
 10
1576.856383
 20
629.837305
 11
1576.856383
 21
574.997305
  0
ARC
  8
0
  6
CONTINUOUS
 62
1
 10
1590.436383
 20
574.997305
 40
13.580000
 50
179.998000
 51
322.633000
  0
LINE
  8
0
  6
CONTINUOUS
 62
1
 10
1601.226383
 20
566.757305
 11
1891.016383
 21
946.257305
  0
ARC
  8
0
  6
CONTINUOUS
 62
1
 10
1880.226383
 20
954.507305
 40
13.580000
 50
322.633000
 51
89.998000
  0
LINE
  8
0
  6
CONTINUOUS
 62
1
 10
1880.226383
 20
968.077305
 11
1761.216383
 21
968.077305
  0
LINE
  8
0
  6
CONTINUOUS
 62
1
 10
969.606383
 20
1137.647305
 11
870.396383
 21
1166.907305
  0
LINE
  8
0
  6
CONTINUOUS
 62
1
 10
870.396383
 20
1166.907305
 11
842.106383
 21
1070.997305
  0
LINE
  8
0
  6
CONTINUOUS
 62
1
 10
842.106383
 20
1070.997305
 11
896.206383
 21
1055.037305
  0
LINE
  8
0
  6
CONTINUOUS
 62
1
 10
896.536383
 20
1082.847305
 11
892.536383
 21
1056.927305
  0
LINE
  8
0
  6
CONTINUOUS
 62
1
 10
892.536383
 20
1056.927305
 11
896.206383
 21
1056.907305
  0
ARC
  8
0
  6
CONTINUOUS
 62
1
 10
904.206383
 20
1104.807305
 40
8.000000
 50
0.000000
 51
180.000000
  0
LINE
  8
0
  6
CONTINUOUS
 62
1
 10
912.206383
 20
1104.807305
 11
912.206383
 21
979.637305
  0
ARC
  8
0
  6
CONTINUOUS
 62
1
 10
904.206383
 20
979.637305
 40
8.000000
 50
270.000000
 51
0.000000
  0
ARC
  8
0
  6
CONTINUOUS
 62
1
 10
904.206383
 20
979.637305
 40
8.000000
 50
179.999000
 51
269.999000
  0
LINE
  8
0
  6
CONTINUOUS
 62
1
 10
896.206383
 20
979.637305
 11
896.206383
 21
1104.807305
  0
LINE
  8
0
  6
CONTINUOUS
 62
1
 10
912.126383
 20
1090.757305
 11
912.096383
 21
1082.777305
  0
LINE
  8
0
  6
CONTINUOUS
 62
1
 10
912.096383
 20
1082.777305
 11
896.536383
 21
1082.847305
  0
LINE
  8
0
  6
CONTINUOUS
 62
1
 10
896.536383
 20
1082.847305
 11
896.566383
 21
1090.827305
  0
ARC
  8
0
  6
CONTINUOUS
 62
1
 10
904.206383
 20
1104.807305
 40
13.000000
 50
307.981000
 51
232.019000
  0
ARC
  8
0
  6
CONTINUOUS
 62
1
 10
904.206383
 20
1104.807305
 40
16.000000
 50
300.000000
 51
240.000000
  0
LINE
  8
0
  6
CONTINUOUS
 62
1
 10
912.206383
 20
1056.837305
 11
915.876383
 21
1056.827305
  0
LINE
  8
0
  6
CONTINUOUS
 62
1
 10
915.876383
 20
1056.827305
 11
912.096383
 21
1082.777305
  0
LINE
  8
0
  6
CONTINUOUS
 62
1
 10
912.206383
 20
1050.317305
 11
941.316383
 21
1041.737305
  0
ARC
  8
0
  6
CONTINUOUS
 62
1
 10
1348.296383
 20
973.827305
 40
347.940000
 50
180.000000
 51
0.000000
  0
ARC
  8
0
  6
CONTINUOUS
 62
1
 10
1348.296383
 20
973.827305
 40
347.940000
 50
0.000000
 51
180.000000
  0
ARC
  8
0
  6
CONTINUOUS
 62
1
 10
1348.296383
 20
973.827305
 40
308.340000
 50
180.000000
 51
0.000000
  0
ARC
  8
0
  6
CONTINUOUS
 62
1
 10
1348.296383
 20
973.827305
 40
308.340000
 50
0.000000
 51
180.000000
  0
LINE
  8
0
  6
CONTINUOUS
 62
1
 10
1278.296383
 20
963.827305
 11
1418.296383
 21
963.827305
  0
LINE
  8
0
  6
CONTINUOUS
 62
1
 10
1418.296383
 20
963.827305
 11
1418.296383
 21
983.827305
  0
LINE
  8
0
  6
CONTINUOUS
 62
1
 10
1418.296383
 20
983.827305
 11
1278.296383
 21
983.827305
  0
LINE
  8
0
  6
CONTINUOUS
 62
1
 10
1278.296383
 20
983.827305
 11
1278.296383
 21
963.827305
  0
LINE
  8
0
  6
CONTINUOUS
 62
1
 10
1660.816383
 20
1243.827305
 11
1874.296383
 21
1243.827305
  0
LINE
  8
0
  6
CONTINUOUS
 62
1
 10
1874.296383
 20
1243.827305
 11
1874.296383
 21
1358.827305
  0
LINE
  8
0
  6
CONTINUOUS
 62
1
 10
1874.296383
 20
1358.827305
 11
1497.776383
 21
1358.827305
  0
LINE
  8
0
  6
CONTINUOUS
 62
1
 10
1599.916383
 20
1301.327305
 11
1699.296383
 21
1301.327305
  0
LINE
  8
0
  6
CONTINUOUS
 62
1
 10
1699.296383
 20
1358.827305
 11
1699.296383
 21
1243.827305
  0
ARC
  8
0
  6
DASH_2_83887493
 62
1
 10
1829.296383
 20
1301.327305
 40
8.000000
 50
180.000000
 51
0.000000
  0
ARC
  8
0
  6
DASH_2_83887493
 62
1
 10
1829.296383
 20
1301.327305
 40
8.000000
 50
0.000000
 51
180.000000
  0
ENDSEC
  0
EOF
