  0
SECTION
  2
HEADER
  9
$LIMMIN
 10
0.000000
 20
0.000000
  9
$LIMMAX
 10
3500.000000
 20
2500.000000
  9
$EXTMIN
 10
0.000000
 20
0.000000
  9
$EXTMAX
 10
3500.000000
 20
2500.000000
  9
$ANGBASE
 50
0.0
  9
$ANGDIR
 70
0
  9
$DIMRND
 40
0.100000
  9
$DIMSE1
 70
0
  9
$DIMSE2
 70
0
  9
$DIMTXT
 40
3.500000
  9
$LTSCALE
 40
1.000000
  9
$LUPREC
 70
5
  9
$AUPREC
 70
5
  9
$PDMODE
 70
2
  9
$PDSIZE
 40
17.500000
  0
ENDSEC
  0
SECTION
  2
TABLES
  0
TABLE
  2
VPORT
  70
1
  0
VPORT
  2
*ACTIVE
 70
0
  10
0.0
 20
0.0
 11
1.0
 21
1.0
 12
594.0
 22
420.0
 13
0.0
 23
0.0
 14
10.0
 24
10.0
 15
10.0
 25
10.0
 16
0.0
 26
0.0
 36
1.0
 17
594.0
 27
420.0
 37
100.0
 40
1000.0
 41
1.0
 42
50.0
 43
0.0
 44
0.0
 50
0.0
 51
0.0
 71
0
 72
2000
 73
1
 74
3
 75
0
 76
0
 77
0
 78
1
  0
ENDTAB
  0
TABLE
  2
LTYPE
 70
4
  0
LTYPE
  2
CONTINUOUS
 70
0
  3
Solid line
 72
65
 73
0
 40
0.0
  0
LTYPE
  2
DASHED
 70
0
  3
Dashed line
 72
65
 73
2
 40
6.000000
 49
3.000000
 49
-3.000000
  0
LTYPE
  2
CENTER
 70
0
  3
Chain line
 72
65
 73
4
 40
24.000000
 49
15.000000
 49
-3.000000
 49
3.000000
 49
-3.000000
  0
LTYPE
  2
RANDOM
 70
0
  3
Random line
 72
65
 73
4
 40
22.500000
 49
6.000000
 49
-3.000000
 49
4.500000
 49
-9.000000
  0
ENDTAB
  0
TABLE
  2
STYLE
 70
9
  0
STYLE
  2
STANDARD
 40
0
 41
1.0
 50
0.0
 71
0
 42
0
  3
simplex
  4

 70
0
  0
ENDTAB
  0
TABLE
  2
LAYER
 70
3
  0
LAYER
  2
0
 70
0
 62
7
  6
CONTINUOUS
  0
LAYER
  2
0
 62
1
  6
CONTINUOUS
 70
0
  0
LAYER
  2
73CONTINUOUS
 62
1
  6
CONTINUOUS
 70
0
  0
ENDTAB
  0
ENDSEC
  0
SECTION
  2
BLOCKS
  0
ENDSEC
  0
SECTION
  2
ENTITIES
  0
LINE
  8
0
  6
CONTINUOUS
 62
1
 10
1380.417095
 20
792.534422
 11
1380.417095
 21
1311.534422
  0
LINE
  8
0
  6
CONTINUOUS
 62
1
 10
1380.417095
 20
1311.534422
 11
790.417095
 21
1311.534422
  0
LINE
  8
0
  6
CONTINUOUS
 62
1
 10
790.417095
 20
1311.534422
 11
790.417095
 21
706.534422
  0
LINE
  8
0
  6
CONTINUOUS
 62
1
 10
790.417095
 20
706.534422
 11
1380.417095
 21
706.534422
  0
LINE
  8
0
  6
CONTINUOUS
 62
1
 10
1380.417095
 20
706.534422
 11
1380.417095
 21
780.534422
  0
LINE
  8
0
  6
CONTINUOUS
 62
1
 10
1380.417095
 20
780.534422
 11
1380.417095
 21
792.534422
  0
LINE
  8
0
  6
CONTINUOUS
 62
1
 10
1380.417095
 20
978.534422
 11
1393.027095
 21
978.534422
  0
LINE
  8
0
  6
CONTINUOUS
 62
1
 10
1393.027095
 20
978.534422
 11
1393.027095
 21
828.534422
  0
LINE
  8
0
  6
CONTINUOUS
 62
1
 10
1393.027095
 20
828.534422
 11
1380.417095
 21
828.534422
  0
LINE
  8
0
  6
CONTINUOUS
 62
1
 10
1393.027095
 20
919.684422
 11
1419.597095
 21
919.684422
  0
LINE
  8
0
  6
CONTINUOUS
 62
1
 10
1419.597095
 20
919.684422
 11
1419.597095
 21
903.534422
  0
LINE
  8
0
  6
CONTINUOUS
 62
1
 10
1393.027095
 20
887.384422
 11
1419.597095
 21
887.384422
  0
LINE
  8
0
  6
CONTINUOUS
 62
1
 10
1419.597095
 20
887.384422
 11
1419.597095
 21
903.534422
  0
LINE
  8
0
  6
CONTINUOUS
 62
1
 10
1469.607095
 20
963.534422
 11
1456.407095
 21
963.534422
  0
ARC
  8
0
  6
CONTINUOUS
 62
1
 10
1456.407095
 20
948.534422
 40
15.000000
 50
90.000000
 51
180.000000
  0
LINE
  8
0
  6
CONTINUOUS
 62
1
 10
1441.407095
 20
948.534422
 11
1441.407095
 21
935.464422
  0
LINE
  8
0
  6
CONTINUOUS
 62
1
 10
1441.407095
 20
935.464422
 11
1469.607095
 21
935.464422
  0
LINE
  8
0
  6
CONTINUOUS
 62
1
 10
1462.417095
 20
834.454422
 11
1498.417095
 21
834.454422
  0
LINE
  8
0
  6
CONTINUOUS
 62
1
 10
1498.417095
 20
834.454422
 11
1486.007095
 21
921.424422
  0
LINE
  8
0
  6
CONTINUOUS
 62
1
 10
1486.007095
 20
921.424422
 11
1491.227095
 21
921.424422
  0
LINE
  8
0
  6
CONTINUOUS
 62
1
 10
1491.227095
 20
921.424422
 11
1491.227095
 21
971.904422
  0
LINE
  8
0
  6
CONTINUOUS
 62
1
 10
1491.227095
 20
971.904422
 11
1469.607095
 21
971.904422
  0
LINE
  8
0
  6
CONTINUOUS
 62
1
 10
1469.607095
 20
971.904422
 11
1469.607095
 21
921.424422
  0
LINE
  8
0
  6
CONTINUOUS
 62
1
 10
1469.607095
 20
921.424422
 11
1474.827095
 21
921.424422
  0
LINE
  8
0
  6
CONTINUOUS
 62
1
 10
1474.827095
 20
921.424422
 11
1462.417095
 21
834.454422
  0
LINE
  8
0
  6
CONTINUOUS
 62
1
 10
1512.747095
 20
935.464422
 11
1505.347095
 21
843.534422
  0
LINE
  8
0
  6
CONTINUOUS
 62
1
 10
1505.347095
 20
843.534422
 11
1497.117095
 21
843.534422
  0
LINE
  8
0
  6
CONTINUOUS
 62
1
 10
1419.597095
 20
894.344422
 11
1437.557095
 21
894.344422
  0
ARC
  8
0
  6
CONTINUOUS
 62
1
 10
1437.557095
 20
879.344422
 40
15.000000
 50
4.602000
 51
89.999000
  0
LINE
  8
0
  6
CONTINUOUS
 62
1
 10
1452.507095
 20
880.544422
 11
1455.487095
 21
843.534422
  0
LINE
  8
0
  6
CONTINUOUS
 62
1
 10
1455.487095
 20
843.534422
 11
1463.717095
 21
843.534422
  0
LINE
  8
0
  6
CONTINUOUS
 62
1
 10
1448.087095
 20
935.464422
 11
1448.607095
 21
928.934422
  0
ARC
  8
0
  6
CONTINUOUS
 62
1
 10
1433.657095
 20
927.724422
 40
15.000000
 50
270.001000
 51
4.602000
  0
LINE
  8
0
  6
CONTINUOUS
 62
1
 10
1433.657095
 20
912.724422
 11
1419.597095
 21
912.724422
  0
LINE
  8
0
  6
CONTINUOUS
 62
1
 10
1491.227095
 20
935.464422
 11
1519.427095
 21
935.464422
  0
LINE
  8
0
  6
CONTINUOUS
 62
1
 10
1519.427095
 20
935.464422
 11
1519.427095
 21
948.534422
  0
ARC
  8
0
  6
CONTINUOUS
 62
1
 10
1504.427095
 20
948.534422
 40
15.000000
 50
0.000000
 51
90.000000
  0
LINE
  8
0
  6
CONTINUOUS
 62
1
 10
1504.427095
 20
963.534422
 11
1491.227095
 21
963.534422
  0
LINE
  8
0
  6
CONTINUOUS
 62
1
 10
1095.417095
 20
1369.184422
 11
1095.417095
 21
1414.534422
  0
LINE
  8
0
  6
CONTINUOUS
 62
1
 10
1095.417095
 20
1414.534422
 11
1075.417095
 21
1414.534422
  0
LINE
  8
0
  6
CONTINUOUS
 62
1
 10
1075.417095
 20
1414.534422
 11
1075.417095
 21
1369.184422
  0
ARC
  8
0
  6
CONTINUOUS
 62
1
 10
1055.417095
 20
295.544422
 40
1072.510000
 50
75.005000
 51
92.111000
  0
LINE
  8
0
  6
CONTINUOUS
 62
1
 10
955.007095
 20
1331.534422
 11
780.417095
 21
1331.534422
  0
LINE
  8
0
  6
CONTINUOUS
 62
1
 10
780.417095
 20
1331.534422
 11
780.417095
 21
1311.534422
  0
LINE
  8
0
  6
CONTINUOUS
 62
1
 10
780.417095
 20
1311.534422
 11
1390.417095
 21
1311.534422
  0
LINE
  8
0
  6
CONTINUOUS
 62
1
 10
1390.417095
 20
1311.534422
 11
1390.417095
 21
1331.534422
  0
LINE
  8
0
  6
CONTINUOUS
 62
1
 10
1390.417095
 20
1331.534422
 11
981.007095
 21
1331.534422
  0
LINE
  8
0
  6
CONTINUOUS
 62
1
 10
1300.557095
 20
706.534422
 11
1308.867095
 21
523.534422
  0
LINE
  8
0
  6
CONTINUOUS
 62
1
 10
1308.867095
 20
523.534422
 11
1313.867095
 21
523.534422
  0
LINE
  8
0
  6
CONTINUOUS
 62
1
 10
1313.867095
 20
523.534422
 11
1313.867095
 21
503.534422
  0
LINE
  8
0
  6
CONTINUOUS
 62
1
 10
1313.867095
 20
503.534422
 11
1303.867095
 21
493.534422
  0
LINE
  8
0
  6
CONTINUOUS
 62
1
 10
1303.867095
 20
493.534422
 11
1353.867095
 21
493.534422
  0
LINE
  8
0
  6
CONTINUOUS
 62
1
 10
1353.867095
 20
493.534422
 11
1343.867095
 21
503.534422
  0
LINE
  8
0
  6
CONTINUOUS
 62
1
 10
1343.867095
 20
503.534422
 11
1343.867095
 21
523.534422
  0
LINE
  8
0
  6
CONTINUOUS
 62
1
 10
1343.867095
 20
523.534422
 11
1348.867095
 21
523.534422
  0
LINE
  8
0
  6
CONTINUOUS
 62
1
 10
1348.867095
 20
523.534422
 11
1357.187095
 21
706.534422
  0
LINE
  8
0
  6
CONTINUOUS
 62
1
 10
1313.867095
 20
523.534422
 11
1343.867095
 21
523.534422
  0
LINE
  8
0
  6
CONTINUOUS
 62
1
 10
1343.867095
 20
503.534422
 11
1313.867095
 21
503.534422
  0
LINE
  8
0
  6
CONTINUOUS
 62
1
 10
902.567095
 20
706.534422
 11
910.887095
 21
523.534422
  0
LINE
  8
0
  6
CONTINUOUS
 62
1
 10
910.887095
 20
523.534422
 11
915.887095
 21
523.534422
  0
LINE
  8
0
  6
CONTINUOUS
 62
1
 10
915.887095
 20
523.534422
 11
915.887095
 21
503.534422
  0
LINE
  8
0
  6
CONTINUOUS
 62
1
 10
915.887095
 20
503.534422
 11
905.887095
 21
493.534422
  0
LINE
  8
0
  6
CONTINUOUS
 62
1
 10
905.887095
 20
493.534422
 11
955.887095
 21
493.534422
  0
LINE
  8
0
  6
CONTINUOUS
 62
1
 10
955.887095
 20
493.534422
 11
945.887095
 21
503.534422
  0
LINE
  8
0
  6
CONTINUOUS
 62
1
 10
945.887095
 20
503.534422
 11
945.887095
 21
523.534422
  0
LINE
  8
0
  6
CONTINUOUS
 62
1
 10
945.887095
 20
523.534422
 11
950.887095
 21
523.534422
  0
LINE
  8
0
  6
CONTINUOUS
 62
1
 10
950.887095
 20
523.534422
 11
959.207095
 21
706.534422
  0
LINE
  8
0
  6
CONTINUOUS
 62
1
 10
915.887095
 20
523.534422
 11
945.887095
 21
523.534422
  0
LINE
  8
0
  6
CONTINUOUS
 62
1
 10
945.887095
 20
503.534422
 11
915.887095
 21
503.534422
  0
LINE
  8
0
  6
CONTINUOUS
 62
1
 10
905.907095
 20
1291.534422
 11
1001.827095
 21
1291.534422
  0
LINE
  8
0
  6
CONTINUOUS
 62
1
 10
1001.827095
 20
1291.534422
 11
1001.827095
 21
1311.534422
  0
LINE
  8
0
  6
CONTINUOUS
 62
1
 10
1001.827095
 20
1311.534422
 11
905.907095
 21
1311.534422
  0
LINE
  8
0
  6
CONTINUOUS
 62
1
 10
905.907095
 20
1311.534422
 11
905.907095
 21
1291.534422
  0
LINE
  8
0
  6
CONTINUOUS
 62
1
 10
905.907095
 20
1291.534422
 11
935.167095
 21
1261.534422
  0
LINE
  8
0
  6
CONTINUOUS
 62
1
 10
935.167095
 20
1261.534422
 11
935.167095
 21
1291.534422
  0
LINE
  8
0
  6
CONTINUOUS
 62
1
 10
935.167095
 20
1261.534422
 11
1031.087095
 21
1261.344422
  0
LINE
  8
0
  6
CONTINUOUS
 62
1
 10
1031.087095
 20
1261.344422
 11
1031.087095
 21
1311.534422
  0
LINE
  8
0
  6
CONTINUOUS
 62
1
 10
1001.827095
 20
1291.534422
 11
1031.087095
 21
1261.534422
  0
LINE
  8
0
  6
CONTINUOUS
 62
1
 10
978.007095
 20
1382.534422
 11
978.007095
 21
1431.534422
  0
LINE
  8
0
  6
CONTINUOUS
 62
1
 10
978.007095
 20
1431.534422
 11
958.007095
 21
1431.534422
  0
LINE
  8
0
  6
CONTINUOUS
 62
1
 10
958.007095
 20
1431.534422
 11
958.007095
 21
1363.084422
  0
LINE
  8
0
  6
CONTINUOUS
 62
1
 10
958.007095
 20
1363.084422
 11
953.107095
 21
1311.534422
  0
LINE
  8
0
  6
CONTINUOUS
 62
1
 10
953.107095
 20
1311.534422
 11
982.917095
 21
1311.534422
  0
LINE
  8
0
  6
CONTINUOUS
 62
1
 10
982.917095
 20
1311.534422
 11
978.007095
 21
1363.084422
  0
LINE
  8
0
  6
CONTINUOUS
 62
1
 10
978.007095
 20
1366.974422
 11
989.977095
 21
1366.974422
  0
LINE
  8
0
  6
CONTINUOUS
 62
1
 10
989.977095
 20
1366.974422
 11
989.977095
 21
1382.534422
  0
LINE
  8
0
  6
CONTINUOUS
 62
1
 10
989.977095
 20
1382.534422
 11
978.007095
 21
1382.534422
  0
LINE
  8
0
  6
CONTINUOUS
 62
1
 10
978.007095
 20
1382.534422
 11
978.007095
 21
1366.974422
  0
LINE
  8
0
  6
CONTINUOUS
 62
1
 10
989.977095
 20
1366.974422
 11
1015.907095
 21
1363.084422
  0
LINE
  8
0
  6
CONTINUOUS
 62
1
 10
1015.907095
 20
1363.084422
 11
1015.907095
 21
1386.424422
  0
LINE
  8
0
  6
CONTINUOUS
 62
1
 10
1015.907095
 20
1386.424422
 11
989.977095
 21
1382.534422
  0
LINE
  8
0
  6
CONTINUOUS
 62
1
 10
1015.907095
 20
1369.534422
 11
999.697095
 21
1369.534422
  0
LINE
  8
0
  6
CONTINUOUS
 62
1
 10
999.697095
 20
1369.534422
 11
1015.907095
 21
1366.974422
  0
LINE
  8
0
  6
CONTINUOUS
 62
1
 10
1015.907095
 20
1379.974422
 11
999.697095
 21
1379.974422
  0
LINE
  8
0
  6
CONTINUOUS
 62
1
 10
999.697095
 20
1379.974422
 11
1015.907095
 21
1382.534422
  0
LINE
  8
0
  6
CONTINUOUS
 62
1
 10
960.007095
 20
1431.534422
 11
960.007095
 21
1480.934422
  0
ARC
  8
0
  6
CONTINUOUS
 62
1
 10
1030.597095
 20
1480.934422
 40
70.590000
 50
0.000000
 51
180.000000
  0
LINE
  8
0
  6
CONTINUOUS
 62
1
 10
1101.187095
 20
1480.934422
 11
1101.187095
 21
1466.534422
  0
LINE
  8
0
  6
CONTINUOUS
 62
1
 10
1101.187095
 20
1466.534422
 11
1085.187095
 21
1466.534422
  0
LINE
  8
0
  6
CONTINUOUS
 62
1
 10
1085.187095
 20
1466.534422
 11
1085.187095
 21
1480.934422
  0
ARC
  8
0
  6
CONTINUOUS
 62
1
 10
1030.597095
 20
1480.934422
 40
54.590000
 50
359.999000
 51
179.999000
  0
LINE
  8
0
  6
CONTINUOUS
 62
1
 10
976.007095
 20
1480.934422
 11
976.007095
 21
1431.534422
  0
ARC
  8
0
  6
CONTINUOUS
 62
1
 10
1115.417095
 20
512.894422
 40
864.390000
 50
100.492000
 51
108.725000
  0
LINE
  8
0
  6
CONTINUOUS
 62
1
 10
958.007095
 20
1291.534422
 11
958.007095
 21
1267.074422
  0
LINE
  8
0
  6
CONTINUOUS
 62
1
 10
958.007095
 20
1267.074422
 11
978.007095
 21
1267.074422
  0
LINE
  8
0
  6
CONTINUOUS
 62
1
 10
978.007095
 20
1267.074422
 11
978.007095
 21
1291.534422
  0
LINE
  8
0
  6
CONTINUOUS
 62
1
 10
958.007095
 20
1270.734422
 11
978.007095
 21
1274.254422
  0
LINE
  8
0
  6
CONTINUOUS
 62
1
 10
958.007095
 20
1274.284422
 11
978.007095
 21
1277.814422
  0
LINE
  8
0
  6
CONTINUOUS
 62
1
 10
958.007095
 20
1277.844422
 11
978.007095
 21
1281.364422
  0
LINE
  8
0
  6
CONTINUOUS
 62
1
 10
958.007095
 20
1281.394422
 11
978.007095
 21
1284.924422
  0
LINE
  8
0
  6
CONTINUOUS
 62
1
 10
958.007095
 20
1284.944422
 11
978.007095
 21
1288.474422
  0
LINE
  8
0
  6
CONTINUOUS
 62
1
 10
958.007095
 20
1288.504422
 11
965.337095
 21
1289.794422
  0
LINE
  8
0
  6
CONTINUOUS
 62
1
 10
1380.417095
 20
780.534422
 11
1395.887095
 21
780.534422
  0
ARC
  8
0
  6
CONTINUOUS
 62
1
 10
1395.887095
 20
786.534422
 40
6.000000
 50
269.999000
 51
90.001000
  0
LINE
  8
0
  6
CONTINUOUS
 62
1
 10
1395.887095
 20
792.534422
 11
1380.417095
 21
792.534422
  0
LINE
  8
0
  6
CONTINUOUS
 62
1
 10
803.417095
 20
706.534422
 11
803.417095
 21
641.534422
  0
LINE
  8
0
  6
CONTINUOUS
 62
1
 10
803.417095
 20
641.534422
 11
905.527095
 21
641.534422
  0
LINE
  8
0
  6
CONTINUOUS
 62
1
 10
904.617095
 20
661.534422
 11
803.417095
 21
661.534422
  0
ENDSEC
  0
EOF
