  0
SECTION
  2
HEADER
  9
$LIMMIN
 10
0.000000
 20
0.000000
  9
$LIMMAX
 10
3500.000000
 20
2500.000000
  9
$EXTMIN
 10
0.000000
 20
0.000000
  9
$EXTMAX
 10
3500.000000
 20
2500.000000
  9
$ANGBASE
 50
0.0
  9
$ANGDIR
 70
0
  9
$DIMRND
 40
0.100000
  9
$DIMSE1
 70
0
  9
$DIMSE2
 70
0
  9
$DIMTXT
 40
3.500000
  9
$LTSCALE
 40
1.000000
  9
$LUPREC
 70
5
  9
$AUPREC
 70
5
  9
$PDMODE
 70
2
  9
$PDSIZE
 40
17.500000
  0
ENDSEC
  0
SECTION
  2
TABLES
  0
TABLE
  2
VPORT
  70
1
  0
VPORT
  2
*ACTIVE
 70
0
  10
0.0
 20
0.0
 11
1.0
 21
1.0
 12
594.0
 22
420.0
 13
0.0
 23
0.0
 14
10.0
 24
10.0
 15
10.0
 25
10.0
 16
0.0
 26
0.0
 36
1.0
 17
594.0
 27
420.0
 37
100.0
 40
1000.0
 41
1.0
 42
50.0
 43
0.0
 44
0.0
 50
0.0
 51
0.0
 71
0
 72
2000
 73
1
 74
3
 75
0
 76
0
 77
0
 78
1
  0
ENDTAB
  0
TABLE
  2
LTYPE
 70
4
  0
LTYPE
  2
CONTINUOUS
 70
0
  3
Solid line
 72
65
 73
0
 40
0.0
  0
LTYPE
  2
DASHED
 70
0
  3
Dashed line
 72
65
 73
2
 40
6.000000
 49
3.000000
 49
-3.000000
  0
LTYPE
  2
CENTER
 70
0
  3
Chain line
 72
65
 73
4
 40
24.000000
 49
15.000000
 49
-3.000000
 49
3.000000
 49
-3.000000
  0
LTYPE
  2
RANDOM
 70
0
  3
Random line
 72
65
 73
4
 40
22.500000
 49
6.000000
 49
-3.000000
 49
4.500000
 49
-9.000000
  0
ENDTAB
  0
TABLE
  2
STYLE
 70
9
  0
STYLE
  2
STANDARD
 40
0
 41
1.0
 50
0.0
 71
0
 42
0
  3
simplex
  4

 70
0
  0
ENDTAB
  0
TABLE
  2
LAYER
 70
3
  0
LAYER
  2
0
 70
0
 62
7
  6
CONTINUOUS
  0
LAYER
  2
0
 62
1
  6
CONTINUOUS
 70
0
  0
LAYER
  2
73CONTINUOUS
 62
1
  6
CONTINUOUS
 70
0
  0
ENDTAB
  0
ENDSEC
  0
SECTION
  2
BLOCKS
  0
ENDSEC
  0
SECTION
  2
ENTITIES
  0
LINE
  8
0
  6
CONTINUOUS
 62
1
 10
846.423851
 20
1311.534422
 11
1456.423851
 21
1311.534422
  0
LINE
  8
0
  6
CONTINUOUS
 62
1
 10
1456.423851
 20
1311.534422
 11
1456.423851
 21
1331.534422
  0
LINE
  8
0
  6
CONTINUOUS
 62
1
 10
1456.423851
 20
1331.534422
 11
846.423851
 21
1331.534422
  0
LINE
  8
0
  6
CONTINUOUS
 62
1
 10
846.423851
 20
1331.534422
 11
846.423851
 21
1311.534422
  0
LINE
  8
0
  6
CONTINUOUS
 62
1
 10
1446.423851
 20
792.534422
 11
1446.423851
 21
1311.534422
  0
LINE
  8
0
  6
CONTINUOUS
 62
1
 10
1446.423851
 20
1311.534422
 11
856.423851
 21
1311.534422
  0
LINE
  8
0
  6
CONTINUOUS
 62
1
 10
856.423851
 20
1311.534422
 11
856.423851
 21
706.534422
  0
LINE
  8
0
  6
CONTINUOUS
 62
1
 10
856.423851
 20
706.534422
 11
1446.423851
 21
706.534422
  0
LINE
  8
0
  6
CONTINUOUS
 62
1
 10
1446.423851
 20
706.534422
 11
1446.423851
 21
780.534422
  0
LINE
  8
0
  6
CONTINUOUS
 62
1
 10
1096.333851
 20
928.084422
 11
1092.793851
 21
910.394422
  0
ARC
  8
0
  6
CONTINUOUS
 62
1
 10
1127.113851
 20
903.534422
 40
35.000000
 50
168.690000
 51
191.310000
  0
LINE
  8
0
  6
CONTINUOUS
 62
1
 10
1092.793851
 20
896.674422
 11
1097.033851
 21
875.454422
  0
ARC
  8
0
  6
CONTINUOUS
 62
1
 10
1151.423851
 20
903.534422
 40
10.000000
 50
0.000000
 51
180.000000
  0
ARC
  8
0
  6
CONTINUOUS
 62
1
 10
1151.423851
 20
903.534422
 40
10.000000
 50
180.000000
 51
0.000000
  0
LINE
  8
0
  6
CONTINUOUS
 62
1
 10
1181.843851
 20
935.474422
 11
1174.843851
 21
843.534422
  0
LINE
  8
0
  6
CONTINUOUS
 62
1
 10
1174.843851
 20
843.534422
 11
1127.993851
 21
843.534422
  0
LINE
  8
0
  6
CONTINUOUS
 62
1
 10
1127.993851
 20
843.534422
 11
1120.993851
 21
935.474422
  0
LINE
  8
0
  6
CONTINUOUS
 62
1
 10
1132.993851
 20
963.534422
 11
1169.843851
 21
963.534422
  0
ARC
  8
0
  6
CONTINUOUS
 62
1
 10
1169.843851
 20
948.534422
 40
15.000000
 50
0.000000
 51
90.000000
  0
LINE
  8
0
  6
CONTINUOUS
 62
1
 10
1184.843851
 20
948.534422
 11
1184.843851
 21
935.474422
  0
LINE
  8
0
  6
CONTINUOUS
 62
1
 10
1184.843851
 20
935.474422
 11
1117.993851
 21
935.474422
  0
LINE
  8
0
  6
CONTINUOUS
 62
1
 10
1117.993851
 20
935.474422
 11
1117.993851
 21
948.534422
  0
ARC
  8
0
  6
CONTINUOUS
 62
1
 10
1132.993851
 20
948.534422
 40
15.000000
 50
90.000000
 51
180.000000
  0
LINE
  8
0
  6
CONTINUOUS
 62
1
 10
1096.333851
 20
935.474422
 11
1096.333851
 21
917.464422
  0
LINE
  8
0
  6
CONTINUOUS
 62
1
 10
1096.333851
 20
917.464422
 11
1116.333851
 21
917.464422
  0
LINE
  8
0
  6
CONTINUOUS
 62
1
 10
1116.333851
 20
917.464422
 11
1116.333851
 21
935.474422
  0
LINE
  8
0
  6
CONTINUOUS
 62
1
 10
1111.833851
 20
917.464422
 11
1119.333851
 21
834.454422
  0
LINE
  8
0
  6
CONTINUOUS
 62
1
 10
1119.333851
 20
834.454422
 11
1093.333851
 21
834.454422
  0
LINE
  8
0
  6
CONTINUOUS
 62
1
 10
1093.333851
 20
834.454422
 11
1100.833851
 21
917.464422
  0
LINE
  8
0
  6
CONTINUOUS
 62
1
 10
1122.783851
 20
959.524422
 11
1110.343851
 21
959.524422
  0
ARC
  8
0
  6
CONTINUOUS
 62
1
 10
1118.973851
 20
933.734422
 40
27.200000
 50
108.489000
 51
176.342000
  0
LINE
  8
0
  6
CONTINUOUS
 62
1
 10
1091.833851
 20
935.474422
 11
1117.993851
 21
935.474422
  0
ARC
  8
0
  6
CONTINUOUS
 62
1
 10
1122.813851
 20
848.534422
 40
20.000000
 50
224.768000
 51
270.002000
  0
LINE
  8
0
  6
CONTINUOUS
 62
1
 10
1122.813851
 20
828.534422
 11
1180.023851
 21
828.534422
  0
ARC
  8
0
  6
CONTINUOUS
 62
1
 10
1180.023851
 20
848.534422
 40
20.000000
 50
270.000000
 51
348.690000
  0
LINE
  8
0
  6
CONTINUOUS
 62
1
 10
1199.633851
 20
844.614422
 11
1210.043851
 21
896.674422
  0
ARC
  8
0
  6
CONTINUOUS
 62
1
 10
1175.733851
 20
903.534422
 40
35.000000
 50
348.690000
 51
11.310000
  0
LINE
  8
0
  6
CONTINUOUS
 62
1
 10
1210.043851
 20
910.394422
 11
1199.633851
 21
962.454422
  0
ARC
  8
0
  6
CONTINUOUS
 62
1
 10
1180.023851
 20
958.534422
 40
20.000000
 50
11.312000
 51
90.002000
  0
LINE
  8
0
  6
CONTINUOUS
 62
1
 10
1180.023851
 20
978.534422
 11
1122.813851
 21
978.534422
  0
ARC
  8
0
  6
CONTINUOUS
 62
1
 10
1122.813851
 20
958.534422
 40
20.000000
 50
89.999000
 51
168.689000
  0
LINE
  8
0
  6
CONTINUOUS
 62
1
 10
1103.203851
 20
962.454422
 11
1101.653851
 21
954.704422
  0
LINE
  8
0
  6
CONTINUOUS
 62
1
 10
926.203851
 20
706.534422
 11
934.523851
 21
523.534422
  0
LINE
  8
0
  6
CONTINUOUS
 62
1
 10
934.523851
 20
523.534422
 11
939.523851
 21
523.534422
  0
LINE
  8
0
  6
CONTINUOUS
 62
1
 10
939.523851
 20
523.534422
 11
939.523851
 21
503.534422
  0
LINE
  8
0
  6
CONTINUOUS
 62
1
 10
939.523851
 20
503.534422
 11
929.523851
 21
493.534422
  0
LINE
  8
0
  6
CONTINUOUS
 62
1
 10
929.523851
 20
493.534422
 11
979.523851
 21
493.534422
  0
LINE
  8
0
  6
CONTINUOUS
 62
1
 10
979.523851
 20
493.534422
 11
969.523851
 21
503.534422
  0
LINE
  8
0
  6
CONTINUOUS
 62
1
 10
969.523851
 20
503.534422
 11
969.523851
 21
523.534422
  0
LINE
  8
0
  6
CONTINUOUS
 62
1
 10
969.523851
 20
523.534422
 11
974.523851
 21
523.534422
  0
LINE
  8
0
  6
CONTINUOUS
 62
1
 10
974.523851
 20
523.534422
 11
982.833851
 21
706.534422
  0
LINE
  8
0
  6
CONTINUOUS
 62
1
 10
939.523851
 20
523.534422
 11
969.523851
 21
523.534422
  0
LINE
  8
0
  6
CONTINUOUS
 62
1
 10
969.523851
 20
503.534422
 11
939.523851
 21
503.534422
  0
LINE
  8
0
  6
CONTINUOUS
 62
1
 10
1376.643851
 20
706.534422
 11
1368.323851
 21
523.534422
  0
LINE
  8
0
  6
CONTINUOUS
 62
1
 10
1368.323851
 20
523.534422
 11
1363.323851
 21
523.534422
  0
LINE
  8
0
  6
CONTINUOUS
 62
1
 10
1363.323851
 20
523.534422
 11
1363.323851
 21
503.534422
  0
LINE
  8
0
  6
CONTINUOUS
 62
1
 10
1363.323851
 20
503.534422
 11
1373.323851
 21
493.534422
  0
LINE
  8
0
  6
CONTINUOUS
 62
1
 10
1373.323851
 20
493.534422
 11
1323.323851
 21
493.534422
  0
LINE
  8
0
  6
CONTINUOUS
 62
1
 10
1323.323851
 20
493.534422
 11
1333.323851
 21
503.534422
  0
LINE
  8
0
  6
CONTINUOUS
 62
1
 10
1333.323851
 20
503.534422
 11
1333.323851
 21
523.534422
  0
LINE
  8
0
  6
CONTINUOUS
 62
1
 10
1333.323851
 20
523.534422
 11
1328.323851
 21
523.534422
  0
LINE
  8
0
  6
CONTINUOUS
 62
1
 10
1328.323851
 20
523.534422
 11
1320.003851
 21
706.534422
  0
LINE
  8
0
  6
CONTINUOUS
 62
1
 10
1363.323851
 20
523.534422
 11
1333.323851
 21
523.534422
  0
LINE
  8
0
  6
CONTINUOUS
 62
1
 10
1333.323851
 20
503.534422
 11
1363.323851
 21
503.534422
  0
LINE
  8
0
  6
CONTINUOUS
 62
1
 10
1123.103851
 20
706.534422
 11
1131.423851
 21
523.534422
  0
LINE
  8
0
  6
CONTINUOUS
 62
1
 10
1131.423851
 20
523.534422
 11
1136.423851
 21
523.534422
  0
LINE
  8
0
  6
CONTINUOUS
 62
1
 10
1136.423851
 20
523.534422
 11
1136.423851
 21
503.534422
  0
LINE
  8
0
  6
CONTINUOUS
 62
1
 10
1136.423851
 20
503.534422
 11
1126.423851
 21
493.534422
  0
LINE
  8
0
  6
CONTINUOUS
 62
1
 10
1126.423851
 20
493.534422
 11
1176.423851
 21
493.534422
  0
LINE
  8
0
  6
CONTINUOUS
 62
1
 10
1176.423851
 20
493.534422
 11
1166.423851
 21
503.534422
  0
LINE
  8
0
  6
CONTINUOUS
 62
1
 10
1166.423851
 20
503.534422
 11
1166.423851
 21
523.534422
  0
LINE
  8
0
  6
CONTINUOUS
 62
1
 10
1166.423851
 20
523.534422
 11
1171.423851
 21
523.534422
  0
LINE
  8
0
  6
CONTINUOUS
 62
1
 10
1171.423851
 20
523.534422
 11
1179.743851
 21
706.534422
  0
LINE
  8
0
  6
CONTINUOUS
 62
1
 10
1136.423851
 20
523.534422
 11
1166.423851
 21
523.534422
  0
LINE
  8
0
  6
CONTINUOUS
 62
1
 10
1166.423851
 20
503.534422
 11
1136.423851
 21
503.534422
  0
LINE
  8
0
  6
CONTINUOUS
 62
1
 10
1287.893851
 20
780.534422
 11
1558.323851
 21
780.534422
  0
ARC
  8
0
  6
CONTINUOUS
 62
1
 10
1558.323851
 20
786.534422
 40
6.000000
 50
270.001000
 51
89.999000
  0
LINE
  8
0
  6
CONTINUOUS
 62
1
 10
1558.323851
 20
792.534422
 11
1287.893851
 21
792.534422
  0
ARC
  8
0
  6
CONTINUOUS
 62
1
 10
1287.893851
 20
786.534422
 40
6.000000
 50
89.998000
 51
270.002000
  0
LINE
  8
0
  6
CONTINUOUS
 62
1
 10
1295.813851
 20
792.534422
 11
1295.813851
 21
804.034422
  0
LINE
  8
0
  6
CONTINUOUS
 62
1
 10
1295.813851
 20
804.034422
 11
1275.813851
 21
804.034422
  0
LINE
  8
0
  6
CONTINUOUS
 62
1
 10
1275.813851
 20
804.034422
 11
1275.813851
 21
769.034422
  0
LINE
  8
0
  6
CONTINUOUS
 62
1
 10
1275.813851
 20
769.034422
 11
1295.813851
 21
769.034422
  0
LINE
  8
0
  6
CONTINUOUS
 62
1
 10
1295.813851
 20
769.034422
 11
1295.813851
 21
780.534422
  0
LINE
  8
0
  6
CONTINUOUS
 62
1
 10
856.423851
 20
1311.534422
 11
751.273851
 21
1311.534422
  0
LINE
  8
0
  6
CONTINUOUS
 62
1
 10
751.273851
 20
1311.534422
 11
751.273851
 21
1291.534422
  0
LINE
  8
0
  6
CONTINUOUS
 62
1
 10
751.273851
 20
1291.534422
 11
856.423851
 21
1261.534422
  0
ARC
  8
0
  6
CONTINUOUS
 62
1
 10
813.373851
 20
1523.534422
 40
8.000000
 50
90.000000
 51
180.000000
  0
LINE
  8
0
  6
CONTINUOUS
 62
1
 10
805.373851
 20
1523.534422
 11
805.373851
 21
1411.534422
  0
LINE
  8
0
  6
CONTINUOUS
 62
1
 10
805.373851
 20
1411.534422
 11
821.373851
 21
1411.534422
  0
LINE
  8
0
  6
CONTINUOUS
 62
1
 10
821.373851
 20
1411.534422
 11
821.373851
 21
1523.534422
  0
ARC
  8
0
  6
CONTINUOUS
 62
1
 10
813.373851
 20
1523.534422
 40
8.000000
 50
0.000000
 51
90.000000
  0
LINE
  8
0
  6
CONTINUOUS
 62
1
 10
823.373851
 20
1362.534422
 11
823.373851
 21
1411.534422
  0
LINE
  8
0
  6
CONTINUOUS
 62
1
 10
823.373851
 20
1411.534422
 11
803.373851
 21
1411.534422
  0
LINE
  8
0
  6
CONTINUOUS
 62
1
 10
803.373851
 20
1411.534422
 11
803.273851
 21
1360.594422
  0
LINE
  8
0
  6
CONTINUOUS
 62
1
 10
803.373851
 20
1343.084422
 11
823.373851
 21
1343.084422
  0
LINE
  8
0
  6
CONTINUOUS
 62
1
 10
823.373851
 20
1343.084422
 11
823.373851
 21
1346.974422
  0
ARC
  8
0
  6
CONTINUOUS
 62
1
 10
813.373851
 20
1354.754422
 40
11.670000
 50
90.000000
 51
270.000000
  0
ARC
  8
0
  6
CONTINUOUS
 62
1
 10
813.373851
 20
1354.754422
 40
11.670000
 50
270.000000
 51
90.000000
  0
LINE
  8
0
  6
CONTINUOUS
 62
1
 10
803.133851
 20
1349.164422
 11
803.373851
 21
1343.084422
  0
LINE
  8
0
  6
CONTINUOUS
 62
1
 10
803.373851
 20
1343.084422
 11
800.373851
 21
1311.534422
  0
LINE
  8
0
  6
CONTINUOUS
 62
1
 10
800.373851
 20
1311.534422
 11
826.373851
 21
1311.534422
  0
LINE
  8
0
  6
CONTINUOUS
 62
1
 10
826.373851
 20
1311.534422
 11
823.373851
 21
1343.084422
  0
LINE
  8
0
  6
CONTINUOUS
 62
1
 10
805.373851
 20
1446.534422
 11
821.373851
 21
1446.534422
  0
LINE
  8
0
  6
CONTINUOUS
 62
1
 10
1221.423851
 20
1359.474422
 11
1221.423851
 21
1414.534422
  0
LINE
  8
0
  6
CONTINUOUS
 62
1
 10
1221.423851
 20
1414.534422
 11
1081.423851
 21
1414.534422
  0
LINE
  8
0
  6
CONTINUOUS
 62
1
 10
1081.423851
 20
1414.534422
 11
1081.423851
 21
1359.474422
  0
LINE
  8
0
  6
CONTINUOUS
 62
1
 10
1201.423851
 20
1360.654422
 11
1201.423851
 21
1394.534422
  0
LINE
  8
0
  6
CONTINUOUS
 62
1
 10
1201.423851
 20
1394.534422
 11
1101.423851
 21
1394.534422
  0
LINE
  8
0
  6
CONTINUOUS
 62
1
 10
1101.423851
 20
1394.534422
 11
1101.423851
 21
1360.654422
  0
ARC
  8
0
  6
CONTINUOUS
 62
1
 10
1151.423851
 20
337.144422
 40
1024.730000
 50
76.023000
 51
103.977000
  0
LINE
  8
0
  6
CONTINUOUS
 62
1
 10
1201.423851
 20
1390.244422
 11
1101.423851
 21
1390.244422
  0
LINE
  8
0
  6
CONTINUOUS
 62
1
 10
1101.423851
 20
1268.854422
 11
1201.423851
 21
1268.854422
  0
LINE
  8
0
  6
CONTINUOUS
 62
1
 10
1201.423851
 20
1268.854422
 11
1201.423851
 21
1308.854422
  0
LINE
  8
0
  6
CONTINUOUS
 62
1
 10
1201.423851
 20
1308.854422
 11
1101.423851
 21
1308.854422
  0
LINE
  8
0
  6
CONTINUOUS
 62
1
 10
1101.423851
 20
1308.854422
 11
1101.423851
 21
1268.854422
  0
LINE
  8
0
  6
CONTINUOUS
 62
1
 10
1472.423851
 20
780.534422
 11
1472.423851
 21
706.534422
  0
LINE
  8
0
  6
CONTINUOUS
 62
1
 10
1472.423851
 20
706.534422
 11
1647.423851
 21
706.534422
  0
LINE
  8
0
  6
CONTINUOUS
 62
1
 10
1647.423851
 20
706.534422
 11
1647.423851
 21
1246.534422
  0
LINE
  8
0
  6
CONTINUOUS
 62
1
 10
1647.423851
 20
1246.534422
 11
1472.423851
 21
1246.534422
  0
LINE
  8
0
  6
CONTINUOUS
 62
1
 10
1472.423851
 20
1246.534422
 11
1472.423851
 21
792.534422
  0
LINE
  8
0
  6
CONTINUOUS
 62
1
 10
1177.693851
 20
661.534422
 11
1322.053851
 21
661.534422
  0
LINE
  8
0
  6
CONTINUOUS
 62
1
 10
1067.423851
 20
661.534422
 11
1067.423851
 21
641.534422
  0
LINE
  8
0
  6
CONTINUOUS
 62
1
 10
1067.423851
 20
641.534422
 11
1126.053851
 21
641.534422
  0
LINE
  8
0
  6
CONTINUOUS
 62
1
 10
1484.423851
 20
780.534422
 11
1484.423851
 21
718.534422
  0
LINE
  8
0
  6
CONTINUOUS
 62
1
 10
1484.423851
 20
718.534422
 11
1635.423851
 21
718.534422
  0
LINE
  8
0
  6
CONTINUOUS
 62
1
 10
1635.423851
 20
718.534422
 11
1635.423851
 21
1234.534422
  0
LINE
  8
0
  6
CONTINUOUS
 62
1
 10
1635.423851
 20
1234.534422
 11
1484.423851
 21
1234.534422
  0
LINE
  8
0
  6
CONTINUOUS
 62
1
 10
1484.423851
 20
1234.534422
 11
1484.423851
 21
792.534422
  0
LINE
  8
0
  6
CONTINUOUS
 62
1
 10
1647.423851
 20
661.534422
 11
1647.423851
 21
706.534422
  0
LINE
  8
0
  6
CONTINUOUS
 62
1
 10
1647.423851
 20
706.534422
 11
1067.423851
 21
706.534422
  0
LINE
  8
0
  6
CONTINUOUS
 62
1
 10
1067.423851
 20
706.534422
 11
1067.423851
 21
661.534422
  0
LINE
  8
0
  6
CONTINUOUS
 62
1
 10
1067.423851
 20
661.534422
 11
1125.143851
 21
661.534422
  0
LINE
  8
0
  6
CONTINUOUS
 62
1
 10
1373.683851
 20
641.534422
 11
1557.423851
 21
641.534422
  0
LINE
  8
0
  6
CONTINUOUS
 62
1
 10
1557.423851
 20
641.534422
 11
1557.423851
 21
661.534422
  0
LINE
  8
0
  6
CONTINUOUS
 62
1
 10
1557.423851
 20
661.534422
 11
1374.593851
 21
661.534422
  0
LINE
  8
0
  6
CONTINUOUS
 62
1
 10
1176.783851
 20
641.534422
 11
1322.963851
 21
641.534422
  0
LINE
  8
0
  6
CONTINUOUS
 62
1
 10
1446.423851
 20
1121.534422
 11
1472.423851
 21
1121.534422
  0
LINE
  8
0
  6
CONTINUOUS
 62
1
 10
1472.423851
 20
1171.534422
 11
1446.423851
 21
1171.534422
  0
ARC
  8
0
  6
CONTINUOUS
 62
1
 10
1559.923851
 20
1161.534422
 40
32.500000
 50
180.000000
 51
0.000000
  0
ARC
  8
0
  6
CONTINUOUS
 62
1
 10
1559.923851
 20
1161.534422
 40
32.500000
 50
0.000000
 51
180.000000
  0
ARC
  8
0
  6
CONTINUOUS
 62
1
 10
1514.923851
 20
1161.534422
 40
5.000000
 50
180.000000
 51
0.000000
  0
ARC
  8
0
  6
CONTINUOUS
 62
1
 10
1514.923851
 20
1161.534422
 40
5.000000
 50
0.000000
 51
180.000000
  0
ARC
  8
0
  6
CONTINUOUS
 62
1
 10
1604.923851
 20
1161.534422
 40
5.000000
 50
180.000000
 51
0.000000
  0
ARC
  8
0
  6
CONTINUOUS
 62
1
 10
1604.923851
 20
1161.534422
 40
5.000000
 50
0.000000
 51
180.000000
  0
LINE
  8
0
  6
CONTINUOUS
 62
1
 10
1557.423851
 20
661.534422
 11
1647.423851
 21
661.534422
  0
ENDSEC
  0
EOF
