  0
SECTION
  2
HEADER
  9
$LIMMIN
 10
0.000000
 20
0.000000
  9
$LIMMAX
 10
3500.000000
 20
2500.000000
  9
$EXTMIN
 10
0.000000
 20
0.000000
  9
$EXTMAX
 10
3500.000000
 20
2500.000000
  9
$ANGBASE
 50
0.0
  9
$ANGDIR
 70
0
  9
$DIMRND
 40
0.100000
  9
$DIMSE1
 70
0
  9
$DIMSE2
 70
0
  9
$DIMTXT
 40
3.500000
  9
$LTSCALE
 40
1.000000
  9
$LUPREC
 70
5
  9
$AUPREC
 70
5
  9
$PDMODE
 70
2
  9
$PDSIZE
 40
17.500000
  0
ENDSEC
  0
SECTION
  2
TABLES
  0
TABLE
  2
VPORT
  70
1
  0
VPORT
  2
*ACTIVE
 70
0
  10
0.0
 20
0.0
 11
1.0
 21
1.0
 12
594.0
 22
420.0
 13
0.0
 23
0.0
 14
10.0
 24
10.0
 15
10.0
 25
10.0
 16
0.0
 26
0.0
 36
1.0
 17
594.0
 27
420.0
 37
100.0
 40
1000.0
 41
1.0
 42
50.0
 43
0.0
 44
0.0
 50
0.0
 51
0.0
 71
0
 72
2000
 73
1
 74
3
 75
0
 76
0
 77
0
 78
1
  0
ENDTAB
  0
TABLE
  2
LTYPE
 70
5
  0
LTYPE
  2
CONTINUOUS
 70
0
  3
Solid line
 72
65
 73
0
 40
0.0
  0
LTYPE
  2
DASHED
 70
0
  3
Dashed line
 72
65
 73
2
 40
6.000000
 49
3.000000
 49
-3.000000
  0
LTYPE
  2
CENTER
 70
0
  3
Chain line
 72
65
 73
4
 40
24.000000
 49
15.000000
 49
-3.000000
 49
3.000000
 49
-3.000000
  0
LTYPE
  2
RANDOM
 70
0
  3
Random line
 72
65
 73
4
 40
22.500000
 49
6.000000
 49
-3.000000
 49
4.500000
 49
-9.000000
  0
LTYPE
  2
DASH_2_83887493
  3
DASH_2_83887493
 70
0
 72
65
 73
2
 40
3.000000
 49
1.500000
 49
-1.500000
  0
ENDTAB
  0
TABLE
  2
STYLE
 70
9
  0
STYLE
  2
STANDARD
 40
0
 41
1.0
 50
0.0
 71
0
 42
0
  3
simplex
  4

 70
0
  0
ENDTAB
  0
TABLE
  2
LAYER
 70
4
  0
LAYER
  2
0
 70
0
 62
7
  6
CONTINUOUS
  0
LAYER
  2
0
 62
1
  6
CONTINUOUS
 70
0
  0
LAYER
  2
73CONTINUOUS
 62
1
  6
CONTINUOUS
 70
0
  0
LAYER
  2
73ADSDOT
 62
1
  6
CONTINUOUS
 70
0
  0
ENDTAB
  0
ENDSEC
  0
SECTION
  2
BLOCKS
  0
ENDSEC
  0
SECTION
  2
ENTITIES
  0
ARC
  8
73CONTINUOUS
  6
CONTINUOUS
 62
1
 10
1045.507585
 20
935.239207
 40
305.050000
 50
180.000000
 51
0.000000
  0
ARC
  8
73CONTINUOUS
  6
CONTINUOUS
 62
1
 10
1045.507585
 20
935.239207
 40
305.050000
 50
0.000000
 51
180.000000
  0
ARC
  8
73CONTINUOUS
  6
CONTINUOUS
 62
1
 10
1045.517585
 20
553.179207
 40
39.010000
 50
204.217000
 51
155.783000
  0
LINE
  8
73CONTINUOUS
  6
CONTINUOUS
 62
1
 10
1009.937585
 20
569.179207
 11
985.917585
 21
569.179207
  0
LINE
  8
73CONTINUOUS
  6
CONTINUOUS
 62
1
 10
985.917585
 20
569.179207
 11
985.917585
 21
537.179207
  0
LINE
  8
73CONTINUOUS
  6
CONTINUOUS
 62
1
 10
985.917585
 20
537.179207
 11
1009.937585
 21
537.179207
  0
ARC
  8
73CONTINUOUS
  6
CONTINUOUS
 62
1
 10
1045.507585
 20
553.179207
 40
18.000000
 50
180.000000
 51
0.000000
  0
ARC
  8
73CONTINUOUS
  6
CONTINUOUS
 62
1
 10
1045.507585
 20
553.179207
 40
18.000000
 50
0.000000
 51
180.000000
  0
LINE
  8
73CONTINUOUS
  6
CONTINUOUS
 62
1
 10
985.917585
 20
541.179207
 11
1008.027585
 21
541.179207
  0
LINE
  8
73CONTINUOUS
  6
CONTINUOUS
 62
1
 10
1008.027585
 20
541.179207
 11
1008.027585
 21
565.179207
  0
LINE
  8
73CONTINUOUS
  6
CONTINUOUS
 62
1
 10
1008.027585
 20
565.179207
 11
985.917585
 21
565.179207
  0
LINE
  8
73CONTINUOUS
  6
CONTINUOUS
 62
1
 10
996.007585
 20
565.179207
 11
996.007585
 21
541.179207
  0
LINE
  8
73CONTINUOUS
  6
CONTINUOUS
 62
1
 10
1016.507585
 20
630.179207
 11
1016.507585
 21
613.999207
  0
LINE
  8
73CONTINUOUS
  6
CONTINUOUS
 62
1
 10
1016.507585
 20
613.999207
 11
1074.517585
 21
613.999207
  0
LINE
  8
73CONTINUOUS
  6
CONTINUOUS
 62
1
 10
1074.517585
 20
613.999207
 11
1074.517585
 21
630.179207
  0
LINE
  8
73CONTINUOUS
  6
CONTINUOUS
 62
1
 10
1022.297585
 20
613.999207
 11
1022.297585
 21
584.519207
  0
LINE
  8
73CONTINUOUS
  6
CONTINUOUS
 62
1
 10
1068.737585
 20
584.519207
 11
1068.737585
 21
613.999207
  0
LINE
  8
73CONTINUOUS
  6
CONTINUOUS
 62
1
 10
1204.307585
 20
674.769207
 11
1204.307585
 21
640.649207
  0
ARC
  8
73CONTINUOUS
  6
CONTINUOUS
 62
1
 10
1224.367585
 20
640.649207
 40
20.060000
 50
180.000000
 51
322.635000
  0
LINE
  8
73CONTINUOUS
  6
CONTINUOUS
 62
1
 10
1240.307585
 20
628.479207
 11
1454.357585
 21
908.789207
  0
ARC
  8
73CONTINUOUS
  6
CONTINUOUS
 62
1
 10
1438.407585
 20
920.959207
 40
20.060000
 50
322.635000
 51
90.000000
  0
LINE
  8
73CONTINUOUS
  6
CONTINUOUS
 62
1
 10
1438.407585
 20
941.019207
 11
1350.507585
 21
941.019207
  0
LINE
  8
73CONTINUOUS
  6
CONTINUOUS
 62
1
 10
1214.337585
 20
674.769207
 11
1214.337585
 21
640.649207
  0
ARC
  8
73CONTINUOUS
  6
CONTINUOUS
 62
1
 10
1224.367585
 20
640.649207
 40
10.030000
 50
180.001000
 51
322.636000
  0
LINE
  8
73CONTINUOUS
  6
CONTINUOUS
 62
1
 10
1232.337585
 20
634.559207
 11
1446.387585
 21
914.879207
  0
ARC
  8
73CONTINUOUS
  6
CONTINUOUS
 62
1
 10
1438.407585
 20
920.959207
 40
10.030000
 50
322.635000
 51
90.000000
  0
LINE
  8
73CONTINUOUS
  6
CONTINUOUS
 62
1
 10
1438.407585
 20
930.989207
 11
1350.507585
 21
930.989207
  0
LINE
  8
73CONTINUOUS
  6
CONTINUOUS
 62
1
 10
770.357585
 20
1068.519207
 11
671.147585
 21
1097.779207
  0
LINE
  8
73CONTINUOUS
  6
CONTINUOUS
 62
1
 10
671.147585
 20
1097.779207
 11
642.857585
 21
1001.869207
  0
LINE
  8
73CONTINUOUS
  6
CONTINUOUS
 62
1
 10
642.857585
 20
1001.869207
 11
696.957585
 21
985.909207
  0
LINE
  8
73CONTINUOUS
  6
CONTINUOUS
 62
1
 10
697.287585
 20
1013.719207
 11
693.287585
 21
987.789207
  0
LINE
  8
73CONTINUOUS
  6
CONTINUOUS
 62
1
 10
693.287585
 20
987.789207
 11
696.957585
 21
987.779207
  0
ARC
  8
73CONTINUOUS
  6
CONTINUOUS
 62
1
 10
704.957585
 20
1035.679207
 40
8.000000
 50
0.000000
 51
180.000000
  0
LINE
  8
73CONTINUOUS
  6
CONTINUOUS
 62
1
 10
712.957585
 20
1035.679207
 11
712.957585
 21
910.499207
  0
ARC
  8
73CONTINUOUS
  6
CONTINUOUS
 62
1
 10
704.957585
 20
910.499207
 40
8.000000
 50
270.000000
 51
0.000000
  0
ARC
  8
73CONTINUOUS
  6
CONTINUOUS
 62
1
 10
704.957585
 20
910.499207
 40
8.000000
 50
179.999000
 51
269.999000
  0
LINE
  8
73CONTINUOUS
  6
CONTINUOUS
 62
1
 10
696.957585
 20
910.509207
 11
696.957585
 21
1035.679207
  0
LINE
  8
73CONTINUOUS
  6
CONTINUOUS
 62
1
 10
712.877585
 20
1021.629207
 11
712.847585
 21
1013.649207
  0
LINE
  8
73CONTINUOUS
  6
CONTINUOUS
 62
1
 10
712.847585
 20
1013.649207
 11
697.287585
 21
1013.719207
  0
LINE
  8
73CONTINUOUS
  6
CONTINUOUS
 62
1
 10
697.287585
 20
1013.719207
 11
697.317585
 21
1021.699207
  0
ARC
  8
73CONTINUOUS
  6
CONTINUOUS
 62
1
 10
704.957585
 20
1035.679207
 40
13.000000
 50
307.981000
 51
232.019000
  0
ARC
  8
73CONTINUOUS
  6
CONTINUOUS
 62
1
 10
704.957585
 20
1035.679207
 40
16.000000
 50
300.000000
 51
240.000000
  0
LINE
  8
73CONTINUOUS
  6
CONTINUOUS
 62
1
 10
712.957585
 20
987.709207
 11
716.627585
 21
987.699207
  0
LINE
  8
73CONTINUOUS
  6
CONTINUOUS
 62
1
 10
716.627585
 20
987.699207
 11
712.847585
 21
1013.649207
  0
LINE
  8
73CONTINUOUS
  6
CONTINUOUS
 62
1
 10
712.957585
 20
981.189207
 11
742.067585
 21
972.599207
  0
ARC
  8
73CONTINUOUS
  6
CONTINUOUS
 62
1
 10
1045.507585
 20
935.239207
 40
257.000000
 50
180.000000
 51
0.000000
  0
ARC
  8
73CONTINUOUS
  6
CONTINUOUS
 62
1
 10
1045.507585
 20
935.239207
 40
257.000000
 50
0.000000
 51
180.000000
  0
ARC
  8
73CONTINUOUS
  6
CONTINUOUS
 62
1
 10
1045.507585
 20
935.239207
 40
227.750000
 50
180.000000
 51
0.000000
  0
ARC
  8
73CONTINUOUS
  6
CONTINUOUS
 62
1
 10
1045.507585
 20
935.239207
 40
227.750000
 50
0.000000
 51
180.000000
  0
LINE
  8
73CONTINUOUS
  6
CONTINUOUS
 62
1
 10
980.507585
 20
925.239207
 11
1120.507585
 21
925.239207
  0
LINE
  8
73CONTINUOUS
  6
CONTINUOUS
 62
1
 10
1120.507585
 20
925.239207
 11
1120.507585
 21
945.239207
  0
LINE
  8
73CONTINUOUS
  6
CONTINUOUS
 62
1
 10
1120.507585
 20
945.239207
 11
980.507585
 21
945.239207
  0
LINE
  8
73CONTINUOUS
  6
CONTINUOUS
 62
1
 10
980.507585
 20
945.239207
 11
980.507585
 21
925.239207
  0
LINE
  8
73CONTINUOUS
  6
CONTINUOUS
 62
1
 10
1300.757585
 20
1102.289207
 11
1541.567585
 21
1102.289207
  0
LINE
  8
73CONTINUOUS
  6
CONTINUOUS
 62
1
 10
1541.567585
 20
1102.289207
 11
1541.567585
 21
1217.289207
  0
LINE
  8
73CONTINUOUS
  6
CONTINUOUS
 62
1
 10
1541.567585
 20
1217.289207
 11
1161.717585
 21
1217.289207
  0
LINE
  8
73CONTINUOUS
  6
CONTINUOUS
 62
1
 10
1251.987585
 20
1159.789207
 11
1366.567585
 21
1159.789207
  0
LINE
  8
73CONTINUOUS
  6
CONTINUOUS
 62
1
 10
1366.567585
 20
1217.289207
 11
1366.567585
 21
1102.289207
  0
ARC
  8
73ADSDOT
  6
DASH_2_83887493
 62
1
 10
1496.567585
 20
1159.789207
 40
8.000000
 50
180.000000
 51
0.000000
  0
ARC
  8
73ADSDOT
  6
DASH_2_83887493
 62
1
 10
1496.567585
 20
1159.789207
 40
8.000000
 50
0.000000
 51
180.000000
  0
ENDSEC
  0
EOF
