  0
SECTION
  2
HEADER
  9
$LIMMIN
 10
0.000000
 20
0.000000
  9
$LIMMAX
 10
7000.000000
 20
3500.000000
  9
$EXTMIN
 10
0.000000
 20
0.000000
  9
$EXTMAX
 10
7000.000000
 20
3500.000000
  9
$ANGBASE
 50
0.0
  9
$ANGDIR
 70
0
  9
$DIMRND
 40
0.100000
  9
$DIMSE1
 70
0
  9
$DIMSE2
 70
0
  9
$DIMTXT
 40
3.500000
  9
$LTSCALE
 40
1.000000
  9
$LUPREC
 70
5
  9
$AUPREC
 70
5
  9
$PDMODE
 70
2
  9
$PDSIZE
 40
35.000000
  0
ENDSEC
  0
SECTION
  2
TABLES
  0
TABLE
  2
VPORT
  70
1
  0
VPORT
  2
*ACTIVE
 70
0
  10
0.0
 20
0.0
 11
1.0
 21
1.0
 12
594.0
 22
420.0
 13
0.0
 23
0.0
 14
10.0
 24
10.0
 15
10.0
 25
10.0
 16
0.0
 26
0.0
 36
1.0
 17
594.0
 27
420.0
 37
100.0
 40
1000.0
 41
1.0
 42
50.0
 43
0.0
 44
0.0
 50
0.0
 51
0.0
 71
0
 72
2000
 73
1
 74
3
 75
0
 76
0
 77
0
 78
1
  0
ENDTAB
  0
TABLE
  2
LTYPE
 70
4
  0
LTYPE
  2
CONTINUOUS
 70
0
  3
Solid line
 72
65
 73
0
 40
0.0
  0
LTYPE
  2
DASHED
 70
0
  3
Dashed line
 72
65
 73
2
 40
6.000000
 49
3.000000
 49
-3.000000
  0
LTYPE
  2
CENTER
 70
0
  3
Chain line
 72
65
 73
4
 40
24.000000
 49
15.000000
 49
-3.000000
 49
3.000000
 49
-3.000000
  0
LTYPE
  2
RANDOM
 70
0
  3
Random line
 72
65
 73
4
 40
22.500000
 49
6.000000
 49
-3.000000
 49
4.500000
 49
-9.000000
  0
ENDTAB
  0
TABLE
  2
STYLE
 70
9
  0
STYLE
  2
STANDARD
 40
0
 41
1.0
 50
0.0
 71
0
 42
0
  3
simplex
  4

 70
0
  0
ENDTAB
  0
TABLE
  2
LAYER
 70
2
  0
LAYER
  2
0
 70
0
 62
7
  6
CONTINUOUS
  0
LAYER
  2
0
 62
1
  6
CONTINUOUS
 70
0
  0
ENDTAB
  0
ENDSEC
  0
SECTION
  2
BLOCKS
  0
ENDSEC
  0
SECTION
  2
ENTITIES
  0
LINE
  8
0
  6
CONTINUOUS
 62
1
 10
2487.064936
 20
2005.723982
 11
1587.064936
 21
2005.723982
  0
LINE
  8
0
  6
CONTINUOUS
 62
1
 10
1587.064936
 20
1995.723982
 11
2487.064936
 21
1995.723982
  0
LINE
  8
0
  6
CONTINUOUS
 62
1
 10
1587.064936
 20
1955.723982
 11
2487.064936
 21
1955.723982
  0
LINE
  8
0
  6
CONTINUOUS
 62
1
 10
1587.064936
 20
1455.723982
 11
2487.064936
 21
1455.723982
  0
LINE
  8
0
  6
CONTINUOUS
 62
1
 10
1587.064936
 20
1350.723982
 11
2487.064936
 21
1350.723982
  0
LINE
  8
0
  6
CONTINUOUS
 62
1
 10
1587.064936
 20
1365.723982
 11
2487.064936
 21
1365.723982
  0
LINE
  8
0
  6
CONTINUOUS
 62
1
 10
2487.064936
 20
2012.723982
 11
2487.064936
 21
1995.723982
  0
LINE
  8
0
  6
CONTINUOUS
 62
1
 10
2377.064936
 20
1945.723982
 11
1997.064936
 21
1945.723982
  0
LINE
  8
0
  6
CONTINUOUS
 62
1
 10
1997.064936
 20
1945.723982
 11
1997.064936
 21
1465.723982
  0
LINE
  8
0
  6
CONTINUOUS
 62
1
 10
1997.064936
 20
1465.723982
 11
2377.064936
 21
1465.723982
  0
LINE
  8
0
  6
CONTINUOUS
 62
1
 10
2377.064936
 20
1465.723982
 11
2377.064936
 21
1945.723982
  0
LINE
  8
0
  6
CONTINUOUS
 62
1
 10
1977.064936
 20
1945.723982
 11
1597.064936
 21
1945.723982
  0
LINE
  8
0
  6
CONTINUOUS
 62
1
 10
1597.064936
 20
1945.723982
 11
1597.064936
 21
1465.723982
  0
LINE
  8
0
  6
CONTINUOUS
 62
1
 10
1597.064936
 20
1465.723982
 11
1977.064936
 21
1465.723982
  0
LINE
  8
0
  6
CONTINUOUS
 62
1
 10
1977.064936
 20
1465.723982
 11
1977.064936
 21
1945.723982
  0
LINE
  8
0
  6
CONTINUOUS
 62
1
 10
1882.064936
 20
1895.723982
 11
1682.064936
 21
1895.723982
  0
ARC
  8
0
  6
CONTINUOUS
 62
1
 10
1682.064936
 20
1860.723982
 40
35.000000
 50
90.000000
 51
180.000000
  0
LINE
  8
0
  6
CONTINUOUS
 62
1
 10
1647.064936
 20
1860.723982
 11
1647.064936
 21
1550.723982
  0
ARC
  8
0
  6
CONTINUOUS
 62
1
 10
1682.064936
 20
1550.723982
 40
35.000000
 50
180.000000
 51
270.000000
  0
LINE
  8
0
  6
CONTINUOUS
 62
1
 10
1682.064936
 20
1515.723982
 11
1882.064936
 21
1515.723982
  0
ARC
  8
0
  6
CONTINUOUS
 62
1
 10
1882.064936
 20
1550.723982
 40
35.000000
 50
270.000000
 51
0.000000
  0
LINE
  8
0
  6
CONTINUOUS
 62
1
 10
1917.064936
 20
1550.723982
 11
1917.064936
 21
1860.723982
  0
ARC
  8
0
  6
CONTINUOUS
 62
1
 10
1882.064936
 20
1860.723982
 40
35.000000
 50
0.000000
 51
90.000000
  0
LINE
  8
0
  6
CONTINUOUS
 62
1
 10
1647.064936
 20
1855.223982
 11
1917.064936
 21
1855.223982
  0
LINE
  8
0
  6
CONTINUOUS
 62
1
 10
1647.064936
 20
1799.223982
 11
1917.064936
 21
1799.223982
  0
LINE
  8
0
  6
CONTINUOUS
 62
1
 10
1647.064936
 20
1758.723982
 11
1917.064936
 21
1758.723982
  0
LINE
  8
0
  6
CONTINUOUS
 62
1
 10
1647.064936
 20
1718.223982
 11
1917.064936
 21
1718.223982
  0
LINE
  8
0
  6
CONTINUOUS
 62
1
 10
1647.064936
 20
1677.723982
 11
1917.064936
 21
1677.723982
  0
LINE
  8
0
  6
CONTINUOUS
 62
1
 10
1647.064936
 20
1637.223982
 11
1917.064936
 21
1637.223982
  0
LINE
  8
0
  6
CONTINUOUS
 62
1
 10
1647.064936
 20
1596.723982
 11
1917.064936
 21
1596.723982
  0
LINE
  8
0
  6
CONTINUOUS
 62
1
 10
1647.064936
 20
1556.223982
 11
1917.064936
 21
1556.223982
  0
LINE
  8
0
  6
CONTINUOUS
 62
1
 10
1927.064936
 20
1515.723982
 11
1952.064936
 21
1515.723982
  0
LINE
  8
0
  6
CONTINUOUS
 62
1
 10
1952.064936
 20
1515.723982
 11
1952.064936
 21
1895.723982
  0
LINE
  8
0
  6
CONTINUOUS
 62
1
 10
1952.064936
 20
1895.723982
 11
1927.064936
 21
1895.723982
  0
LINE
  8
0
  6
CONTINUOUS
 62
1
 10
1927.064936
 20
1895.723982
 11
1927.064936
 21
1515.723982
  0
LINE
  8
0
  6
CONTINUOUS
 62
1
 10
1952.064936
 20
1515.723982
 11
1967.064936
 21
1515.723982
  0
LINE
  8
0
  6
CONTINUOUS
 62
1
 10
1967.064936
 20
1515.723982
 11
1967.064936
 21
1545.723982
  0
LINE
  8
0
  6
CONTINUOUS
 62
1
 10
1967.064936
 20
1545.723982
 11
1952.064936
 21
1545.723982
  0
LINE
  8
0
  6
CONTINUOUS
 62
1
 10
1952.064936
 20
1865.723982
 11
1967.064936
 21
1865.723982
  0
LINE
  8
0
  6
CONTINUOUS
 62
1
 10
1967.064936
 20
1865.723982
 11
1967.064936
 21
1895.723982
  0
LINE
  8
0
  6
CONTINUOUS
 62
1
 10
1967.064936
 20
1895.723982
 11
1952.064936
 21
1895.723982
  0
ARC
  8
0
  6
CONTINUOUS
 62
1
 10
2092.064936
 20
1860.723982
 40
35.000000
 50
90.001000
 51
180.001000
  0
LINE
  8
0
  6
CONTINUOUS
 62
1
 10
2057.064936
 20
1860.723982
 11
2057.064936
 21
1550.723982
  0
ARC
  8
0
  6
CONTINUOUS
 62
1
 10
2092.064936
 20
1550.723982
 40
35.000000
 50
180.000000
 51
270.000000
  0
LINE
  8
0
  6
CONTINUOUS
 62
1
 10
2092.064936
 20
1515.723982
 11
2292.064936
 21
1515.723982
  0
ARC
  8
0
  6
CONTINUOUS
 62
1
 10
2292.064936
 20
1550.723982
 40
35.000000
 50
270.000000
 51
0.000000
  0
LINE
  8
0
  6
CONTINUOUS
 62
1
 10
2327.064936
 20
1550.723982
 11
2327.064936
 21
1860.723982
  0
ARC
  8
0
  6
CONTINUOUS
 62
1
 10
2292.064936
 20
1860.723982
 40
35.000000
 50
0.000000
 51
90.000000
  0
LINE
  8
0
  6
CONTINUOUS
 62
1
 10
2292.064936
 20
1895.723982
 11
2092.064936
 21
1895.723982
  0
LINE
  8
0
  6
CONTINUOUS
 62
1
 10
2327.064936
 20
1855.223982
 11
2057.064936
 21
1855.223982
  0
LINE
  8
0
  6
CONTINUOUS
 62
1
 10
2327.064936
 20
1799.223982
 11
2057.064936
 21
1799.223982
  0
LINE
  8
0
  6
CONTINUOUS
 62
1
 10
2327.064936
 20
1758.723982
 11
2057.064936
 21
1758.723982
  0
LINE
  8
0
  6
CONTINUOUS
 62
1
 10
2327.064936
 20
1718.223982
 11
2057.064936
 21
1718.223982
  0
LINE
  8
0
  6
CONTINUOUS
 62
1
 10
2327.064936
 20
1677.723982
 11
2057.064936
 21
1677.723982
  0
LINE
  8
0
  6
CONTINUOUS
 62
1
 10
2327.064936
 20
1637.223982
 11
2057.064936
 21
1637.223982
  0
LINE
  8
0
  6
CONTINUOUS
 62
1
 10
2327.064936
 20
1596.723982
 11
2057.064936
 21
1596.723982
  0
LINE
  8
0
  6
CONTINUOUS
 62
1
 10
2327.064936
 20
1556.223982
 11
2057.064936
 21
1556.223982
  0
LINE
  8
0
  6
CONTINUOUS
 62
1
 10
2047.064936
 20
1515.723982
 11
2047.064936
 21
1895.723982
  0
LINE
  8
0
  6
CONTINUOUS
 62
1
 10
2047.064936
 20
1895.723982
 11
2022.064936
 21
1895.723982
  0
LINE
  8
0
  6
CONTINUOUS
 62
1
 10
2022.064936
 20
1895.723982
 11
2022.064936
 21
1515.723982
  0
LINE
  8
0
  6
CONTINUOUS
 62
1
 10
2022.064936
 20
1515.723982
 11
2047.064936
 21
1515.723982
  0
LINE
  8
0
  6
CONTINUOUS
 62
1
 10
2022.064936
 20
1545.723982
 11
2007.064936
 21
1545.723982
  0
LINE
  8
0
  6
CONTINUOUS
 62
1
 10
2007.064936
 20
1545.723982
 11
2007.064936
 21
1515.723982
  0
LINE
  8
0
  6
CONTINUOUS
 62
1
 10
2007.064936
 20
1515.723982
 11
2022.064936
 21
1515.723982
  0
LINE
  8
0
  6
CONTINUOUS
 62
1
 10
2022.064936
 20
1895.723982
 11
2007.064936
 21
1895.723982
  0
LINE
  8
0
  6
CONTINUOUS
 62
1
 10
2007.064936
 20
1895.723982
 11
2007.064936
 21
1865.723982
  0
LINE
  8
0
  6
CONTINUOUS
 62
1
 10
2007.064936
 20
1865.723982
 11
2022.064936
 21
1865.723982
  0
LINE
  8
0
  6
CONTINUOUS
 62
1
 10
2387.064936
 20
1955.723982
 11
2387.064936
 21
1455.723982
  0
LINE
  8
0
  6
CONTINUOUS
 62
1
 10
2457.064936
 20
1440.723982
 11
2457.064936
 21
1384.723982
  0
LINE
  8
0
  6
CONTINUOUS
 62
1
 10
2437.064936
 20
1384.723982
 11
2437.064936
 21
1440.723982
  0
LINE
  8
0
  6
CONTINUOUS
 62
1
 10
2417.064936
 20
1440.723982
 11
2417.064936
 21
1384.723982
  0
LINE
  8
0
  6
CONTINUOUS
 62
1
 10
2397.064936
 20
1384.723982
 11
2397.064936
 21
1440.723982
  0
LINE
  8
0
  6
CONTINUOUS
 62
1
 10
2377.064936
 20
1440.723982
 11
2377.064936
 21
1384.723982
  0
LINE
  8
0
  6
CONTINUOUS
 62
1
 10
2357.064936
 20
1384.723982
 11
2357.064936
 21
1440.723982
  0
LINE
  8
0
  6
CONTINUOUS
 62
1
 10
2337.064936
 20
1440.723982
 11
2337.064936
 21
1384.723982
  0
LINE
  8
0
  6
CONTINUOUS
 62
1
 10
2317.064936
 20
1384.723982
 11
2317.064936
 21
1440.723982
  0
LINE
  8
0
  6
CONTINUOUS
 62
1
 10
2297.064936
 20
1440.723982
 11
2297.064936
 21
1384.723982
  0
LINE
  8
0
  6
CONTINUOUS
 62
1
 10
2277.064936
 20
1384.723982
 11
2277.064936
 21
1440.723982
  0
LINE
  8
0
  6
CONTINUOUS
 62
1
 10
2257.064936
 20
1440.723982
 11
2257.064936
 21
1384.723982
  0
LINE
  8
0
  6
CONTINUOUS
 62
1
 10
2237.064936
 20
1384.723982
 11
2237.064936
 21
1440.723982
  0
LINE
  8
0
  6
CONTINUOUS
 62
1
 10
2217.064936
 20
1440.723982
 11
2217.064936
 21
1384.723982
  0
LINE
  8
0
  6
CONTINUOUS
 62
1
 10
2197.064936
 20
1384.723982
 11
2197.064936
 21
1440.723982
  0
LINE
  8
0
  6
CONTINUOUS
 62
1
 10
2177.064936
 20
1440.723982
 11
2177.064936
 21
1384.723982
  0
LINE
  8
0
  6
CONTINUOUS
 62
1
 10
2157.064936
 20
1384.723982
 11
2157.064936
 21
1440.723982
  0
LINE
  8
0
  6
CONTINUOUS
 62
1
 10
2137.064936
 20
1440.723982
 11
2137.064936
 21
1384.723982
  0
LINE
  8
0
  6
CONTINUOUS
 62
1
 10
2117.064936
 20
1384.723982
 11
2117.064936
 21
1440.723982
  0
LINE
  8
0
  6
CONTINUOUS
 62
1
 10
2097.064936
 20
1440.723982
 11
2097.064936
 21
1384.723982
  0
LINE
  8
0
  6
CONTINUOUS
 62
1
 10
2077.064936
 20
1384.723982
 11
2077.064936
 21
1440.723982
  0
LINE
  8
0
  6
CONTINUOUS
 62
1
 10
2057.064936
 20
1440.723982
 11
2057.064936
 21
1384.723982
  0
LINE
  8
0
  6
CONTINUOUS
 62
1
 10
2037.064936
 20
1384.723982
 11
2037.064936
 21
1440.723982
  0
LINE
  8
0
  6
CONTINUOUS
 62
1
 10
2017.064936
 20
1440.723982
 11
2017.064936
 21
1384.723982
  0
LINE
  8
0
  6
CONTINUOUS
 62
1
 10
1997.064936
 20
1384.723982
 11
1997.064936
 21
1440.723982
  0
LINE
  8
0
  6
CONTINUOUS
 62
1
 10
1977.064936
 20
1440.723982
 11
1977.064936
 21
1384.723982
  0
LINE
  8
0
  6
CONTINUOUS
 62
1
 10
1957.064936
 20
1384.723982
 11
1957.064936
 21
1440.723982
  0
LINE
  8
0
  6
CONTINUOUS
 62
1
 10
1937.064936
 20
1440.723982
 11
1937.064936
 21
1384.723982
  0
LINE
  8
0
  6
CONTINUOUS
 62
1
 10
1917.064936
 20
1384.723982
 11
1917.064936
 21
1440.723982
  0
LINE
  8
0
  6
CONTINUOUS
 62
1
 10
1897.064936
 20
1440.723982
 11
1897.064936
 21
1384.723982
  0
LINE
  8
0
  6
CONTINUOUS
 62
1
 10
1877.064936
 20
1384.723982
 11
1877.064936
 21
1440.723982
  0
LINE
  8
0
  6
CONTINUOUS
 62
1
 10
1857.064936
 20
1440.723982
 11
1857.064936
 21
1384.723982
  0
LINE
  8
0
  6
CONTINUOUS
 62
1
 10
1837.064936
 20
1384.723982
 11
1837.064936
 21
1440.723982
  0
LINE
  8
0
  6
CONTINUOUS
 62
1
 10
1817.064936
 20
1440.723982
 11
1817.064936
 21
1384.723982
  0
LINE
  8
0
  6
CONTINUOUS
 62
1
 10
1797.064936
 20
1384.723982
 11
1797.064936
 21
1440.723982
  0
LINE
  8
0
  6
CONTINUOUS
 62
1
 10
1777.064936
 20
1440.723982
 11
1777.064936
 21
1384.723982
  0
LINE
  8
0
  6
CONTINUOUS
 62
1
 10
1757.064936
 20
1384.723982
 11
1757.064936
 21
1440.723982
  0
LINE
  8
0
  6
CONTINUOUS
 62
1
 10
1737.064936
 20
1440.723982
 11
1737.064936
 21
1384.723982
  0
LINE
  8
0
  6
CONTINUOUS
 62
1
 10
1717.064936
 20
1384.723982
 11
1717.064936
 21
1440.723982
  0
LINE
  8
0
  6
CONTINUOUS
 62
1
 10
1697.064936
 20
1440.723982
 11
1697.064936
 21
1384.723982
  0
LINE
  8
0
  6
CONTINUOUS
 62
1
 10
1677.064936
 20
1384.723982
 11
1677.064936
 21
1440.723982
  0
LINE
  8
0
  6
CONTINUOUS
 62
1
 10
1657.064936
 20
1440.723982
 11
1657.064936
 21
1384.723982
  0
LINE
  8
0
  6
CONTINUOUS
 62
1
 10
1637.064936
 20
1384.723982
 11
1637.064936
 21
1440.723982
  0
LINE
  8
0
  6
CONTINUOUS
 62
1
 10
1617.064936
 20
1440.723982
 11
1617.064936
 21
1384.723982
  0
LINE
  8
0
  6
CONTINUOUS
 62
1
 10
1602.064936
 20
1305.723982
 11
2472.064936
 21
1305.723982
  0
LINE
  8
0
  6
CONTINUOUS
 62
1
 10
2487.064936
 20
1995.723982
 11
2487.064936
 21
1305.723982
  0
LINE
  8
0
  6
CONTINUOUS
 62
1
 10
2487.064936
 20
1305.723982
 11
2472.064936
 21
1305.723982
  0
LINE
  8
0
  6
CONTINUOUS
 62
1
 10
2472.064936
 20
1305.723982
 11
2472.064936
 21
1290.723982
  0
LINE
  8
0
  6
CONTINUOUS
 62
1
 10
2472.064936
 20
1290.723982
 11
2472.064936
 21
1305.723982
  0
LINE
  8
0
  6
CONTINUOUS
 62
1
 10
2472.064936
 20
1305.723982
 11
2472.064936
 21
1290.723982
  0
LINE
  8
0
  6
CONTINUOUS
 62
1
 10
2472.064936
 20
1290.723982
 11
1602.064936
 21
1290.723982
  0
LINE
  8
0
  6
CONTINUOUS
 62
1
 10
1602.064936
 20
1290.723982
 11
1602.064936
 21
1305.723982
  0
LINE
  8
0
  6
CONTINUOUS
 62
1
 10
1602.064936
 20
1305.723982
 11
1602.064936
 21
1290.723982
  0
LINE
  8
0
  6
CONTINUOUS
 62
1
 10
1602.064936
 20
1290.723982
 11
1602.064936
 21
1305.723982
  0
LINE
  8
0
  6
CONTINUOUS
 62
1
 10
1602.064936
 20
1305.723982
 11
1587.064936
 21
1305.723982
  0
LINE
  8
0
  6
CONTINUOUS
 62
1
 10
1587.064936
 20
1305.723982
 11
1587.064936
 21
1455.723982
  0
LINE
  8
0
  6
CONTINUOUS
 62
1
 10
1587.064936
 20
1455.723982
 11
1587.064936
 21
1955.723982
  0
LINE
  8
0
  6
CONTINUOUS
 62
1
 10
1587.064936
 20
1955.723982
 11
1587.064936
 21
2012.723982
  0
ARC
  8
0
  6
CONTINUOUS
 62
1
 10
2417.064936
 20
1900.723982
 40
6.000000
 50
180.000000
 51
0.000000
  0
ARC
  8
0
  6
CONTINUOUS
 62
1
 10
2417.064936
 20
1900.723982
 40
6.000000
 50
0.000000
 51
180.000000
  0
ARC
  8
0
  6
CONTINUOUS
 62
1
 10
2457.064936
 20
1900.723982
 40
6.000000
 50
180.000000
 51
0.000000
  0
ARC
  8
0
  6
CONTINUOUS
 62
1
 10
2457.064936
 20
1900.723982
 40
6.000000
 50
0.000000
 51
180.000000
  0
ARC
  8
0
  6
CONTINUOUS
 62
1
 10
2437.064936
 20
1850.723982
 40
17.500000
 50
180.000000
 51
0.000000
  0
ARC
  8
0
  6
CONTINUOUS
 62
1
 10
2437.064936
 20
1850.723982
 40
17.500000
 50
0.000000
 51
180.000000
  0
ARC
  8
0
  6
CONTINUOUS
 62
1
 10
2437.064936
 20
1850.723982
 40
25.000000
 50
180.000000
 51
0.000000
  0
ARC
  8
0
  6
CONTINUOUS
 62
1
 10
2437.064936
 20
1850.723982
 40
25.000000
 50
0.000000
 51
180.000000
  0
ARC
  8
0
  6
CONTINUOUS
 62
1
 10
2437.064936
 20
1790.723982
 40
6.000000
 50
180.000000
 51
0.000000
  0
ARC
  8
0
  6
CONTINUOUS
 62
1
 10
2437.064936
 20
1790.723982
 40
6.000000
 50
0.000000
 51
180.000000
  0
ARC
  8
0
  6
CONTINUOUS
 62
1
 10
2437.064936
 20
1730.723982
 40
16.500000
 50
180.000000
 51
0.000000
  0
ARC
  8
0
  6
CONTINUOUS
 62
1
 10
2437.064936
 20
1730.723982
 40
16.500000
 50
0.000000
 51
180.000000
  0
ARC
  8
0
  6
CONTINUOUS
 62
1
 10
2437.064936
 20
1730.723982
 40
22.500000
 50
180.000000
 51
0.000000
  0
ARC
  8
0
  6
CONTINUOUS
 62
1
 10
2437.064936
 20
1730.723982
 40
22.500000
 50
0.000000
 51
180.000000
  0
LINE
  8
0
  6
CONTINUOUS
 62
1
 10
2429.564936
 20
1655.723982
 11
2444.564936
 21
1655.723982
  0
LINE
  8
0
  6
CONTINUOUS
 62
1
 10
2444.564936
 20
1655.723982
 11
2444.564936
 21
1685.723982
  0
LINE
  8
0
  6
CONTINUOUS
 62
1
 10
2444.564936
 20
1685.723982
 11
2429.564936
 21
1685.723982
  0
LINE
  8
0
  6
CONTINUOUS
 62
1
 10
2429.564936
 20
1685.723982
 11
2429.564936
 21
1655.723982
  0
LINE
  8
0
  6
CONTINUOUS
 62
1
 10
2487.064936
 20
2717.723982
 11
1587.064936
 21
2717.723982
  0
LINE
  8
0
  6
CONTINUOUS
 62
1
 10
1587.064936
 20
2755.723982
 11
2487.064936
 21
2755.723982
  0
LINE
  8
0
  6
CONTINUOUS
 62
1
 10
1587.064936
 20
2717.723982
 11
2487.064936
 21
2717.723982
  0
LINE
  8
0
  6
CONTINUOUS
 62
1
 10
1587.064936
 20
2677.723982
 11
2487.064936
 21
2677.723982
  0
LINE
  8
0
  6
CONTINUOUS
 62
1
 10
1587.064936
 20
2177.723982
 11
2487.064936
 21
2177.723982
  0
LINE
  8
0
  6
CONTINUOUS
 62
1
 10
1587.064936
 20
2072.723982
 11
2487.064936
 21
2072.723982
  0
LINE
  8
0
  6
CONTINUOUS
 62
1
 10
1587.064936
 20
2087.723982
 11
2487.064936
 21
2087.723982
  0
LINE
  8
0
  6
CONTINUOUS
 62
1
 10
1587.064936
 20
2717.723982
 11
1587.064936
 21
2793.723982
  0
LINE
  8
0
  6
CONTINUOUS
 62
1
 10
1587.064936
 20
2793.723982
 11
2487.064936
 21
2793.723982
  0
LINE
  8
0
  6
CONTINUOUS
 62
1
 10
2487.064936
 20
2793.723982
 11
2487.064936
 21
2717.723982
  0
LINE
  8
0
  6
CONTINUOUS
 62
1
 10
2377.064936
 20
2667.723982
 11
1997.064936
 21
2667.723982
  0
LINE
  8
0
  6
CONTINUOUS
 62
1
 10
1997.064936
 20
2667.723982
 11
1997.064936
 21
2187.723982
  0
LINE
  8
0
  6
CONTINUOUS
 62
1
 10
1997.064936
 20
2187.723982
 11
2377.064936
 21
2187.723982
  0
LINE
  8
0
  6
CONTINUOUS
 62
1
 10
2377.064936
 20
2187.723982
 11
2377.064936
 21
2667.723982
  0
LINE
  8
0
  6
CONTINUOUS
 62
1
 10
1977.064936
 20
2667.723982
 11
1597.064936
 21
2667.723982
  0
LINE
  8
0
  6
CONTINUOUS
 62
1
 10
1597.064936
 20
2667.723982
 11
1597.064936
 21
2187.723982
  0
LINE
  8
0
  6
CONTINUOUS
 62
1
 10
1597.064936
 20
2187.723982
 11
1977.064936
 21
2187.723982
  0
LINE
  8
0
  6
CONTINUOUS
 62
1
 10
1977.064936
 20
2187.723982
 11
1977.064936
 21
2667.723982
  0
LINE
  8
0
  6
CONTINUOUS
 62
1
 10
1882.064936
 20
2617.723982
 11
1682.064936
 21
2617.723982
  0
ARC
  8
0
  6
CONTINUOUS
 62
1
 10
1682.064936
 20
2582.723982
 40
35.000000
 50
90.000000
 51
180.000000
  0
LINE
  8
0
  6
CONTINUOUS
 62
1
 10
1647.064936
 20
2582.723982
 11
1647.064936
 21
2272.723982
  0
ARC
  8
0
  6
CONTINUOUS
 62
1
 10
1682.064936
 20
2272.723982
 40
35.000000
 50
180.000000
 51
270.000000
  0
LINE
  8
0
  6
CONTINUOUS
 62
1
 10
1682.064936
 20
2237.723982
 11
1882.064936
 21
2237.723982
  0
ARC
  8
0
  6
CONTINUOUS
 62
1
 10
1882.064936
 20
2272.723982
 40
35.000000
 50
270.000000
 51
0.000000
  0
LINE
  8
0
  6
CONTINUOUS
 62
1
 10
1917.064936
 20
2272.723982
 11
1917.064936
 21
2582.723982
  0
ARC
  8
0
  6
CONTINUOUS
 62
1
 10
1882.064936
 20
2582.723982
 40
35.000000
 50
0.000000
 51
90.000000
  0
LINE
  8
0
  6
CONTINUOUS
 62
1
 10
1647.064936
 20
2577.223982
 11
1917.064936
 21
2577.223982
  0
LINE
  8
0
  6
CONTINUOUS
 62
1
 10
1647.064936
 20
2521.223982
 11
1917.064936
 21
2521.223982
  0
LINE
  8
0
  6
CONTINUOUS
 62
1
 10
1647.064936
 20
2480.723982
 11
1917.064936
 21
2480.723982
  0
LINE
  8
0
  6
CONTINUOUS
 62
1
 10
1647.064936
 20
2440.223982
 11
1917.064936
 21
2440.223982
  0
LINE
  8
0
  6
CONTINUOUS
 62
1
 10
1647.064936
 20
2399.723982
 11
1917.064936
 21
2399.723982
  0
LINE
  8
0
  6
CONTINUOUS
 62
1
 10
1647.064936
 20
2359.223982
 11
1917.064936
 21
2359.223982
  0
LINE
  8
0
  6
CONTINUOUS
 62
1
 10
1647.064936
 20
2318.723982
 11
1917.064936
 21
2318.723982
  0
LINE
  8
0
  6
CONTINUOUS
 62
1
 10
1647.064936
 20
2278.223982
 11
1917.064936
 21
2278.223982
  0
LINE
  8
0
  6
CONTINUOUS
 62
1
 10
1927.064936
 20
2237.723982
 11
1952.064936
 21
2237.723982
  0
LINE
  8
0
  6
CONTINUOUS
 62
1
 10
1952.064936
 20
2237.723982
 11
1952.064936
 21
2617.723982
  0
LINE
  8
0
  6
CONTINUOUS
 62
1
 10
1952.064936
 20
2617.723982
 11
1927.064936
 21
2617.723982
  0
LINE
  8
0
  6
CONTINUOUS
 62
1
 10
1927.064936
 20
2617.723982
 11
1927.064936
 21
2237.723982
  0
LINE
  8
0
  6
CONTINUOUS
 62
1
 10
1952.064936
 20
2237.723982
 11
1967.064936
 21
2237.723982
  0
LINE
  8
0
  6
CONTINUOUS
 62
1
 10
1967.064936
 20
2237.723982
 11
1967.064936
 21
2267.723982
  0
LINE
  8
0
  6
CONTINUOUS
 62
1
 10
1967.064936
 20
2267.723982
 11
1952.064936
 21
2267.723982
  0
LINE
  8
0
  6
CONTINUOUS
 62
1
 10
1952.064936
 20
2587.723982
 11
1967.064936
 21
2587.723982
  0
LINE
  8
0
  6
CONTINUOUS
 62
1
 10
1967.064936
 20
2587.723982
 11
1967.064936
 21
2617.723982
  0
LINE
  8
0
  6
CONTINUOUS
 62
1
 10
1967.064936
 20
2617.723982
 11
1952.064936
 21
2617.723982
  0
ARC
  8
0
  6
CONTINUOUS
 62
1
 10
2092.064936
 20
2582.723982
 40
35.000000
 50
90.001000
 51
180.001000
  0
LINE
  8
0
  6
CONTINUOUS
 62
1
 10
2057.064936
 20
2582.723982
 11
2057.064936
 21
2272.723982
  0
ARC
  8
0
  6
CONTINUOUS
 62
1
 10
2092.064936
 20
2272.723982
 40
35.000000
 50
180.000000
 51
270.000000
  0
LINE
  8
0
  6
CONTINUOUS
 62
1
 10
2092.064936
 20
2237.723982
 11
2292.064936
 21
2237.723982
  0
ARC
  8
0
  6
CONTINUOUS
 62
1
 10
2292.064936
 20
2272.723982
 40
35.000000
 50
270.000000
 51
0.000000
  0
LINE
  8
0
  6
CONTINUOUS
 62
1
 10
2327.064936
 20
2272.723982
 11
2327.064936
 21
2582.723982
  0
ARC
  8
0
  6
CONTINUOUS
 62
1
 10
2292.064936
 20
2582.723982
 40
35.000000
 50
0.000000
 51
90.000000
  0
LINE
  8
0
  6
CONTINUOUS
 62
1
 10
2292.064936
 20
2617.723982
 11
2092.064936
 21
2617.723982
  0
LINE
  8
0
  6
CONTINUOUS
 62
1
 10
2327.064936
 20
2577.223982
 11
2057.064936
 21
2577.223982
  0
LINE
  8
0
  6
CONTINUOUS
 62
1
 10
2327.064936
 20
2521.223982
 11
2057.064936
 21
2521.223982
  0
LINE
  8
0
  6
CONTINUOUS
 62
1
 10
2327.064936
 20
2480.723982
 11
2057.064936
 21
2480.723982
  0
LINE
  8
0
  6
CONTINUOUS
 62
1
 10
2327.064936
 20
2440.223982
 11
2057.064936
 21
2440.223982
  0
LINE
  8
0
  6
CONTINUOUS
 62
1
 10
2327.064936
 20
2399.723982
 11
2057.064936
 21
2399.723982
  0
LINE
  8
0
  6
CONTINUOUS
 62
1
 10
2327.064936
 20
2359.223982
 11
2057.064936
 21
2359.223982
  0
LINE
  8
0
  6
CONTINUOUS
 62
1
 10
2327.064936
 20
2318.723982
 11
2057.064936
 21
2318.723982
  0
LINE
  8
0
  6
CONTINUOUS
 62
1
 10
2327.064936
 20
2278.223982
 11
2057.064936
 21
2278.223982
  0
LINE
  8
0
  6
CONTINUOUS
 62
1
 10
2047.064936
 20
2237.723982
 11
2047.064936
 21
2617.723982
  0
LINE
  8
0
  6
CONTINUOUS
 62
1
 10
2047.064936
 20
2617.723982
 11
2022.064936
 21
2617.723982
  0
LINE
  8
0
  6
CONTINUOUS
 62
1
 10
2022.064936
 20
2617.723982
 11
2022.064936
 21
2237.723982
  0
LINE
  8
0
  6
CONTINUOUS
 62
1
 10
2022.064936
 20
2237.723982
 11
2047.064936
 21
2237.723982
  0
LINE
  8
0
  6
CONTINUOUS
 62
1
 10
2022.064936
 20
2267.723982
 11
2007.064936
 21
2267.723982
  0
LINE
  8
0
  6
CONTINUOUS
 62
1
 10
2007.064936
 20
2267.723982
 11
2007.064936
 21
2237.723982
  0
LINE
  8
0
  6
CONTINUOUS
 62
1
 10
2007.064936
 20
2237.723982
 11
2022.064936
 21
2237.723982
  0
LINE
  8
0
  6
CONTINUOUS
 62
1
 10
2022.064936
 20
2617.723982
 11
2007.064936
 21
2617.723982
  0
LINE
  8
0
  6
CONTINUOUS
 62
1
 10
2007.064936
 20
2617.723982
 11
2007.064936
 21
2587.723982
  0
LINE
  8
0
  6
CONTINUOUS
 62
1
 10
2007.064936
 20
2587.723982
 11
2022.064936
 21
2587.723982
  0
LINE
  8
0
  6
CONTINUOUS
 62
1
 10
2387.064936
 20
2677.723982
 11
2387.064936
 21
2177.723982
  0
LINE
  8
0
  6
CONTINUOUS
 62
1
 10
2457.064936
 20
2162.723982
 11
2457.064936
 21
2106.723982
  0
LINE
  8
0
  6
CONTINUOUS
 62
1
 10
2437.064936
 20
2106.723982
 11
2437.064936
 21
2162.723982
  0
LINE
  8
0
  6
CONTINUOUS
 62
1
 10
2417.064936
 20
2162.723982
 11
2417.064936
 21
2106.723982
  0
LINE
  8
0
  6
CONTINUOUS
 62
1
 10
2397.064936
 20
2106.723982
 11
2397.064936
 21
2162.723982
  0
LINE
  8
0
  6
CONTINUOUS
 62
1
 10
2377.064936
 20
2162.723982
 11
2377.064936
 21
2106.723982
  0
LINE
  8
0
  6
CONTINUOUS
 62
1
 10
2357.064936
 20
2106.723982
 11
2357.064936
 21
2162.723982
  0
LINE
  8
0
  6
CONTINUOUS
 62
1
 10
2337.064936
 20
2162.723982
 11
2337.064936
 21
2106.723982
  0
LINE
  8
0
  6
CONTINUOUS
 62
1
 10
2317.064936
 20
2106.723982
 11
2317.064936
 21
2162.723982
  0
LINE
  8
0
  6
CONTINUOUS
 62
1
 10
2297.064936
 20
2162.723982
 11
2297.064936
 21
2106.723982
  0
LINE
  8
0
  6
CONTINUOUS
 62
1
 10
2277.064936
 20
2106.723982
 11
2277.064936
 21
2162.723982
  0
LINE
  8
0
  6
CONTINUOUS
 62
1
 10
2257.064936
 20
2162.723982
 11
2257.064936
 21
2106.723982
  0
LINE
  8
0
  6
CONTINUOUS
 62
1
 10
2237.064936
 20
2106.723982
 11
2237.064936
 21
2162.723982
  0
LINE
  8
0
  6
CONTINUOUS
 62
1
 10
2217.064936
 20
2162.723982
 11
2217.064936
 21
2106.723982
  0
LINE
  8
0
  6
CONTINUOUS
 62
1
 10
2197.064936
 20
2106.723982
 11
2197.064936
 21
2162.723982
  0
LINE
  8
0
  6
CONTINUOUS
 62
1
 10
2177.064936
 20
2162.723982
 11
2177.064936
 21
2106.723982
  0
LINE
  8
0
  6
CONTINUOUS
 62
1
 10
2157.064936
 20
2106.723982
 11
2157.064936
 21
2162.723982
  0
LINE
  8
0
  6
CONTINUOUS
 62
1
 10
2137.064936
 20
2162.723982
 11
2137.064936
 21
2106.723982
  0
LINE
  8
0
  6
CONTINUOUS
 62
1
 10
2117.064936
 20
2106.723982
 11
2117.064936
 21
2162.723982
  0
LINE
  8
0
  6
CONTINUOUS
 62
1
 10
2097.064936
 20
2162.723982
 11
2097.064936
 21
2106.723982
  0
LINE
  8
0
  6
CONTINUOUS
 62
1
 10
2077.064936
 20
2106.723982
 11
2077.064936
 21
2162.723982
  0
LINE
  8
0
  6
CONTINUOUS
 62
1
 10
2057.064936
 20
2162.723982
 11
2057.064936
 21
2106.723982
  0
LINE
  8
0
  6
CONTINUOUS
 62
1
 10
2037.064936
 20
2106.723982
 11
2037.064936
 21
2162.723982
  0
LINE
  8
0
  6
CONTINUOUS
 62
1
 10
2017.064936
 20
2162.723982
 11
2017.064936
 21
2106.723982
  0
LINE
  8
0
  6
CONTINUOUS
 62
1
 10
1997.064936
 20
2106.723982
 11
1997.064936
 21
2162.723982
  0
LINE
  8
0
  6
CONTINUOUS
 62
1
 10
1977.064936
 20
2162.723982
 11
1977.064936
 21
2106.723982
  0
LINE
  8
0
  6
CONTINUOUS
 62
1
 10
1957.064936
 20
2106.723982
 11
1957.064936
 21
2162.723982
  0
LINE
  8
0
  6
CONTINUOUS
 62
1
 10
1937.064936
 20
2162.723982
 11
1937.064936
 21
2106.723982
  0
LINE
  8
0
  6
CONTINUOUS
 62
1
 10
1917.064936
 20
2106.723982
 11
1917.064936
 21
2162.723982
  0
LINE
  8
0
  6
CONTINUOUS
 62
1
 10
1897.064936
 20
2162.723982
 11
1897.064936
 21
2106.723982
  0
LINE
  8
0
  6
CONTINUOUS
 62
1
 10
1877.064936
 20
2106.723982
 11
1877.064936
 21
2162.723982
  0
LINE
  8
0
  6
CONTINUOUS
 62
1
 10
1857.064936
 20
2162.723982
 11
1857.064936
 21
2106.723982
  0
LINE
  8
0
  6
CONTINUOUS
 62
1
 10
1837.064936
 20
2106.723982
 11
1837.064936
 21
2162.723982
  0
LINE
  8
0
  6
CONTINUOUS
 62
1
 10
1817.064936
 20
2162.723982
 11
1817.064936
 21
2106.723982
  0
LINE
  8
0
  6
CONTINUOUS
 62
1
 10
1797.064936
 20
2106.723982
 11
1797.064936
 21
2162.723982
  0
LINE
  8
0
  6
CONTINUOUS
 62
1
 10
1777.064936
 20
2162.723982
 11
1777.064936
 21
2106.723982
  0
LINE
  8
0
  6
CONTINUOUS
 62
1
 10
1757.064936
 20
2106.723982
 11
1757.064936
 21
2162.723982
  0
LINE
  8
0
  6
CONTINUOUS
 62
1
 10
1737.064936
 20
2162.723982
 11
1737.064936
 21
2106.723982
  0
LINE
  8
0
  6
CONTINUOUS
 62
1
 10
1717.064936
 20
2106.723982
 11
1717.064936
 21
2162.723982
  0
LINE
  8
0
  6
CONTINUOUS
 62
1
 10
1697.064936
 20
2162.723982
 11
1697.064936
 21
2106.723982
  0
LINE
  8
0
  6
CONTINUOUS
 62
1
 10
1677.064936
 20
2106.723982
 11
1677.064936
 21
2162.723982
  0
LINE
  8
0
  6
CONTINUOUS
 62
1
 10
1657.064936
 20
2162.723982
 11
1657.064936
 21
2106.723982
  0
LINE
  8
0
  6
CONTINUOUS
 62
1
 10
1637.064936
 20
2106.723982
 11
1637.064936
 21
2162.723982
  0
LINE
  8
0
  6
CONTINUOUS
 62
1
 10
1617.064936
 20
2162.723982
 11
1617.064936
 21
2106.723982
  0
LINE
  8
0
  6
CONTINUOUS
 62
1
 10
1602.064936
 20
2027.723982
 11
2472.064936
 21
2027.723982
  0
LINE
  8
0
  6
CONTINUOUS
 62
1
 10
2487.064936
 20
2717.723982
 11
2487.064936
 21
2027.723982
  0
LINE
  8
0
  6
CONTINUOUS
 62
1
 10
2487.064936
 20
2027.723982
 11
2472.064936
 21
2027.723982
  0
LINE
  8
0
  6
CONTINUOUS
 62
1
 10
2472.064936
 20
2027.723982
 11
2472.064936
 21
2012.723982
  0
LINE
  8
0
  6
CONTINUOUS
 62
1
 10
2472.064936
 20
2012.723982
 11
2472.064936
 21
2027.723982
  0
LINE
  8
0
  6
CONTINUOUS
 62
1
 10
2472.064936
 20
2027.723982
 11
2472.064936
 21
2012.723982
  0
LINE
  8
0
  6
CONTINUOUS
 62
1
 10
2472.064936
 20
2012.723982
 11
1602.064936
 21
2012.723982
  0
LINE
  8
0
  6
CONTINUOUS
 62
1
 10
1602.064936
 20
2012.723982
 11
1602.064936
 21
2027.723982
  0
LINE
  8
0
  6
CONTINUOUS
 62
1
 10
1602.064936
 20
2027.723982
 11
1602.064936
 21
2012.723982
  0
LINE
  8
0
  6
CONTINUOUS
 62
1
 10
1602.064936
 20
2012.723982
 11
1602.064936
 21
2027.723982
  0
LINE
  8
0
  6
CONTINUOUS
 62
1
 10
1602.064936
 20
2027.723982
 11
1587.064936
 21
2027.723982
  0
LINE
  8
0
  6
CONTINUOUS
 62
1
 10
1587.064936
 20
2027.723982
 11
1587.064936
 21
2177.723982
  0
LINE
  8
0
  6
CONTINUOUS
 62
1
 10
1587.064936
 20
2177.723982
 11
1587.064936
 21
2677.723982
  0
LINE
  8
0
  6
CONTINUOUS
 62
1
 10
1587.064936
 20
2677.723982
 11
1587.064936
 21
2717.723982
  0
ARC
  8
0
  6
CONTINUOUS
 62
1
 10
2417.064936
 20
2622.723982
 40
6.000000
 50
180.000000
 51
0.000000
  0
ARC
  8
0
  6
CONTINUOUS
 62
1
 10
2417.064936
 20
2622.723982
 40
6.000000
 50
0.000000
 51
180.000000
  0
ARC
  8
0
  6
CONTINUOUS
 62
1
 10
2457.064936
 20
2622.723982
 40
6.000000
 50
180.000000
 51
0.000000
  0
ARC
  8
0
  6
CONTINUOUS
 62
1
 10
2457.064936
 20
2622.723982
 40
6.000000
 50
0.000000
 51
180.000000
  0
ARC
  8
0
  6
CONTINUOUS
 62
1
 10
2437.064936
 20
2572.723982
 40
17.500000
 50
180.000000
 51
0.000000
  0
ARC
  8
0
  6
CONTINUOUS
 62
1
 10
2437.064936
 20
2572.723982
 40
17.500000
 50
0.000000
 51
180.000000
  0
ARC
  8
0
  6
CONTINUOUS
 62
1
 10
2437.064936
 20
2572.723982
 40
25.000000
 50
180.000000
 51
0.000000
  0
ARC
  8
0
  6
CONTINUOUS
 62
1
 10
2437.064936
 20
2572.723982
 40
25.000000
 50
0.000000
 51
180.000000
  0
ARC
  8
0
  6
CONTINUOUS
 62
1
 10
2437.064936
 20
2512.723982
 40
6.000000
 50
180.000000
 51
0.000000
  0
ARC
  8
0
  6
CONTINUOUS
 62
1
 10
2437.064936
 20
2512.723982
 40
6.000000
 50
0.000000
 51
180.000000
  0
ARC
  8
0
  6
CONTINUOUS
 62
1
 10
2437.064936
 20
2452.723982
 40
16.500000
 50
180.000000
 51
0.000000
  0
ARC
  8
0
  6
CONTINUOUS
 62
1
 10
2437.064936
 20
2452.723982
 40
16.500000
 50
0.000000
 51
180.000000
  0
ARC
  8
0
  6
CONTINUOUS
 62
1
 10
2437.064936
 20
2452.723982
 40
22.500000
 50
180.000000
 51
0.000000
  0
ARC
  8
0
  6
CONTINUOUS
 62
1
 10
2437.064936
 20
2452.723982
 40
22.500000
 50
0.000000
 51
180.000000
  0
LINE
  8
0
  6
CONTINUOUS
 62
1
 10
2429.564936
 20
2377.723982
 11
2444.564936
 21
2377.723982
  0
LINE
  8
0
  6
CONTINUOUS
 62
1
 10
2444.564936
 20
2377.723982
 11
2444.564936
 21
2407.723982
  0
LINE
  8
0
  6
CONTINUOUS
 62
1
 10
2444.564936
 20
2407.723982
 11
2429.564936
 21
2407.723982
  0
LINE
  8
0
  6
CONTINUOUS
 62
1
 10
2429.564936
 20
2407.723982
 11
2429.564936
 21
2377.723982
  0
LINE
  8
0
  6
CONTINUOUS
 62
1
 10
2487.064936
 20
2012.723982
 11
1587.064936
 21
2012.723982
  0
ENDSEC
  0
EOF
