  0
SECTION
  2
HEADER
  9
$LIMMIN
 10
0.000000
 20
0.000000
  9
$LIMMAX
 10
909.000000
 20
908.000000
  9
$EXTMIN
 10
0.000000
 20
0.000000
  9
$EXTMAX
 10
3500.000000
 20
2500.000000
  9
$ANGBASE
 50
0.0
  9
$ANGDIR
 70
0
  9
$DIMRND
 40
0.100000
  9
$DIMSE1
 70
0
  9
$DIMSE2
 70
0
  9
$DIMTXT
 40
3.500000
  9
$LTSCALE
 40
1.000000
  9
$LUPREC
 70
5
  9
$AUPREC
 70
5
  9
$PDMODE
 70
2
  9
$PDSIZE
 40
17.500000
  0
ENDSEC
  0
SECTION
  2
TABLES
  0
TABLE
  2
VPORT
  70
1
  0
VPORT
  2
*ACTIVE
 70
0
  10
0.0
 20
0.0
 11
1.0
 21
1.0
 12
594.0
 22
420.0
 13
0.0
 23
0.0
 14
10.0
 24
10.0
 15
10.0
 25
10.0
 16
0.0
 26
0.0
 36
1.0
 17
594.0
 27
420.0
 37
100.0
 40
1000.0
 41
1.0
 42
50.0
 43
0.0
 44
0.0
 50
0.0
 51
0.0
 71
0
 72
2000
 73
1
 74
3
 75
0
 76
0
 77
0
 78
1
  0
ENDTAB
  0
TABLE
  2
LTYPE
 70
4
  0
LTYPE
  2
CONTINUOUS
 70
0
  3
Solid line
 72
65
 73
0
 40
0.0
  0
LTYPE
  2
DASHED
 70
0
  3
Dashed line
 72
65
 73
2
 40
6.000000
 49
3.000000
 49
-3.000000
  0
LTYPE
  2
CENTER
 70
0
  3
Chain line
 72
65
 73
4
 40
24.000000
 49
15.000000
 49
-3.000000
 49
3.000000
 49
-3.000000
  0
LTYPE
  2
RANDOM
 70
0
  3
Random line
 72
65
 73
4
 40
22.500000
 49
6.000000
 49
-3.000000
 49
4.500000
 49
-9.000000
  0
ENDTAB
  0
TABLE
  2
STYLE
 70
9
  0
STYLE
  2
STANDARD
 40
0
 41
1.0
 50
0.0
 71
0
 42
0
  3
simplex
  4

 70
0
  0
ENDTAB
  0
TABLE
  2
LAYER
 70
6
  0
LAYER
  2
0
 70
0
 62
7
  6
CONTINUOUS
  0
LAYER
  2
0
 62
1
  6
CONTINUOUS
 70
0
  0
LAYER
  2
MODEL
 62
1
  6
CONTINUOUS
 70
0
  0
LAYER
  2
MODEL-0
 62
1
  6
CONTINUOUS
 70
0
  0
LAYER
  2
MODEL-MODEL-73CONTINUOUS
 62
1
  6
CONTINUOUS
 70
0
  0
LAYER
  2
73CONTINUOUS
 62
1
  6
CONTINUOUS
 70
0
  0
ENDTAB
  0
ENDSEC
  0
SECTION
  2
BLOCKS
  0
ENDSEC
  0
SECTION
  2
ENTITIES
  0
LINE
  8
0
  6
CONTINUOUS
 62
1
 10
1234.859977
 20
1993.296383
 11
1989.859977
 21
1993.296383
  0
LINE
  8
0
  6
CONTINUOUS
 62
1
 10
1265.449977
 20
1278.296383
 11
1269.859977
 21
1181.296383
  0
LINE
  8
0
  6
CONTINUOUS
 62
1
 10
1269.859977
 20
1181.296383
 11
1274.859977
 21
1181.296383
  0
LINE
  8
0
  6
CONTINUOUS
 62
1
 10
1274.859977
 20
1181.296383
 11
1274.859977
 21
1171.296383
  0
LINE
  8
0
  6
CONTINUOUS
 62
1
 10
1274.859977
 20
1171.296383
 11
1264.859977
 21
1161.296383
  0
LINE
  8
0
  6
CONTINUOUS
 62
1
 10
1264.859977
 20
1161.296383
 11
1314.859977
 21
1161.296383
  0
LINE
  8
0
  6
CONTINUOUS
 62
1
 10
1314.859977
 20
1161.296383
 11
1304.859977
 21
1171.296383
  0
LINE
  8
0
  6
CONTINUOUS
 62
1
 10
1304.859977
 20
1171.296383
 11
1304.859977
 21
1181.296383
  0
LINE
  8
0
  6
CONTINUOUS
 62
1
 10
1304.859977
 20
1181.296383
 11
1309.859977
 21
1181.296383
  0
LINE
  8
0
  6
CONTINUOUS
 62
1
 10
1309.859977
 20
1181.296383
 11
1314.269977
 21
1278.296383
  0
LINE
  8
0
  6
CONTINUOUS
 62
1
 10
1274.859977
 20
1181.296383
 11
1304.859977
 21
1181.296383
  0
LINE
  8
0
  6
CONTINUOUS
 62
1
 10
1304.859977
 20
1171.296383
 11
1274.859977
 21
1171.296383
  0
LINE
  8
0
  6
CONTINUOUS
 62
1
 10
1265.449977
 20
1278.296383
 11
1269.859977
 21
1181.296383
  0
LINE
  8
0
  6
CONTINUOUS
 62
1
 10
1269.859977
 20
1181.296383
 11
1274.859977
 21
1181.296383
  0
LINE
  8
0
  6
CONTINUOUS
 62
1
 10
1274.859977
 20
1181.296383
 11
1274.859977
 21
1171.296383
  0
LINE
  8
0
  6
CONTINUOUS
 62
1
 10
1274.859977
 20
1171.296383
 11
1264.859977
 21
1161.296383
  0
LINE
  8
0
  6
CONTINUOUS
 62
1
 10
1264.859977
 20
1161.296383
 11
1314.859977
 21
1161.296383
  0
LINE
  8
0
  6
CONTINUOUS
 62
1
 10
1314.859977
 20
1161.296383
 11
1304.859977
 21
1171.296383
  0
LINE
  8
0
  6
CONTINUOUS
 62
1
 10
1304.859977
 20
1171.296383
 11
1304.859977
 21
1181.296383
  0
LINE
  8
0
  6
CONTINUOUS
 62
1
 10
1304.859977
 20
1181.296383
 11
1309.859977
 21
1181.296383
  0
LINE
  8
0
  6
CONTINUOUS
 62
1
 10
1309.859977
 20
1181.296383
 11
1314.269977
 21
1278.296383
  0
LINE
  8
0
  6
CONTINUOUS
 62
1
 10
1865.449977
 20
1278.296383
 11
1869.859977
 21
1181.296383
  0
LINE
  8
0
  6
CONTINUOUS
 62
1
 10
1869.859977
 20
1181.296383
 11
1874.859977
 21
1181.296383
  0
LINE
  8
0
  6
CONTINUOUS
 62
1
 10
1874.859977
 20
1181.296383
 11
1874.859977
 21
1171.296383
  0
LINE
  8
0
  6
CONTINUOUS
 62
1
 10
1874.859977
 20
1171.296383
 11
1864.859977
 21
1161.296383
  0
LINE
  8
0
  6
CONTINUOUS
 62
1
 10
1864.859977
 20
1161.296383
 11
1914.859977
 21
1161.296383
  0
LINE
  8
0
  6
CONTINUOUS
 62
1
 10
1914.859977
 20
1161.296383
 11
1904.859977
 21
1171.296383
  0
LINE
  8
0
  6
CONTINUOUS
 62
1
 10
1904.859977
 20
1171.296383
 11
1904.859977
 21
1181.296383
  0
LINE
  8
0
  6
CONTINUOUS
 62
1
 10
1904.859977
 20
1181.296383
 11
1909.859977
 21
1181.296383
  0
LINE
  8
0
  6
CONTINUOUS
 62
1
 10
1909.859977
 20
1181.296383
 11
1914.259977
 21
1278.296383
  0
LINE
  8
0
  6
CONTINUOUS
 62
1
 10
1874.859977
 20
1181.296383
 11
1904.859977
 21
1181.296383
  0
LINE
  8
0
  6
CONTINUOUS
 62
1
 10
1904.859977
 20
1171.296383
 11
1874.859977
 21
1171.296383
  0
LINE
  8
0
  6
CONTINUOUS
 62
1
 10
1865.449977
 20
1278.296383
 11
1869.859977
 21
1181.296383
  0
LINE
  8
0
  6
CONTINUOUS
 62
1
 10
1869.859977
 20
1181.296383
 11
1874.859977
 21
1181.296383
  0
LINE
  8
0
  6
CONTINUOUS
 62
1
 10
1874.859977
 20
1181.296383
 11
1874.859977
 21
1171.296383
  0
LINE
  8
0
  6
CONTINUOUS
 62
1
 10
1874.859977
 20
1171.296383
 11
1864.859977
 21
1161.296383
  0
LINE
  8
0
  6
CONTINUOUS
 62
1
 10
1864.859977
 20
1161.296383
 11
1914.859977
 21
1161.296383
  0
LINE
  8
0
  6
CONTINUOUS
 62
1
 10
1914.859977
 20
1161.296383
 11
1904.859977
 21
1171.296383
  0
LINE
  8
0
  6
CONTINUOUS
 62
1
 10
1904.859977
 20
1171.296383
 11
1904.859977
 21
1181.296383
  0
LINE
  8
0
  6
CONTINUOUS
 62
1
 10
1904.859977
 20
1181.296383
 11
1909.859977
 21
1181.296383
  0
LINE
  8
0
  6
CONTINUOUS
 62
1
 10
1909.859977
 20
1181.296383
 11
1914.259977
 21
1278.296383
  0
LINE
  8
MODEL-0
  6
CONTINUOUS
 62
1
 10
2068.859977
 20
1503.296383
 11
2068.859977
 21
1908.296383
  0
LINE
  8
MODEL-0
  6
CONTINUOUS
 62
1
 10
2004.859977
 20
1941.296383
 11
1949.859977
 21
1941.296383
  0
LINE
  8
MODEL-0
  6
CONTINUOUS
 62
1
 10
1964.859977
 20
1941.296383
 11
1964.859977
 21
1443.296383
  0
LINE
  8
MODEL-0
  6
CONTINUOUS
 62
1
 10
2021.859977
 20
1936.296383
 11
1964.859977
 21
1936.296383
  0
LINE
  8
MODEL-0
  6
CONTINUOUS
 62
1
 10
1949.859977
 20
1941.296383
 11
2021.859977
 21
1941.296383
  0
LINE
  8
MODEL-0
  6
CONTINUOUS
 62
1
 10
2021.859977
 20
1941.296383
 11
2021.859977
 21
1975.866383
  0
LINE
  8
MODEL-0
  6
CONTINUOUS
 62
1
 10
2021.859977
 20
1975.866383
 11
2004.859977
 21
1983.296383
  0
LINE
  8
MODEL-0
  6
CONTINUOUS
 62
1
 10
1949.859977
 20
1338.296383
 11
2004.859977
 21
1353.296383
  0
LINE
  8
MODEL-0
  6
CONTINUOUS
 62
1
 10
2004.859977
 20
1353.296383
 11
2004.859977
 21
1443.296383
  0
LINE
  8
MODEL-0
  6
CONTINUOUS
 62
1
 10
1949.859977
 20
1443.296383
 11
2004.859977
 21
1443.296383
  0
LINE
  8
MODEL-0
  6
CONTINUOUS
 62
1
 10
1964.859977
 20
1453.296383
 11
2021.859977
 21
1453.296383
  0
LINE
  8
MODEL-0
  6
CONTINUOUS
 62
1
 10
2021.859977
 20
1453.296383
 11
2021.859977
 21
1936.296383
  0
LINE
  8
MODEL-0
  6
CONTINUOUS
 62
1
 10
2021.859977
 20
1533.296383
 11
2048.859977
 21
1533.296383
  0
LINE
  8
MODEL-0
  6
CONTINUOUS
 62
1
 10
2048.859977
 20
1533.296383
 11
2048.859977
 21
1878.296383
  0
LINE
  8
MODEL-0
  6
CONTINUOUS
 62
1
 10
2048.859977
 20
1878.296383
 11
2021.859977
 21
1878.296383
  0
LINE
  8
MODEL-0
  6
CONTINUOUS
 62
1
 10
2021.859977
 20
1503.296383
 11
2068.859977
 21
1503.296383
  0
LINE
  8
MODEL-0
  6
CONTINUOUS
 62
1
 10
2068.859977
 20
1908.296383
 11
2021.859977
 21
1908.296383
  0
LINE
  8
MODEL-0
  6
CONTINUOUS
 62
1
 10
2021.859977
 20
1941.296383
 11
2021.859977
 21
1958.296383
  0
LINE
  8
MODEL-MODEL-73CONTINUOUS
  6
CONTINUOUS
 62
1
 10
1234.859977
 20
1993.296383
 11
1337.859977
 21
1993.296383
  0
LINE
  8
MODEL-MODEL-73CONTINUOUS
  6
CONTINUOUS
 62
1
 10
1304.859977
 20
2031.296383
 11
1272.859977
 21
2031.296383
  0
LINE
  8
MODEL-MODEL-73CONTINUOUS
  6
CONTINUOUS
 62
1
 10
1272.859977
 20
2031.296383
 11
1272.859977
 21
2069.296383
  0
LINE
  8
MODEL-MODEL-73CONTINUOUS
  6
CONTINUOUS
 62
1
 10
1272.859977
 20
2069.296383
 11
1234.859977
 21
2069.296383
  0
LINE
  8
MODEL-MODEL-73CONTINUOUS
  6
CONTINUOUS
 62
1
 10
1234.859977
 20
2069.296383
 11
1234.859977
 21
1993.296383
  0
LINE
  8
MODEL-MODEL-73CONTINUOUS
  6
CONTINUOUS
 62
1
 10
1234.859977
 20
1993.296383
 11
1234.859977
 21
1278.296383
  0
LINE
  8
MODEL-MODEL-73CONTINUOUS
  6
CONTINUOUS
 62
1
 10
1234.859977
 20
1278.296383
 11
1949.859977
 21
1278.296383
  0
LINE
  8
MODEL-MODEL-73CONTINUOUS
  6
CONTINUOUS
 62
1
 10
1949.859977
 20
1278.296383
 11
1949.859977
 21
1983.296383
  0
LINE
  8
MODEL-MODEL-73CONTINUOUS
  6
CONTINUOUS
 62
1
 10
1234.859977
 20
1293.296383
 11
1949.859977
 21
1293.296383
  0
LINE
  8
MODEL-MODEL-73CONTINUOUS
  6
CONTINUOUS
 62
1
 10
1234.859977
 20
1803.296383
 11
1169.859977
 21
1803.296383
  0
LINE
  8
MODEL-MODEL-73CONTINUOUS
  6
CONTINUOUS
 62
1
 10
1169.859977
 20
1803.296383
 11
1169.859977
 21
1603.296383
  0
LINE
  8
MODEL-MODEL-73CONTINUOUS
  6
CONTINUOUS
 62
1
 10
1169.859977
 20
1603.296383
 11
1234.859977
 21
1603.296383
  0
LINE
  8
MODEL-MODEL-73CONTINUOUS
  6
CONTINUOUS
 62
1
 10
1994.859977
 20
1993.296383
 11
2004.859977
 21
1993.296383
  0
LINE
  8
MODEL-MODEL-73CONTINUOUS
  6
CONTINUOUS
 62
1
 10
2004.859977
 20
1993.296383
 11
2004.859977
 21
2031.296383
  0
LINE
  8
MODEL-MODEL-73CONTINUOUS
  6
CONTINUOUS
 62
1
 10
2004.859977
 20
2031.296383
 11
1272.859977
 21
2031.296383
  0
LINE
  8
MODEL-MODEL-73CONTINUOUS
  6
CONTINUOUS
 62
1
 10
2004.859977
 20
1983.296383
 11
1234.859977
 21
1983.296383
  0
ENDSEC
  0
EOF
