  0
SECTION
  2
HEADER
  9
$LIMMIN
 10
0.000000
 20
0.000000
  9
$LIMMAX
 10
901.000000
 20
892.000000
  9
$EXTMIN
 10
0.000000
 20
0.000000
  9
$EXTMAX
 10
2000.000000
 20
2000.000000
  9
$ANGBASE
 50
0.0
  9
$ANGDIR
 70
0
  9
$DIMRND
 40
0.100000
  9
$DIMSE1
 70
0
  9
$DIMSE2
 70
0
  9
$DIMTXT
 40
3.500000
  9
$LTSCALE
 40
1.000000
  9
$LUPREC
 70
5
  9
$AUPREC
 70
5
  9
$PDMODE
 70
2
  9
$PDSIZE
 40
10.000000
  0
ENDSEC
  0
SECTION
  2
TABLES
  0
TABLE
  2
VPORT
  70
1
  0
VPORT
  2
*ACTIVE
 70
0
  10
0.0
 20
0.0
 11
1.0
 21
1.0
 12
594.0
 22
420.0
 13
0.0
 23
0.0
 14
10.0
 24
10.0
 15
10.0
 25
10.0
 16
0.0
 26
0.0
 36
1.0
 17
594.0
 27
420.0
 37
100.0
 40
1000.0
 41
1.0
 42
50.0
 43
0.0
 44
0.0
 50
0.0
 51
0.0
 71
0
 72
2000
 73
1
 74
3
 75
0
 76
0
 77
0
 78
1
  0
ENDTAB
  0
TABLE
  2
LTYPE
 70
4
  0
LTYPE
  2
CONTINUOUS
 70
0
  3
Solid line
 72
65
 73
0
 40
0.0
  0
LTYPE
  2
DASHED
 70
0
  3
Dashed line
 72
65
 73
2
 40
6.000000
 49
3.000000
 49
-3.000000
  0
LTYPE
  2
CENTER
 70
0
  3
Chain line
 72
65
 73
4
 40
24.000000
 49
15.000000
 49
-3.000000
 49
3.000000
 49
-3.000000
  0
LTYPE
  2
RANDOM
 70
0
  3
Random line
 72
65
 73
4
 40
22.500000
 49
6.000000
 49
-3.000000
 49
4.500000
 49
-9.000000
  0
ENDTAB
  0
TABLE
  2
STYLE
 70
9
  0
STYLE
  2
STANDARD
 40
0
 41
1.0
 50
0.0
 71
0
 42
0
  3
simplex
  4

 70
0
  0
ENDTAB
  0
TABLE
  2
LAYER
 70
6
  0
LAYER
  2
0
 70
0
 62
7
  6
CONTINUOUS
  0
LAYER
  2
0
 62
1
  6
CONTINUOUS
 70
0
  0
LAYER
  2
MODEL
 62
1
  6
CONTINUOUS
 70
0
  0
LAYER
  2
MODEL-73CONTINUOUS
 62
1
  6
CONTINUOUS
 70
0
  0
LAYER
  2
MODEL-73ADSDOT
 62
1
  6
CONTINUOUS
 70
0
  0
LAYER
  2
73CONTINUOUS
 62
1
  6
CONTINUOUS
 70
0
  0
ENDTAB
  0
ENDSEC
  0
SECTION
  2
BLOCKS
  0
ENDSEC
  0
SECTION
  2
ENTITIES
  0
LINE
  8
0
  6
CONTINUOUS
 62
1
 10
1292.156863
 20
1371.215686
 11
392.156863
 21
1371.215686
  0
LINE
  8
73CONTINUOUS
  6
CONTINUOUS
 62
1
 10
392.156863
 20
1409.215686
 11
1292.156863
 21
1409.215686
  0
LINE
  8
73CONTINUOUS
  6
CONTINUOUS
 62
1
 10
392.156863
 20
1361.215686
 11
1292.156863
 21
1361.215686
  0
LINE
  8
73CONTINUOUS
  6
CONTINUOUS
 62
1
 10
392.156863
 20
1321.215686
 11
1292.156863
 21
1321.215686
  0
LINE
  8
73CONTINUOUS
  6
CONTINUOUS
 62
1
 10
392.156863
 20
821.215686
 11
1292.156863
 21
821.215686
  0
LINE
  8
73CONTINUOUS
  6
CONTINUOUS
 62
1
 10
392.156863
 20
716.215686
 11
1292.156863
 21
716.215686
  0
LINE
  8
73CONTINUOUS
  6
CONTINUOUS
 62
1
 10
392.156863
 20
731.215686
 11
1292.156863
 21
731.215686
  0
LINE
  8
73CONTINUOUS
  6
CONTINUOUS
 62
1
 10
392.156863
 20
1361.215686
 11
392.156863
 21
1447.215686
  0
LINE
  8
73CONTINUOUS
  6
CONTINUOUS
 62
1
 10
392.156863
 20
1447.215686
 11
1292.156863
 21
1447.215686
  0
LINE
  8
73CONTINUOUS
  6
CONTINUOUS
 62
1
 10
1292.156863
 20
1447.215686
 11
1292.156863
 21
1361.215686
  0
LINE
  8
73CONTINUOUS
  6
CONTINUOUS
 62
1
 10
1182.156863
 20
1311.215686
 11
802.156863
 21
1311.215686
  0
LINE
  8
73CONTINUOUS
  6
CONTINUOUS
 62
1
 10
802.156863
 20
1311.215686
 11
802.156863
 21
831.215686
  0
LINE
  8
73CONTINUOUS
  6
CONTINUOUS
 62
1
 10
802.156863
 20
831.215686
 11
1182.156863
 21
831.215686
  0
LINE
  8
73CONTINUOUS
  6
CONTINUOUS
 62
1
 10
1182.156863
 20
831.215686
 11
1182.156863
 21
1311.215686
  0
LINE
  8
73CONTINUOUS
  6
CONTINUOUS
 62
1
 10
782.156863
 20
1311.215686
 11
402.156863
 21
1311.215686
  0
LINE
  8
73CONTINUOUS
  6
CONTINUOUS
 62
1
 10
402.156863
 20
1311.215686
 11
402.156863
 21
831.215686
  0
LINE
  8
73CONTINUOUS
  6
CONTINUOUS
 62
1
 10
402.156863
 20
831.215686
 11
782.156863
 21
831.215686
  0
LINE
  8
73CONTINUOUS
  6
CONTINUOUS
 62
1
 10
782.156863
 20
831.215686
 11
782.156863
 21
1311.215686
  0
LINE
  8
73CONTINUOUS
  6
CONTINUOUS
 62
1
 10
687.156863
 20
1261.215686
 11
487.156863
 21
1261.215686
  0
ARC
  8
73CONTINUOUS
  6
CONTINUOUS
 62
1
 10
487.156863
 20
1226.215686
 40
35.000000
 50
90.000000
 51
180.000000
  0
LINE
  8
73CONTINUOUS
  6
CONTINUOUS
 62
1
 10
452.156863
 20
1226.215686
 11
452.156863
 21
916.215686
  0
ARC
  8
73CONTINUOUS
  6
CONTINUOUS
 62
1
 10
487.156863
 20
916.215686
 40
35.000000
 50
180.000000
 51
270.000000
  0
LINE
  8
73CONTINUOUS
  6
CONTINUOUS
 62
1
 10
487.156863
 20
881.215686
 11
687.156863
 21
881.215686
  0
ARC
  8
73CONTINUOUS
  6
CONTINUOUS
 62
1
 10
687.156863
 20
916.215686
 40
35.000000
 50
270.000000
 51
0.000000
  0
LINE
  8
73CONTINUOUS
  6
CONTINUOUS
 62
1
 10
722.156863
 20
916.215686
 11
722.156863
 21
1226.215686
  0
ARC
  8
73CONTINUOUS
  6
CONTINUOUS
 62
1
 10
687.156863
 20
1226.215686
 40
35.000000
 50
0.000000
 51
90.000000
  0
LINE
  8
73CONTINUOUS
  6
CONTINUOUS
 62
1
 10
452.156863
 20
1220.715686
 11
722.156863
 21
1220.715686
  0
LINE
  8
73CONTINUOUS
  6
CONTINUOUS
 62
1
 10
452.156863
 20
1164.715686
 11
722.156863
 21
1164.715686
  0
LINE
  8
73CONTINUOUS
  6
CONTINUOUS
 62
1
 10
452.156863
 20
1124.215686
 11
722.156863
 21
1124.215686
  0
LINE
  8
73CONTINUOUS
  6
CONTINUOUS
 62
1
 10
452.156863
 20
1083.715686
 11
722.156863
 21
1083.715686
  0
LINE
  8
73CONTINUOUS
  6
CONTINUOUS
 62
1
 10
452.156863
 20
1043.215686
 11
722.156863
 21
1043.215686
  0
LINE
  8
73CONTINUOUS
  6
CONTINUOUS
 62
1
 10
452.156863
 20
1002.715686
 11
722.156863
 21
1002.715686
  0
LINE
  8
73CONTINUOUS
  6
CONTINUOUS
 62
1
 10
452.156863
 20
962.215686
 11
722.156863
 21
962.215686
  0
LINE
  8
73CONTINUOUS
  6
CONTINUOUS
 62
1
 10
452.156863
 20
921.715686
 11
722.156863
 21
921.715686
  0
LINE
  8
73CONTINUOUS
  6
CONTINUOUS
 62
1
 10
732.156863
 20
881.215686
 11
757.156863
 21
881.215686
  0
LINE
  8
73CONTINUOUS
  6
CONTINUOUS
 62
1
 10
757.156863
 20
881.215686
 11
757.156863
 21
1261.215686
  0
LINE
  8
73CONTINUOUS
  6
CONTINUOUS
 62
1
 10
757.156863
 20
1261.215686
 11
732.156863
 21
1261.215686
  0
LINE
  8
73CONTINUOUS
  6
CONTINUOUS
 62
1
 10
732.156863
 20
1261.215686
 11
732.156863
 21
881.215686
  0
LINE
  8
73CONTINUOUS
  6
CONTINUOUS
 62
1
 10
757.156863
 20
881.215686
 11
772.156863
 21
881.215686
  0
LINE
  8
73CONTINUOUS
  6
CONTINUOUS
 62
1
 10
772.156863
 20
881.215686
 11
772.156863
 21
911.215686
  0
LINE
  8
73CONTINUOUS
  6
CONTINUOUS
 62
1
 10
772.156863
 20
911.215686
 11
757.156863
 21
911.215686
  0
LINE
  8
73CONTINUOUS
  6
CONTINUOUS
 62
1
 10
757.156863
 20
1231.215686
 11
772.156863
 21
1231.215686
  0
LINE
  8
73CONTINUOUS
  6
CONTINUOUS
 62
1
 10
772.156863
 20
1231.215686
 11
772.156863
 21
1261.215686
  0
LINE
  8
73CONTINUOUS
  6
CONTINUOUS
 62
1
 10
772.156863
 20
1261.215686
 11
757.156863
 21
1261.215686
  0
ARC
  8
73CONTINUOUS
  6
CONTINUOUS
 62
1
 10
897.156863
 20
1226.215686
 40
35.000000
 50
90.001000
 51
180.001000
  0
LINE
  8
73CONTINUOUS
  6
CONTINUOUS
 62
1
 10
862.156863
 20
1226.215686
 11
862.156863
 21
916.215686
  0
ARC
  8
73CONTINUOUS
  6
CONTINUOUS
 62
1
 10
897.156863
 20
916.215686
 40
35.000000
 50
180.000000
 51
270.000000
  0
LINE
  8
73CONTINUOUS
  6
CONTINUOUS
 62
1
 10
897.156863
 20
881.215686
 11
1097.156863
 21
881.215686
  0
ARC
  8
73CONTINUOUS
  6
CONTINUOUS
 62
1
 10
1097.156863
 20
916.215686
 40
35.000000
 50
270.000000
 51
0.000000
  0
LINE
  8
73CONTINUOUS
  6
CONTINUOUS
 62
1
 10
1132.156863
 20
916.215686
 11
1132.156863
 21
1226.215686
  0
ARC
  8
73CONTINUOUS
  6
CONTINUOUS
 62
1
 10
1097.156863
 20
1226.215686
 40
35.000000
 50
0.000000
 51
90.000000
  0
LINE
  8
73CONTINUOUS
  6
CONTINUOUS
 62
1
 10
1097.156863
 20
1261.215686
 11
897.156863
 21
1261.215686
  0
LINE
  8
73CONTINUOUS
  6
CONTINUOUS
 62
1
 10
1132.156863
 20
1220.715686
 11
862.156863
 21
1220.715686
  0
LINE
  8
73CONTINUOUS
  6
CONTINUOUS
 62
1
 10
1132.156863
 20
1164.715686
 11
862.156863
 21
1164.715686
  0
LINE
  8
73CONTINUOUS
  6
CONTINUOUS
 62
1
 10
1132.156863
 20
1124.215686
 11
862.156863
 21
1124.215686
  0
LINE
  8
73CONTINUOUS
  6
CONTINUOUS
 62
1
 10
1132.156863
 20
1083.715686
 11
862.156863
 21
1083.715686
  0
LINE
  8
73CONTINUOUS
  6
CONTINUOUS
 62
1
 10
1132.156863
 20
1043.215686
 11
862.156863
 21
1043.215686
  0
LINE
  8
73CONTINUOUS
  6
CONTINUOUS
 62
1
 10
1132.156863
 20
1002.715686
 11
862.156863
 21
1002.715686
  0
LINE
  8
73CONTINUOUS
  6
CONTINUOUS
 62
1
 10
1132.156863
 20
962.215686
 11
862.156863
 21
962.215686
  0
LINE
  8
73CONTINUOUS
  6
CONTINUOUS
 62
1
 10
1132.156863
 20
921.715686
 11
862.156863
 21
921.715686
  0
LINE
  8
73CONTINUOUS
  6
CONTINUOUS
 62
1
 10
852.156863
 20
881.215686
 11
852.156863
 21
1261.215686
  0
LINE
  8
73CONTINUOUS
  6
CONTINUOUS
 62
1
 10
852.156863
 20
1261.215686
 11
827.156863
 21
1261.215686
  0
LINE
  8
73CONTINUOUS
  6
CONTINUOUS
 62
1
 10
827.156863
 20
1261.215686
 11
827.156863
 21
881.215686
  0
LINE
  8
73CONTINUOUS
  6
CONTINUOUS
 62
1
 10
827.156863
 20
881.215686
 11
852.156863
 21
881.215686
  0
LINE
  8
73CONTINUOUS
  6
CONTINUOUS
 62
1
 10
827.156863
 20
911.215686
 11
812.156863
 21
911.215686
  0
LINE
  8
73CONTINUOUS
  6
CONTINUOUS
 62
1
 10
812.156863
 20
911.215686
 11
812.156863
 21
881.215686
  0
LINE
  8
73CONTINUOUS
  6
CONTINUOUS
 62
1
 10
812.156863
 20
881.215686
 11
827.156863
 21
881.215686
  0
LINE
  8
73CONTINUOUS
  6
CONTINUOUS
 62
1
 10
827.156863
 20
1261.215686
 11
812.156863
 21
1261.215686
  0
LINE
  8
73CONTINUOUS
  6
CONTINUOUS
 62
1
 10
812.156863
 20
1261.215686
 11
812.156863
 21
1231.215686
  0
LINE
  8
73CONTINUOUS
  6
CONTINUOUS
 62
1
 10
812.156863
 20
1231.215686
 11
827.156863
 21
1231.215686
  0
LINE
  8
73CONTINUOUS
  6
CONTINUOUS
 62
1
 10
1192.156863
 20
1321.215686
 11
1192.156863
 21
821.215686
  0
LINE
  8
73CONTINUOUS
  6
CONTINUOUS
 62
1
 10
1262.156863
 20
806.215686
 11
1262.156863
 21
750.215686
  0
LINE
  8
73CONTINUOUS
  6
CONTINUOUS
 62
1
 10
1242.156863
 20
750.215686
 11
1242.156863
 21
806.215686
  0
LINE
  8
73CONTINUOUS
  6
CONTINUOUS
 62
1
 10
1222.156863
 20
806.215686
 11
1222.156863
 21
750.215686
  0
LINE
  8
73CONTINUOUS
  6
CONTINUOUS
 62
1
 10
1202.156863
 20
750.215686
 11
1202.156863
 21
806.215686
  0
LINE
  8
73CONTINUOUS
  6
CONTINUOUS
 62
1
 10
1182.156863
 20
806.215686
 11
1182.156863
 21
750.215686
  0
LINE
  8
73CONTINUOUS
  6
CONTINUOUS
 62
1
 10
1162.156863
 20
750.215686
 11
1162.156863
 21
806.215686
  0
LINE
  8
73CONTINUOUS
  6
CONTINUOUS
 62
1
 10
1142.156863
 20
806.215686
 11
1142.156863
 21
750.215686
  0
LINE
  8
73CONTINUOUS
  6
CONTINUOUS
 62
1
 10
1122.156863
 20
750.215686
 11
1122.156863
 21
806.215686
  0
LINE
  8
73CONTINUOUS
  6
CONTINUOUS
 62
1
 10
1102.156863
 20
806.215686
 11
1102.156863
 21
750.215686
  0
LINE
  8
73CONTINUOUS
  6
CONTINUOUS
 62
1
 10
1082.156863
 20
750.215686
 11
1082.156863
 21
806.215686
  0
LINE
  8
73CONTINUOUS
  6
CONTINUOUS
 62
1
 10
1062.156863
 20
806.215686
 11
1062.156863
 21
750.215686
  0
LINE
  8
73CONTINUOUS
  6
CONTINUOUS
 62
1
 10
1042.156863
 20
750.215686
 11
1042.156863
 21
806.215686
  0
LINE
  8
73CONTINUOUS
  6
CONTINUOUS
 62
1
 10
1022.156863
 20
806.215686
 11
1022.156863
 21
750.215686
  0
LINE
  8
73CONTINUOUS
  6
CONTINUOUS
 62
1
 10
1002.156863
 20
750.215686
 11
1002.156863
 21
806.215686
  0
LINE
  8
73CONTINUOUS
  6
CONTINUOUS
 62
1
 10
982.156863
 20
806.215686
 11
982.156863
 21
750.215686
  0
LINE
  8
73CONTINUOUS
  6
CONTINUOUS
 62
1
 10
962.156863
 20
750.215686
 11
962.156863
 21
806.215686
  0
LINE
  8
73CONTINUOUS
  6
CONTINUOUS
 62
1
 10
942.156863
 20
806.215686
 11
942.156863
 21
750.215686
  0
LINE
  8
73CONTINUOUS
  6
CONTINUOUS
 62
1
 10
922.156863
 20
750.215686
 11
922.156863
 21
806.215686
  0
LINE
  8
73CONTINUOUS
  6
CONTINUOUS
 62
1
 10
902.156863
 20
806.215686
 11
902.156863
 21
750.215686
  0
LINE
  8
73CONTINUOUS
  6
CONTINUOUS
 62
1
 10
882.156863
 20
750.215686
 11
882.156863
 21
806.215686
  0
LINE
  8
73CONTINUOUS
  6
CONTINUOUS
 62
1
 10
862.156863
 20
806.215686
 11
862.156863
 21
750.215686
  0
LINE
  8
73CONTINUOUS
  6
CONTINUOUS
 62
1
 10
842.156863
 20
750.215686
 11
842.156863
 21
806.215686
  0
LINE
  8
73CONTINUOUS
  6
CONTINUOUS
 62
1
 10
822.156863
 20
806.215686
 11
822.156863
 21
750.215686
  0
LINE
  8
73CONTINUOUS
  6
CONTINUOUS
 62
1
 10
802.156863
 20
750.215686
 11
802.156863
 21
806.215686
  0
LINE
  8
73CONTINUOUS
  6
CONTINUOUS
 62
1
 10
782.156863
 20
806.215686
 11
782.156863
 21
750.215686
  0
LINE
  8
73CONTINUOUS
  6
CONTINUOUS
 62
1
 10
762.156863
 20
750.215686
 11
762.156863
 21
806.215686
  0
LINE
  8
73CONTINUOUS
  6
CONTINUOUS
 62
1
 10
742.156863
 20
806.215686
 11
742.156863
 21
750.215686
  0
LINE
  8
73CONTINUOUS
  6
CONTINUOUS
 62
1
 10
722.156863
 20
750.215686
 11
722.156863
 21
806.215686
  0
LINE
  8
73CONTINUOUS
  6
CONTINUOUS
 62
1
 10
702.156863
 20
806.215686
 11
702.156863
 21
750.215686
  0
LINE
  8
73CONTINUOUS
  6
CONTINUOUS
 62
1
 10
682.156863
 20
750.215686
 11
682.156863
 21
806.215686
  0
LINE
  8
73CONTINUOUS
  6
CONTINUOUS
 62
1
 10
662.156863
 20
806.215686
 11
662.156863
 21
750.215686
  0
LINE
  8
73CONTINUOUS
  6
CONTINUOUS
 62
1
 10
642.156863
 20
750.215686
 11
642.156863
 21
806.215686
  0
LINE
  8
73CONTINUOUS
  6
CONTINUOUS
 62
1
 10
622.156863
 20
806.215686
 11
622.156863
 21
750.215686
  0
LINE
  8
73CONTINUOUS
  6
CONTINUOUS
 62
1
 10
602.156863
 20
750.215686
 11
602.156863
 21
806.215686
  0
LINE
  8
73CONTINUOUS
  6
CONTINUOUS
 62
1
 10
582.156863
 20
806.215686
 11
582.156863
 21
750.215686
  0
LINE
  8
73CONTINUOUS
  6
CONTINUOUS
 62
1
 10
562.156863
 20
750.215686
 11
562.156863
 21
806.215686
  0
LINE
  8
73CONTINUOUS
  6
CONTINUOUS
 62
1
 10
542.156863
 20
806.215686
 11
542.156863
 21
750.215686
  0
LINE
  8
73CONTINUOUS
  6
CONTINUOUS
 62
1
 10
522.156863
 20
750.215686
 11
522.156863
 21
806.215686
  0
LINE
  8
73CONTINUOUS
  6
CONTINUOUS
 62
1
 10
502.156863
 20
806.215686
 11
502.156863
 21
750.215686
  0
LINE
  8
73CONTINUOUS
  6
CONTINUOUS
 62
1
 10
482.156863
 20
750.215686
 11
482.156863
 21
806.215686
  0
LINE
  8
73CONTINUOUS
  6
CONTINUOUS
 62
1
 10
462.156863
 20
806.215686
 11
462.156863
 21
750.215686
  0
LINE
  8
73CONTINUOUS
  6
CONTINUOUS
 62
1
 10
442.156863
 20
750.215686
 11
442.156863
 21
806.215686
  0
LINE
  8
73CONTINUOUS
  6
CONTINUOUS
 62
1
 10
422.156863
 20
806.215686
 11
422.156863
 21
750.215686
  0
LINE
  8
73CONTINUOUS
  6
CONTINUOUS
 62
1
 10
407.156863
 20
671.215686
 11
1277.156863
 21
671.215686
  0
LINE
  8
73CONTINUOUS
  6
CONTINUOUS
 62
1
 10
1292.156863
 20
1361.215686
 11
1292.156863
 21
671.215686
  0
LINE
  8
73CONTINUOUS
  6
CONTINUOUS
 62
1
 10
1292.156863
 20
671.215686
 11
1277.156863
 21
671.215686
  0
LINE
  8
73CONTINUOUS
  6
CONTINUOUS
 62
1
 10
1277.156863
 20
671.215686
 11
1277.156863
 21
656.215686
  0
LINE
  8
73CONTINUOUS
  6
CONTINUOUS
 62
1
 10
1277.156863
 20
656.215686
 11
1277.156863
 21
671.215686
  0
LINE
  8
73CONTINUOUS
  6
CONTINUOUS
 62
1
 10
1277.156863
 20
671.215686
 11
1277.156863
 21
656.215686
  0
LINE
  8
73CONTINUOUS
  6
CONTINUOUS
 62
1
 10
1277.156863
 20
656.215686
 11
407.156863
 21
656.215686
  0
LINE
  8
73CONTINUOUS
  6
CONTINUOUS
 62
1
 10
407.156863
 20
656.215686
 11
407.156863
 21
671.215686
  0
LINE
  8
73CONTINUOUS
  6
CONTINUOUS
 62
1
 10
407.156863
 20
671.215686
 11
407.156863
 21
656.215686
  0
LINE
  8
73CONTINUOUS
  6
CONTINUOUS
 62
1
 10
407.156863
 20
656.215686
 11
407.156863
 21
671.215686
  0
LINE
  8
73CONTINUOUS
  6
CONTINUOUS
 62
1
 10
407.156863
 20
671.215686
 11
392.156863
 21
671.215686
  0
LINE
  8
73CONTINUOUS
  6
CONTINUOUS
 62
1
 10
392.156863
 20
671.215686
 11
392.156863
 21
821.215686
  0
LINE
  8
73CONTINUOUS
  6
CONTINUOUS
 62
1
 10
392.156863
 20
821.215686
 11
392.156863
 21
1321.215686
  0
LINE
  8
73CONTINUOUS
  6
CONTINUOUS
 62
1
 10
392.156863
 20
1321.215686
 11
392.156863
 21
1361.215686
  0
LINE
  8
73CONTINUOUS
  6
CONTINUOUS
 62
1
 10
457.746863
 20
656.215686
 11
462.156863
 21
559.215686
  0
LINE
  8
73CONTINUOUS
  6
CONTINUOUS
 62
1
 10
462.156863
 20
559.215686
 11
467.156863
 21
559.215686
  0
LINE
  8
73CONTINUOUS
  6
CONTINUOUS
 62
1
 10
467.156863
 20
559.215686
 11
467.156863
 21
549.215686
  0
LINE
  8
73CONTINUOUS
  6
CONTINUOUS
 62
1
 10
467.156863
 20
549.215686
 11
457.156863
 21
539.215686
  0
LINE
  8
73CONTINUOUS
  6
CONTINUOUS
 62
1
 10
457.156863
 20
539.215686
 11
507.156863
 21
539.215686
  0
LINE
  8
73CONTINUOUS
  6
CONTINUOUS
 62
1
 10
507.156863
 20
539.215686
 11
497.156863
 21
549.215686
  0
LINE
  8
73CONTINUOUS
  6
CONTINUOUS
 62
1
 10
497.156863
 20
549.215686
 11
497.156863
 21
559.215686
  0
LINE
  8
73CONTINUOUS
  6
CONTINUOUS
 62
1
 10
497.156863
 20
559.215686
 11
502.156863
 21
559.215686
  0
LINE
  8
73CONTINUOUS
  6
CONTINUOUS
 62
1
 10
502.156863
 20
559.215686
 11
506.566863
 21
656.215686
  0
LINE
  8
73CONTINUOUS
  6
CONTINUOUS
 62
1
 10
467.156863
 20
559.215686
 11
497.156863
 21
559.215686
  0
LINE
  8
73CONTINUOUS
  6
CONTINUOUS
 62
1
 10
497.156863
 20
549.215686
 11
467.156863
 21
549.215686
  0
LINE
  8
73CONTINUOUS
  6
CONTINUOUS
 62
1
 10
457.746863
 20
656.215686
 11
462.156863
 21
559.215686
  0
LINE
  8
73CONTINUOUS
  6
CONTINUOUS
 62
1
 10
462.156863
 20
559.215686
 11
467.156863
 21
559.215686
  0
LINE
  8
73CONTINUOUS
  6
CONTINUOUS
 62
1
 10
467.156863
 20
559.215686
 11
467.156863
 21
549.215686
  0
LINE
  8
73CONTINUOUS
  6
CONTINUOUS
 62
1
 10
467.156863
 20
549.215686
 11
457.156863
 21
539.215686
  0
LINE
  8
73CONTINUOUS
  6
CONTINUOUS
 62
1
 10
457.156863
 20
539.215686
 11
507.156863
 21
539.215686
  0
LINE
  8
73CONTINUOUS
  6
CONTINUOUS
 62
1
 10
507.156863
 20
539.215686
 11
497.156863
 21
549.215686
  0
LINE
  8
73CONTINUOUS
  6
CONTINUOUS
 62
1
 10
497.156863
 20
549.215686
 11
497.156863
 21
559.215686
  0
LINE
  8
73CONTINUOUS
  6
CONTINUOUS
 62
1
 10
497.156863
 20
559.215686
 11
502.156863
 21
559.215686
  0
LINE
  8
73CONTINUOUS
  6
CONTINUOUS
 62
1
 10
502.156863
 20
559.215686
 11
506.566863
 21
656.215686
  0
LINE
  8
73CONTINUOUS
  6
CONTINUOUS
 62
1
 10
1197.746863
 20
656.215686
 11
1202.156863
 21
559.215686
  0
LINE
  8
73CONTINUOUS
  6
CONTINUOUS
 62
1
 10
1202.156863
 20
559.215686
 11
1207.156863
 21
559.215686
  0
LINE
  8
73CONTINUOUS
  6
CONTINUOUS
 62
1
 10
1207.156863
 20
559.215686
 11
1207.156863
 21
549.215686
  0
LINE
  8
73CONTINUOUS
  6
CONTINUOUS
 62
1
 10
1207.156863
 20
549.215686
 11
1197.156863
 21
539.215686
  0
LINE
  8
73CONTINUOUS
  6
CONTINUOUS
 62
1
 10
1197.156863
 20
539.215686
 11
1247.156863
 21
539.215686
  0
LINE
  8
73CONTINUOUS
  6
CONTINUOUS
 62
1
 10
1247.156863
 20
539.215686
 11
1237.156863
 21
549.215686
  0
LINE
  8
73CONTINUOUS
  6
CONTINUOUS
 62
1
 10
1237.156863
 20
549.215686
 11
1237.156863
 21
559.215686
  0
LINE
  8
73CONTINUOUS
  6
CONTINUOUS
 62
1
 10
1237.156863
 20
559.215686
 11
1242.156863
 21
559.215686
  0
LINE
  8
73CONTINUOUS
  6
CONTINUOUS
 62
1
 10
1242.156863
 20
559.215686
 11
1246.566863
 21
656.215686
  0
LINE
  8
73CONTINUOUS
  6
CONTINUOUS
 62
1
 10
1207.156863
 20
559.215686
 11
1237.156863
 21
559.215686
  0
LINE
  8
73CONTINUOUS
  6
CONTINUOUS
 62
1
 10
1237.156863
 20
549.215686
 11
1207.156863
 21
549.215686
  0
LINE
  8
73CONTINUOUS
  6
CONTINUOUS
 62
1
 10
1197.746863
 20
656.215686
 11
1202.156863
 21
559.215686
  0
LINE
  8
73CONTINUOUS
  6
CONTINUOUS
 62
1
 10
1202.156863
 20
559.215686
 11
1207.156863
 21
559.215686
  0
LINE
  8
73CONTINUOUS
  6
CONTINUOUS
 62
1
 10
1207.156863
 20
559.215686
 11
1207.156863
 21
549.215686
  0
LINE
  8
73CONTINUOUS
  6
CONTINUOUS
 62
1
 10
1207.156863
 20
549.215686
 11
1197.156863
 21
539.215686
  0
LINE
  8
73CONTINUOUS
  6
CONTINUOUS
 62
1
 10
1197.156863
 20
539.215686
 11
1247.156863
 21
539.215686
  0
LINE
  8
73CONTINUOUS
  6
CONTINUOUS
 62
1
 10
1247.156863
 20
539.215686
 11
1237.156863
 21
549.215686
  0
LINE
  8
73CONTINUOUS
  6
CONTINUOUS
 62
1
 10
1237.156863
 20
549.215686
 11
1237.156863
 21
559.215686
  0
LINE
  8
73CONTINUOUS
  6
CONTINUOUS
 62
1
 10
1237.156863
 20
559.215686
 11
1242.156863
 21
559.215686
  0
LINE
  8
73CONTINUOUS
  6
CONTINUOUS
 62
1
 10
1242.156863
 20
559.215686
 11
1246.566863
 21
656.215686
  0
ARC
  8
73CONTINUOUS
  6
CONTINUOUS
 62
1
 10
1222.156863
 20
1266.215686
 40
6.000000
 50
180.000000
 51
0.000000
  0
ARC
  8
73CONTINUOUS
  6
CONTINUOUS
 62
1
 10
1222.156863
 20
1266.215686
 40
6.000000
 50
0.000000
 51
180.000000
  0
ARC
  8
73CONTINUOUS
  6
CONTINUOUS
 62
1
 10
1262.156863
 20
1266.215686
 40
6.000000
 50
180.000000
 51
0.000000
  0
ARC
  8
73CONTINUOUS
  6
CONTINUOUS
 62
1
 10
1262.156863
 20
1266.215686
 40
6.000000
 50
0.000000
 51
180.000000
  0
ARC
  8
73CONTINUOUS
  6
CONTINUOUS
 62
1
 10
1242.156863
 20
1216.215686
 40
17.500000
 50
180.000000
 51
0.000000
  0
ARC
  8
73CONTINUOUS
  6
CONTINUOUS
 62
1
 10
1242.156863
 20
1216.215686
 40
17.500000
 50
0.000000
 51
180.000000
  0
ARC
  8
73CONTINUOUS
  6
CONTINUOUS
 62
1
 10
1242.156863
 20
1216.215686
 40
25.000000
 50
180.000000
 51
0.000000
  0
ARC
  8
73CONTINUOUS
  6
CONTINUOUS
 62
1
 10
1242.156863
 20
1216.215686
 40
25.000000
 50
0.000000
 51
180.000000
  0
ARC
  8
73CONTINUOUS
  6
CONTINUOUS
 62
1
 10
1242.156863
 20
1156.215686
 40
6.000000
 50
180.000000
 51
0.000000
  0
ARC
  8
73CONTINUOUS
  6
CONTINUOUS
 62
1
 10
1242.156863
 20
1156.215686
 40
6.000000
 50
0.000000
 51
180.000000
  0
ARC
  8
73CONTINUOUS
  6
CONTINUOUS
 62
1
 10
1242.156863
 20
1096.215686
 40
16.500000
 50
180.000000
 51
0.000000
  0
ARC
  8
73CONTINUOUS
  6
CONTINUOUS
 62
1
 10
1242.156863
 20
1096.215686
 40
16.500000
 50
0.000000
 51
180.000000
  0
ARC
  8
73CONTINUOUS
  6
CONTINUOUS
 62
1
 10
1242.156863
 20
1096.215686
 40
22.500000
 50
180.000000
 51
0.000000
  0
ARC
  8
73CONTINUOUS
  6
CONTINUOUS
 62
1
 10
1242.156863
 20
1096.215686
 40
22.500000
 50
0.000000
 51
180.000000
  0
LINE
  8
73CONTINUOUS
  6
CONTINUOUS
 62
1
 10
1234.656863
 20
1021.215686
 11
1249.656863
 21
1021.215686
  0
LINE
  8
73CONTINUOUS
  6
CONTINUOUS
 62
1
 10
1249.656863
 20
1021.215686
 11
1249.656863
 21
1051.215686
  0
LINE
  8
73CONTINUOUS
  6
CONTINUOUS
 62
1
 10
1249.656863
 20
1051.215686
 11
1234.656863
 21
1051.215686
  0
LINE
  8
73CONTINUOUS
  6
CONTINUOUS
 62
1
 10
1234.656863
 20
1051.215686
 11
1234.656863
 21
1021.215686
  0
ENDSEC
  0
EOF
