  0
SECTION
  2
HEADER
  9
$LIMMIN
 10
0.000000
 20
0.000000
  9
$LIMMAX
 10
900.000000
 20
909.200000
  9
$EXTMIN
 10
0.000000
 20
0.000000
  9
$EXTMAX
 10
3300.000000
 20
2300.000000
  9
$ANGBASE
 50
0.0
  9
$ANGDIR
 70
0
  9
$DIMRND
 40
0.100000
  9
$DIMSE1
 70
0
  9
$DIMSE2
 70
0
  9
$DIMTXT
 40
3.500000
  9
$LTSCALE
 40
1.000000
  9
$LUPREC
 70
5
  9
$AUPREC
 70
5
  9
$PDMODE
 70
2
  9
$PDSIZE
 40
16.500000
  0
ENDSEC
  0
SECTION
  2
TABLES
  0
TABLE
  2
VPORT
  70
1
  0
VPORT
  2
*ACTIVE
 70
0
  10
0.0
 20
0.0
 11
1.0
 21
1.0
 12
594.0
 22
420.0
 13
0.0
 23
0.0
 14
10.0
 24
10.0
 15
10.0
 25
10.0
 16
0.0
 26
0.0
 36
1.0
 17
594.0
 27
420.0
 37
100.0
 40
1000.0
 41
1.0
 42
50.0
 43
0.0
 44
0.0
 50
0.0
 51
0.0
 71
0
 72
2000
 73
1
 74
3
 75
0
 76
0
 77
0
 78
1
  0
ENDTAB
  0
TABLE
  2
LTYPE
 70
4
  0
LTYPE
  2
CONTINUOUS
 70
0
  3
Solid line
 72
65
 73
0
 40
0.0
  0
LTYPE
  2
DASHED
 70
0
  3
Dashed line
 72
65
 73
2
 40
6.000000
 49
3.000000
 49
-3.000000
  0
LTYPE
  2
CENTER
 70
0
  3
Chain line
 72
65
 73
4
 40
24.000000
 49
15.000000
 49
-3.000000
 49
3.000000
 49
-3.000000
  0
LTYPE
  2
RANDOM
 70
0
  3
Random line
 72
65
 73
4
 40
22.500000
 49
6.000000
 49
-3.000000
 49
4.500000
 49
-9.000000
  0
ENDTAB
  0
TABLE
  2
STYLE
 70
9
  0
STYLE
  2
STANDARD
 40
0
 41
1.0
 50
0.0
 71
0
 42
0
  3
simplex
  4

 70
0
  0
ENDTAB
  0
TABLE
  2
LAYER
 70
7
  0
LAYER
  2
0
 70
0
 62
7
  6
CONTINUOUS
  0
LAYER
  2
0
 62
1
  6
CONTINUOUS
 70
0
  0
LAYER
  2
MODEL
 62
1
  6
CONTINUOUS
 70
0
  0
LAYER
  2
MODEL-0
 62
1
  6
CONTINUOUS
 70
0
  0
LAYER
  2
MODEL-MODEL-73CONTINUOUS
 62
1
  6
CONTINUOUS
 70
0
  0
LAYER
  2
MODEL-MODEL-73ADSDOT
 62
1
  6
CONTINUOUS
 70
0
  0
LAYER
  2
73CONTINUOUS
 62
1
  6
CONTINUOUS
 70
0
  0
ENDTAB
  0
ENDSEC
  0
SECTION
  2
BLOCKS
  0
ENDSEC
  0
SECTION
  2
ENTITIES
  0
LINE
  8
0
  6
CONTINUOUS
 62
1
 10
520.000000
 20
834.200000
 11
520.000000
 21
899.200000
  0
LINE
  8
0
  6
CONTINUOUS
 62
1
 10
520.000000
 20
899.200000
 11
270.000000
 21
899.200000
  0
LINE
  8
0
  6
CONTINUOUS
 62
1
 10
270.000000
 20
899.200000
 11
270.000000
 21
834.200000
  0
LINE
  8
MODEL-0
  6
CONTINUOUS
 62
1
 10
900.000000
 20
64.200000
 11
0.000000
 21
64.200000
  0
LINE
  8
MODEL-MODEL-73CONTINUOUS
  6
CONTINUOUS
 62
1
 10
77.500000
 20
828.200000
 11
51.500000
 21
828.200000
  0
LINE
  8
MODEL-MODEL-73CONTINUOUS
  6
CONTINUOUS
 62
1
 10
51.500000
 20
828.200000
 11
51.500000
 21
802.200000
  0
LINE
  8
MODEL-MODEL-73CONTINUOUS
  6
CONTINUOUS
 62
1
 10
51.500000
 20
802.200000
 11
77.500000
 21
802.200000
  0
LINE
  8
MODEL-MODEL-73CONTINUOUS
  6
CONTINUOUS
 62
1
 10
77.500000
 20
802.200000
 11
77.500000
 21
828.200000
  0
LINE
  8
MODEL-MODEL-73CONTINUOUS
  6
CONTINUOUS
 62
1
 10
822.500000
 20
828.200000
 11
848.500000
 21
828.200000
  0
LINE
  8
MODEL-MODEL-73CONTINUOUS
  6
CONTINUOUS
 62
1
 10
848.500000
 20
828.200000
 11
848.500000
 21
802.200000
  0
LINE
  8
MODEL-MODEL-73CONTINUOUS
  6
CONTINUOUS
 62
1
 10
848.500000
 20
802.200000
 11
822.500000
 21
802.200000
  0
LINE
  8
MODEL-MODEL-73CONTINUOUS
  6
CONTINUOUS
 62
1
 10
822.500000
 20
802.200000
 11
822.500000
 21
828.200000
  0
LINE
  8
MODEL-MODEL-73CONTINUOUS
  6
CONTINUOUS
 62
1
 10
795.000000
 20
828.200000
 11
105.000000
 21
828.200000
  0
LINE
  8
MODEL-MODEL-73CONTINUOUS
  6
CONTINUOUS
 62
1
 10
105.000000
 20
828.200000
 11
105.000000
 21
802.200000
  0
LINE
  8
MODEL-MODEL-73CONTINUOUS
  6
CONTINUOUS
 62
1
 10
105.000000
 20
802.200000
 11
795.000000
 21
802.200000
  0
LINE
  8
MODEL-MODEL-73CONTINUOUS
  6
CONTINUOUS
 62
1
 10
795.000000
 20
802.200000
 11
795.000000
 21
828.200000
  0
LINE
  8
MODEL-MODEL-73CONTINUOUS
  6
CONTINUOUS
 62
1
 10
776.400000
 20
802.200000
 11
776.400000
 21
828.200000
  0
LINE
  8
MODEL-MODEL-73CONTINUOUS
  6
CONTINUOUS
 62
1
 10
749.200000
 20
828.200000
 11
749.200000
 21
802.200000
  0
LINE
  8
MODEL-MODEL-73CONTINUOUS
  6
CONTINUOUS
 62
1
 10
722.000000
 20
802.200000
 11
722.000000
 21
828.200000
  0
LINE
  8
MODEL-MODEL-73CONTINUOUS
  6
CONTINUOUS
 62
1
 10
694.800000
 20
828.200000
 11
694.800000
 21
802.200000
  0
LINE
  8
MODEL-MODEL-73CONTINUOUS
  6
CONTINUOUS
 62
1
 10
667.600000
 20
802.200000
 11
667.600000
 21
828.200000
  0
LINE
  8
MODEL-MODEL-73CONTINUOUS
  6
CONTINUOUS
 62
1
 10
640.400000
 20
828.200000
 11
640.400000
 21
802.200000
  0
LINE
  8
MODEL-MODEL-73CONTINUOUS
  6
CONTINUOUS
 62
1
 10
613.200000
 20
802.200000
 11
613.200000
 21
828.200000
  0
LINE
  8
MODEL-MODEL-73CONTINUOUS
  6
CONTINUOUS
 62
1
 10
586.000000
 20
828.200000
 11
586.000000
 21
802.200000
  0
LINE
  8
MODEL-MODEL-73CONTINUOUS
  6
CONTINUOUS
 62
1
 10
558.800000
 20
802.200000
 11
558.800000
 21
828.200000
  0
LINE
  8
MODEL-MODEL-73CONTINUOUS
  6
CONTINUOUS
 62
1
 10
531.600000
 20
828.200000
 11
531.600000
 21
802.200000
  0
LINE
  8
MODEL-MODEL-73CONTINUOUS
  6
CONTINUOUS
 62
1
 10
504.400000
 20
802.200000
 11
504.400000
 21
828.200000
  0
LINE
  8
MODEL-MODEL-73CONTINUOUS
  6
CONTINUOUS
 62
1
 10
477.200000
 20
828.200000
 11
477.200000
 21
802.200000
  0
LINE
  8
MODEL-MODEL-73CONTINUOUS
  6
CONTINUOUS
 62
1
 10
450.000000
 20
802.200000
 11
450.000000
 21
828.200000
  0
LINE
  8
MODEL-MODEL-73CONTINUOUS
  6
CONTINUOUS
 62
1
 10
422.800000
 20
828.200000
 11
422.800000
 21
802.200000
  0
LINE
  8
MODEL-MODEL-73CONTINUOUS
  6
CONTINUOUS
 62
1
 10
395.600000
 20
802.200000
 11
395.600000
 21
828.200000
  0
LINE
  8
MODEL-MODEL-73CONTINUOUS
  6
CONTINUOUS
 62
1
 10
368.400000
 20
828.200000
 11
368.400000
 21
802.200000
  0
LINE
  8
MODEL-MODEL-73CONTINUOUS
  6
CONTINUOUS
 62
1
 10
341.200000
 20
802.200000
 11
341.200000
 21
828.200000
  0
LINE
  8
MODEL-MODEL-73CONTINUOUS
  6
CONTINUOUS
 62
1
 10
314.000000
 20
828.200000
 11
314.000000
 21
802.200000
  0
LINE
  8
MODEL-MODEL-73CONTINUOUS
  6
CONTINUOUS
 62
1
 10
286.800000
 20
802.200000
 11
286.800000
 21
828.200000
  0
LINE
  8
MODEL-MODEL-73CONTINUOUS
  6
CONTINUOUS
 62
1
 10
259.600000
 20
828.200000
 11
259.600000
 21
802.200000
  0
LINE
  8
MODEL-MODEL-73CONTINUOUS
  6
CONTINUOUS
 62
1
 10
232.400000
 20
802.200000
 11
232.400000
 21
828.200000
  0
LINE
  8
MODEL-MODEL-73CONTINUOUS
  6
CONTINUOUS
 62
1
 10
205.200000
 20
828.200000
 11
205.200000
 21
802.200000
  0
LINE
  8
MODEL-MODEL-73CONTINUOUS
  6
CONTINUOUS
 62
1
 10
178.000000
 20
802.200000
 11
178.000000
 21
828.200000
  0
LINE
  8
MODEL-MODEL-73CONTINUOUS
  6
CONTINUOUS
 62
1
 10
150.800000
 20
828.200000
 11
150.800000
 21
802.200000
  0
LINE
  8
MODEL-MODEL-73CONTINUOUS
  6
CONTINUOUS
 62
1
 10
123.600000
 20
802.200000
 11
123.600000
 21
828.200000
  0
LINE
  8
MODEL-MODEL-73CONTINUOUS
  6
CONTINUOUS
 62
1
 10
0.000000
 20
796.200000
 11
900.000000
 21
796.200000
  0
LINE
  8
MODEL-MODEL-73CONTINUOUS
  6
CONTINUOUS
 62
1
 10
385.000000
 20
47.000000
 11
370.000000
 21
0.000000
  0
LINE
  8
MODEL-MODEL-73CONTINUOUS
  6
CONTINUOUS
 62
1
 10
370.000000
 20
0.000000
 11
345.000000
 21
10.000000
  0
LINE
  8
MODEL-MODEL-73CONTINUOUS
  6
CONTINUOUS
 62
1
 10
345.000000
 20
10.000000
 11
345.000000
 21
47.000000
  0
LINE
  8
MODEL-MODEL-73CONTINUOUS
  6
CONTINUOUS
 62
1
 10
415.000000
 20
47.000000
 11
430.000000
 21
0.000000
  0
LINE
  8
MODEL-MODEL-73CONTINUOUS
  6
CONTINUOUS
 62
1
 10
430.000000
 20
0.000000
 11
455.000000
 21
10.000000
  0
LINE
  8
MODEL-MODEL-73CONTINUOUS
  6
CONTINUOUS
 62
1
 10
455.000000
 20
10.000000
 11
455.000000
 21
47.000000
  0
LINE
  8
MODEL-MODEL-73CONTINUOUS
  6
CONTINUOUS
 62
1
 10
0.000000
 20
47.000000
 11
900.000000
 21
47.000000
  0
LINE
  8
MODEL-MODEL-73CONTINUOUS
  6
CONTINUOUS
 62
1
 10
900.000000
 20
47.000000
 11
900.000000
 21
834.200000
  0
LINE
  8
MODEL-MODEL-73CONTINUOUS
  6
CONTINUOUS
 62
1
 10
900.000000
 20
834.200000
 11
0.000000
 21
834.200000
  0
LINE
  8
MODEL-MODEL-73CONTINUOUS
  6
CONTINUOUS
 62
1
 10
0.000000
 20
834.200000
 11
0.000000
 21
47.000000
  0
ENDSEC
  0
EOF
