  0
SECTION
  2
HEADER
  9
$LIMMIN
 10
0.000000
 20
0.000000
  9
$LIMMAX
 10
3500.000000
 20
2500.000000
  9
$EXTMIN
 10
0.000000
 20
0.000000
  9
$EXTMAX
 10
3500.000000
 20
2500.000000
  9
$ANGBASE
 50
0.0
  9
$ANGDIR
 70
0
  9
$DIMRND
 40
0.100000
  9
$DIMSE1
 70
0
  9
$DIMSE2
 70
0
  9
$DIMTXT
 40
3.500000
  9
$LTSCALE
 40
1.000000
  9
$LUPREC
 70
5
  9
$AUPREC
 70
5
  9
$PDMODE
 70
2
  9
$PDSIZE
 40
17.500000
  0
ENDSEC
  0
SECTION
  2
TABLES
  0
TABLE
  2
VPORT
  70
1
  0
VPORT
  2
*ACTIVE
 70
0
  10
0.0
 20
0.0
 11
1.0
 21
1.0
 12
594.0
 22
420.0
 13
0.0
 23
0.0
 14
10.0
 24
10.0
 15
10.0
 25
10.0
 16
0.0
 26
0.0
 36
1.0
 17
594.0
 27
420.0
 37
100.0
 40
1000.0
 41
1.0
 42
50.0
 43
0.0
 44
0.0
 50
0.0
 51
0.0
 71
0
 72
2000
 73
1
 74
3
 75
0
 76
0
 77
0
 78
1
  0
ENDTAB
  0
TABLE
  2
LTYPE
 70
4
  0
LTYPE
  2
CONTINUOUS
 70
0
  3
Solid line
 72
65
 73
0
 40
0.0
  0
LTYPE
  2
DASHED
 70
0
  3
Dashed line
 72
65
 73
2
 40
6.000000
 49
3.000000
 49
-3.000000
  0
LTYPE
  2
CENTER
 70
0
  3
Chain line
 72
65
 73
4
 40
24.000000
 49
15.000000
 49
-3.000000
 49
3.000000
 49
-3.000000
  0
LTYPE
  2
RANDOM
 70
0
  3
Random line
 72
65
 73
4
 40
22.500000
 49
6.000000
 49
-3.000000
 49
4.500000
 49
-9.000000
  0
ENDTAB
  0
TABLE
  2
STYLE
 70
9
  0
STYLE
  2
STANDARD
 40
0
 41
1.0
 50
0.0
 71
0
 42
0
  3
simplex
  4

 70
0
  0
ENDTAB
  0
TABLE
  2
LAYER
 70
4
  0
LAYER
  2
0
 70
0
 62
7
  6
CONTINUOUS
  0
LAYER
  2
0
 62
1
  6
CONTINUOUS
 70
0
  0
LAYER
  2
73CONTINUOUS
 62
1
  6
CONTINUOUS
 70
0
  0
LAYER
  2
73ADSDOT
 62
1
  6
CONTINUOUS
 70
0
  0
ENDTAB
  0
ENDSEC
  0
SECTION
  2
BLOCKS
  0
ENDSEC
  0
SECTION
  2
ENTITIES
  0
LINE
  8
0
  6
CONTINUOUS
 62
1
 10
1411.566033
 20
1720.775963
 11
1231.796033
 21
1720.775963
  0
ARC
  8
0
  6
CONTINUOUS
 62
1
 10
1231.796033
 20
1700.775963
 40
20.000000
 50
89.999000
 51
153.740000
  0
LINE
  8
0
  6
CONTINUOUS
 62
1
 10
1213.856033
 20
1709.625963
 11
1211.716033
 21
1705.275963
  0
LINE
  8
0
  6
CONTINUOUS
 62
1
 10
1451.196033
 20
1720.775963
 11
1451.196033
 21
1765.775963
  0
LINE
  8
0
  6
CONTINUOUS
 62
1
 10
1451.196033
 20
1765.775963
 11
901.196033
 21
1765.775963
  0
LINE
  8
0
  6
CONTINUOUS
 62
1
 10
901.196033
 20
1765.775963
 11
901.196033
 21
1720.775963
  0
LINE
  8
0
  6
CONTINUOUS
 62
1
 10
1476.196033
 20
1720.775963
 11
1476.196033
 21
1745.775963
  0
LINE
  8
0
  6
CONTINUOUS
 62
1
 10
1476.196033
 20
1745.775963
 11
1451.196033
 21
1745.775963
  0
LINE
  8
0
  6
CONTINUOUS
 62
1
 10
1476.196033
 20
1735.775963
 11
1451.196033
 21
1735.775963
  0
LINE
  8
0
  6
CONTINUOUS
 62
1
 10
876.196033
 20
1720.775963
 11
876.196033
 21
1745.775963
  0
LINE
  8
0
  6
CONTINUOUS
 62
1
 10
876.196033
 20
1745.775963
 11
901.196033
 21
1745.775963
  0
LINE
  8
0
  6
CONTINUOUS
 62
1
 10
901.196033
 20
1735.775963
 11
876.196033
 21
1735.775963
  0
ARC
  8
0
  6
CONTINUOUS
 62
1
 10
1426.196033
 20
1745.775963
 40
7.500000
 50
0.000000
 51
180.000000
  0
LINE
  8
0
  6
CONTINUOUS
 62
1
 10
1433.696033
 20
1745.775963
 11
1433.696033
 21
1742.775963
  0
ARC
  8
0
  6
CONTINUOUS
 62
1
 10
1381.196033
 20
1742.775963
 40
52.500000
 50
270.000000
 51
0.000000
  0
LINE
  8
0
  6
CONTINUOUS
 62
1
 10
1381.196033
 20
1690.275963
 11
971.196033
 21
1690.275963
  0
ARC
  8
0
  6
CONTINUOUS
 62
1
 10
971.196033
 20
1742.775963
 40
52.500000
 50
180.000000
 51
270.000000
  0
LINE
  8
0
  6
CONTINUOUS
 62
1
 10
918.696033
 20
1742.775963
 11
918.696033
 21
1745.775963
  0
ARC
  8
0
  6
CONTINUOUS
 62
1
 10
926.196033
 20
1745.775963
 40
7.500000
 50
0.000000
 51
180.000000
  0
LINE
  8
0
  6
CONTINUOUS
 62
1
 10
933.696033
 20
1745.775963
 11
933.696033
 21
1742.775963
  0
ARC
  8
0
  6
CONTINUOUS
 62
1
 10
971.196033
 20
1742.775963
 40
37.500000
 50
180.000000
 51
270.000000
  0
LINE
  8
0
  6
CONTINUOUS
 62
1
 10
971.196033
 20
1705.275963
 11
1381.196033
 21
1705.275963
  0
ARC
  8
0
  6
CONTINUOUS
 62
1
 10
1381.196033
 20
1742.775963
 40
37.500000
 50
270.001000
 51
0.001000
  0
LINE
  8
0
  6
CONTINUOUS
 62
1
 10
1418.696033
 20
1742.775963
 11
1418.696033
 21
1745.775963
  0
LINE
  8
0
  6
CONTINUOUS
 62
1
 10
923.526033
 20
1720.775963
 11
876.196033
 21
1720.775963
  0
LINE
  8
0
  6
CONTINUOUS
 62
1
 10
876.196033
 20
1720.775963
 11
876.196033
 21
1000.775963
  0
LINE
  8
0
  6
CONTINUOUS
 62
1
 10
876.196033
 20
1000.775963
 11
1476.196033
 21
1000.775963
  0
LINE
  8
0
  6
CONTINUOUS
 62
1
 10
1476.196033
 20
1000.775963
 11
1476.196033
 21
1720.775963
  0
LINE
  8
0
  6
CONTINUOUS
 62
1
 10
1476.196033
 20
1720.775963
 11
1428.866033
 21
1720.775963
  0
LINE
  8
0
  6
CONTINUOUS
 62
1
 10
1476.196033
 20
1570.775963
 11
876.196033
 21
1570.775963
  0
LINE
  8
0
  6
CONTINUOUS
 62
1
 10
876.196033
 20
1535.775963
 11
1476.196033
 21
1535.775963
  0
LINE
  8
0
  6
CONTINUOUS
 62
1
 10
1476.196033
 20
1482.775963
 11
1423.896033
 21
1482.775963
  0
LINE
  8
0
  6
CONTINUOUS
 62
1
 10
876.196033
 20
1175.775963
 11
1476.196033
 21
1175.775963
  0
LINE
  8
0
  6
CONTINUOUS
 62
1
 10
1476.196033
 20
1155.775963
 11
876.196033
 21
1155.775963
  0
LINE
  8
0
  6
CONTINUOUS
 62
1
 10
876.196033
 20
1130.775963
 11
1476.196033
 21
1130.775963
  0
LINE
  8
0
  6
CONTINUOUS
 62
1
 10
1321.196033
 20
1060.775963
 11
1426.196033
 21
1060.775963
  0
LINE
  8
0
  6
CONTINUOUS
 62
1
 10
1426.196033
 20
1060.775963
 11
1426.196033
 21
1100.775963
  0
LINE
  8
0
  6
CONTINUOUS
 62
1
 10
1426.196033
 20
1100.775963
 11
1321.196033
 21
1100.775963
  0
LINE
  8
0
  6
CONTINUOUS
 62
1
 10
1321.196033
 20
1100.775963
 11
1321.196033
 21
1060.775963
  0
LINE
  8
0
  6
CONTINUOUS
 62
1
 10
876.196033
 20
1683.775963
 11
1105.396033
 21
1683.775963
  0
ARC
  8
0
  6
CONTINUOUS
 62
1
 10
1105.396033
 20
1663.775963
 40
20.000000
 50
26.257000
 51
89.999000
  0
LINE
  8
0
  6
CONTINUOUS
 62
1
 10
1123.336033
 20
1672.625963
 11
1131.146033
 21
1656.785963
  0
ARC
  8
0
  6
CONTINUOUS
 62
1
 10
1176.196033
 20
1679.005963
 40
50.230000
 50
206.257000
 51
333.743000
  0
LINE
  8
0
  6
CONTINUOUS
 62
1
 10
1221.236033
 20
1656.785963
 11
1229.056033
 21
1672.625963
  0
ARC
  8
0
  6
CONTINUOUS
 62
1
 10
1246.996033
 20
1663.775963
 40
20.000000
 50
90.001000
 51
153.743000
  0
LINE
  8
0
  6
CONTINUOUS
 62
1
 10
1246.986033
 20
1683.775963
 11
1476.196033
 21
1683.775963
  0
LINE
  8
0
  6
CONTINUOUS
 62
1
 10
1131.356033
 20
1690.275963
 11
1144.606033
 21
1663.415963
  0
ARC
  8
0
  6
CONTINUOUS
 62
1
 10
1176.196033
 20
1679.005963
 40
35.230000
 50
206.257000
 51
333.743000
  0
LINE
  8
0
  6
CONTINUOUS
 62
1
 10
1207.786033
 20
1663.415963
 11
1221.036033
 21
1690.275963
  0
LINE
  8
0
  6
CONTINUOUS
 62
1
 10
1120.596033
 20
1720.775963
 11
1231.796033
 21
1720.775963
  0
LINE
  8
0
  6
CONTINUOUS
 62
1
 10
1204.316033
 20
1690.275963
 11
1194.336033
 21
1670.055963
  0
ARC
  8
0
  6
CONTINUOUS
 62
1
 10
1176.196033
 20
1679.005963
 40
20.230000
 50
206.257000
 51
333.743000
  0
LINE
  8
0
  6
CONTINUOUS
 62
1
 10
1158.056033
 20
1670.055963
 11
1148.076033
 21
1690.275963
  0
LINE
  8
0
  6
CONTINUOUS
 62
1
 10
1140.676033
 20
1705.275963
 11
1138.536033
 21
1709.625963
  0
ARC
  8
0
  6
CONTINUOUS
 62
1
 10
1120.596033
 20
1700.775963
 40
20.000000
 50
26.260000
 51
90.000000
  0
LINE
  8
0
  6
CONTINUOUS
 62
1
 10
1120.596033
 20
1720.775963
 11
940.826033
 21
1720.775963
  0
ARC
  8
0
  6
CONTINUOUS
 62
1
 10
1396.196033
 20
1415.775963
 40
72.500000
 50
0.000000
 51
180.000000
  0
ARC
  8
0
  6
CONTINUOUS
 62
1
 10
1396.196033
 20
1415.775963
 40
72.500000
 50
180.000000
 51
0.000000
  0
ARC
  8
0
  6
CONTINUOUS
 62
1
 10
1396.196033
 20
1415.775963
 40
59.560000
 50
180.000000
 51
0.000000
  0
ARC
  8
0
  6
CONTINUOUS
 62
1
 10
1396.196033
 20
1415.775963
 40
59.560000
 50
0.000000
 51
180.000000
  0
ARC
  8
0
  6
CONTINUOUS
 62
1
 10
1396.196033
 20
1415.775963
 40
29.410000
 50
180.000000
 51
0.000000
  0
ARC
  8
0
  6
CONTINUOUS
 62
1
 10
1396.196033
 20
1415.775963
 40
29.410000
 50
0.000000
 51
180.000000
  0
ARC
  8
0
  6
CONTINUOUS
 62
1
 10
1396.196033
 20
1415.775963
 40
18.030000
 50
180.000000
 51
0.000000
  0
ARC
  8
0
  6
CONTINUOUS
 62
1
 10
1396.196033
 20
1415.775963
 40
18.030000
 50
0.000000
 51
180.000000
  0
LINE
  8
0
  6
CONTINUOUS
 62
1
 10
1368.496033
 20
1482.775963
 11
876.196033
 21
1482.775963
  0
ARC
  8
0
  6
CONTINUOUS
 62
1
 10
926.196033
 20
1417.775963
 40
25.000000
 50
180.000000
 51
0.000000
  0
ARC
  8
0
  6
CONTINUOUS
 62
1
 10
926.196033
 20
1417.775963
 40
25.000000
 50
0.000000
 51
180.000000
  0
ARC
  8
0
  6
CONTINUOUS
 62
1
 10
1011.196033
 20
1417.775963
 40
25.000000
 50
180.000000
 51
0.000000
  0
ARC
  8
0
  6
CONTINUOUS
 62
1
 10
1011.196033
 20
1417.775963
 40
25.000000
 50
0.000000
 51
180.000000
  0
ARC
  8
0
  6
CONTINUOUS
 62
1
 10
926.196033
 20
1417.775963
 40
17.500000
 50
180.000000
 51
0.000000
  0
ARC
  8
0
  6
CONTINUOUS
 62
1
 10
926.196033
 20
1417.775963
 40
17.500000
 50
0.000000
 51
180.000000
  0
ARC
  8
0
  6
CONTINUOUS
 62
1
 10
1011.196033
 20
1417.775963
 40
17.500000
 50
180.000000
 51
0.000000
  0
ARC
  8
0
  6
CONTINUOUS
 62
1
 10
1011.196033
 20
1417.775963
 40
17.500000
 50
0.000000
 51
180.000000
  0
ARC
  8
0
  6
CONTINUOUS
 62
1
 10
968.696033
 20
1392.775963
 40
6.000000
 50
180.000000
 51
0.000000
  0
ARC
  8
0
  6
CONTINUOUS
 62
1
 10
968.696033
 20
1392.775963
 40
6.000000
 50
0.000000
 51
180.000000
  0
ARC
  8
0
  6
CONTINUOUS
 62
1
 10
968.696033
 20
1442.775963
 40
6.000000
 50
180.000000
 51
0.000000
  0
ARC
  8
0
  6
CONTINUOUS
 62
1
 10
968.696033
 20
1442.775963
 40
6.000000
 50
0.000000
 51
180.000000
  0
LINE
  8
0
  6
CONTINUOUS
 62
1
 10
886.196033
 20
1000.775963
 11
891.196033
 21
990.775963
  0
LINE
  8
0
  6
CONTINUOUS
 62
1
 10
891.196033
 20
990.775963
 11
1461.196033
 21
990.775963
  0
LINE
  8
0
  6
CONTINUOUS
 62
1
 10
1461.196033
 20
990.775963
 11
1466.196033
 21
1000.775963
  0
LINE
  8
0
  6
CONTINUOUS
 62
1
 10
1437.196033
 20
990.775963
 11
1363.196033
 21
990.775963
  0
LINE
  8
0
  6
CONTINUOUS
 62
1
 10
1377.757884
 20
984.838463
 11
1378.727939
 21
891.713455
  0
ARC
  8
0
  6
CONTINUOUS
 62
1
 10
1371.758212
 20
984.775963
 40
6.000000
 50
0.596809
 51
90.000000
  0
ARC
  8
0
  6
CONTINUOUS
 62
1
 10
1428.633868
 20
984.775963
 40
6.000000
 50
90.000000
 51
179.403198
  0
LINE
  8
0
  6
CONTINUOUS
 62
1
 10
1383.696033
 20
851.775963
 11
1384.196033
 21
851.775963
  0
LINE
  8
0
  6
CONTINUOUS
 62
1
 10
1384.196033
 20
851.775963
 11
1383.696033
 21
851.775963
  0
LINE
  8
0
  6
CONTINUOUS
 62
1
 10
1426.196033
 20
851.775963
 11
1415.196033
 21
855.775947
  0
LINE
  8
0
  6
CONTINUOUS
 62
1
 10
1374.196033
 20
851.775963
 11
1385.196033
 21
855.775947
  0
ARC
  8
0
  6
CONTINUOUS
 62
1
 10
1415.664462
 20
891.775955
 40
5.999996
 50
269.999969
 51
359.403160
  0
ARC
  8
0
  6
CONTINUOUS
 62
1
 10
1384.727618
 20
891.775955
 40
6.000000
 50
180.596802
 51
270.000000
  0
LINE
  8
0
  6
CONTINUOUS
 62
1
 10
1421.696033
 20
894.775955
 11
1378.696033
 21
894.775955
  0
LINE
  8
0
  6
CONTINUOUS
 62
1
 10
1422.634189
 20
984.838463
 11
1421.664142
 21
891.713455
  0
LINE
  8
0
  6
CONTINUOUS
 62
1
 10
1385.196033
 20
885.775955
 11
1385.196033
 21
855.775947
  0
LINE
  8
0
  6
CONTINUOUS
 62
1
 10
1415.196033
 20
885.775955
 11
1415.196033
 21
855.775947
  0
LINE
  8
0
  6
CONTINUOUS
 62
1
 10
1426.196033
 20
851.775963
 11
1416.196033
 21
851.775963
  0
LINE
  8
0
  6
CONTINUOUS
 62
1
 10
1374.196033
 20
851.775963
 11
1374.196033
 21
850.775963
  0
LINE
  8
0
  6
CONTINUOUS
 62
1
 10
1416.696033
 20
851.775963
 11
1374.196033
 21
851.775963
  0
LINE
  8
0
  6
CONTINUOUS
 62
1
 10
1415.196033
 20
855.775947
 11
1385.226977
 21
855.775947
  0
LINE
  8
0
  6
CONTINUOUS
 62
1
 10
1415.664462
 20
885.775955
 11
1384.727618
 21
885.775955
  0
LINE
  8
0
  6
CONTINUOUS
 62
1
 10
1426.196033
 20
850.775963
 11
1374.196033
 21
850.775963
  0
LINE
  8
0
  6
CONTINUOUS
 62
1
 10
1426.196033
 20
851.775963
 11
1426.196033
 21
850.775963
  0
LINE
  8
0
  6
CONTINUOUS
 62
1
 10
989.196033
 20
990.775963
 11
915.196033
 21
990.775963
  0
LINE
  8
0
  6
CONTINUOUS
 62
1
 10
929.757884
 20
984.838463
 11
930.727939
 21
891.713455
  0
ARC
  8
0
  6
CONTINUOUS
 62
1
 10
923.758212
 20
984.775963
 40
6.000000
 50
0.596809
 51
90.000000
  0
ARC
  8
0
  6
CONTINUOUS
 62
1
 10
980.633868
 20
984.775963
 40
6.000000
 50
90.000000
 51
179.403198
  0
LINE
  8
0
  6
CONTINUOUS
 62
1
 10
935.696033
 20
851.775963
 11
936.196033
 21
851.775963
  0
LINE
  8
0
  6
CONTINUOUS
 62
1
 10
936.196033
 20
851.775963
 11
935.696033
 21
851.775963
  0
LINE
  8
0
  6
CONTINUOUS
 62
1
 10
978.196033
 20
851.775963
 11
967.196033
 21
855.775947
  0
LINE
  8
0
  6
CONTINUOUS
 62
1
 10
926.196033
 20
851.775963
 11
937.196033
 21
855.775947
  0
ARC
  8
0
  6
CONTINUOUS
 62
1
 10
967.664462
 20
891.775955
 40
5.999996
 50
269.999969
 51
359.403160
  0
ARC
  8
0
  6
CONTINUOUS
 62
1
 10
936.727618
 20
891.775955
 40
6.000000
 50
180.596802
 51
270.000000
  0
LINE
  8
0
  6
CONTINUOUS
 62
1
 10
973.696033
 20
894.775955
 11
930.696033
 21
894.775955
  0
LINE
  8
0
  6
CONTINUOUS
 62
1
 10
974.634189
 20
984.838463
 11
973.664142
 21
891.713455
  0
LINE
  8
0
  6
CONTINUOUS
 62
1
 10
937.196033
 20
885.775955
 11
937.196033
 21
855.775947
  0
LINE
  8
0
  6
CONTINUOUS
 62
1
 10
967.196033
 20
885.775955
 11
967.196033
 21
855.775947
  0
LINE
  8
0
  6
CONTINUOUS
 62
1
 10
978.196033
 20
851.775963
 11
968.196033
 21
851.775963
  0
LINE
  8
0
  6
CONTINUOUS
 62
1
 10
926.196033
 20
851.775963
 11
926.196033
 21
850.775963
  0
LINE
  8
0
  6
CONTINUOUS
 62
1
 10
968.696033
 20
851.775963
 11
926.196033
 21
851.775963
  0
LINE
  8
0
  6
CONTINUOUS
 62
1
 10
967.196033
 20
855.775947
 11
937.226977
 21
855.775947
  0
LINE
  8
0
  6
CONTINUOUS
 62
1
 10
967.664462
 20
885.775955
 11
936.727618
 21
885.775955
  0
LINE
  8
0
  6
CONTINUOUS
 62
1
 10
978.196033
 20
850.775963
 11
926.196033
 21
850.775963
  0
LINE
  8
0
  6
CONTINUOUS
 62
1
 10
978.196033
 20
851.775963
 11
978.196033
 21
850.775963
  0
ENDSEC
  0
EOF
