  0
SECTION
  2
HEADER
  9
$LIMMIN
 10
0.000000
 20
0.000000
  9
$LIMMAX
 10
3500.000000
 20
2500.000000
  9
$EXTMIN
 10
0.000000
 20
0.000000
  9
$EXTMAX
 10
3500.000000
 20
2500.000000
  9
$ANGBASE
 50
0.0
  9
$ANGDIR
 70
0
  9
$DIMRND
 40
0.100000
  9
$DIMSE1
 70
0
  9
$DIMSE2
 70
0
  9
$DIMTXT
 40
3.500000
  9
$LTSCALE
 40
1.000000
  9
$LUPREC
 70
5
  9
$AUPREC
 70
5
  9
$PDMODE
 70
2
  9
$PDSIZE
 40
17.500000
  0
ENDSEC
  0
SECTION
  2
TABLES
  0
TABLE
  2
VPORT
  70
1
  0
VPORT
  2
*ACTIVE
 70
0
  10
0.0
 20
0.0
 11
1.0
 21
1.0
 12
594.0
 22
420.0
 13
0.0
 23
0.0
 14
10.0
 24
10.0
 15
10.0
 25
10.0
 16
0.0
 26
0.0
 36
1.0
 17
594.0
 27
420.0
 37
100.0
 40
1000.0
 41
1.0
 42
50.0
 43
0.0
 44
0.0
 50
0.0
 51
0.0
 71
0
 72
2000
 73
1
 74
3
 75
0
 76
0
 77
0
 78
1
  0
ENDTAB
  0
TABLE
  2
LTYPE
 70
4
  0
LTYPE
  2
CONTINUOUS
 70
0
  3
Solid line
 72
65
 73
0
 40
0.0
  0
LTYPE
  2
DASHED
 70
0
  3
Dashed line
 72
65
 73
2
 40
6.000000
 49
3.000000
 49
-3.000000
  0
LTYPE
  2
CENTER
 70
0
  3
Chain line
 72
65
 73
4
 40
24.000000
 49
15.000000
 49
-3.000000
 49
3.000000
 49
-3.000000
  0
LTYPE
  2
RANDOM
 70
0
  3
Random line
 72
65
 73
4
 40
22.500000
 49
6.000000
 49
-3.000000
 49
4.500000
 49
-9.000000
  0
ENDTAB
  0
TABLE
  2
STYLE
 70
9
  0
STYLE
  2
STANDARD
 40
0
 41
1.0
 50
0.0
 71
0
 42
0
  3
simplex
  4

 70
0
  0
ENDTAB
  0
TABLE
  2
LAYER
 70
4
  0
LAYER
  2
0
 70
0
 62
7
  6
CONTINUOUS
  0
LAYER
  2
0
 62
1
  6
CONTINUOUS
 70
0
  0
LAYER
  2
73CONTINUOUS
 62
1
  6
CONTINUOUS
 70
0
  0
LAYER
  2
73ADSDOT
 62
1
  6
CONTINUOUS
 70
0
  0
ENDTAB
  0
ENDSEC
  0
SECTION
  2
BLOCKS
  0
ENDSEC
  0
SECTION
  2
ENTITIES
  0
LINE
  8
0
  6
CONTINUOUS
 62
1
 10
920.528005
 20
659.476663
 11
1092.228005
 21
659.476663
  0
ARC
  8
0
  6
CONTINUOUS
 62
1
 10
1092.228005
 20
639.476663
 40
20.000000
 50
26.257000
 51
89.999000
  0
LINE
  8
0
  6
CONTINUOUS
 62
1
 10
1110.168005
 20
648.326663
 11
1117.988005
 21
632.486663
  0
ARC
  8
0
  6
CONTINUOUS
 62
1
 10
1163.028005
 20
654.706663
 40
50.230000
 50
206.257000
 51
270.000000
  0
ARC
  8
0
  6
CONTINUOUS
 62
1
 10
1163.028005
 20
654.706663
 40
50.230000
 50
270.000000
 51
333.744000
  0
LINE
  8
0
  6
CONTINUOUS
 62
1
 10
1208.068005
 20
632.486663
 11
1215.888005
 21
648.326663
  0
ARC
  8
0
  6
CONTINUOUS
 62
1
 10
1233.828005
 20
639.476663
 40
20.000000
 50
90.001000
 51
153.743000
  0
LINE
  8
0
  6
CONTINUOUS
 62
1
 10
1233.818005
 20
659.476663
 11
1405.528005
 21
659.476663
  0
LINE
  8
0
  6
CONTINUOUS
 62
1
 10
905.528005
 20
694.476663
 11
905.528005
 21
614.476663
  0
ARC
  8
0
  6
CONTINUOUS
 62
1
 10
958.028005
 20
614.476663
 40
52.500000
 50
180.000000
 51
270.000000
  0
LINE
  8
0
  6
CONTINUOUS
 62
1
 10
958.028005
 20
561.976663
 11
1368.028005
 21
561.976663
  0
ARC
  8
0
  6
CONTINUOUS
 62
1
 10
1368.028005
 20
614.476663
 40
52.500000
 50
270.000000
 51
0.000000
  0
LINE
  8
0
  6
CONTINUOUS
 62
1
 10
1420.528005
 20
614.476663
 11
1420.528005
 21
694.476663
  0
LINE
  8
0
  6
CONTINUOUS
 62
1
 10
920.528005
 20
694.476663
 11
920.528005
 21
614.476663
  0
ARC
  8
0
  6
CONTINUOUS
 62
1
 10
958.028005
 20
614.476663
 40
37.500000
 50
180.000000
 51
270.000000
  0
LINE
  8
0
  6
CONTINUOUS
 62
1
 10
958.028005
 20
576.976663
 11
1368.028005
 21
576.976663
  0
ARC
  8
0
  6
CONTINUOUS
 62
1
 10
1368.028005
 20
614.476663
 40
37.500000
 50
270.000000
 51
0.000000
  0
LINE
  8
0
  6
CONTINUOUS
 62
1
 10
1405.528005
 20
614.476663
 11
1405.528005
 21
694.476663
  0
LINE
  8
0
  6
CONTINUOUS
 62
1
 10
1420.528005
 20
659.476663
 11
1463.028005
 21
659.476663
  0
LINE
  8
0
  6
CONTINUOUS
 62
1
 10
1463.028005
 20
659.476663
 11
1463.028005
 21
1429.476663
  0
LINE
  8
0
  6
CONTINUOUS
 62
1
 10
1463.028005
 20
1429.476663
 11
863.028005
 21
1429.476663
  0
LINE
  8
0
  6
CONTINUOUS
 62
1
 10
863.028005
 20
1429.476663
 11
863.028005
 21
659.476663
  0
LINE
  8
0
  6
CONTINUOUS
 62
1
 10
863.028005
 20
659.476663
 11
905.528005
 21
659.476663
  0
LINE
  8
0
  6
CONTINUOUS
 62
1
 10
888.028005
 20
1279.476663
 11
888.028005
 21
694.476663
  0
LINE
  8
0
  6
CONTINUOUS
 62
1
 10
888.028005
 20
694.476663
 11
1438.028005
 21
694.476663
  0
LINE
  8
0
  6
CONTINUOUS
 62
1
 10
1438.028005
 20
694.476663
 11
1438.028005
 21
1279.476663
  0
LINE
  8
0
  6
CONTINUOUS
 62
1
 10
863.028005
 20
1279.476663
 11
1463.028005
 21
1279.476663
  0
LINE
  8
0
  6
CONTINUOUS
 62
1
 10
1463.028005
 20
1339.476663
 11
863.028005
 21
1339.476663
  0
LINE
  8
0
  6
CONTINUOUS
 62
1
 10
863.028005
 20
1391.476663
 11
1463.028005
 21
1391.476663
  0
LINE
  8
0
  6
CONTINUOUS
 62
1
 10
903.028005
 20
1339.476663
 11
903.028005
 21
1279.476663
  0
LINE
  8
0
  6
CONTINUOUS
 62
1
 10
903.028005
 20
1326.406663
 11
998.028005
 21
1326.406663
  0
LINE
  8
0
  6
CONTINUOUS
 62
1
 10
998.028005
 20
1326.406663
 11
998.028005
 21
1292.066663
  0
LINE
  8
0
  6
CONTINUOUS
 62
1
 10
998.028005
 20
1292.066663
 11
921.148005
 21
1292.066663
  0
LINE
  8
0
  6
CONTINUOUS
 62
1
 10
921.148005
 20
1308.096663
 11
921.148005
 21
1279.476663
  0
LINE
  8
0
  6
CONTINUOUS
 62
1
 10
1423.028005
 20
1339.476663
 11
1423.028005
 21
1279.476663
  0
LINE
  8
0
  6
CONTINUOUS
 62
1
 10
1423.028005
 20
1326.406663
 11
1328.028005
 21
1326.406663
  0
LINE
  8
0
  6
CONTINUOUS
 62
1
 10
1328.028005
 20
1326.406663
 11
1328.028005
 21
1292.066663
  0
LINE
  8
0
  6
CONTINUOUS
 62
1
 10
1328.028005
 20
1292.066663
 11
1404.908005
 21
1292.066663
  0
LINE
  8
0
  6
CONTINUOUS
 62
1
 10
1404.908005
 20
1308.096663
 11
1404.908005
 21
1279.476663
  0
ARC
  8
0
  6
CONTINUOUS
 62
1
 10
1234.368005
 20
674.476663
 40
20.000000
 50
90.003000
 51
153.742000
  0
LINE
  8
0
  6
CONTINUOUS
 62
1
 10
1216.428005
 20
683.326663
 11
1194.618005
 21
639.116663
  0
ARC
  8
0
  6
CONTINUOUS
 62
1
 10
1163.028005
 20
654.706663
 40
35.230000
 50
269.999000
 51
333.742000
  0
ARC
  8
0
  6
CONTINUOUS
 62
1
 10
1163.028005
 20
654.706663
 40
35.230000
 50
206.257000
 51
270.001000
  0
LINE
  8
0
  6
CONTINUOUS
 62
1
 10
1131.438005
 20
639.116663
 11
1109.628005
 21
683.326663
  0
ARC
  8
0
  6
CONTINUOUS
 62
1
 10
1091.688005
 20
674.476663
 40
20.000000
 50
26.259000
 51
89.998000
  0
LINE
  8
0
  6
CONTINUOUS
 62
1
 10
1121.898005
 20
694.476663
 11
1133.938005
 21
665.396663
  0
LINE
  8
0
  6
CONTINUOUS
 62
1
 10
1133.938005
 20
665.396663
 11
1163.028005
 21
653.346663
  0
LINE
  8
0
  6
CONTINUOUS
 62
1
 10
1163.028005
 20
653.346663
 11
1192.108005
 21
665.396663
  0
LINE
  8
0
  6
CONTINUOUS
 62
1
 10
1192.108005
 20
665.396663
 11
1204.158005
 21
694.476663
  0
LINE
  8
0
  6
CONTINUOUS
 62
1
 10
1405.528005
 20
652.476663
 11
1310.528005
 21
652.476663
  0
LINE
  8
0
  6
CONTINUOUS
 62
1
 10
1310.528005
 20
652.476663
 11
1310.528005
 21
619.476663
  0
LINE
  8
0
  6
CONTINUOUS
 62
1
 10
1310.528005
 20
619.476663
 11
1405.528005
 21
619.476663
  0
LINE
  8
0
  6
CONTINUOUS
 62
1
 10
1420.528005
 20
619.476663
 11
1455.528005
 21
619.476663
  0
LINE
  8
0
  6
CONTINUOUS
 62
1
 10
1455.528005
 20
619.476663
 11
1455.528005
 21
652.476663
  0
LINE
  8
0
  6
CONTINUOUS
 62
1
 10
1455.528005
 20
652.476663
 11
1420.528005
 21
652.476663
  0
LINE
  8
0
  6
CONTINUOUS
 62
1
 10
1363.028005
 20
659.476663
 11
1363.028005
 21
652.476663
  0
LINE
  8
0
  6
CONTINUOUS
 62
1
 10
1403.028005
 20
652.476663
 11
1403.028005
 21
659.476663
  0
LINE
  8
0
  6
CONTINUOUS
 62
1
 10
1353.428005
 20
1407.476663
 11
1353.428005
 21
1397.476663
  0
LINE
  8
0
  6
CONTINUOUS
 62
1
 10
1339.828005
 20
1397.476663
 11
1339.828005
 21
1407.476663
  0
LINE
  8
0
  6
CONTINUOUS
 62
1
 10
1326.228005
 20
1407.476663
 11
1326.228005
 21
1397.476663
  0
LINE
  8
0
  6
CONTINUOUS
 62
1
 10
1312.628005
 20
1397.476663
 11
1312.628005
 21
1407.476663
  0
LINE
  8
0
  6
CONTINUOUS
 62
1
 10
1299.028005
 20
1407.476663
 11
1299.028005
 21
1397.476663
  0
LINE
  8
0
  6
CONTINUOUS
 62
1
 10
1285.428005
 20
1397.476663
 11
1285.428005
 21
1407.476663
  0
LINE
  8
0
  6
CONTINUOUS
 62
1
 10
1271.828005
 20
1407.476663
 11
1271.828005
 21
1397.476663
  0
LINE
  8
0
  6
CONTINUOUS
 62
1
 10
1258.228005
 20
1397.476663
 11
1258.228005
 21
1407.476663
  0
LINE
  8
0
  6
CONTINUOUS
 62
1
 10
1244.628005
 20
1407.476663
 11
1244.628005
 21
1397.476663
  0
LINE
  8
0
  6
CONTINUOUS
 62
1
 10
1231.028005
 20
1397.476663
 11
1231.028005
 21
1407.476663
  0
LINE
  8
0
  6
CONTINUOUS
 62
1
 10
1217.428005
 20
1407.476663
 11
1217.428005
 21
1397.476663
  0
LINE
  8
0
  6
CONTINUOUS
 62
1
 10
1203.828005
 20
1397.476663
 11
1203.828005
 21
1407.476663
  0
LINE
  8
0
  6
CONTINUOUS
 62
1
 10
1190.228005
 20
1407.476663
 11
1190.228005
 21
1397.476663
  0
LINE
  8
0
  6
CONTINUOUS
 62
1
 10
1176.628005
 20
1397.476663
 11
1176.628005
 21
1407.476663
  0
LINE
  8
0
  6
CONTINUOUS
 62
1
 10
1163.028005
 20
1407.476663
 11
1163.028005
 21
1397.476663
  0
LINE
  8
0
  6
CONTINUOUS
 62
1
 10
1149.428005
 20
1397.476663
 11
1149.428005
 21
1407.476663
  0
LINE
  8
0
  6
CONTINUOUS
 62
1
 10
1135.828005
 20
1407.476663
 11
1135.828005
 21
1397.476663
  0
LINE
  8
0
  6
CONTINUOUS
 62
1
 10
1122.228005
 20
1397.476663
 11
1122.228005
 21
1407.476663
  0
LINE
  8
0
  6
CONTINUOUS
 62
1
 10
1108.628005
 20
1407.476663
 11
1108.628005
 21
1397.476663
  0
LINE
  8
0
  6
CONTINUOUS
 62
1
 10
1095.028005
 20
1397.476663
 11
1095.028005
 21
1407.476663
  0
LINE
  8
0
  6
CONTINUOUS
 62
1
 10
1081.428005
 20
1407.476663
 11
1081.428005
 21
1397.476663
  0
LINE
  8
0
  6
CONTINUOUS
 62
1
 10
1067.828005
 20
1397.476663
 11
1067.828005
 21
1407.476663
  0
LINE
  8
0
  6
CONTINUOUS
 62
1
 10
1054.228005
 20
1407.476663
 11
1054.228005
 21
1397.476663
  0
LINE
  8
0
  6
CONTINUOUS
 62
1
 10
1040.628005
 20
1397.476663
 11
1040.628005
 21
1407.476663
  0
LINE
  8
0
  6
CONTINUOUS
 62
1
 10
1027.028005
 20
1407.476663
 11
1027.028005
 21
1397.476663
  0
LINE
  8
0
  6
CONTINUOUS
 62
1
 10
1013.428005
 20
1397.476663
 11
1013.428005
 21
1407.476663
  0
LINE
  8
0
  6
CONTINUOUS
 62
1
 10
999.828005
 20
1407.476663
 11
999.828005
 21
1397.476663
  0
LINE
  8
0
  6
CONTINUOUS
 62
1
 10
986.228005
 20
1397.476663
 11
986.228005
 21
1407.476663
  0
LINE
  8
0
  6
CONTINUOUS
 62
1
 10
972.628005
 20
1407.476663
 11
972.628005
 21
1397.476663
  0
LINE
  8
0
  6
CONTINUOUS
 62
1
 10
1353.428005
 20
1423.476663
 11
1353.428005
 21
1413.476663
  0
LINE
  8
0
  6
CONTINUOUS
 62
1
 10
1339.828005
 20
1413.476663
 11
1339.828005
 21
1423.476663
  0
LINE
  8
0
  6
CONTINUOUS
 62
1
 10
1326.228005
 20
1423.476663
 11
1326.228005
 21
1413.476663
  0
LINE
  8
0
  6
CONTINUOUS
 62
1
 10
1312.628005
 20
1413.476663
 11
1312.628005
 21
1423.476663
  0
LINE
  8
0
  6
CONTINUOUS
 62
1
 10
1299.028005
 20
1423.476663
 11
1299.028005
 21
1413.476663
  0
LINE
  8
0
  6
CONTINUOUS
 62
1
 10
1285.428005
 20
1413.476663
 11
1285.428005
 21
1423.476663
  0
LINE
  8
0
  6
CONTINUOUS
 62
1
 10
1271.828005
 20
1423.476663
 11
1271.828005
 21
1413.476663
  0
LINE
  8
0
  6
CONTINUOUS
 62
1
 10
1258.228005
 20
1413.476663
 11
1258.228005
 21
1423.476663
  0
LINE
  8
0
  6
CONTINUOUS
 62
1
 10
1244.628005
 20
1423.476663
 11
1244.628005
 21
1413.476663
  0
LINE
  8
0
  6
CONTINUOUS
 62
1
 10
1231.028005
 20
1413.476663
 11
1231.028005
 21
1423.476663
  0
LINE
  8
0
  6
CONTINUOUS
 62
1
 10
1217.428005
 20
1423.476663
 11
1217.428005
 21
1413.476663
  0
LINE
  8
0
  6
CONTINUOUS
 62
1
 10
1203.828005
 20
1413.476663
 11
1203.828005
 21
1423.476663
  0
LINE
  8
0
  6
CONTINUOUS
 62
1
 10
1190.228005
 20
1423.476663
 11
1190.228005
 21
1413.476663
  0
LINE
  8
0
  6
CONTINUOUS
 62
1
 10
1176.628005
 20
1413.476663
 11
1176.628005
 21
1423.476663
  0
LINE
  8
0
  6
CONTINUOUS
 62
1
 10
1163.028005
 20
1423.476663
 11
1163.028005
 21
1413.476663
  0
LINE
  8
0
  6
CONTINUOUS
 62
1
 10
1149.428005
 20
1413.476663
 11
1149.428005
 21
1423.476663
  0
LINE
  8
0
  6
CONTINUOUS
 62
1
 10
1135.828005
 20
1423.476663
 11
1135.828005
 21
1413.476663
  0
LINE
  8
0
  6
CONTINUOUS
 62
1
 10
1122.228005
 20
1413.476663
 11
1122.228005
 21
1423.476663
  0
LINE
  8
0
  6
CONTINUOUS
 62
1
 10
1108.628005
 20
1423.476663
 11
1108.628005
 21
1413.476663
  0
LINE
  8
0
  6
CONTINUOUS
 62
1
 10
1095.028005
 20
1413.476663
 11
1095.028005
 21
1423.476663
  0
LINE
  8
0
  6
CONTINUOUS
 62
1
 10
1081.428005
 20
1423.476663
 11
1081.428005
 21
1413.476663
  0
LINE
  8
0
  6
CONTINUOUS
 62
1
 10
1067.828005
 20
1413.476663
 11
1067.828005
 21
1423.476663
  0
LINE
  8
0
  6
CONTINUOUS
 62
1
 10
1054.228005
 20
1423.476663
 11
1054.228005
 21
1413.476663
  0
LINE
  8
0
  6
CONTINUOUS
 62
1
 10
1040.628005
 20
1413.476663
 11
1040.628005
 21
1423.476663
  0
LINE
  8
0
  6
CONTINUOUS
 62
1
 10
1027.028005
 20
1423.476663
 11
1027.028005
 21
1413.476663
  0
LINE
  8
0
  6
CONTINUOUS
 62
1
 10
1013.428005
 20
1413.476663
 11
1013.428005
 21
1423.476663
  0
LINE
  8
0
  6
CONTINUOUS
 62
1
 10
999.828005
 20
1423.476663
 11
999.828005
 21
1413.476663
  0
LINE
  8
0
  6
CONTINUOUS
 62
1
 10
986.228005
 20
1413.476663
 11
986.228005
 21
1423.476663
  0
LINE
  8
0
  6
CONTINUOUS
 62
1
 10
972.628005
 20
1423.476663
 11
972.628005
 21
1413.476663
  0
LINE
  8
0
  6
CENTER
 62
4
 10
1168.028005
 20
1449.476663
 11
1168.028005
 21
1359.976663
  0
ENDSEC
  0
EOF
