  0
SECTION
  2
HEADER
  9
$LIMMIN
 10
0.000000
 20
0.000000
  9
$LIMMAX
 10
3500.000000
 20
2500.000000
  9
$EXTMIN
 10
0.000000
 20
0.000000
  9
$EXTMAX
 10
3500.000000
 20
2500.000000
  9
$ANGBASE
 50
0.0
  9
$ANGDIR
 70
0
  9
$DIMRND
 40
0.100000
  9
$DIMSE1
 70
0
  9
$DIMSE2
 70
0
  9
$DIMTXT
 40
3.500000
  9
$LTSCALE
 40
1.000000
  9
$LUPREC
 70
5
  9
$AUPREC
 70
5
  9
$PDMODE
 70
2
  9
$PDSIZE
 40
17.500000
  0
ENDSEC
  0
SECTION
  2
TABLES
  0
TABLE
  2
VPORT
  70
1
  0
VPORT
  2
*ACTIVE
 70
0
  10
0.0
 20
0.0
 11
1.0
 21
1.0
 12
594.0
 22
420.0
 13
0.0
 23
0.0
 14
10.0
 24
10.0
 15
10.0
 25
10.0
 16
0.0
 26
0.0
 36
1.0
 17
594.0
 27
420.0
 37
100.0
 40
1000.0
 41
1.0
 42
50.0
 43
0.0
 44
0.0
 50
0.0
 51
0.0
 71
0
 72
2000
 73
1
 74
3
 75
0
 76
0
 77
0
 78
1
  0
ENDTAB
  0
TABLE
  2
LTYPE
 70
4
  0
LTYPE
  2
CONTINUOUS
 70
0
  3
Solid line
 72
65
 73
0
 40
0.0
  0
LTYPE
  2
DASHED
 70
0
  3
Dashed line
 72
65
 73
2
 40
6.000000
 49
3.000000
 49
-3.000000
  0
LTYPE
  2
CENTER
 70
0
  3
Chain line
 72
65
 73
4
 40
24.000000
 49
15.000000
 49
-3.000000
 49
3.000000
 49
-3.000000
  0
LTYPE
  2
RANDOM
 70
0
  3
Random line
 72
65
 73
4
 40
22.500000
 49
6.000000
 49
-3.000000
 49
4.500000
 49
-9.000000
  0
ENDTAB
  0
TABLE
  2
STYLE
 70
9
  0
STYLE
  2
STANDARD
 40
0
 41
1.0
 50
0.0
 71
0
 42
0
  3
simplex
  4

 70
0
  0
ENDTAB
  0
TABLE
  2
LAYER
 70
4
  0
LAYER
  2
0
 70
0
 62
7
  6
CONTINUOUS
  0
LAYER
  2
0
 62
1
  6
CONTINUOUS
 70
0
  0
LAYER
  2
73CONTINUOUS
 62
1
  6
CONTINUOUS
 70
0
  0
LAYER
  2
73ADSDOT
 62
1
  6
CONTINUOUS
 70
0
  0
ENDTAB
  0
ENDSEC
  0
SECTION
  2
BLOCKS
  0
ENDSEC
  0
SECTION
  2
ENTITIES
  0
LINE
  8
0
  6
CONTINUOUS
 62
1
 10
1020.495023
 20
901.976663
 11
946.495023
 21
901.976663
  0
LINE
  8
0
  6
CONTINUOUS
 62
1
 10
946.495023
 20
911.976663
 11
946.495023
 21
901.976663
  0
LINE
  8
0
  6
CONTINUOUS
 62
1
 10
961.056874
 20
896.039163
 11
962.026929
 21
802.914155
  0
ARC
  8
0
  6
CONTINUOUS
 62
1
 10
955.057202
 20
895.976663
 40
6.000000
 50
0.596809
 51
90.000000
  0
ARC
  8
0
  6
CONTINUOUS
 62
1
 10
1011.932859
 20
895.976663
 40
6.000000
 50
90.000000
 51
179.403198
  0
LINE
  8
0
  6
CONTINUOUS
 62
1
 10
966.995023
 20
762.976663
 11
967.495023
 21
762.976663
  0
LINE
  8
0
  6
CONTINUOUS
 62
1
 10
967.495023
 20
762.976663
 11
966.995023
 21
762.976663
  0
LINE
  8
0
  6
CONTINUOUS
 62
1
 10
1009.495023
 20
762.976663
 11
998.495023
 21
766.976648
  0
LINE
  8
0
  6
CONTINUOUS
 62
1
 10
957.495023
 20
762.976663
 11
968.495023
 21
766.976648
  0
ARC
  8
0
  6
CONTINUOUS
 62
1
 10
998.963452
 20
802.976655
 40
5.999996
 50
269.999969
 51
359.403160
  0
ARC
  8
0
  6
CONTINUOUS
 62
1
 10
968.026609
 20
802.976655
 40
6.000000
 50
180.596802
 51
270.000000
  0
LINE
  8
0
  6
CONTINUOUS
 62
1
 10
1004.995023
 20
805.976655
 11
961.995023
 21
805.976655
  0
LINE
  8
0
  6
CONTINUOUS
 62
1
 10
1005.933179
 20
896.039163
 11
1004.963132
 21
802.914155
  0
LINE
  8
0
  6
CONTINUOUS
 62
1
 10
968.495023
 20
796.976655
 11
968.495023
 21
766.976648
  0
LINE
  8
0
  6
CONTINUOUS
 62
1
 10
998.495023
 20
796.976655
 11
998.495023
 21
766.976648
  0
LINE
  8
0
  6
CONTINUOUS
 62
1
 10
1009.495023
 20
762.976663
 11
999.495023
 21
762.976663
  0
LINE
  8
0
  6
CONTINUOUS
 62
1
 10
957.495023
 20
762.976663
 11
957.495023
 21
761.976663
  0
LINE
  8
0
  6
CONTINUOUS
 62
1
 10
999.995023
 20
762.976663
 11
957.495023
 21
762.976663
  0
LINE
  8
0
  6
CONTINUOUS
 62
1
 10
998.495023
 20
766.976648
 11
968.525968
 21
766.976648
  0
LINE
  8
0
  6
CONTINUOUS
 62
1
 10
998.963452
 20
796.976655
 11
968.026609
 21
796.976655
  0
LINE
  8
0
  6
CONTINUOUS
 62
1
 10
1009.495023
 20
761.976663
 11
957.495023
 21
761.976663
  0
LINE
  8
0
  6
CONTINUOUS
 62
1
 10
1009.495023
 20
762.976663
 11
1009.495023
 21
761.976663
  0
LINE
  8
0
  6
CONTINUOUS
 62
1
 10
1020.495023
 20
901.976663
 11
1020.495023
 21
911.976663
  0
LINE
  8
0
  6
CONTINUOUS
 62
1
 10
1612.495023
 20
901.976663
 11
1538.495023
 21
901.976663
  0
LINE
  8
0
  6
CONTINUOUS
 62
1
 10
1538.495023
 20
911.976663
 11
1538.495023
 21
901.976663
  0
LINE
  8
0
  6
CONTINUOUS
 62
1
 10
1553.056874
 20
896.039163
 11
1554.026929
 21
802.914155
  0
ARC
  8
0
  6
CONTINUOUS
 62
1
 10
1547.057202
 20
895.976663
 40
6.000000
 50
0.596809
 51
90.000000
  0
ARC
  8
0
  6
CONTINUOUS
 62
1
 10
1603.932859
 20
895.976663
 40
6.000000
 50
90.000000
 51
179.403198
  0
LINE
  8
0
  6
CONTINUOUS
 62
1
 10
1558.995023
 20
762.976663
 11
1559.495023
 21
762.976663
  0
LINE
  8
0
  6
CONTINUOUS
 62
1
 10
1559.495023
 20
762.976663
 11
1558.995023
 21
762.976663
  0
LINE
  8
0
  6
CONTINUOUS
 62
1
 10
1601.495023
 20
762.976663
 11
1590.495023
 21
766.976648
  0
LINE
  8
0
  6
CONTINUOUS
 62
1
 10
1549.495023
 20
762.976663
 11
1560.495023
 21
766.976648
  0
ARC
  8
0
  6
CONTINUOUS
 62
1
 10
1590.963452
 20
802.976655
 40
5.999996
 50
269.999969
 51
359.403160
  0
ARC
  8
0
  6
CONTINUOUS
 62
1
 10
1560.026609
 20
802.976655
 40
6.000000
 50
180.596802
 51
270.000000
  0
LINE
  8
0
  6
CONTINUOUS
 62
1
 10
1596.995023
 20
805.976655
 11
1553.995023
 21
805.976655
  0
LINE
  8
0
  6
CONTINUOUS
 62
1
 10
1597.933179
 20
896.039163
 11
1596.963132
 21
802.914155
  0
LINE
  8
0
  6
CONTINUOUS
 62
1
 10
1560.495023
 20
796.976655
 11
1560.495023
 21
766.976648
  0
LINE
  8
0
  6
CONTINUOUS
 62
1
 10
1590.495023
 20
796.976655
 11
1590.495023
 21
766.976648
  0
LINE
  8
0
  6
CONTINUOUS
 62
1
 10
1601.495023
 20
762.976663
 11
1591.495023
 21
762.976663
  0
LINE
  8
0
  6
CONTINUOUS
 62
1
 10
1549.495023
 20
762.976663
 11
1549.495023
 21
761.976663
  0
LINE
  8
0
  6
CONTINUOUS
 62
1
 10
1591.995023
 20
762.976663
 11
1549.495023
 21
762.976663
  0
LINE
  8
0
  6
CONTINUOUS
 62
1
 10
1590.495023
 20
766.976648
 11
1560.525968
 21
766.976648
  0
LINE
  8
0
  6
CONTINUOUS
 62
1
 10
1590.963452
 20
796.976655
 11
1560.026609
 21
796.976655
  0
LINE
  8
0
  6
CONTINUOUS
 62
1
 10
1601.495023
 20
761.976663
 11
1549.495023
 21
761.976663
  0
LINE
  8
0
  6
CONTINUOUS
 62
1
 10
1601.495023
 20
762.976663
 11
1601.495023
 21
761.976663
  0
LINE
  8
0
  6
CONTINUOUS
 62
1
 10
1612.495023
 20
901.976663
 11
1612.495023
 21
911.976663
  0
LINE
  8
0
  6
CENTER
 62
4
 10
848.976325
 20
961.976663
 11
983.495023
 21
961.976663
  0
LINE
  8
0
  6
CONTINUOUS
 62
1
 10
1076.595023
 20
1631.976663
 11
1087.355023
 21
1594.976663
  0
LINE
  8
0
  6
CONTINUOUS
 62
1
 10
1087.355023
 20
1594.976663
 11
1683.495023
 21
1594.976663
  0
LINE
  8
0
  6
CONTINUOUS
 62
1
 10
1683.495023
 20
1594.976663
 11
1683.495023
 21
1631.976663
  0
LINE
  8
0
  6
CONTINUOUS
 62
1
 10
1683.495023
 20
1631.976663
 11
1076.595023
 21
1631.976663
  0
LINE
  8
0
  6
CONTINUOUS
 62
1
 10
1666.225023
 20
1631.976663
 11
1648.495023
 21
1676.976663
  0
LINE
  8
0
  6
CONTINUOUS
 62
1
 10
1648.495023
 20
1676.976663
 11
1063.495023
 21
1676.976663
  0
LINE
  8
0
  6
CONTINUOUS
 62
1
 10
1063.495023
 20
1676.976663
 11
1076.595023
 21
1631.976663
  0
LINE
  8
0
  6
CONTINUOUS
 62
1
 10
1087.355023
 20
1594.976663
 11
1087.355023
 21
1446.976663
  0
LINE
  8
0
  6
CONTINUOUS
 62
1
 10
1623.495023
 20
1594.976663
 11
1623.495023
 21
911.976663
  0
LINE
  8
0
  6
CONTINUOUS
 62
1
 10
1623.495023
 20
911.976663
 11
913.495023
 21
911.976663
  0
LINE
  8
0
  6
CONTINUOUS
 62
1
 10
913.495023
 20
911.976663
 11
913.495023
 21
1656.976663
  0
LINE
  8
0
  6
CONTINUOUS
 62
1
 10
913.495023
 20
1656.976663
 11
951.495023
 21
1656.976663
  0
LINE
  8
0
  6
CONTINUOUS
 62
1
 10
951.495023
 20
1656.976663
 11
951.495023
 21
1631.976663
  0
LINE
  8
0
  6
CONTINUOUS
 62
1
 10
951.495023
 20
1631.976663
 11
1028.495023
 21
1631.976663
  0
ARC
  8
0
  6
CONTINUOUS
 62
1
 10
1028.495023
 20
1591.976663
 40
40.000000
 50
0.000000
 51
90.000000
  0
LINE
  8
0
  6
CONTINUOUS
 62
1
 10
1068.495023
 20
1591.976663
 11
1068.495023
 21
1446.976663
  0
LINE
  8
0
  6
CONTINUOUS
 62
1
 10
913.495023
 20
1446.976663
 11
1658.495023
 21
1446.976663
  0
ARC
  8
0
  6
CONTINUOUS
 62
1
 10
1658.495023
 20
1471.976663
 40
25.000000
 50
270.000000
 51
0.000000
  0
LINE
  8
0
  6
CONTINUOUS
 62
1
 10
1683.495023
 20
1471.976663
 11
1683.495023
 21
1594.976663
  0
LINE
  8
0
  6
CONTINUOUS
 62
1
 10
1003.495023
 20
1631.976663
 11
1014.845023
 21
1566.976663
  0
LINE
  8
0
  6
CONTINUOUS
 62
1
 10
1014.845023
 20
1566.976663
 11
1068.495023
 21
1566.976663
  0
LINE
  8
0
  6
CONTINUOUS
 62
1
 10
1063.495023
 20
1676.976663
 11
1017.195023
 21
1631.976663
  0
LINE
  8
0
  6
CONTINUOUS
 62
1
 10
1073.065023
 20
1644.096663
 11
1052.425023
 21
1624.026663
  0
LINE
  8
0
  6
CONTINUOUS
 62
1
 10
1631.495023
 20
911.976663
 11
1668.495023
 21
911.976663
  0
LINE
  8
0
  6
CONTINUOUS
 62
1
 10
1668.495023
 20
911.976663
 11
1668.495023
 21
1041.976663
  0
LINE
  8
0
  6
CONTINUOUS
 62
1
 10
1668.495023
 20
1041.976663
 11
1631.495023
 21
1041.976663
  0
LINE
  8
0
  6
CONTINUOUS
 62
1
 10
1631.495023
 20
1041.976663
 11
1631.495023
 21
911.976663
  0
LINE
  8
0
  6
CONTINUOUS
 62
1
 10
1631.495023
 20
1086.976663
 11
1668.495023
 21
1086.976663
  0
LINE
  8
0
  6
CONTINUOUS
 62
1
 10
1668.495023
 20
1086.976663
 11
1668.495023
 21
1393.976663
  0
LINE
  8
0
  6
CONTINUOUS
 62
1
 10
1668.495023
 20
1393.976663
 11
1631.495023
 21
1393.976663
  0
LINE
  8
0
  6
CONTINUOUS
 62
1
 10
1631.495023
 20
1393.976663
 11
1631.495023
 21
1086.976663
  0
LINE
  8
0
  6
CONTINUOUS
 62
1
 10
1690.495023
 20
1254.476663
 11
1723.495023
 21
1254.476663
  0
LINE
  8
0
  6
CONTINUOUS
 62
1
 10
1723.495023
 20
1254.476663
 11
1723.495023
 21
1399.476663
  0
LINE
  8
0
  6
CONTINUOUS
 62
1
 10
1723.495023
 20
1399.476663
 11
1690.495023
 21
1399.476663
  0
LINE
  8
0
  6
CONTINUOUS
 62
1
 10
1690.495023
 20
1399.476663
 11
1690.495023
 21
1254.476663
  0
LINE
  8
0
  6
CONTINUOUS
 62
1
 10
1681.705023
 20
1306.976663
 11
1690.495023
 21
1306.976663
  0
LINE
  8
0
  6
CONTINUOUS
 62
1
 10
1690.495023
 20
1346.976663
 11
1681.705023
 21
1346.976663
  0
LINE
  8
0
  6
CONTINUOUS
 62
1
 10
1668.495023
 20
1303.976663
 11
1681.705023
 21
1303.976663
  0
LINE
  8
0
  6
CONTINUOUS
 62
1
 10
1681.705023
 20
1303.976663
 11
1681.705023
 21
1353.976663
  0
LINE
  8
0
  6
CONTINUOUS
 62
1
 10
1681.705023
 20
1353.976663
 11
1668.495023
 21
1353.976663
  0
LINE
  8
0
  6
CONTINUOUS
 62
1
 10
1668.495023
 20
1353.976663
 11
1668.495023
 21
1303.976663
  0
LINE
  8
0
  6
CONTINUOUS
 62
1
 10
1659.325023
 20
1649.476663
 11
1670.995023
 21
1649.476663
  0
ARC
  8
0
  6
CONTINUOUS
 62
1
 10
1670.995023
 20
1614.476663
 40
35.000000
 50
61.927000
 51
89.999000
  0
LINE
  8
0
  6
CONTINUOUS
 62
1
 10
1687.465023
 20
1645.356663
 11
1769.965023
 21
1601.356663
  0
ARC
  8
0
  6
CONTINUOUS
 62
1
 10
1773.495023
 20
1607.976663
 40
7.500000
 50
241.926000
 51
61.926000
  0
LINE
  8
0
  6
CONTINUOUS
 62
1
 10
1777.025023
 20
1614.596663
 11
1694.525023
 21
1658.596663
  0
ARC
  8
0
  6
CONTINUOUS
 62
1
 10
1670.995023
 20
1614.476663
 40
50.000000
 50
61.926000
 51
89.999000
  0
LINE
  8
0
  6
CONTINUOUS
 62
1
 10
1670.995023
 20
1664.476663
 11
1653.415023
 21
1664.476663
  0
ARC
  8
0
  6
CONTINUOUS
 62
1
 10
1669.335023
 20
1563.716663
 40
69.710000
 50
352.796000
 51
78.278000
  0
LINE
  8
0
  6
CONTINUOUS
 62
1
 10
1738.495023
 20
1554.976663
 11
1732.045023
 21
1554.976663
  0
ARC
  8
0
  6
CONTINUOUS
 62
1
 10
1713.755023
 20
1551.326663
 40
18.650000
 50
11.286000
 51
168.714000
  0
LINE
  8
0
  6
CONTINUOUS
 62
1
 10
1695.465023
 20
1554.976663
 11
1695.465023
 21
1539.976663
  0
LINE
  8
0
  6
CONTINUOUS
 62
1
 10
1695.465023
 20
1539.976663
 11
1684.375023
 21
1539.976663
  0
LINE
  8
0
  6
CONTINUOUS
 62
1
 10
913.495023
 20
971.976663
 11
903.495023
 21
971.976663
  0
LINE
  8
0
  6
CONTINUOUS
 62
1
 10
903.495023
 20
971.976663
 11
903.495023
 21
951.976663
  0
LINE
  8
0
  6
CONTINUOUS
 62
1
 10
903.495023
 20
951.976663
 11
913.495023
 21
951.976663
  0
ENDSEC
  0
EOF
