  0
SECTION
  2
HEADER
  9
$LIMMIN
 10
0.000000
 20
0.000000
  9
$LIMMAX
 10
3500.000000
 20
2500.000000
  9
$EXTMIN
 10
0.000000
 20
0.000000
  9
$EXTMAX
 10
3500.000000
 20
2500.000000
  9
$ANGBASE
 50
0.0
  9
$ANGDIR
 70
0
  9
$DIMRND
 40
0.100000
  9
$DIMSE1
 70
0
  9
$DIMSE2
 70
0
  9
$DIMTXT
 40
3.500000
  9
$LTSCALE
 40
1.000000
  9
$LUPREC
 70
5
  9
$AUPREC
 70
5
  9
$PDMODE
 70
2
  9
$PDSIZE
 40
17.500000
  0
ENDSEC
  0
SECTION
  2
TABLES
  0
TABLE
  2
VPORT
  70
1
  0
VPORT
  2
*ACTIVE
 70
0
  10
0.0
 20
0.0
 11
1.0
 21
1.0
 12
594.0
 22
420.0
 13
0.0
 23
0.0
 14
10.0
 24
10.0
 15
10.0
 25
10.0
 16
0.0
 26
0.0
 36
1.0
 17
594.0
 27
420.0
 37
100.0
 40
1000.0
 41
1.0
 42
50.0
 43
0.0
 44
0.0
 50
0.0
 51
0.0
 71
0
 72
2000
 73
1
 74
3
 75
0
 76
0
 77
0
 78
1
  0
ENDTAB
  0
TABLE
  2
LTYPE
 70
4
  0
LTYPE
  2
CONTINUOUS
 70
0
  3
Solid line
 72
65
 73
0
 40
0.0
  0
LTYPE
  2
DASHED
 70
0
  3
Dashed line
 72
65
 73
2
 40
6.000000
 49
3.000000
 49
-3.000000
  0
LTYPE
  2
CENTER
 70
0
  3
Chain line
 72
65
 73
4
 40
24.000000
 49
15.000000
 49
-3.000000
 49
3.000000
 49
-3.000000
  0
LTYPE
  2
RANDOM
 70
0
  3
Random line
 72
65
 73
4
 40
22.500000
 49
6.000000
 49
-3.000000
 49
4.500000
 49
-9.000000
  0
ENDTAB
  0
TABLE
  2
STYLE
 70
9
  0
STYLE
  2
STANDARD
 40
0
 41
1.0
 50
0.0
 71
0
 42
0
  3
simplex
  4

 70
0
  0
ENDTAB
  0
TABLE
  2
LAYER
 70
4
  0
LAYER
  2
0
 70
0
 62
7
  6
CONTINUOUS
  0
LAYER
  2
0
 62
1
  6
CONTINUOUS
 70
0
  0
LAYER
  2
73CONTINUOUS
 62
1
  6
CONTINUOUS
 70
0
  0
LAYER
  2
73ADSDOT
 62
1
  6
CONTINUOUS
 70
0
  0
ENDTAB
  0
ENDSEC
  0
SECTION
  2
BLOCKS
  0
ENDSEC
  0
SECTION
  2
ENTITIES
  0
LINE
  8
0
  6
CONTINUOUS
 62
1
 10
1016.999417
 20
901.976663
 11
942.999417
 21
901.976663
  0
LINE
  8
0
  6
CONTINUOUS
 62
1
 10
957.561268
 20
896.039163
 11
958.531323
 21
802.914155
  0
ARC
  8
0
  6
CONTINUOUS
 62
1
 10
951.561596
 20
895.976663
 40
6.000000
 50
0.596809
 51
90.000000
  0
ARC
  8
0
  6
CONTINUOUS
 62
1
 10
1008.437252
 20
895.976663
 40
6.000000
 50
90.000000
 51
179.403198
  0
LINE
  8
0
  6
CONTINUOUS
 62
1
 10
963.499417
 20
762.976663
 11
963.999417
 21
762.976663
  0
LINE
  8
0
  6
CONTINUOUS
 62
1
 10
963.999417
 20
762.976663
 11
963.499417
 21
762.976663
  0
LINE
  8
0
  6
CONTINUOUS
 62
1
 10
1005.999417
 20
762.976663
 11
994.999417
 21
766.976648
  0
LINE
  8
0
  6
CONTINUOUS
 62
1
 10
953.999417
 20
762.976663
 11
964.999417
 21
766.976648
  0
ARC
  8
0
  6
CONTINUOUS
 62
1
 10
995.467846
 20
802.976655
 40
5.999996
 50
269.999969
 51
359.403160
  0
ARC
  8
0
  6
CONTINUOUS
 62
1
 10
964.531002
 20
802.976655
 40
6.000000
 50
180.596802
 51
270.000000
  0
LINE
  8
0
  6
CONTINUOUS
 62
1
 10
1001.499417
 20
805.976655
 11
958.499417
 21
805.976655
  0
LINE
  8
0
  6
CONTINUOUS
 62
1
 10
1002.437573
 20
896.039163
 11
1001.467526
 21
802.914155
  0
LINE
  8
0
  6
CONTINUOUS
 62
1
 10
964.999417
 20
796.976655
 11
964.999417
 21
766.976648
  0
LINE
  8
0
  6
CONTINUOUS
 62
1
 10
994.999417
 20
796.976655
 11
994.999417
 21
766.976648
  0
LINE
  8
0
  6
CONTINUOUS
 62
1
 10
1005.999417
 20
762.976663
 11
995.999417
 21
762.976663
  0
LINE
  8
0
  6
CONTINUOUS
 62
1
 10
953.999417
 20
762.976663
 11
953.999417
 21
761.976663
  0
LINE
  8
0
  6
CONTINUOUS
 62
1
 10
996.499417
 20
762.976663
 11
953.999417
 21
762.976663
  0
LINE
  8
0
  6
CONTINUOUS
 62
1
 10
994.999417
 20
766.976648
 11
965.030361
 21
766.976648
  0
LINE
  8
0
  6
CONTINUOUS
 62
1
 10
995.467846
 20
796.976655
 11
964.531002
 21
796.976655
  0
LINE
  8
0
  6
CONTINUOUS
 62
1
 10
1005.999417
 20
761.976663
 11
953.999417
 21
761.976663
  0
LINE
  8
0
  6
CONTINUOUS
 62
1
 10
1005.999417
 20
762.976663
 11
1005.999417
 21
761.976663
  0
LINE
  8
0
  6
CONTINUOUS
 62
1
 10
1764.999417
 20
901.976663
 11
1690.999417
 21
901.976663
  0
LINE
  8
0
  6
CONTINUOUS
 62
1
 10
1705.561268
 20
896.039163
 11
1706.531323
 21
802.914155
  0
ARC
  8
0
  6
CONTINUOUS
 62
1
 10
1699.561596
 20
895.976663
 40
6.000000
 50
0.596809
 51
90.000000
  0
ARC
  8
0
  6
CONTINUOUS
 62
1
 10
1756.437252
 20
895.976663
 40
6.000000
 50
90.000000
 51
179.403198
  0
LINE
  8
0
  6
CONTINUOUS
 62
1
 10
1711.499417
 20
762.976663
 11
1711.999417
 21
762.976663
  0
LINE
  8
0
  6
CONTINUOUS
 62
1
 10
1711.999417
 20
762.976663
 11
1711.499417
 21
762.976663
  0
LINE
  8
0
  6
CONTINUOUS
 62
1
 10
1753.999417
 20
762.976663
 11
1742.999417
 21
766.976648
  0
LINE
  8
0
  6
CONTINUOUS
 62
1
 10
1701.999417
 20
762.976663
 11
1712.999417
 21
766.976648
  0
ARC
  8
0
  6
CONTINUOUS
 62
1
 10
1743.467846
 20
802.976655
 40
5.999996
 50
269.999969
 51
359.403160
  0
ARC
  8
0
  6
CONTINUOUS
 62
1
 10
1712.531002
 20
802.976655
 40
6.000000
 50
180.596802
 51
270.000000
  0
LINE
  8
0
  6
CONTINUOUS
 62
1
 10
1749.499417
 20
805.976655
 11
1706.499417
 21
805.976655
  0
LINE
  8
0
  6
CONTINUOUS
 62
1
 10
1750.437573
 20
896.039163
 11
1749.467526
 21
802.914155
  0
LINE
  8
0
  6
CONTINUOUS
 62
1
 10
1712.999417
 20
796.976655
 11
1712.999417
 21
766.976648
  0
LINE
  8
0
  6
CONTINUOUS
 62
1
 10
1742.999417
 20
796.976655
 11
1742.999417
 21
766.976648
  0
LINE
  8
0
  6
CONTINUOUS
 62
1
 10
1753.999417
 20
762.976663
 11
1743.999417
 21
762.976663
  0
LINE
  8
0
  6
CONTINUOUS
 62
1
 10
1701.999417
 20
762.976663
 11
1701.999417
 21
761.976663
  0
LINE
  8
0
  6
CONTINUOUS
 62
1
 10
1744.499417
 20
762.976663
 11
1701.999417
 21
762.976663
  0
LINE
  8
0
  6
CONTINUOUS
 62
1
 10
1742.999417
 20
766.976648
 11
1713.030361
 21
766.976648
  0
LINE
  8
0
  6
CONTINUOUS
 62
1
 10
1743.467846
 20
796.976655
 11
1712.531002
 21
796.976655
  0
LINE
  8
0
  6
CONTINUOUS
 62
1
 10
1753.999417
 20
761.976663
 11
1701.999417
 21
761.976663
  0
LINE
  8
0
  6
CONTINUOUS
 62
1
 10
1753.999417
 20
762.976663
 11
1753.999417
 21
761.976663
  0
LINE
  8
0
  6
CONTINUOUS
 62
1
 10
1739.369417
 20
1631.976663
 11
1409.599417
 21
1631.976663
  0
ARC
  8
0
  6
CONTINUOUS
 62
1
 10
1409.599417
 20
1611.976663
 40
20.000000
 50
89.999000
 51
153.740000
  0
LINE
  8
0
  6
CONTINUOUS
 62
1
 10
1391.659417
 20
1620.826663
 11
1389.519417
 21
1616.476663
  0
LINE
  8
0
  6
CONTINUOUS
 62
1
 10
1778.999417
 20
1631.976663
 11
1778.999417
 21
1676.976663
  0
LINE
  8
0
  6
CONTINUOUS
 62
1
 10
1778.999417
 20
1676.976663
 11
928.999417
 21
1676.976663
  0
LINE
  8
0
  6
CONTINUOUS
 62
1
 10
928.999417
 20
1676.976663
 11
928.999417
 21
1631.976663
  0
LINE
  8
0
  6
CONTINUOUS
 62
1
 10
1803.999417
 20
1631.976663
 11
1803.999417
 21
1656.976663
  0
LINE
  8
0
  6
CONTINUOUS
 62
1
 10
1803.999417
 20
1656.976663
 11
1778.999417
 21
1656.976663
  0
LINE
  8
0
  6
CONTINUOUS
 62
1
 10
1803.999417
 20
1646.976663
 11
1778.999417
 21
1646.976663
  0
LINE
  8
0
  6
CONTINUOUS
 62
1
 10
903.999417
 20
1631.976663
 11
903.999417
 21
1656.976663
  0
LINE
  8
0
  6
CONTINUOUS
 62
1
 10
903.999417
 20
1656.976663
 11
928.999417
 21
1656.976663
  0
LINE
  8
0
  6
CONTINUOUS
 62
1
 10
928.999417
 20
1646.976663
 11
903.999417
 21
1646.976663
  0
ARC
  8
0
  6
CONTINUOUS
 62
1
 10
1753.999417
 20
1656.976663
 40
7.500000
 50
0.000000
 51
180.000000
  0
LINE
  8
0
  6
CONTINUOUS
 62
1
 10
1761.499417
 20
1656.976663
 11
1761.499417
 21
1653.976663
  0
ARC
  8
0
  6
CONTINUOUS
 62
1
 10
1708.999417
 20
1653.976663
 40
52.500000
 50
270.000000
 51
0.000000
  0
LINE
  8
0
  6
CONTINUOUS
 62
1
 10
1708.999417
 20
1601.476663
 11
998.999417
 21
1601.476663
  0
ARC
  8
0
  6
CONTINUOUS
 62
1
 10
998.999417
 20
1653.976663
 40
52.500000
 50
180.000000
 51
270.000000
  0
LINE
  8
0
  6
CONTINUOUS
 62
1
 10
946.499417
 20
1653.976663
 11
946.499417
 21
1656.976663
  0
ARC
  8
0
  6
CONTINUOUS
 62
1
 10
953.999417
 20
1656.976663
 40
7.500000
 50
0.000000
 51
180.000000
  0
LINE
  8
0
  6
CONTINUOUS
 62
1
 10
961.499417
 20
1656.976663
 11
961.499417
 21
1653.976663
  0
ARC
  8
0
  6
CONTINUOUS
 62
1
 10
998.999417
 20
1653.976663
 40
37.500000
 50
180.000000
 51
270.000000
  0
LINE
  8
0
  6
CONTINUOUS
 62
1
 10
998.999417
 20
1616.476663
 11
1708.999417
 21
1616.476663
  0
ARC
  8
0
  6
CONTINUOUS
 62
1
 10
1708.999417
 20
1653.976663
 40
37.500000
 50
270.001000
 51
0.001000
  0
LINE
  8
0
  6
CONTINUOUS
 62
1
 10
1746.499417
 20
1653.976663
 11
1746.499417
 21
1656.976663
  0
LINE
  8
0
  6
CONTINUOUS
 62
1
 10
951.329417
 20
1631.976663
 11
903.999417
 21
1631.976663
  0
LINE
  8
0
  6
CONTINUOUS
 62
1
 10
903.999417
 20
1631.976663
 11
903.999417
 21
911.976663
  0
LINE
  8
0
  6
CONTINUOUS
 62
1
 10
903.999417
 20
911.976663
 11
1803.999417
 21
911.976663
  0
LINE
  8
0
  6
CONTINUOUS
 62
1
 10
1803.999417
 20
911.976663
 11
1803.999417
 21
1631.976663
  0
LINE
  8
0
  6
CONTINUOUS
 62
1
 10
1803.999417
 20
1631.976663
 11
1756.669417
 21
1631.976663
  0
LINE
  8
0
  6
CONTINUOUS
 62
1
 10
1803.999417
 20
1481.976663
 11
903.999417
 21
1481.976663
  0
LINE
  8
0
  6
CONTINUOUS
 62
1
 10
903.999417
 20
1446.976663
 11
1803.999417
 21
1446.976663
  0
LINE
  8
0
  6
CONTINUOUS
 62
1
 10
1803.999417
 20
1393.976663
 11
1751.699417
 21
1393.976663
  0
LINE
  8
0
  6
CONTINUOUS
 62
1
 10
903.999417
 20
1086.976663
 11
1803.999417
 21
1086.976663
  0
LINE
  8
0
  6
CONTINUOUS
 62
1
 10
1803.999417
 20
1066.976663
 11
903.999417
 21
1066.976663
  0
LINE
  8
0
  6
CONTINUOUS
 62
1
 10
903.999417
 20
1041.976663
 11
1803.999417
 21
1041.976663
  0
LINE
  8
0
  6
CONTINUOUS
 62
1
 10
1648.999417
 20
971.976663
 11
1753.999417
 21
971.976663
  0
LINE
  8
0
  6
CONTINUOUS
 62
1
 10
1753.999417
 20
971.976663
 11
1753.999417
 21
1011.976663
  0
LINE
  8
0
  6
CONTINUOUS
 62
1
 10
1753.999417
 20
1011.976663
 11
1648.999417
 21
1011.976663
  0
LINE
  8
0
  6
CONTINUOUS
 62
1
 10
1648.999417
 20
1011.976663
 11
1648.999417
 21
971.976663
  0
LINE
  8
0
  6
CONTINUOUS
 62
1
 10
903.999417
 20
1594.976663
 11
1283.199417
 21
1594.976663
  0
ARC
  8
0
  6
CONTINUOUS
 62
1
 10
1283.199417
 20
1574.976663
 40
20.000000
 50
26.257000
 51
89.999000
  0
LINE
  8
0
  6
CONTINUOUS
 62
1
 10
1301.139417
 20
1583.826663
 11
1308.959417
 21
1567.986663
  0
ARC
  8
0
  6
CONTINUOUS
 62
1
 10
1353.999417
 20
1590.206663
 40
50.230000
 50
206.257000
 51
333.743000
  0
LINE
  8
0
  6
CONTINUOUS
 62
1
 10
1399.039417
 20
1567.986663
 11
1406.859417
 21
1583.826663
  0
ARC
  8
0
  6
CONTINUOUS
 62
1
 10
1424.799417
 20
1574.976663
 40
20.000000
 50
90.001000
 51
153.743000
  0
LINE
  8
0
  6
CONTINUOUS
 62
1
 10
1424.799417
 20
1594.976663
 11
1803.999417
 21
1594.976663
  0
LINE
  8
0
  6
CONTINUOUS
 62
1
 10
1309.159417
 20
1601.476663
 11
1322.409417
 21
1574.616663
  0
ARC
  8
0
  6
CONTINUOUS
 62
1
 10
1353.999417
 20
1590.206663
 40
35.230000
 50
206.257000
 51
333.743000
  0
LINE
  8
0
  6
CONTINUOUS
 62
1
 10
1385.589417
 20
1574.616663
 11
1398.839417
 21
1601.476663
  0
LINE
  8
0
  6
CONTINUOUS
 62
1
 10
1298.399417
 20
1631.976663
 11
1409.599417
 21
1631.976663
  0
LINE
  8
0
  6
CONTINUOUS
 62
1
 10
1382.119417
 20
1601.476663
 11
1372.139417
 21
1581.256663
  0
ARC
  8
0
  6
CONTINUOUS
 62
1
 10
1353.999417
 20
1590.206663
 40
20.230000
 50
206.257000
 51
333.743000
  0
LINE
  8
0
  6
CONTINUOUS
 62
1
 10
1335.859417
 20
1581.256663
 11
1325.879417
 21
1601.476663
  0
LINE
  8
0
  6
CONTINUOUS
 62
1
 10
1318.479417
 20
1616.476663
 11
1316.339417
 21
1620.826663
  0
ARC
  8
0
  6
CONTINUOUS
 62
1
 10
1298.399417
 20
1611.976663
 40
20.000000
 50
26.260000
 51
90.000000
  0
LINE
  8
0
  6
CONTINUOUS
 62
1
 10
1298.399417
 20
1631.976663
 11
968.629417
 21
1631.976663
  0
ARC
  8
0
  6
CONTINUOUS
 62
1
 10
1723.999417
 20
1326.976663
 40
72.500000
 50
0.000000
 51
180.000000
  0
ARC
  8
0
  6
CONTINUOUS
 62
1
 10
1723.999417
 20
1326.976663
 40
72.500000
 50
180.000000
 51
0.000000
  0
ARC
  8
0
  6
CONTINUOUS
 62
1
 10
1723.999417
 20
1326.976663
 40
59.560000
 50
180.000000
 51
0.000000
  0
ARC
  8
0
  6
CONTINUOUS
 62
1
 10
1723.999417
 20
1326.976663
 40
59.560000
 50
0.000000
 51
180.000000
  0
ARC
  8
0
  6
CONTINUOUS
 62
1
 10
1723.999417
 20
1326.976663
 40
29.410000
 50
180.000000
 51
0.000000
  0
ARC
  8
0
  6
CONTINUOUS
 62
1
 10
1723.999417
 20
1326.976663
 40
29.410000
 50
0.000000
 51
180.000000
  0
ARC
  8
0
  6
CONTINUOUS
 62
1
 10
1723.999417
 20
1326.976663
 40
18.030000
 50
180.000000
 51
0.000000
  0
ARC
  8
0
  6
CONTINUOUS
 62
1
 10
1723.999417
 20
1326.976663
 40
18.030000
 50
0.000000
 51
180.000000
  0
LINE
  8
0
  6
CONTINUOUS
 62
1
 10
1696.299417
 20
1393.976663
 11
903.999417
 21
1393.976663
  0
ARC
  8
0
  6
CONTINUOUS
 62
1
 10
953.999417
 20
1328.976663
 40
25.000000
 50
180.000000
 51
0.000000
  0
ARC
  8
0
  6
CONTINUOUS
 62
1
 10
953.999417
 20
1328.976663
 40
25.000000
 50
0.000000
 51
180.000000
  0
ARC
  8
0
  6
CONTINUOUS
 62
1
 10
1038.999417
 20
1328.976663
 40
25.000000
 50
180.000000
 51
0.000000
  0
ARC
  8
0
  6
CONTINUOUS
 62
1
 10
1038.999417
 20
1328.976663
 40
25.000000
 50
0.000000
 51
180.000000
  0
ARC
  8
0
  6
CONTINUOUS
 62
1
 10
953.999417
 20
1328.976663
 40
17.500000
 50
180.000000
 51
0.000000
  0
ARC
  8
0
  6
CONTINUOUS
 62
1
 10
953.999417
 20
1328.976663
 40
17.500000
 50
0.000000
 51
180.000000
  0
ARC
  8
0
  6
CONTINUOUS
 62
1
 10
1038.999417
 20
1328.976663
 40
17.500000
 50
180.000000
 51
0.000000
  0
ARC
  8
0
  6
CONTINUOUS
 62
1
 10
1038.999417
 20
1328.976663
 40
17.500000
 50
0.000000
 51
180.000000
  0
ARC
  8
0
  6
CONTINUOUS
 62
1
 10
996.499417
 20
1303.976663
 40
6.000000
 50
180.000000
 51
0.000000
  0
ARC
  8
0
  6
CONTINUOUS
 62
1
 10
996.499417
 20
1303.976663
 40
6.000000
 50
0.000000
 51
180.000000
  0
ARC
  8
0
  6
CONTINUOUS
 62
1
 10
996.499417
 20
1353.976663
 40
6.000000
 50
180.000000
 51
0.000000
  0
ARC
  8
0
  6
CONTINUOUS
 62
1
 10
996.499417
 20
1353.976663
 40
6.000000
 50
0.000000
 51
180.000000
  0
LINE
  8
0
  6
CONTINUOUS
 62
1
 10
913.999417
 20
911.976663
 11
918.999417
 21
901.976663
  0
LINE
  8
0
  6
CONTINUOUS
 62
1
 10
918.999417
 20
901.976663
 11
1788.999417
 21
901.976663
  0
LINE
  8
0
  6
CONTINUOUS
 62
1
 10
1788.999417
 20
901.976663
 11
1793.999417
 21
911.976663
  0
ENDSEC
  0
EOF
