  0
SECTION
  2
HEADER
  9
$ACADVER
  1
AC1021
  9
$ACADMAINTVER
 70
    25
  9
$DWGCODEPAGE
  3
ANSI_1252
  9
$INSBASE
 10
0.0
 20
0.0
 30
0.0
  9
$EXTMIN
 10
0.0
 20
0.0
 30
0.0
  9
$EXTMAX
 10
841.0
 20
594.0
 30
0.0
  9
$LIMMIN
 10
0.0
 20
0.0
  9
$LIMMAX
 10
841.0
 20
594.0
  9
$ORTHOMODE
 70
     0
  9
$REGENMODE
 70
     1
  9
$FILLMODE
 70
     1
  9
$QTEXTMODE
 70
     0
  9
$MIRRTEXT
 70
     1
  9
$LTSCALE
 40
1.0
  9
$ATTMODE
 70
     1
  9
$TEXTSIZE
 40
3.5
  9
$TRACEWID
 40
1.0
  9
$TEXTSTYLE
  7
STANDARD
  9
$CLAYER
  8
0
  9
$CELTYPE
  6
ByLayer
  9
$CECOLOR
 62
   256
  9
$CELTSCALE
 40
1.0
  9
$DISPSILH
 70
     0
  9
$DIMSCALE
 40
1.0
  9
$DIMASZ
 40
3.302
  9
$DIMEXO
 40
1.0
  9
$DIMDLI
 40
3.75
  9
$DIMRND
 40
0.0
  9
$DIMDLE
 40
0.0
  9
$DIMEXE
 40
1.0
  9
$DIMTP
 40
0.0
  9
$DIMTM
 40
0.0
  9
$DIMTXT
 40
3.5
  9
$DIMCEN
 40
2.5
  9
$DIMTSZ
 40
0.0
  9
$DIMTOL
 70
     0
  9
$DIMLIM
 70
     0
  9
$DIMTIH
 70
     1
  9
$DIMTOH
 70
     1
  9
$DIMSE1
 70
     0
  9
$DIMSE2
 70
     0
  9
$DIMTAD
 70
     1
  9
$DIMZIN
 70
     0
  9
$DIMBLK
  1

  9
$DIMASO
 70
     1
  9
$DIMSHO
 70
     1
  9
$DIMPOST
  1

  9
$DIMAPOST
  1

  9
$DIMALT
 70
     0
  9
$DIMALTD
 70
     3
  9
$DIMALTF
 40
0.0393700787
  9
$DIMLFAC
 40
1.0
  9
$DIMTOFL
 70
     1
  9
$DIMTVP
 40
0.0
  9
$DIMTIX
 70
     0
  9
$DIMSOXD
 70
     0
  9
$DIMSAH
 70
     0
  9
$DIMBLK1
  1

  9
$DIMBLK2
  1

  9
$DIMSTYLE
  2
ISO-25
  9
$DIMCLRD
 70
     0
  9
$DIMCLRE
 70
     0
  9
$DIMCLRT
 70
     0
  9
$DIMTFAC
 40
1.0
  9
$DIMGAP
 40
1.524
  9
$DIMJUST
 70
     0
  9
$DIMSD1
 70
     0
  9
$DIMSD2
 70
     0
  9
$DIMTOLJ
 70
     0
  9
$DIMTZIN
 70
     0
  9
$DIMALTZ
 70
     0
  9
$DIMALTTZ
 70
     0
  9
$DIMUPT
 70
     0
  9
$DIMDEC
 70
     1
  9
$DIMTDEC
 70
     1
  9
$DIMALTU
 70
     2
  9
$DIMALTTD
 70
     3
  9
$DIMTXSTY
  7
STANDARD
  9
$DIMAUNIT
 70
     0
  9
$DIMADEC
 70
     1
  9
$DIMALTRND
 40
0.0
  9
$DIMAZIN
 70
     0
  9
$DIMDSEP
 70
    44
  9
$DIMATFIT
 70
     3
  9
$DIMFRAC
 70
     0
  9
$DIMLDRBLK
  1

  9
$DIMLUNIT
 70
     2
  9
$DIMLWD
 70
    -2
  9
$DIMLWE
 70
    -2
  9
$DIMTMOVE
 70
     0
  9
$DIMFXL
 40
1.0
  9
$DIMFXLON
 70
     0
  9
$DIMJOGANG
 40
0.7853981634
  9
$DIMTFILL
 70
     0
  9
$DIMTFILLCLR
 70
     0
  9
$DIMARCSYM
 70
     0
  9
$DIMLTYPE
  6

  9
$DIMLTEX1
  6

  9
$DIMLTEX2
  6

  9
$LUNITS
 70
     2
  9
$LUPREC
 70
     1
  9
$SKETCHINC
 40
1.0
  9
$FILLETRAD
 40
10.0
  9
$AUNITS
 70
     0
  9
$AUPREC
 70
     1
  9
$MENU
  1
.
  9
$ELEVATION
 40
0.0
  9
$PELEVATION
 40
0.0
  9
$THICKNESS
 40
0.0
  9
$LIMCHECK
 70
     0
  9
$CHAMFERA
 40
10.0
  9
$CHAMFERB
 40
10.0
  9
$CHAMFERC
 40
20.0
  9
$CHAMFERD
 40
0.0
  9
$SKPOLY
 70
     0
  9
$TDCREATE
 40
2455700.624081377
  9
$TDUCREATE
 40
2455700.58241471
  9
$TDUPDATE
 40
2455700.624081389
  9
$TDUUPDATE
 40
2455700.582414722
  9
$TDINDWG
 40
0.0000000116
  9
$TDUSRTIMER
 40
0.0000000116
  9
$USRTIMER
 70
     1
  9
$ANGBASE
 50
0.0
  9
$ANGDIR
 70
     0
  9
$PDMODE
 70
     0
  9
$PDSIZE
 40
-1.0
  9
$PLINEWID
 40
0.0
  9
$SPLFRAME
 70
     0
  9
$SPLINETYPE
 70
     6
  9
$SPLINESEGS
 70
     8
  9
$HANDSEED
  5
2C3
  9
$SURFTAB1
 70
     6
  9
$SURFTAB2
 70
     6
  9
$SURFTYPE
 70
     6
  9
$SURFU
 70
     6
  9
$SURFV
 70
     6
  9
$UCSBASE
  2

  9
$UCSNAME
  2

  9
$UCSORG
 10
0.0
 20
0.0
 30
0.0
  9
$UCSXDIR
 10
1.0
 20
0.0
 30
0.0
  9
$UCSYDIR
 10
0.0
 20
1.0
 30
0.0
  9
$UCSORTHOREF
  2

  9
$UCSORTHOVIEW
 70
     0
  9
$UCSORGTOP
 10
0.0
 20
0.0
 30
0.0
  9
$UCSORGBOTTOM
 10
0.0
 20
0.0
 30
0.0
  9
$UCSORGLEFT
 10
0.0
 20
0.0
 30
0.0
  9
$UCSORGRIGHT
 10
0.0
 20
0.0
 30
0.0
  9
$UCSORGFRONT
 10
0.0
 20
0.0
 30
0.0
  9
$UCSORGBACK
 10
0.0
 20
0.0
 30
0.0
  9
$PUCSBASE
  2

  9
$PUCSNAME
  2

  9
$PUCSORG
 10
0.0
 20
0.0
 30
0.0
  9
$PUCSXDIR
 10
1.0
 20
0.0
 30
0.0
  9
$PUCSYDIR
 10
0.0
 20
1.0
 30
0.0
  9
$PUCSORTHOREF
  2

  9
$PUCSORTHOVIEW
 70
     0
  9
$PUCSORGTOP
 10
0.0
 20
0.0
 30
0.0
  9
$PUCSORGBOTTOM
 10
0.0
 20
0.0
 30
0.0
  9
$PUCSORGLEFT
 10
0.0
 20
0.0
 30
0.0
  9
$PUCSORGRIGHT
 10
0.0
 20
0.0
 30
0.0
  9
$PUCSORGFRONT
 10
0.0
 20
0.0
 30
0.0
  9
$PUCSORGBACK
 10
0.0
 20
0.0
 30
0.0
  9
$USERI1
 70
     0
  9
$USERI2
 70
     0
  9
$USERI3
 70
     0
  9
$USERI4
 70
     0
  9
$USERI5
 70
     0
  9
$USERR1
 40
0.0
  9
$USERR2
 40
0.0
  9
$USERR3
 40
0.0
  9
$USERR4
 40
0.0
  9
$USERR5
 40
0.0
  9
$WORLDVIEW
 70
     1
  9
$SHADEDGE
 70
     3
  9
$SHADEDIF
 70
    70
  9
$TILEMODE
 70
     1
  9
$MAXACTVP
 70
    64
  9
$PINSBASE
 10
0.0
 20
0.0
 30
0.0
  9
$PLIMCHECK
 70
     0
  9
$PEXTMIN
 10
1.0000000000E+20
 20
1.0000000000E+20
 30
1.0000000000E+20
  9
$PEXTMAX
 10
-1.0000000000E+20
 20
-1.0000000000E+20
 30
-1.0000000000E+20
  9
$PLIMMIN
 10
0.0
 20
0.0
  9
$PLIMMAX
 10
420.0
 20
297.0
  9
$UNITMODE
 70
     0
  9
$VISRETAIN
 70
     1
  9
$PLINEGEN
 70
     0
  9
$PSLTSCALE
 70
     1
  9
$TREEDEPTH
 70
  3020
  9
$CMLSTYLE
  2
Standard
  9
$CMLJUST
 70
     0
  9
$CMLSCALE
 40
20.0
  9
$PROXYGRAPHICS
 70
     1
  9
$MEASUREMENT
 70
     1
  9
$CELWEIGHT
370
    -1
  9
$ENDCAPS
280
     0
  9
$JOINSTYLE
280
     0
  9
$LWDISPLAY
290
     1
  9
$INSUNITS
 70
     4
  9
$HYPERLINKBASE
  1

  9
$STYLESHEET
  1

  9
$XEDIT
290
     1
  9
$CEPSNTYPE
380
     0
  9
$PSTYLEMODE
290
     1
  9
$FINGERPRINTGUID
  2
{6B992FF4-C04B-450D-93E6-9375FFAE1D2B}
  9
$VERSIONGUID
  2
{FAEB1C32-E019-11D5-929B-00C0DF256EC4}
  9
$EXTNAMES
290
     1
  9
$PSVPSCALE
 40
0.0
  9
$OLESTARTUP
290
     0
  9
$SORTENTS
280
   127
  9
$INDEXCTL
280
     0
  9
$HIDETEXT
280
     1
  9
$XCLIPFRAME
290
     0
  9
$HALOGAP
280
     0
  9
$OBSCOLOR
 70
   257
  9
$OBSLTYPE
280
     0
  9
$INTERSECTIONDISPLAY
280
     0
  9
$INTERSECTIONCOLOR
 70
   257
  9
$DIMASSOC
280
     2
  9
$PROJECTNAME
  1

  9
$CAMERADISPLAY
290
     0
  9
$LENSLENGTH
 40
50.0
  9
$CAMERAHEIGHT
 40
0.0
  9
$STEPSPERSEC
 40
2.0
  9
$STEPSIZE
 40
6.0
  9
$3DDWFPREC
 40
2.0
  9
$PSOLWIDTH
 40
5.0
  9
$PSOLHEIGHT
 40
80.0
  9
$LOFTANG1
 40
1.5707963268
  9
$LOFTANG2
 40
1.5707963268
  9
$LOFTMAG1
 40
0.0
  9
$LOFTMAG2
 40
0.0
  9
$LOFTPARAM
 70
     7
  9
$LOFTNORMALS
280
     1
  9
$LATITUDE
 40
37.795
  9
$LONGITUDE
 40
-122.394
  9
$NORTHDIRECTION
 40
0.0
  9
$TIMEZONE
 70
 -8000
  9
$LIGHTGLYPHDISPLAY
280
     1
  9
$TILEMODELIGHTSYNCH
280
     1
  9
$SOLIDHIST
280
     1
  9
$SHOWHIST
280
     1
  9
$DWFFRAME
280
     2
  9
$DGNFRAME
280
     2
  9
$REALWORLDSCALE
290
     1
  9
$INTERFERECOLOR
 62
   256
  9
$CSHADOW
280
     0
  9
$SHADOWPLANELOCATION
 40
0.0
  0
ENDSEC
  0
SECTION
  2
CLASSES
  0
CLASS
  1
ACDBDICTIONARYWDFLT
  2
AcDbDictionaryWithDefault
  3
ObjectDBX Classes
 90
        0
 91
        4
280
     0
281
     0
  0
CLASS
  1
VISUALSTYLE
  2
AcDbVisualStyle
  3
ObjectDBX Classes
 90
     4095
 91
        4
280
     0
281
     0
  0
CLASS
  1
MATERIAL
  2
AcDbMaterial
  3
ObjectDBX Classes
 90
     1153
 91
        4
280
     0
281
     0
  0
ENDSEC
  0
SECTION
  2
TABLES
  0
TABLE
  2
VPORT
  5
8
330
0
100
AcDbSymbolTable
 70
     1
  0
VPORT
  5
29
330
8
100
AcDbSymbolTableRecord
100
AcDbViewportTableRecord
  2
*Active
 70
     0
 10
0.0
 20
0.0
 11
1.0
 21
1.0
 12
420.5
 22
297.0
 13
0.0
 23
0.0
 14
10.0
 24
10.0
 15
10.0
 25
10.0
 16
0.0
 26
0.0
 36
1.0
 17
0.0
 27
0.0
 37
0.0
 40
594.0
 41
1.4158249158
 42
50.0
 43
0.0
 44
0.0
 50
0.0
 51
0.0
 71
     0
 72
  2000
 73
     1
 74
     3
 75
     0
 76
     0
 77
     0
 78
     0
281
     0
 65
     1
110
0.0
120
0.0
130
0.0
111
1.0
121
0.0
131
0.0
112
0.0
122
1.0
132
0.0
 79
     0
146
0.0
 60
     3
 61
     5
292
     1
282
     1
141
0.0
142
0.0
 63
   250
  0
ENDTAB
  0
TABLE
  2
LTYPE
  5
5
330
0
100
AcDbSymbolTable
 70
     8
  0
LTYPE
  5
14
330
5
100
AcDbSymbolTableRecord
100
AcDbLinetypeTableRecord
  2
ByBlock
 70
     0
  3

 72
    65
 73
     0
 40
0.0
  0
LTYPE
  5
15
330
5
100
AcDbSymbolTableRecord
100
AcDbLinetypeTableRecord
  2
ByLayer
 70
     0
  3

 72
    65
 73
     0
 40
0.0
  0
LTYPE
  5
16
330
5
100
AcDbSymbolTableRecord
100
AcDbLinetypeTableRecord
  2
Continuous
 70
     0
  3
Solid line
 72
    65
 73
     0
 40
0.0
  0
LTYPE
  5
3F
330
5
100
AcDbSymbolTableRecord
100
AcDbLinetypeTableRecord
  2
SLD-Solid
 70
     0
  3
SolidWorks Line Style
 72
    65
 73
     0
 40
0.0
  0
LTYPE
  5
40
330
5
100
AcDbSymbolTableRecord
100
AcDbLinetypeTableRecord
  2
SLD-Dashed
 70
     0
  3
SolidWorks Line Style
 72
    65
 73
     2
 40
1.905
 49
1.27
 74
     0
 49
-0.635
 74
     0
  0
LTYPE
  5
41
330
5
100
AcDbSymbolTableRecord
100
AcDbLinetypeTableRecord
  2
SLD-Phantom
 70
     0
  3
SolidWorks Line Style
 72
    65
 73
     6
 40
12.7
 49
6.35
 74
     0
 49
-1.27
 74
     0
 49
1.27
 74
     0
 49
-1.27
 74
     0
 49
1.27
 74
     0
 49
-1.27
 74
     0
  0
LTYPE
  5
42
330
5
100
AcDbSymbolTableRecord
100
AcDbLinetypeTableRecord
  2
SLD-Chain
 70
     0
  3
SolidWorks Line Style
 72
    65
 73
     4
 40
10.16
 49
6.35
 74
     0
 49
-1.27
 74
     0
 49
1.27
 74
     0
 49
-1.27
 74
     0
  0
LTYPE
  5
43
330
5
100
AcDbSymbolTableRecord
100
AcDbLinetypeTableRecord
  2
SLD-Center
 70
     0
  3
SolidWorks Line Style
 72
    65
 73
     4
 40
19.05
 49
15.24
 74
     0
 49
-1.27
 74
     0
 49
1.27
 74
     0
 49
-1.27
 74
     0
  0
LTYPE
  5
44
330
5
100
AcDbSymbolTableRecord
100
AcDbLinetypeTableRecord
  2
SLD-Stitch
 70
     0
  3
SolidWorks Line Style
 72
    65
 73
     2
 40
0.635
 49
0.0
 74
     0
 49
-0.635
 74
     0
  0
LTYPE
  5
45
330
5
100
AcDbSymbolTableRecord
100
AcDbLinetypeTableRecord
  2
SLD-Thin-Thick-Chain
 70
     0
  3
SolidWorks Line Style
 72
    65
 73
     4
 40
10.16
 49
6.35
 74
     0
 49
-1.27
 74
     0
 49
1.27
 74
     0
 49
-1.27
 74
     0
  0
ENDTAB
  0
TABLE
  2
LAYER
  5
2
330
0
100
AcDbSymbolTable
 70
     1
  0
LAYER
  5
10
330
2
100
AcDbSymbolTableRecord
100
AcDbLayerTableRecord
  2
0
 70
     0
 62
     7
  6
Continuous
370
    -3
390
F
347
3E
  0
ENDTAB
  0
TABLE
  2
STYLE
  5
3
330
0
100
AcDbSymbolTable
 70
     1
  0
STYLE
  5
11
330
3
100
AcDbSymbolTableRecord
100
AcDbTextStyleTableRecord
  2
STANDARD
 70
     0
 40
0.0
 41
1.0
 50
0.0
 71
     0
 42
2.5
  3
GOTHIC.TTF
  4

1001
ACAD
1000
CENTURY GOTHIC
1071
       34
  0
ENDTAB
  0
TABLE
  2
VIEW
  5
6
330
0
100
AcDbSymbolTable
 70
     0
  0
ENDTAB
  0
TABLE
  2
UCS
  5
7
330
0
100
AcDbSymbolTable
 70
     0
  0
ENDTAB
  0
TABLE
  2
APPID
  5
9
330
0
100
AcDbSymbolTable
 70
     1
  0
APPID
  5
12
330
9
100
AcDbSymbolTableRecord
100
AcDbRegAppTableRecord
  2
ACAD
 70
     0
  0
ENDTAB
  0
TABLE
  2
DIMSTYLE
  5
A
330
0
100
AcDbSymbolTable
 70
     1
100
AcDbDimStyleTable
  0
DIMSTYLE
105
27
330
A
100
AcDbSymbolTableRecord
100
AcDbDimStyleTableRecord
  2
ISO-25
 70
     0
 41
2.5
 42
0.625
 43
3.75
 44
1.25
 73
     0
 74
     0
 77
     1
 78
     8
140
2.5
141
2.5
143
0.0393700787
147
0.625
171
     3
172
     1
271
     2
272
     2
274
     3
278
    44
283
     0
284
     8
340
11
  0
ENDTAB
  0
TABLE
  2
BLOCK_RECORD
  5
1
330
0
100
AcDbSymbolTable
 70
     1
  0
BLOCK_RECORD
  5
1F
330
1
100
AcDbSymbolTableRecord
100
AcDbBlockTableRecord
  2
*Model_Space
340
22
 70
     0
280
     1
281
     0
  0
BLOCK_RECORD
  5
1B
330
1
100
AcDbSymbolTableRecord
100
AcDbBlockTableRecord
  2
*Paper_Space
340
1E
 70
     0
280
     1
281
     0
  0
BLOCK_RECORD
  5
23
330
1
100
AcDbSymbolTableRecord
100
AcDbBlockTableRecord
  2
*Paper_Space0
340
26
 70
     0
280
     1
281
     0
  0
ENDTAB
  0
ENDSEC
  0
SECTION
  2
BLOCKS
  0
BLOCK
  5
20
330
1F
100
AcDbEntity
  8
0
100
AcDbBlockBegin
  2
*Model_Space
 70
     0
 10
0.0
 20
0.0
 30
0.0
  3
*Model_Space
  1

  0
ENDBLK
  5
21
330
1F
100
AcDbEntity
  8
0
100
AcDbBlockEnd
  0
BLOCK
  5
1C
330
1B
100
AcDbEntity
 67
     1
  8
0
100
AcDbBlockBegin
  2
*Paper_Space
 70
     0
 10
0.0
 20
0.0
 30
0.0
  3
*Paper_Space
  1

  0
ENDBLK
  5
1D
330
1B
100
AcDbEntity
 67
     1
  8
0
100
AcDbBlockEnd
  0
BLOCK
  5
24
330
23
100
AcDbEntity
  8
0
100
AcDbBlockBegin
  2
*Paper_Space0
 70
     0
 10
0.0
 20
0.0
 30
0.0
  3
*Paper_Space0
  1

  0
ENDBLK
  5
25
330
23
100
AcDbEntity
  8
0
100
AcDbBlockEnd
  0
ENDSEC
  0
SECTION
  2
ENTITIES
  0
LINE
  5
46
330
1F
100
AcDbEntity
  8
0
  6
SLD-Solid
 62
     7
370
    15
100
AcDbLine
 10
807.2016973047
 20
-21.8071001545
 30
0.0
 11
807.2016973047
 21
-19.3071001545
 31
0.0
  0
LINE
  5
47
330
1F
100
AcDbEntity
  8
0
  6
SLD-Solid
 62
     7
370
    15
100
AcDbLine
 10
798.8061254253
 20
572.5735391165
 30
0.0
 11
801.243023546
 21
574.6039876503
 31
0.0
  0
LINE
  5
48
330
1F
100
AcDbEntity
  8
0
  6
SLD-Solid
 62
     7
370
    15
100
AcDbLine
 10
633.7516973045
 20
705.6928998405
 30
0.0
 11
633.7516973045
 21
707.1928998405
 31
0.0
  0
LINE
  5
49
330
1F
100
AcDbEntity
  8
0
  6
SLD-Solid
 62
     7
370
    15
100
AcDbLine
 10
446.7516973045
 20
707.1928998405
 30
0.0
 11
446.7516973045
 21
705.6928998405
 31
0.0
  0
LINE
  5
4A
330
1F
100
AcDbEntity
  8
0
  6
SLD-Solid
 62
     7
370
    15
100
AcDbLine
 10
633.7516973045
 20
707.1928998405
 30
0.0
 11
631.7516973045
 21
709.1928998405
 31
0.0
  0
LINE
  5
4B
330
1F
100
AcDbEntity
  8
0
  6
SLD-Solid
 62
     7
370
    15
100
AcDbLine
 10
448.7516973045
 20
709.1928998405
 30
0.0
 11
446.7516973045
 21
707.1928998405
 31
0.0
  0
LINE
  5
4C
330
1F
100
AcDbEntity
  8
0
  6
SLD-Solid
 62
     7
370
    15
100
AcDbLine
 10
555.0118320427
 20
705.5994672926
 30
0.0
 11
555.4894305885
 21
705.6928998405
 31
0.0
  0
LINE
  5
4D
330
1F
100
AcDbEntity
  8
0
  6
SLD-Solid
 62
     7
370
    15
100
AcDbLine
 10
525.0139640206
 20
705.6928998405
 30
0.0
 11
525.4915625664
 21
705.5994672926
 31
0.0
  0
LINE
  5
4E
330
1F
100
AcDbEntity
  8
0
  6
SLD-Solid
 62
     7
370
    15
100
AcDbLine
 10
37.8016973047
 20
596.6928998455
 30
0.0
 11
42.6016973047
 21
596.6928998455
 31
0.0
  0
LINE
  5
4F
330
1F
100
AcDbEntity
  8
0
  6
SLD-Solid
 62
     7
370
    15
100
AcDbLine
 10
42.6016973047
 20
621.6928998455
 30
0.0
 11
37.8016973047
 21
621.6928998455
 31
0.0
  0
LINE
  5
50
330
1F
100
AcDbEntity
  8
0
  6
SLD-Solid
 62
     7
370
    15
100
AcDbLine
 10
638.3511093526
 20
697.5060347447
 30
0.0
 11
631.8495304791
 21
705.5994672926
 31
0.0
  0
LINE
  5
51
330
1F
100
AcDbEntity
  8
0
  6
SLD-Solid
 62
     7
370
    15
100
AcDbLine
 10
448.65386413
 20
705.5994672926
 30
0.0
 11
442.1522852565
 21
697.5060347447
 31
0.0
  0
SPLINE
  5
52
330
1F
100
AcDbEntity
  8
0
  6
SLD-Solid
 62
     7
370
    15
100
AcDbSpline
210
0.0
220
0.0
230
1.0
 70
     8
 71
     3
 72
    11
 73
     7
 74
     0
 42
0.00000001
 43
0.00000001
 40
0.0
 40
0.0
 40
0.0
 40
0.0
 40
0.1214806355470679
 40
0.5678253578231399
 40
0.8436721293953372
 40
1.0
 40
1.0
 40
1.0
 40
1.0
 10
809.2028796626164
 20
442.6191632329206
 30
0.0
 10
810.6040785079027
 20
442.6179247837977
 30
0.0
 10
817.1535687383674
 20
442.6121360190843
 30
0.0
 10
826.8930911537826
 20
442.7411105617841
 30
0.0
 10
837.0164560534929
 20
442.7279133935611
 30
0.0
 10
841.9875631495264
 20
442.5262053650316
 30
0.0
 10
843.7857310914407
 20
442.4532427626332
 30
0.0
  0
SPLINE
  5
53
330
1F
100
AcDbEntity
  8
0
  6
SLD-Solid
 62
     7
370
    15
100
AcDbSpline
210
0.0
220
0.0
230
1.0
 70
     8
 71
     3
 72
    11
 73
     7
 74
     0
 42
0.00000001
 43
0.00000001
 40
0.0
 40
0.0
 40
0.0
 40
0.0
 40
0.1810035937129893
 40
0.4503585812666844
 40
0.7687436523325971
 40
1.0
 40
1.0
 40
1.0
 40
1.0
 10
843.7816286940979
 20
471.9158489098768
 30
0.0
 10
841.700839101989
 20
471.8419030169369
 30
0.0
 10
836.5235858254462
 20
471.6579167946096
 30
0.0
 10
827.6614001785783
 20
471.64768836941
 30
0.0
 10
818.2106413311114
 20
471.7580884357744
 30
0.0
 10
811.869626089329
 20
471.756037934448
 30
0.0
 10
809.2017048313254
 20
471.7551752057099
 30
0.0
  0
SPLINE
  5
54
330
1F
100
AcDbEntity
  8
0
  6
SLD-Solid
 62
     7
370
    15
100
AcDbSpline
210
0.0
220
0.0
230
1.0
 70
     8
 71
     3
 72
    21
 73
    17
 74
     0
 42
0.00000001
 43
0.00000001
 40
0.0
 40
0.0
 40
0.0
 40
0.0
 40
0.0057711811305216
 40
0.0320826191982111
 40
0.0601509282575384
 40
0.077702314441398
 40
0.0913211077116419
 40
0.1044731639882663
 40
0.2773532426606443
 40
0.4502422720309054
 40
0.6231291191360581
 40
0.7960498939731506
 40
0.969002069583221
 40
0.9912469788226272
 40
0.9980611509484751
 40
1.0
 40
1.0
 40
1.0
 40
1.0
 10
845.3252189083595
 20
442.6394329487813
 30
0.0
 10
845.3182954596894
 20
442.6390275078513
 30
0.0
 10
845.2798072607924
 20
442.6367736179335
 30
0.0
 10
845.4819996247733
 20
442.6380906022109
 30
0.0
 10
845.8640737101516
 20
442.6161078879508
 30
0.0
 10
846.5250730439575
 20
442.6032138031426
 30
0.0
 10
846.7800461397179
 20
442.6050524585818
 30
0.0
 10
847.9325539993099
 20
442.6030318037279
 30
0.0
 10
849.8873700949603
 20
442.6047329443429
 30
0.0
 10
852.3653904532827
 20
442.6031857083687
 30
0.0
 10
854.6598065405742
 20
442.6041628592284
 30
0.0
 10
856.1487686825326
 20
442.5996927852171
 30
0.0
 10
858.2825804894871
 20
442.610720277396
 30
0.0
 10
857.8812650566962
 20
442.6006019491055
 30
0.0
 10
858.3491713310226
 20
442.6047812416443
 30
0.0
 10
858.3122562975192
 20
442.6044746970352
 30
0.0
 10
858.3040793862281
 20
442.6044067954829
 30
0.0
  0
SPLINE
  5
55
330
1F
100
AcDbEntity
  8
0
  6
SLD-Solid
 62
     7
370
    15
100
AcDbSpline
210
0.0
220
0.0
230
1.0
 70
     8
 71
     3
 72
    10
 73
     6
 74
     0
 42
0.00000001
 43
0.00000001
 40
0.0
 40
0.0
 40
0.0
 40
0.0
 40
0.0093149142490343
 40
0.5042957503235959
 40
1.0
 40
1.0
 40
1.0
 40
1.0
 10
857.4588846844385
 20
471.711552321504
 30
0.0
 10
857.4643919235508
 20
471.7125512603698
 30
0.0
 10
857.762545745055
 20
471.7666323406019
 30
0.0
 10
858.1454604714028
 20
471.7416334862636
 30
0.0
 10
858.3454279823986
 20
471.7374520112965
 30
0.0
 10
858.4454847475843
 20
471.7353597471239
 30
0.0
  0
SPLINE
  5
56
330
1F
100
AcDbEntity
  8
0
  6
SLD-Solid
 62
     7
370
    15
100
AcDbSpline
210
0.0
220
0.0
230
1.0
 70
     8
 71
     3
 72
    24
 73
    20
 74
     0
 42
0.00000001
 43
0.00000001
 40
0.0
 40
0.0
 40
0.0
 40
0.0
 40
0.0035505630931312
 40
0.0189090208204382
 40
0.0352077846069826
 40
0.0401035165393473
 40
0.044971176672038
 40
0.0497499905250186
 40
0.2195541487525507
 40
0.389323413674599
 40
0.5590444562696307
 40
0.7286788108721899
 40
0.8983326767539853
 40
0.9453164857912824
 40
0.9553658717829472
 40
0.9660263757105347
 40
0.97741029429448
 40
0.9881410477058058
 40
1.0
 40
1.0
 40
1.0
 40
1.0
 10
858.4993040856817
 20
471.731300891792
 30
0.0
 10
858.507116755135
 20
471.7306881864087
 30
0.0
 10
858.5487242200588
 20
471.7274251381131
 30
0.0
 10
858.3103792948657
 20
471.7488906921672
 30
0.0
 10
857.9935402866532
 20
471.7773759395699
 30
0.0
 10
857.5196454486455
 20
471.7835058966102
 30
0.0
 10
857.5004677502955
 20
471.782672007482
 30
0.0
 10
856.9092767527844
 20
471.7847357931647
 30
0.0
 10
855.8598679427101
 20
471.7818548410595
 30
0.0
 10
853.829134162586
 20
471.7827417968889
 30
0.0
 10
851.5779697289464
 20
471.7817830994006
 30
0.0
 10
848.8006549132245
 20
471.7823941439566
 30
0.0
 10
847.0269123456643
 20
471.7789627817244
 30
0.0
 10
845.0991990092522
 20
471.7820924984646
 30
0.0
 10
844.8164153921715
 20
471.774563026504
 30
0.0
 10
845.020673823594
 20
471.7815696072675
 30
0.0
 10
845.6552025792105
 20
471.71545487752
 30
0.0
 10
846.0165127492627
 20
471.627205750844
 30
0.0
 10
846.0584572404492
 20
471.6144408942607
 30
0.0
 10
846.0804769040283
 20
471.6077397080109
 30
0.0
  0
SPLINE
  5
57
330
1F
100
AcDbEntity
  8
0
  6
SLD-Solid
 62
     7
370
    15
100
AcDbSpline
210
0.0
220
0.0
230
1.0
 70
     8
 71
     3
 72
    10
 73
     6
 74
     0
 42
0.00000001
 43
0.00000001
 40
0.0
 40
0.0
 40
0.0
 40
0.0
 40
0.0092672633880674
 40
0.5999340580221675
 40
0.9999999999999999
 40
0.9999999999999999
 40
0.9999999999999999
 40
0.9999999999999999
 10
858.3373123403048
 20
471.9444075598533
 30
0.0
 10
858.2946450757279
 20
471.9429288590611
 30
0.0
 10
855.5324979228434
 20
471.8472023290486
 30
0.0
 10
850.9394967727579
 20
471.7782583536815
 30
0.0
 10
846.3700757468837
 20
471.7868448657745
 30
0.0
 10
844.5249063490688
 20
471.7903121692378
 30
0.0
  0
LWPOLYLINE
  5
58
330
1F
100
AcDbEntity
  8
0
  6
SLD-Solid
 62
     7
370
    15
100
AcDbPolyline
 90
        3
 70
   128
 43
0.0
 10
839.6866247015
 20
471.789231824
 10
825.9075179002
 20
471.789415457
 10
809.2029498764
 20
471.7896249315
  0
SPLINE
  5
59
330
1F
100
AcDbEntity
  8
0
  6
SLD-Solid
 62
     7
370
    15
100
AcDbSpline
210
0.0
220
0.0
230
1.0
 70
     8
 71
     3
 72
     9
 73
     5
 74
     0
 42
0.00000001
 43
0.00000001
 40
0.0
 40
0.0
 40
0.0
 40
0.0
 40
0.7741808595417704
 40
1.0
 40
1.0
 40
1.0
 40
1.0
 10
809.2016022994655
 20
442.5961740386091
 30
0.0
 10
817.1070965115609
 20
442.5970349865401
 30
0.0
 10
827.3185272317347
 20
442.598147062511
 30
0.0
 10
837.5284222055349
 20
442.5954541562184
 30
0.0
 10
839.8340119126874
 20
442.5948460464341
 30
0.0
  0
SPLINE
  5
5A
330
1F
100
AcDbEntity
  8
0
  6
SLD-Solid
 62
     7
370
    15
100
AcDbSpline
210
0.0
220
0.0
230
1.0
 70
     8
 71
     3
 72
    10
 73
     6
 74
     0
 42
0.00000001
 43
0.00000001
 40
0.0
 40
0.0
 40
0.0
 40
0.0
 40
0.4083964916894758
 40
0.9938954208386963
 40
0.9999999999999999
 40
0.9999999999999999
 40
0.9999999999999999
 40
0.9999999999999999
 10
844.5103727811617
 20
442.5937438308375
 30
0.0
 10
846.425477036984
 20
442.5987649414982
 30
0.0
 10
851.0861765998435
 20
442.610984583426
 30
0.0
 10
855.7527099204788
 20
442.5254520322115
 30
0.0
 10
858.5225713675223
 20
442.4344872437798
 30
0.0
 10
858.5511527370237
 20
442.4335486054113
 30
0.0
  0
SPLINE
  5
5B
330
1F
100
AcDbEntity
  8
0
  6
SLD-Solid
 62
     7
370
    15
100
AcDbSpline
210
0.0
220
0.0
230
1.0
 70
     8
 71
     3
 72
    11
 73
     7
 74
     0
 42
0.00000001
 43
0.00000001
 40
0.0
 40
0.0
 40
0.0
 40
0.0
 40
0.2517224808233481
 40
0.5030805494144113
 40
0.753591293511606
 40
1.0
 40
1.0
 40
1.0
 40
1.0
 10
865.374354227293
 20
466.5311685854543
 30
0.0
 10
865.1116616702482
 20
467.3302449143499
 30
0.0
 10
864.5866568494911
 20
468.927240769666
 30
0.0
 10
862.7862326103567
 20
470.7102696208661
 30
0.0
 10
860.5987889971759
 20
471.8354093843976
 30
0.0
 10
859.0311842674805
 20
471.9022960410061
 30
0.0
 10
858.2538521399613
 20
471.9354632968196
 30
0.0
  0
SPLINE
  5
5C
330
1F
100
AcDbEntity
  8
0
  6
SLD-Solid
 62
     7
370
    15
100
AcDbSpline
210
0.0
220
0.0
230
1.0
 70
     8
 71
     3
 72
    11
 73
     7
 74
     0
 42
0.00000001
 43
0.00000001
 40
0.0
 40
0.0
 40
0.0
 40
0.0
 40
0.2464092407976562
 40
0.4969199021702467
 40
0.7482773968705766
 40
1.0
 40
1.0
 40
1.0
 40
1.0
 10
858.2538521399613
 20
442.4503363941749
 30
0.0
 10
859.0311843714319
 20
442.4835024561938
 30
0.0
 10
860.5987873361817
 20
442.5503866210917
 30
0.0
 10
862.7862256874564
 20
443.6755212808717
 30
0.0
 10
864.5866416025211
 20
445.4585583330583
 30
0.0
 10
865.111643534411
 20
447.0555541739175
 30
0.0
 10
865.3743350094135
 20
447.8546316011147
 30
0.0
  0
ARC
  5
5D
330
1F
100
AcDbEntity
  8
0
  6
SLD-Solid
 62
     7
370
    15
100
AcDbCircle
 10
820.1415319258
 20
457.1928998455
 30
0.0
 40
46.24999970944332
100
AcDbArc
 50
348.5111848764
 51
11.4945663561
  0
LINE
  5
5E
330
1F
100
AcDbEntity
  8
0
  6
SLD-Solid
 62
     7
370
    15
100
AcDbLine
 10
794.2016973047
 20
510.1928998455
 30
0.0
 11
794.2016973047
 21
509.6928998455
 31
0.0
  0
LINE
  5
5F
330
1F
100
AcDbEntity
  8
0
  6
SLD-Solid
 62
     7
370
    15
100
AcDbLine
 10
794.2016973047
 20
507.6928998455
 30
0.0
 11
794.2016973047
 21
507.1928998455
 31
0.0
  0
LINE
  5
60
330
1F
100
AcDbEntity
  8
0
  6
SLD-Solid
 62
     7
370
    15
100
AcDbLine
 10
794.2016973047
 20
506.3928998455
 30
0.0
 11
794.2016973047
 21
506.3221891674
 31
0.0
  0
LINE
  5
61
330
1F
100
AcDbEntity
  8
0
  6
SLD-Solid
 62
     7
370
    15
100
AcDbLine
 10
804.2016973047
 20
506.3221891674
 30
0.0
 11
804.2016973047
 21
506.3928998455
 31
0.0
  0
LINE
  5
62
330
1F
100
AcDbEntity
  8
0
  6
SLD-Solid
 62
     7
370
    15
100
AcDbLine
 10
804.2016973047
 20
507.1928998455
 30
0.0
 11
804.2016973047
 21
507.6928998455
 31
0.0
  0
LINE
  5
63
330
1F
100
AcDbEntity
  8
0
  6
SLD-Solid
 62
     7
370
    15
100
AcDbLine
 10
804.2016973047
 20
509.6928998455
 30
0.0
 11
804.2016973047
 21
510.1928998455
 31
0.0
  0
LINE
  5
64
330
1F
100
AcDbEntity
  8
0
  6
SLD-Solid
 62
     7
370
    15
100
AcDbLine
 10
783.4257143377
 20
631.1498518235
 30
0.0
 11
782.7827480503
 21
631.192573484
 31
0.0
  0
LINE
  5
65
330
1F
100
AcDbEntity
  8
0
  6
SLD-Solid
 62
     7
370
    15
100
AcDbLine
 10
779.6805450682
 20
631.3986982303
 30
0.0
 11
779.4231154901
 21
631.4158030448
 31
0.0
  0
LINE
  5
66
330
1F
100
AcDbEntity
  8
0
  6
SLD-Solid
 62
     7
370
    15
100
AcDbLine
 10
368.7516973045
 20
705.6928998405
 30
0.0
 11
368.7516973045
 21
707.1928998405
 31
0.0
  0
LINE
  5
67
330
1F
100
AcDbEntity
  8
0
  6
SLD-Solid
 62
     7
370
    15
100
AcDbLine
 10
181.7516973045
 20
707.1928998405
 30
0.0
 11
181.7516973045
 21
705.6928998405
 31
0.0
  0
LINE
  5
68
330
1F
100
AcDbEntity
  8
0
  6
SLD-Solid
 62
     7
370
    15
100
AcDbLine
 10
368.7516973045
 20
707.1928998405
 30
0.0
 11
366.7516973045
 21
709.1928998405
 31
0.0
  0
LINE
  5
69
330
1F
100
AcDbEntity
  8
0
  6
SLD-Solid
 62
     7
370
    15
100
AcDbLine
 10
183.7516973045
 20
709.1928998405
 30
0.0
 11
181.7516973045
 21
707.1928998405
 31
0.0
  0
LINE
  5
6A
330
1F
100
AcDbEntity
  8
0
  6
SLD-Solid
 62
     7
370
    15
100
AcDbLine
 10
290.0118320427
 20
705.5994672926
 30
0.0
 11
290.4894305885
 21
705.6928998405
 31
0.0
  0
LINE
  5
6B
330
1F
100
AcDbEntity
  8
0
  6
SLD-Solid
 62
     7
370
    15
100
AcDbLine
 10
260.0139640206
 20
705.6928998405
 30
0.0
 11
260.4915625664
 21
705.5994672926
 31
0.0
  0
ARC
  5
6C
330
1F
100
AcDbEntity
  8
0
  6
SLD-Solid
 62
     7
370
    15
100
AcDbCircle
 10
140.5998307158
 20
-191.244804926
 30
0.0
 40
2.0
100
AcDbArc
 50
270.0
 51
0.0
  0
ARC
  5
6D
330
1F
100
AcDbEntity
  8
0
  6
SLD-Solid
 62
     7
370
    15
100
AcDbCircle
 10
87.5998307158
 20
-191.244804926
 30
0.0
 40
2.0
100
AcDbArc
 50
180.0
 51
270.0
  0
LINE
  5
6E
330
1F
100
AcDbEntity
  8
0
  6
SLD-Solid
 62
     7
370
    15
100
AcDbLine
 10
142.5998307158
 20
-191.244804926
 30
0.0
 11
142.5998307158
 21
-187.244804926
 31
0.0
  0
LINE
  5
6F
330
1F
100
AcDbEntity
  8
0
  6
SLD-Solid
 62
     7
370
    15
100
AcDbLine
 10
85.5998307158
 20
-187.244804926
 30
0.0
 11
85.5998307158
 21
-191.244804926
 31
0.0
  0
LINE
  5
70
330
1F
100
AcDbEntity
  8
0
  6
SLD-Solid
 62
     7
370
    15
100
AcDbLine
 10
373.3511093526
 20
697.5060347447
 30
0.0
 11
366.8495304791
 21
705.5994672926
 31
0.0
  0
LINE
  5
71
330
1F
100
AcDbEntity
  8
0
  6
SLD-Solid
 62
     7
370
    15
100
AcDbLine
 10
183.65386413
 20
705.5994672926
 30
0.0
 11
177.1522852565
 21
697.5060347447
 31
0.0
  0
LINE
  5
72
330
1F
100
AcDbEntity
  8
0
  6
SLD-Solid
 62
     7
370
    15
100
AcDbLine
 10
177.1522852565
 20
697.5060347447
 30
0.0
 11
177.5420884527
 21
697.1928998405
 31
0.0
  0
LINE
  5
73
330
1F
100
AcDbEntity
  8
0
  6
SLD-Solid
 62
     7
370
    15
100
AcDbLine
 10
372.9613061563
 20
697.1928998405
 30
0.0
 11
373.3511093526
 21
697.5060347447
 31
0.0
  0
LINE
  5
74
330
1F
100
AcDbEntity
  8
0
  6
SLD-Solid
 62
     7
370
    15
100
AcDbLine
 10
45.1016973047
 20
706.2428998462
 30
0.0
 11
45.6016973047
 21
706.2428998462
 31
0.0
  0
LINE
  5
75
330
1F
100
AcDbEntity
  8
0
  6
SLD-Solid
 62
     7
370
    15
100
AcDbLine
 10
45.6016973047
 20
709.5428998462
 30
0.0
 11
45.1016973047
 21
709.5428998462
 31
0.0
  0
LINE
  5
76
330
1F
100
AcDbEntity
  8
0
  6
SLD-Solid
 62
     7
370
    15
100
AcDbLine
 10
142.3998307158
 20
-187.244804926
 30
0.0
 11
142.3998307158
 21
-119.244804926
 31
0.0
  0
LINE
  5
77
330
1F
100
AcDbEntity
  8
0
  6
SLD-Solid
 62
     7
370
    15
100
AcDbLine
 10
85.7998307158
 20
-119.244804926
 30
0.0
 11
85.7998307158
 21
-187.244804926
 31
0.0
  0
LINE
  5
78
330
1F
100
AcDbEntity
  8
0
  6
SLD-Solid
 62
     7
370
    15
100
AcDbLine
 10
790.7016973047
 20
-17.3071001545
 30
0.0
 11
790.7016973047
 21
-18.8071001545
 31
0.0
  0
LINE
  5
79
330
1F
100
AcDbEntity
  8
0
  6
SLD-Solid
 62
     7
370
    15
100
AcDbLine
 10
807.7016973047
 20
-18.8071001545
 30
0.0
 11
807.7016973047
 21
-17.3071001545
 31
0.0
  0
LINE
  5
7A
330
1F
100
AcDbEntity
  8
0
  6
SLD-Solid
 62
     7
370
    15
100
AcDbLine
 10
790.7016973047
 20
-18.8071001545
 30
0.0
 11
791.2016973047
 21
-19.3071001545
 31
0.0
  0
LINE
  5
7B
330
1F
100
AcDbEntity
  8
0
  6
SLD-Solid
 62
     7
370
    15
100
AcDbLine
 10
807.2016973047
 20
-19.3071001545
 30
0.0
 11
807.7016973047
 21
-18.8071001545
 31
0.0
  0
LINE
  5
7C
330
1F
100
AcDbEntity
  8
0
  6
SLD-Solid
 62
     7
370
    15
100
AcDbLine
 10
807.7016973047
 20
-17.3071001545
 30
0.0
 11
807.2016973047
 21
-16.8071001545
 31
0.0
  0
LINE
  5
7D
330
1F
100
AcDbEntity
  8
0
  6
SLD-Solid
 62
     7
370
    15
100
AcDbLine
 10
791.2016973047
 20
-16.8071001545
 30
0.0
 11
790.7016973047
 21
-17.3071001545
 31
0.0
  0
LINE
  5
7E
330
1F
100
AcDbEntity
  8
0
  6
SLD-Solid
 62
     7
370
    15
100
AcDbLine
 10
795.5351944869
 20
569.8611821704
 30
0.0
 11
803.8096916724
 21
576.7555781794
 31
0.0
  0
LINE
  5
7F
330
1F
100
AcDbEntity
  8
0
  6
SLD-Solid
 62
     7
370
    15
100
AcDbLine
 10
779.0427235167
 20
631.4410780508
 30
0.0
 11
775.4490898526
 21
631.6798557296
 31
0.0
  0
LINE
  5
80
330
1F
100
AcDbEntity
  8
0
  6
SLD-Solid
 62
     7
370
    15
100
AcDbLine
 10
786.195722993
 20
630.9657996082
 30
0.0
 11
783.4257143377
 21
631.1498518235
 31
0.0
  0
LINE
  5
81
330
1F
100
AcDbEntity
  8
0
  6
SLD-Solid
 62
     7
370
    15
100
AcDbLine
 10
791.2773269953
 20
630.4112708308
 30
0.0
 11
786.195722993
 21
630.9657996082
 31
0.0
  0
LINE
  5
82
330
1F
100
AcDbEntity
  8
0
  6
SLD-Solid
 62
     7
370
    15
100
AcDbLine
 10
803.8096916724
 20
576.7555781794
 30
0.0
 11
819.5708858339
 21
591.0608699462
 31
0.0
  0
ARC
  5
83
330
1F
100
AcDbEntity
  8
0
  6
SLD-Solid
 62
     7
370
    15
100
AcDbCircle
 10
818.8988065908
 20
591.8013491769
 30
0.0
 40
0.9999999999999672
100
AcDbArc
 50
312.227745318
 51
18.0
  0
ARC
  5
84
330
1F
100
AcDbEntity
  8
0
  6
SLD-Solid
 62
     7
370
    15
100
AcDbCircle
 10
147.4998307158
 20
-26.744804926
 30
0.0
 40
1.500000000000057
100
AcDbArc
 50
90.0
 51
180.0
  0
ARC
  5
85
330
1F
100
AcDbEntity
  8
0
  6
SLD-Solid
 62
     7
370
    15
100
AcDbCircle
 10
80.6998307158
 20
-26.744804926
 30
0.0
 40
1.500000000000057
100
AcDbArc
 50
0.0
 51
90.0
  0
LINE
  5
86
330
1F
100
AcDbEntity
  8
0
  6
SLD-Solid
 62
     7
370
    15
100
AcDbLine
 10
145.9998307158
 20
-113.2122389803
 30
0.0
 11
145.9998307158
 21
-26.744804926
 31
0.0
  0
LINE
  5
87
330
1F
100
AcDbEntity
  8
0
  6
SLD-Solid
 62
     7
370
    15
100
AcDbLine
 10
82.1998307158
 20
-26.744804926
 30
0.0
 11
82.1998307158
 21
-113.2122389803
 31
0.0
  0
ARC
  5
88
330
1F
100
AcDbEntity
  8
0
  6
SLD-Solid
 62
     7
370
    15
100
AcDbCircle
 10
141.2998307158
 20
-113.2122389803
 30
0.0
 40
4.699999999999989
100
AcDbArc
 50
350.5402980318
 51
0.0
  0
ARC
  5
89
330
1F
100
AcDbEntity
  8
0
  6
SLD-Solid
 62
     7
370
    15
100
AcDbCircle
 10
86.8998307158
 20
-113.2122389803
 30
0.0
 40
4.699999999999991
100
AcDbArc
 50
180.0
 51
189.4597019682
  0
LINE
  5
8A
330
1F
100
AcDbEntity
  8
0
  6
SLD-Solid
 62
     7
370
    15
100
AcDbLine
 10
82.2637439428
 20
-113.9847022048
 30
0.0
 11
83.1401804954
 21
-119.244804926
 31
0.0
  0
LINE
  5
8B
330
1F
100
AcDbEntity
  8
0
  6
SLD-Solid
 62
     7
370
    15
100
AcDbLine
 10
145.0594809361
 20
-119.244804926
 30
0.0
 11
145.9359174888
 21
-113.9847022048
 31
0.0
  0
LINE
  5
8C
330
1F
100
AcDbEntity
  8
0
  6
SLD-Solid
 62
     7
370
    15
100
AcDbLine
 10
735.2498307158
 20
-23.244804926
 30
0.0
 11
735.2498307158
 21
-23.1071001545
 31
0.0
  0
LINE
  5
8D
330
1F
100
AcDbEntity
  8
0
  6
SLD-Solid
 62
     7
370
    15
100
AcDbLine
 10
726.9498307158
 20
-23.1071001545
 30
0.0
 11
726.9498307158
 21
-23.244804926
 31
0.0
  0
LINE
  5
8E
330
1F
100
AcDbEntity
  8
0
  6
SLD-Solid
 62
     7
370
    15
100
AcDbLine
 10
782.9665155217
 20
631.1903851715
 30
0.0
 11
777.9418189161
 21
631.5242493058
 31
0.0
  0
LINE
  5
8F
330
1F
100
AcDbEntity
  8
0
  6
SLD-Solid
 62
     7
370
    15
100
AcDbLine
 10
807.2016973047
 20
510.1928998455
 30
0.0
 11
807.2016973047
 21
512.6928998455
 31
0.0
  0
LINE
  5
90
330
1F
100
AcDbEntity
  8
0
  6
SLD-Solid
 62
     7
370
    15
100
AcDbLine
 10
786.0003616932
 20
592.7342441342
 30
0.0
 11
787.6994064153
 21
593.9772581195
 31
0.0
  0
LINE
  5
91
330
1F
100
AcDbEntity
  8
0
  6
SLD-Solid
 62
     7
370
    15
100
AcDbLine
 10
783.2848779231
 20
607.5637797807
 30
0.0
 11
781.1796965809
 21
607.5707257884
 31
0.0
  0
ARC
  5
92
330
1F
100
AcDbEntity
  8
0
  6
SLD-Solid
 62
     7
370
    15
100
AcDbCircle
 10
730.0998307158
 20
-191.244804926
 30
0.0
 40
2.0
100
AcDbArc
 50
270.0
 51
0.0
  0
ARC
  5
93
330
1F
100
AcDbEntity
  8
0
  6
SLD-Solid
 62
     7
370
    15
100
AcDbCircle
 10
677.0998307158
 20
-191.244804926
 30
0.0
 40
2.0
100
AcDbArc
 50
180.0
 51
270.0
  0
LINE
  5
94
330
1F
100
AcDbEntity
  8
0
  6
SLD-Solid
 62
     7
370
    15
100
AcDbLine
 10
732.0998307158
 20
-191.244804926
 30
0.0
 11
732.0998307158
 21
-187.244804926
 31
0.0
  0
LINE
  5
95
330
1F
100
AcDbEntity
  8
0
  6
SLD-Solid
 62
     7
370
    15
100
AcDbLine
 10
675.0998307158
 20
-187.244804926
 30
0.0
 11
675.0998307158
 21
-191.244804926
 31
0.0
  0
LINE
  5
96
330
1F
100
AcDbEntity
  8
0
  6
SLD-Solid
 62
     7
370
    15
100
AcDbLine
 10
731.8998307158
 20
-187.244804926
 30
0.0
 11
731.8998307158
 21
-119.244804926
 31
0.0
  0
LINE
  5
97
330
1F
100
AcDbEntity
  8
0
  6
SLD-Solid
 62
     7
370
    15
100
AcDbLine
 10
675.2998307158
 20
-119.244804926
 30
0.0
 11
675.2998307158
 21
-187.244804926
 31
0.0
  0
LINE
  5
98
330
1F
100
AcDbEntity
  8
0
  6
SLD-Solid
 62
     7
370
    15
100
AcDbLine
 10
-8.8983026953
 20
502.1928998455
 30
0.0
 11
-8.8983026953
 21
489.9928998455
 31
0.0
  0
LINE
  5
99
330
1F
100
AcDbEntity
  8
0
  6
SLD-Solid
 62
     7
370
    15
100
AcDbLine
 10
16.1016973047
 20
489.9928998455
 30
0.0
 11
16.1016973047
 21
502.9928998455
 31
0.0
  0
LINE
  5
9A
330
1F
100
AcDbEntity
  8
0
  6
SLD-Solid
 62
     7
370
    15
100
AcDbLine
 10
-8.8983026953
 20
489.9928998455
 30
0.0
 11
-7.8983026953
 21
488.9928998455
 31
0.0
  0
LINE
  5
9B
330
1F
100
AcDbEntity
  8
0
  6
SLD-Solid
 62
     7
370
    15
100
AcDbLine
 10
15.1016973047
 20
488.9928998455
 30
0.0
 11
16.1016973047
 21
489.9928998455
 31
0.0
  0
LINE
  5
9C
330
1F
100
AcDbEntity
  8
0
  6
SLD-Solid
 62
     7
370
    15
100
AcDbLine
 10
-7.0483026953
 20
506.7000066267
 30
0.0
 11
-7.0483026953
 21
505.9928998455
 31
0.0
  0
LINE
  5
9D
330
1F
100
AcDbEntity
  8
0
  6
SLD-Solid
 62
     7
370
    15
100
AcDbLine
 10
14.2516973047
 20
502.9928998455
 30
0.0
 11
14.2516973047
 21
505.1928998455
 31
0.0
  0
LINE
  5
9E
330
1F
100
AcDbEntity
  8
0
  6
SLD-Solid
 62
     7
370
    15
100
AcDbLine
 10
14.2516973047
 20
505.9928998455
 30
0.0
 11
14.2516973047
 21
506.7000066267
 31
0.0
  0
LINE
  5
9F
330
1F
100
AcDbEntity
  8
0
  6
SLD-Solid
 62
     7
370
    15
100
AcDbLine
 10
807.7016973047
 20
507.6928998455
 30
0.0
 11
807.7016973047
 21
509.1928998455
 31
0.0
  0
LINE
  5
A0
330
1F
100
AcDbEntity
  8
0
  6
SLD-Solid
 62
     7
370
    15
100
AcDbLine
 10
790.7016973047
 20
509.1928998455
 30
0.0
 11
790.7016973047
 21
507.6928998455
 31
0.0
  0
LINE
  5
A1
330
1F
100
AcDbEntity
  8
0
  6
SLD-Solid
 62
     7
370
    15
100
AcDbLine
 10
807.7016973047
 20
509.1928998455
 30
0.0
 11
807.2016973047
 21
509.6928998455
 31
0.0
  0
LINE
  5
A2
330
1F
100
AcDbEntity
  8
0
  6
SLD-Solid
 62
     7
370
    15
100
AcDbLine
 10
791.2016973047
 20
509.6928998455
 30
0.0
 11
790.7016973047
 21
509.1928998455
 31
0.0
  0
LINE
  5
A3
330
1F
100
AcDbEntity
  8
0
  6
SLD-Solid
 62
     7
370
    15
100
AcDbLine
 10
803.1016973047
 20
-22.3071001545
 30
0.0
 11
803.1016973047
 21
-21.8071001545
 31
0.0
  0
LINE
  5
A4
330
1F
100
AcDbEntity
  8
0
  6
SLD-Solid
 62
     7
370
    15
100
AcDbLine
 10
795.3016973047
 20
-21.8071001545
 30
0.0
 11
795.3016973047
 21
-22.3071001545
 31
0.0
  0
ARC
  5
A5
330
1F
100
AcDbEntity
  8
0
  6
SLD-Solid
 62
     7
370
    15
100
AcDbCircle
 10
736.9998307158
 20
-26.744804926
 30
0.0
 40
1.500000000000004
100
AcDbArc
 50
90.0
 51
180.0
  0
ARC
  5
A6
330
1F
100
AcDbEntity
  8
0
  6
SLD-Solid
 62
     7
370
    15
100
AcDbCircle
 10
670.1998307158
 20
-26.744804926
 30
0.0
 40
1.500000000000004
100
AcDbArc
 50
0.0
 51
90.0
  0
ARC
  5
A7
330
1F
100
AcDbEntity
  8
0
  6
SLD-Solid
 62
     7
370
    15
100
AcDbCircle
 10
730.7998307158
 20
-113.2122389803
 30
0.0
 40
4.699999999999932
100
AcDbArc
 50
350.5402980318
 51
0.0
  0
ARC
  5
A8
330
1F
100
AcDbEntity
  8
0
  6
SLD-Solid
 62
     7
370
    15
100
AcDbCircle
 10
676.3998307158
 20
-113.2122389803
 30
0.0
 40
4.699999999999932
100
AcDbArc
 50
180.0
 51
189.4597019682
  0
LINE
  5
A9
330
1F
100
AcDbEntity
  8
0
  6
SLD-Solid
 62
     7
370
    15
100
AcDbLine
 10
735.4998307158
 20
-113.2122389803
 30
0.0
 11
735.4998307158
 21
-26.744804926
 31
0.0
  0
LINE
  5
AA
330
1F
100
AcDbEntity
  8
0
  6
SLD-Solid
 62
     7
370
    15
100
AcDbLine
 10
671.6998307158
 20
-26.744804926
 30
0.0
 11
671.6998307158
 21
-113.2122389803
 31
0.0
  0
LINE
  5
AB
330
1F
100
AcDbEntity
  8
0
  6
SLD-Solid
 62
     7
370
    15
100
AcDbLine
 10
671.7637439428
 20
-113.9847022048
 30
0.0
 11
672.6401804954
 21
-119.244804926
 31
0.0
  0
LINE
  5
AC
330
1F
100
AcDbEntity
  8
0
  6
SLD-Solid
 62
     7
370
    15
100
AcDbLine
 10
734.5594809361
 20
-119.244804926
 30
0.0
 11
735.4359174888
 21
-113.9847022048
 31
0.0
  0
LINE
  5
AD
330
1F
100
AcDbEntity
  8
0
  6
SLD-Solid
 62
     7
370
    15
100
AcDbLine
 10
782.7827480503
 20
631.1925734841
 30
0.0
 11
779.6805450682
 21
631.3986982303
 31
0.0
  0
LINE
  5
AE
330
1F
100
AcDbEntity
  8
0
  6
SLD-Solid
 62
     7
370
    15
100
AcDbLine
 10
780.2955812101
 20
647.5448998111
 30
0.0
 11
780.254905997
 21
647.6362578355
 31
0.0
  0
LINE
  5
AF
330
1F
100
AcDbEntity
  8
0
  6
SLD-Solid
 62
     7
370
    15
100
AcDbLine
 10
775.5777215248
 20
645.602560147
 30
0.0
 11
775.6183967379
 21
645.5112021226
 31
0.0
  0
LINE
  5
B0
330
1F
100
AcDbEntity
  8
0
  6
SLD-Solid
 62
   142
420
    32960
370
     0
100
AcDbLine
 10
123.0016973047
 20
695.1428998462
 30
0.0
 11
123.0016973047
 21
678.4428998462
 31
0.0
  0
LINE
  5
B1
330
1F
100
AcDbEntity
  8
0
  6
SLD-Solid
 62
   142
420
    32960
370
     0
100
AcDbLine
 10
123.0016973047
 20
689.1928998462
 30
0.0
 11
123.0016973047
 21
685.1928998462
 31
0.0
  0
LINE
  5
B2
330
1F
100
AcDbEntity
  8
0
  6
SLD-Solid
 62
   142
420
    32960
370
     0
100
AcDbLine
 10
123.0016973047
 20
685.1928998462
 30
0.0
 11
123.0016973047
 21
689.1928998462
 31
0.0
  0
LINE
  5
B3
330
1F
100
AcDbEntity
  8
0
  6
SLD-Solid
 62
   142
420
    32960
370
     0
100
AcDbLine
 10
38.6016973047
 20
625.6928998455
 30
0.0
 11
35.6016973047
 21
625.6928998455
 31
0.0
  0
LINE
  5
B4
330
1F
100
AcDbEntity
  8
0
  6
SLD-Solid
 62
   142
420
    32960
370
     0
100
AcDbLine
 10
38.6016973047
 20
621.6928998455
 30
0.0
 11
38.6016973047
 21
625.6928998455
 31
0.0
  0
LINE
  5
B5
330
1F
100
AcDbEntity
  8
0
  6
SLD-Solid
 62
   142
420
    32960
370
     0
100
AcDbLine
 10
37.8016973047
 20
609.1928998455
 30
0.0
 11
35.6016973047
 21
609.1928998455
 31
0.0
  0
LINE
  5
B6
330
1F
100
AcDbEntity
  8
0
  6
SLD-Solid
 62
   142
420
    32960
370
     0
100
AcDbLine
 10
809.2016973047
 20
73.1928998455
 30
0.0
 11
810.8016973047
 21
73.1928998455
 31
0.0
  0
SPLINE
  5
B7
330
1F
100
AcDbEntity
  8
0
  6
SLD-Solid
 62
   142
420
    32960
370
     0
100
AcDbSpline
210
0.0
220
0.0
230
1.0
 70
    24
 71
     3
 72
     8
 73
     4
 74
     0
 42
0.00000001
 43
0.00000001
 40
1.0
 40
1.0
 40
1.0
 40
1.0
 40
2.0
 40
2.0
 40
2.0
 40
2.0
 10
810.8016973047237
 20
73.19289984549745
 30
0.0
 10
810.8016973047237
 20
73.19289984549745
 30
0.0
 10
810.8016973047237
 20
72.29332525926158
 30
0.0
 10
810.8016973047237
 20
71.19415141034663
 30
0.0
  0
LINE
  5
B8
330
1F
100
AcDbEntity
  8
0
  6
SLD-Solid
 62
   142
420
    32960
370
     0
100
AcDbLine
 10
755.7016973047
 20
-19.3071001545
 30
0.0
 11
799.2016973047
 21
-19.3071001545
 31
0.0
  0
LINE
  5
B9
330
1F
100
AcDbEntity
  8
0
  6
SLD-Solid
 62
     7
370
    15
100
AcDbLine
 10
755.7016973047
 20
-21.8071001545
 30
0.0
 11
799.2016973047
 21
-21.8071001545
 31
0.0
  0
LINE
  5
BA
330
1F
100
AcDbEntity
  8
0
  6
SLD-Solid
 62
     7
370
    15
100
AcDbLine
 10
752.7016973047
 20
-6.3071001545
 30
0.0
 11
752.7016973047
 21
-1.3071001545
 31
0.0
  0
LINE
  5
BB
330
1F
100
AcDbEntity
  8
0
  6
SLD-Solid
 62
     7
370
    15
100
AcDbLine
 10
752.7016973047
 20
-16.3071001545
 30
0.0
 11
752.7016973047
 21
-6.3071001545
 31
0.0
  0
LINE
  5
BC
330
1F
100
AcDbEntity
  8
0
  6
SLD-Solid
 62
   142
420
    32960
370
     0
100
AcDbLine
 10
799.2016973047
 20
-19.3071001545
 30
0.0
 11
807.2016973047
 21
-19.3071001545
 31
0.0
  0
LINE
  5
BD
330
1F
100
AcDbEntity
  8
0
  6
SLD-Solid
 62
     7
370
    15
100
AcDbLine
 10
799.2016973047
 20
-21.8071001545
 30
0.0
 11
807.2016973047
 21
-21.8071001545
 31
0.0
  0
ARC
  5
BE
330
1F
100
AcDbEntity
  8
0
  6
SLD-Solid
 62
     7
370
    15
100
AcDbCircle
 10
755.7016973047
 20
-16.3071001545
 30
0.0
 40
5.500000000000004
100
AcDbArc
 50
180.0
 51
270.0
  0
ARC
  5
BF
330
1F
100
AcDbEntity
  8
0
  6
SLD-Solid
 62
   142
420
    32960
370
     0
100
AcDbCircle
 10
755.7016973047
 20
-16.3071001545
 30
0.0
 40
3.000000000000004
100
AcDbArc
 50
180.0
 51
270.0
  0
LINE
  5
C0
330
1F
100
AcDbEntity
  8
0
  6
SLD-Solid
 62
   142
420
    32960
370
     0
100
AcDbLine
 10
750.2016973047
 20
-1.3071001545
 30
0.0
 11
752.7016973047
 21
-1.3071001545
 31
0.0
  0
SPLINE
  5
C1
330
1F
100
AcDbEntity
  8
0
  6
SLD-Solid
 62
   142
420
    32960
370
     0
100
AcDbSpline
210
0.0
220
0.0
230
1.0
 70
     8
 71
     3
 72
     9
 73
     5
 74
     0
 42
0.00000001
 43
0.00000001
 40
0.0
 40
0.0
 40
0.0
 40
0.0
 40
0.4826770009338198
 40
1.0
 40
1.0
 40
1.0
 40
1.0
 10
798.8060895416071
 20
572.5735821832781
 30
0.0
 10
798.986841924227
 20
572.7245348464114
 30
0.0
 10
799.3613208869086
 20
573.0372753806432
 30
0.0
 10
799.7626321095679
 20
573.3720580696906
 30
0.0
 10
799.970239634833
 20
573.5452488544241
 30
0.0
  0
SPLINE
  5
C2
330
1F
100
AcDbEntity
  8
0
  6
SLD-Solid
 62
   142
420
    32960
370
     0
100
AcDbSpline
210
0.0
220
0.0
230
1.0
 70
     8
 71
     3
 72
    10
 73
     6
 74
     0
 42
0.00000001
 43
0.00000001
 40
0.0
 40
0.0
 40
0.0
 40
0.0
 40
0.4706209254877896
 40
0.9395161202726274
 40
1.0
 40
1.0
 40
1.0
 40
1.0
 10
799.970239634833
 20
573.5452488544241
 30
0.0
 10
800.1739226582931
 20
573.7150232739152
 30
0.0
 10
800.5805418152468
 20
574.0539495631714
 30
0.0
 10
801.0265026495696
 20
574.4233119791746
 30
0.0
 10
801.2207444399523
 20
574.5855541431615
 30
0.0
 10
801.2429374159375
 20
574.6040910215644
 30
0.0
  0
SPLINE
  5
C3
330
1F
100
AcDbEntity
  8
0
  6
SLD-Solid
 62
   142
420
    32960
370
     0
100
AcDbSpline
210
0.0
220
0.0
230
1.0
 70
     8
 71
     3
 72
    13
 73
     9
 74
     0
 42
0.00000001
 43
0.00000001
 40
0.0
 40
0.0
 40
0.0
 40
0.0
 40
0.0625234477983192
 40
0.125028844172234
 40
0.2500295548750059
 40
0.4999123112427197
 40
0.7499314087066503
 40
1.0
 40
1.0
 40
1.0
 40
1.0
 10
800.9420277761585
 20
574.364508161006
 30
0.0
 10
800.9241336979243
 20
574.3492299822386
 30
0.0
 10
800.8883507077351
 20
574.3186780357354
 30
0.0
 10
800.8137955327948
 20
574.2553894639519
 30
0.0
 10
800.6776947660384
 20
574.1405637431496
 30
0.0
 10
800.4769099782155
 20
573.9721825913555
 30
0.0
 10
800.2329243575425
 20
573.7683981623176
 30
0.0
 10
800.0698721203721
 20
573.6325535538516
 30
0.0
 10
799.9883379331224
 20
573.5646245273276
 30
0.0
  0
LINE
  5
C4
330
1F
100
AcDbEntity
  8
0
  6
SLD-Solid
 62
   142
420
    32960
370
     0
100
AcDbLine
 10
751.7088040859
 20
641.3928998405
 30
0.0
 11
750.201697306
 21
641.3928998405
 31
0.0
  0
LINE
  5
C5
330
1F
100
AcDbEntity
  8
0
  6
SLD-Solid
 62
   142
420
    32960
370
     0
100
AcDbLine
 10
446.7516973045
 20
705.6928998405
 30
0.0
 11
633.7516973045
 21
705.6928998405
 31
0.0
  0
LINE
  5
C6
330
1F
100
AcDbEntity
  8
0
  6
SLD-Solid
 62
     7
370
    15
100
AcDbLine
 10
633.7516973045
 20
707.1928998405
 30
0.0
 11
446.7516973045
 21
707.1928998405
 31
0.0
  0
LINE
  5
C7
330
1F
100
AcDbEntity
  8
0
  6
SLD-Solid
 62
     7
370
    15
100
AcDbLine
 10
448.7516973045
 20
709.1928998405
 30
0.0
 11
631.7516973045
 21
709.1928998405
 31
0.0
  0
LINE
  5
C8
330
1F
100
AcDbEntity
  8
0
  6
SLD-Solid
 62
     7
370
    15
100
AcDbLine
 10
125.0516973047
 20
677.1928998462
 30
0.0
 11
147.2516973047
 21
677.1928998462
 31
0.0
  0
LINE
  5
C9
330
1F
100
AcDbEntity
  8
0
  6
SLD-Solid
 62
   142
420
    32960
370
     0
100
AcDbLine
 10
123.8016973047
 20
695.1428998462
 30
0.0
 11
123.8016973047
 21
678.4428998462
 31
0.0
  0
LINE
  5
CA
330
1F
100
AcDbEntity
  8
0
  6
SLD-Solid
 62
     7
370
    15
100
AcDbLine
 10
98.5016973047
 20
713.3097251468
 30
0.0
 11
98.5016973047
 21
698.4428998462
 31
0.0
  0
ARC
  5
CB
330
1F
100
AcDbEntity
  8
0
  6
SLD-Solid
 62
   142
420
    32960
370
     0
100
AcDbCircle
 10
100.5516973047
 20
698.4428998462
 30
0.0
 40
2.049999999999997
100
AcDbArc
 50
180.0
 51
270.0
  0
ARC
  5
CC
330
1F
100
AcDbEntity
  8
0
  6
SLD-Solid
 62
     7
370
    15
100
AcDbCircle
 10
73.5016973047
 20
713.3097251468
 30
0.0
 40
25.80000000000008
100
AcDbArc
 50
0.0
 51
75.0
  0
ARC
  5
CD
330
1F
100
AcDbEntity
  8
0
  6
SLD-Solid
 62
     7
370
    15
100
AcDbCircle
 10
73.5016973047
 20
713.3097251468
 30
0.0
 40
25.00000000000003
100
AcDbArc
 50
0.0
 51
75.0
  0
LINE
  5
CE
330
1F
100
AcDbEntity
  8
0
  6
SLD-Solid
 62
     7
370
    15
100
AcDbLine
 10
46.8822763472
 20
747.1525029499
 30
0.0
 11
80.1792286684
 21
738.230611465
 31
0.0
  0
LINE
  5
CF
330
1F
100
AcDbEntity
  8
0
  6
SLD-Solid
 62
   142
420
    32960
370
     0
100
AcDbLine
 10
46.6752211111
 20
746.3797622889
 30
0.0
 11
79.9721734323
 21
737.457870804
 31
0.0
  0
ARC
  5
D0
330
1F
100
AcDbEntity
  8
0
  6
SLD-Solid
 62
     7
370
    15
100
AcDbCircle
 10
46.3516973047
 20
745.172355006
 30
0.0
 40
2.04999999999999
100
AcDbArc
 50
75.0
 51
180.0
  0
ARC
  5
D1
330
1F
100
AcDbEntity
  8
0
  6
SLD-Solid
 62
   142
420
    32960
370
     0
100
AcDbCircle
 10
46.3516973047
 20
745.172355006
 30
0.0
 40
1.250000000000028
100
AcDbArc
 50
75.0
 51
180.0
  0
LINE
  5
D2
330
1F
100
AcDbEntity
  8
0
  6
SLD-Solid
 62
     7
370
    15
100
AcDbLine
 10
44.3016973047
 20
696.3928998462
 30
0.0
 11
45.1016973047
 21
696.3928998462
 31
0.0
  0
LINE
  5
D3
330
1F
100
AcDbEntity
  8
0
  6
SLD-Solid
 62
     7
370
    15
100
AcDbLine
 10
44.3016973047
 20
696.3928998462
 30
0.0
 11
44.3016973047
 21
745.172355006
 31
0.0
  0
LINE
  5
D4
330
1F
100
AcDbEntity
  8
0
  6
SLD-Solid
 62
     7
370
    15
100
AcDbLine
 10
45.1016973047
 20
696.3928998462
 30
0.0
 11
45.1016973047
 21
745.172355006
 31
0.0
  0
ARC
  5
D5
330
1F
100
AcDbEntity
  8
0
  6
SLD-Solid
 62
   142
420
    32960
370
     0
100
AcDbCircle
 10
100.5516973047
 20
698.4428998462
 30
0.0
 40
1.25
100
AcDbArc
 50
180.0
 51
270.0
  0
ARC
  5
D6
330
1F
100
AcDbEntity
  8
0
  6
SLD-Solid
 62
   142
420
    32960
370
     0
100
AcDbCircle
 10
147.2516973047
 20
675.1428998462
 30
0.0
 40
1.250000000000028
100
AcDbArc
 50
0.0
 51
90.0
  0
LINE
  5
D7
330
1F
100
AcDbEntity
  8
0
  6
SLD-Solid
 62
     7
370
    15
100
AcDbLine
 10
99.3016973047
 20
713.3097251468
 30
0.0
 11
99.3016973047
 21
698.4428998462
 31
0.0
  0
LINE
  5
D8
330
1F
100
AcDbEntity
  8
0
  6
SLD-Solid
 62
   142
420
    32960
370
     0
100
AcDbLine
 10
98.5016973047
 20
698.4428998462
 30
0.0
 11
99.3016973047
 21
698.4428998462
 31
0.0
  0
ARC
  5
D9
330
1F
100
AcDbEntity
  8
0
  6
SLD-Solid
 62
   142
420
    32960
370
     0
100
AcDbCircle
 10
121.7516973047
 20
695.1428998462
 30
0.0
 40
2.049999999999983
100
AcDbArc
 50
0.0
 51
90.0
  0
LINE
  5
DA
330
1F
100
AcDbEntity
  8
0
  6
SLD-Solid
 62
     7
370
    15
100
AcDbLine
 10
100.5516973047
 20
697.1928998462
 30
0.0
 11
121.7516973047
 21
697.1928998462
 31
0.0
  0
LINE
  5
DB
330
1F
100
AcDbEntity
  8
0
  6
SLD-Solid
 62
   142
420
    32960
370
     0
100
AcDbLine
 10
148.5016973047
 20
675.1428998462
 30
0.0
 11
148.5016973047
 21
666.3928998462
 31
0.0
  0
LINE
  5
DC
330
1F
100
AcDbEntity
  8
0
  6
SLD-Solid
 62
     7
370
    15
100
AcDbLine
 10
125.0516973047
 20
676.3928998462
 30
0.0
 11
147.2516973047
 21
676.3928998462
 31
0.0
  0
LINE
  5
DD
330
1F
100
AcDbEntity
  8
0
  6
SLD-Solid
 62
     7
370
    15
100
AcDbLine
 10
100.5516973047
 20
696.3928998462
 30
0.0
 11
121.7516973047
 21
696.3928998462
 31
0.0
  0
ARC
  5
DE
330
1F
100
AcDbEntity
  8
0
  6
SLD-Solid
 62
   142
420
    32960
370
     0
100
AcDbCircle
 10
125.0516973047
 20
678.4428998462
 30
0.0
 40
1.250000000000028
100
AcDbArc
 50
180.0
 51
270.0
  0
LINE
  5
DF
330
1F
100
AcDbEntity
  8
0
  6
SLD-Solid
 62
   142
420
    32960
370
     0
100
AcDbLine
 10
121.7516973047
 20
696.3928998462
 30
0.0
 11
121.7516973047
 21
697.1928998462
 31
0.0
  0
LINE
  5
E0
330
1F
100
AcDbEntity
  8
0
  6
SLD-Solid
 62
   142
420
    32960
370
     0
100
AcDbLine
 10
100.5516973047
 20
697.1928998462
 30
0.0
 11
100.5516973047
 21
696.3928998462
 31
0.0
  0
LINE
  5
E1
330
1F
100
AcDbEntity
  8
0
  6
SLD-Solid
 62
   142
420
    32960
370
     0
100
AcDbLine
 10
147.2516973047
 20
676.3928998462
 30
0.0
 11
147.2516973047
 21
677.1928998462
 31
0.0
  0
LINE
  5
E2
330
1F
100
AcDbEntity
  8
0
  6
SLD-Solid
 62
   142
420
    32960
370
     0
100
AcDbLine
 10
125.0516973047
 20
677.1928998462
 30
0.0
 11
125.0516973047
 21
676.3928998462
 31
0.0
  0
LINE
  5
E3
330
1F
100
AcDbEntity
  8
0
  6
SLD-Solid
 62
   142
420
    32960
370
     0
100
AcDbLine
 10
37.8016973047
 20
621.6384531868
 30
0.0
 11
37.8016973047
 21
621.6928998455
 31
0.0
  0
LINE
  5
E4
330
1F
100
AcDbEntity
  8
0
  6
SLD-Solid
 62
   142
420
    32960
370
     0
100
AcDbLine
 10
37.8016973047
 20
596.6928998455
 30
0.0
 11
37.8016973047
 21
621.6384531868
 31
0.0
  0
LINE
  5
E5
330
1F
100
AcDbEntity
  8
0
  6
SLD-Solid
 62
     7
370
    15
100
AcDbLine
 10
809.2016973047
 20
13.1928998455
 30
0.0
 11
810.8016973047
 21
13.1928998455
 31
0.0
  0
SPLINE
  5
E6
330
1F
100
AcDbEntity
  8
0
  6
SLD-Solid
 62
   142
420
    32960
370
     0
100
AcDbSpline
210
0.0
220
0.0
230
1.0
 70
    24
 71
     3
 72
     8
 73
     4
 74
     0
 42
0.00000001
 43
0.00000001
 40
5.0
 40
5.0
 40
5.0
 40
5.0
 40
6.0
 40
6.0
 40
6.0
 40
6.0
 10
810.8016973047237
 20
13.19289984549743
 30
0.0
 10
810.8016973047237
 20
13.19049840550879
 30
0.0
 10
810.8016973047237
 20
14.08771195166753
 30
0.0
 10
810.8016973047237
 20
15.1868831754044
 30
0.0
  0
LINE
  5
E7
330
1F
100
AcDbEntity
  8
0
  6
SLD-Solid
 62
   142
420
    32960
370
     0
100
AcDbLine
 10
810.8016973047
 20
15.1868831754
 30
0.0
 11
810.8016973047
 21
71.1985219658
 31
0.0
  0
LINE
  5
E8
330
1F
100
AcDbEntity
  8
0
  6
SLD-Solid
 62
   142
420
    32960
370
     0
100
AcDbLine
 10
809.2016973047
 20
71.1985219658
 30
0.0
 11
810.8016973047
 21
71.1985219658
 31
0.0
  0
LWPOLYLINE
  5
E9
330
1F
100
AcDbEntity
  8
0
  6
SLD-Solid
 62
   142
420
    32960
370
     0
100
AcDbPolyline
 90
        3
 70
   128
 43
0.0
 10
748.3988074647
 20
-21.6808011902
 10
748.596240953
 20
-21.5016438028
 10
748.7780311144
 20
-21.3010051203
  0
SPLINE
  5
EA
330
1F
100
AcDbEntity
  8
0
  6
SLD-Solid
 62
   142
420
    32960
370
     0
100
AcDbSpline
210
0.0
220
0.0
230
1.0
 70
     8
 71
     3
 72
    10
 73
     6
 74
     0
 42
0.00000001
 43
0.00000001
 40
0.0
 40
0.0
 40
0.0
 40
0.0
 40
0.4954024122403444
 40
0.9906756043939147
 40
1.0
 40
1.0
 40
1.0
 40
1.0
 10
799.7916500121611
 20
576.7469282997441
 30
0.0
 10
799.7455936092457
 20
576.7141836748391
 30
0.0
 10
799.6534928167039
 20
576.6487029660921
 30
0.0
 10
799.5582686600843
 20
576.5978406394994
 30
0.0
 10
799.5183944182659
 20
576.5868603554641
 30
0.0
 10
799.5176575871469
 20
576.5866574521707
 30
0.0
  0
LINE
  5
EB
330
1F
100
AcDbEntity
  8
0
  6
SLD-Solid
 62
   142
420
    32960
370
     0
100
AcDbLine
 10
793.1948167123
 20
597.2686374009
 30
0.0
 11
792.9215573999
 21
596.6137557403
 31
0.0
  0
LINE
  5
EC
330
1F
100
AcDbEntity
  8
0
  6
SLD-Solid
 62
   142
420
    32960
370
     0
100
AcDbLine
 10
791.2849000153
 20
595.9945500553
 30
0.0
 11
791.4788784611
 21
595.4055771575
 31
0.0
  0
SPLINE
  5
ED
330
1F
100
AcDbEntity
  8
0
  6
SLD-Solid
 62
   142
420
    32960
370
     0
100
AcDbSpline
210
0.0
220
0.0
230
1.0
 70
     8
 71
     3
 72
     9
 73
     5
 74
     0
 42
0.00000001
 43
0.00000001
 40
0.0
 40
0.0
 40
0.0
 40
0.0
 40
0.9346317623101669
 40
1.0
 40
1.0
 40
1.0
 40
1.0
 10
794.7413476562338
 20
596.7722419853609
 30
0.0
 10
794.7961281539888
 20
596.6031806107172
 30
0.0
 10
794.8547400051627
 20
596.4222950668469
 30
0.0
 10
794.823754027566
 20
596.2368496000458
 30
0.0
 10
794.8217285288174
 20
596.2247273566936
 30
0.0
  0
SPLINE
  5
EE
330
1F
100
AcDbEntity
  8
0
  6
SLD-Solid
 62
   142
420
    32960
370
     0
100
AcDbSpline
210
0.0
220
0.0
230
1.0
 70
     8
 71
     3
 72
    17
 73
    13
 74
     0
 42
0.00000001
 43
0.00000001
 40
0.0
 40
0.0
 40
0.0
 40
0.0
 40
0.062582008841455
 40
0.125150625951072
 40
0.2501000092855218
 40
0.3750446097039162
 40
0.5000411091552667
 40
0.6250436569435465
 40
0.7499362197475925
 40
0.8748672129464763
 40
0.9374220428777924
 40
1.0
 40
1.0
 40
1.0
 40
1.0
 10
793.2311349137137
 20
596.8694437474066
 30
0.0
 10
793.2511379051144
 20
596.877274935299
 30
0.0
 10
793.2911396075373
 20
596.8929356353119
 30
0.0
 10
793.3731267460784
 20
596.9166099728758
 30
0.0
 10
793.4781909406779
 20
596.9318438152269
 30
0.0
 10
793.604741393066
 20
596.924238783193
 30
0.0
 10
793.7255504405891
 20
596.8857454598158
 30
0.0
 10
793.8370218622981
 20
596.8238451015242
 30
0.0
 10
793.9338267722586
 20
596.7376381039369
 30
0.0
 10
793.9971524838045
 20
596.6473586094077
 30
0.0
 10
794.0358477019946
 20
596.5671894014916
 30
0.0
 10
794.050747786879
 20
596.524805958812
 30
0.0
 10
794.0581992062467
 20
596.5036103207927
 30
0.0
  0
SPLINE
  5
EF
330
1F
100
AcDbEntity
  8
0
  6
SLD-Solid
 62
   142
420
    32960
370
     0
100
AcDbSpline
210
0.0
220
0.0
230
1.0
 70
     8
 71
     3
 72
    16
 73
    12
 74
     0
 42
0.00000001
 43
0.00000001
 40
0.0
 40
0.0
 40
0.0
 40
0.0
 40
0.0625768915256857
 40
0.1251365117524341
 40
0.2500258664707563
 40
0.3749336302797325
 40
0.499880011769082
 40
0.6248549835765618
 40
0.7498694666724554
 40
0.8748972018541055
 40
1.0
 40
1.0
 40
1.0
 40
1.0
 10
792.812681192363
 20
596.0285691211624
 30
0.0
 10
792.8065964125628
 20
596.0492470072221
 30
0.0
 10
792.7944285323691
 20
596.0905970722195
 30
0.0
 10
792.7810486741392
 20
596.1767085349119
 30
0.0
 10
792.7790738054013
 20
596.2872171687615
 30
0.0
 10
792.807314636665
 20
596.4173793474148
 30
0.0
 10
792.8582323593712
 20
596.5389963277825
 30
0.0
 10
792.9276152002451
 20
596.6500896333655
 30
0.0
 10
793.017576981109
 20
596.7416114426613
 30
0.0
 10
793.1187371450396
 20
596.8177409606939
 30
0.0
 10
793.1936614960107
 20
596.8522060375683
 30
0.0
 10
793.2311349137138
 20
596.8694437474066
 30
0.0
  0
LINE
  5
F0
330
1F
100
AcDbEntity
  8
0
  6
SLD-Solid
 62
   142
420
    32960
370
     0
100
AcDbLine
 10
781.213344229
 20
631.2610186001
 30
0.0
 11
781.6485746946
 21
631.2330750697
 31
0.0
  0
LINE
  5
F1
330
1F
100
AcDbEntity
  8
0
  6
SLD-Solid
 62
   142
420
    32960
370
     0
100
AcDbLine
 10
781.674691212
 20
631.2274684553
 30
0.0
 11
781.2724125872
 21
631.253045183
 31
0.0
  0
SPLINE
  5
F2
330
1F
100
AcDbEntity
  8
0
  6
SLD-Solid
 62
   142
420
    32960
370
     0
100
AcDbSpline
210
0.0
220
0.0
230
1.0
 70
     8
 71
     3
 72
    14
 73
    10
 74
     0
 42
0.00000001
 43
0.00000001
 40
0.0
 40
0.0
 40
0.0
 40
0.0
 40
0.0625271511718497
 40
0.1250385665834307
 40
0.2500185759795726
 40
0.4998671003519424
 40
0.7498915699466181
 40
0.8749419633117861
 40
1.0
 40
1.0
 40
1.0
 40
1.0
 10
779.4898223910615
 20
631.3882394591915
 30
0.0
 10
779.5224258511772
 20
631.3852921717871
 30
0.0
 10
779.5876245663296
 20
631.3793983387006
 30
0.0
 10
779.7233882784074
 20
631.3674177238926
 30
0.0
 10
779.9753234991935
 20
631.3464913960447
 30
0.0
 10
780.3511502282969
 20
631.3173389310964
 30
0.0
 10
780.7340610736742
 20
631.2897579779766
 30
0.0
 10
781.0415634077569
 20
631.2685649239813
 30
0.0
 10
781.1954612929799
 20
631.2582185354128
 30
0.0
 10
781.2724125871541
 20
631.2530451830359
 30
0.0
  0
SPLINE
  5
F3
330
1F
100
AcDbEntity
  8
0
  6
SLD-Solid
 62
   142
420
    32960
370
     0
100
AcDbSpline
210
0.0
220
0.0
230
1.0
 70
     8
 71
     3
 72
    10
 73
     6
 74
     0
 42
0.00000001
 43
0.00000001
 40
0.0
 40
0.0
 40
0.0
 40
0.0
 40
0.0639589061236439
 40
0.7497063588623675
 40
1.0
 40
1.0
 40
1.0
 40
1.0
 10
779.0527484723629
 20
631.4335788040162
 30
0.0
 10
779.05714550618
 20
631.433112651419
 30
0.0
 10
779.1086861658416
 20
631.4276485559973
 30
0.0
 10
779.2432650110197
 20
631.4139387350457
 30
0.0
 10
779.3940042121401
 20
631.4005293592915
 30
0.0
 10
779.4343112710476
 20
631.3969437458982
 30
0.0
  0
LINE
  5
F4
330
1F
100
AcDbEntity
  8
0
  6
SLD-Solid
 62
   142
420
    32960
370
     0
100
AcDbLine
 10
786.0098726287
 20
620.739307392
 30
0.0
 11
785.0432093771
 21
620.6784387564
 31
0.0
  0
LINE
  5
F5
330
1F
100
AcDbEntity
  8
0
  6
SLD-Solid
 62
   142
420
    32960
370
     0
100
AcDbLine
 10
783.2613616084
 20
620.4155650216
 30
0.0
 11
782.5778730753
 21
620.6191405619
 31
0.0
  0
LINE
  5
F6
330
1F
100
AcDbEntity
  8
0
  6
SLD-Solid
 62
   142
420
    32960
370
     0
100
AcDbLine
 10
631.8495304791
 20
705.5994672926
 30
0.0
 11
448.65386413
 21
705.5994672926
 31
0.0
  0
LINE
  5
F7
330
1F
100
AcDbEntity
  8
0
  6
SLD-Solid
 62
   142
420
    32960
370
     0
100
AcDbLine
 10
638.3511093526
 20
697.5060347447
 30
0.0
 11
442.1522852565
 21
697.5060347447
 31
0.0
  0
LINE
  5
F8
330
1F
100
AcDbEntity
  8
0
  6
SLD-Solid
 62
     7
370
    15
100
AcDbLine
 10
812.2016973047
 20
70.6551843374
 30
0.0
 11
812.2016973047
 21
15.7306153536
 31
0.0
  0
SPLINE
  5
F9
330
1F
100
AcDbEntity
  8
0
  6
SLD-Solid
 62
   142
420
    32960
370
     0
100
AcDbSpline
210
0.0
220
0.0
230
1.0
 70
     8
 71
     3
 72
    19
 73
    15
 74
     0
 42
0.00000001
 43
0.00000001
 40
0.0
 40
0.0
 40
0.0
 40
0.0
 40
0.0570993991126195
 40
0.1156579135416854
 40
0.1756814054343066
 40
0.2371753153706694
 40
0.3001447001954023
 40
0.3645942668468669
 40
0.4305284026613339
 40
0.4979512025668029
 40
0.6162226812305339
 40
0.7486233071240641
 40
0.8538653653140844
 40
1.0
 40
1.0
 40
1.0
 40
1.0
 10
810.8016973047237
 20
71.19852196577092
 30
0.0
 10
810.8503251710683
 20
71.19170064900126
 30
0.0
 10
810.9488235379303
 20
71.17788370385905
 30
0.0
 10
811.090609017733
 20
71.15453679930384
 30
0.0
 10
811.2292569361181
 20
71.12896510965946
 30
0.0
 10
811.3632140623369
 20
71.10098567885801
 30
0.0
 10
811.4915588538663
 20
71.07064931455953
 30
0.0
 10
811.6131271525071
 20
71.03794177464218
 30
0.0
 10
811.7267798633459
 20
71.00286721011001
 30
0.0
 10
811.8567701869075
 20
70.9562868058938
 30
0.0
 10
811.9948551258058
 20
70.89418361422905
 30
0.0
 10
812.1063118089094
 20
70.82142323813112
 30
0.0
 10
812.1851682810493
 20
70.74037671736724
 30
0.0
 10
812.1956208418184
 20
70.68650308598207
 30
0.0
 10
812.2016973047237
 20
70.65518433740753
 30
0.0
  0
SPLINE
  5
FA
330
1F
100
AcDbEntity
  8
0
  6
SLD-Solid
 62
     7
370
    15
100
AcDbSpline
210
0.0
220
0.0
230
1.0
 70
     8
 71
     3
 72
    19
 73
    15
 74
     0
 42
0.00000001
 43
0.00000001
 40
0.0
 40
0.0
 40
0.0
 40
0.0
 40
0.0571143122037916
 40
0.1156859695386089
 40
0.1757206699038223
 40
0.2372237019665079
 40
0.300199981864313
 40
0.3646540860234638
 40
0.4305902805559942
 40
0.4980125476391923
 40
0.6162771910106106
 40
0.7486631870564208
 40
0.8538896613728915
 40
0.9999999999999999
 40
0.9999999999999999
 40
0.9999999999999999
 40
0.9999999999999999
 10
810.8016973047238
 20
13.19289984549743
 30
0.0
 10
810.850324819286
 20
13.22471435272399
 30
0.0
 10
810.9488206419846
 20
13.28915515524576
 30
0.0
 10
811.0906064540314
 20
13.39777832787792
 30
0.0
 10
811.2292543042214
 20
13.51688081818891
 30
0.0
 10
811.3632115282121
 20
13.64741600705555
 30
0.0
 10
811.4915564147243
 20
13.78921812603495
 30
0.0
 10
811.6131248522233
 20
13.94231423099224
 30
0.0
 10
811.7267777280887
 20
14.10655763927654
 30
0.0
 10
811.856766654111
 20
14.32440915022498
 30
0.0
 10
811.9948515009373
 20
14.6139162714215
 30
0.0
 10
812.1063101271396
 20
14.95428007672739
 30
0.0
 10
812.1851679426587
 20
15.33199573047273
 30
0.0
 10
812.195620746673
 20
15.58407398856176
 30
0.0
 10
812.2016973047237
 20
15.73061535358733
 30
0.0
  0
SPLINE
  5
FB
330
1F
100
AcDbEntity
  8
0
  6
SLD-Solid
 62
   142
420
    32960
370
     0
100
AcDbSpline
210
0.0
220
0.0
230
1.0
 70
     8
 71
     3
 72
    10
 73
     6
 74
     0
 42
0.00000001
 43
0.00000001
 40
0.0
 40
0.0
 40
0.0
 40
0.0
 40
0.5
 40
0.5
 40
1.0
 40
1.0
 40
1.0
 40
1.0
 10
810.8016973047237
 20
15.1868831754044
 30
0.0
 10
810.8022392029468
 20
14.63729756353593
 30
0.0
 10
810.8016973047237
 20
14.13820137106203
 30
0.0
 10
810.8016973047237
 20
13.41540215204562
 30
0.0
 10
810.8011556005903
 20
13.19255830736571
 30
0.0
 10
810.8016973047237
 20
13.19289984549743
 30
0.0
  0
SPLINE
  5
FC
330
1F
100
AcDbEntity
  8
0
  6
SLD-Solid
 62
   142
420
    32960
370
     0
100
AcDbSpline
210
0.0
220
0.0
230
1.0
 70
     8
 71
     3
 72
    19
 73
    15
 74
     0
 42
0.00000001
 43
0.00000001
 40
0.0
 40
0.0
 40
0.0
 40
0.0
 40
0.0571115640935923
 40
0.1156812592866361
 40
0.1757147833893933
 40
0.2372174247608634
 40
0.3001940990521396
 40
0.3646493820584513
 40
0.4305875391447034
 40
0.498012551648665
 40
0.616261616538452
 40
0.7486631924159508
 40
0.8538790033185846
 40
1.0
 40
1.0
 40
1.0
 40
1.0
 10
810.8016973047238
 20
73.19289984549748
 30
0.0
 10
810.8503225007847
 20
73.16108691010214
 30
0.0
 10
810.9488143562024
 20
73.09664881448097
 30
0.0
 10
811.0905958214743
 20
72.98802985816228
 30
0.0
 10
811.2292415776124
 20
72.86893046045259
 30
0.0
 10
811.3631987494169
 20
72.73839694331573
 30
0.0
 10
811.4915453195553
 20
72.59659473168189
 30
0.0
 10
811.613116825569
 20
72.44349645937042
 30
0.0
 10
811.7267737386992
 20
72.27924855650176
 30
0.0
 10
811.8567574464529
 20
72.06140646916437
 30
0.0
 10
811.9948456219905
 20
71.7718981919216
 30
0.0
 10
812.1063036149633
 20
71.43154511757918
 30
0.0
 10
812.185166464456
 20
71.05381469596433
 30
0.0
 10
812.1956199228484
 20
70.80173641079668
 30
0.0
 10
812.2016973047237
 20
70.65518433740756
 30
0.0
  0
SPLINE
  5
FD
330
1F
100
AcDbEntity
  8
0
  6
SLD-Solid
 62
   142
420
    32960
370
     0
100
AcDbSpline
210
0.0
220
0.0
230
1.0
 70
    24
 71
     3
 72
     8
 73
     4
 74
     0
 42
0.00000001
 43
0.00000001
 40
0.0
 40
0.0
 40
0.0
 40
0.0
 40
1.0
 40
1.0
 40
1.0
 40
1.0
 10
810.8016973047237
 20
71.19415141034663
 30
0.0
 10
810.8016973047237
 20
72.29332525926155
 30
0.0
 10
810.8016973047237
 20
73.19289984549745
 30
0.0
 10
810.8016973047237
 20
73.19289984549745
 30
0.0
  0
LINE
  5
FE
330
1F
100
AcDbEntity
  8
0
  6
SLD-Solid
 62
     7
370
    15
100
AcDbLine
 10
126.7516973047
 20
677.1928998462
 30
0.0
 11
126.7516973047
 21
697.1928998403
 31
0.0
  0
LINE
  5
FF
330
1F
100
AcDbEntity
  8
0
  6
SLD-Solid
 62
     7
370
    15
100
AcDbLine
 10
688.7516973047
 20
675.9828998405
 30
0.0
 11
688.7516973047
 21
675.9928998405
 31
0.0
  0
LINE
  5
100
330
1F
100
AcDbEntity
  8
0
  6
SLD-Solid
 62
     7
370
    15
100
AcDbLine
 10
688.7516973047
 20
677.1928998405
 30
0.0
 11
688.7516973047
 21
697.1928998403
 31
0.0
  0
LINE
  5
101
330
1F
100
AcDbEntity
  8
0
  6
SLD-Solid
 62
   142
420
    32960
370
     0
100
AcDbLine
 10
148.0000287825
 20
675.1928998403
 30
0.0
 11
150.2516973063
 21
675.1928998403
 31
0.0
  0
LINE
  5
102
330
1F
100
AcDbEntity
  8
0
  6
SLD-Solid
 62
   142
420
    32960
370
     0
100
AcDbLine
 10
665.2516973063
 20
675.1928998403
 30
0.0
 11
667.4962320348
 21
675.1928998403
 31
0.0
  0
LINE
  5
103
330
1F
100
AcDbEntity
  8
0
  6
SLD-Solid
 62
     7
370
    15
100
AcDbLine
 10
126.7516973047
 20
697.1928998403
 30
0.0
 11
688.7516973047
 21
697.1928998403
 31
0.0
  0
LINE
  5
104
330
1F
100
AcDbEntity
  8
0
  6
SLD-Solid
 62
     7
370
    15
100
AcDbLine
 10
843.7863271762
 20
442.5352148456
 30
0.0
 11
843.6820368656
 21
442.4943627422
 31
0.0
  0
LINE
  5
105
330
1F
100
AcDbEntity
  8
0
  6
SLD-Solid
 62
     7
370
    15
100
AcDbLine
 10
857.1334232282
 20
471.7444186496
 30
0.0
 11
857.4536023474
 21
471.7443887739
 31
0.0
  0
SPLINE
  5
106
330
1F
100
AcDbEntity
  8
0
  6
SLD-Solid
 62
     7
370
    15
100
AcDbSpline
210
0.0
220
0.0
230
1.0
 70
     8
 71
     3
 72
    12
 73
     8
 74
     0
 42
0.00000001
 43
0.00000001
 40
0.75
 40
0.75
 40
0.75
 40
0.75
 40
0.8125
 40
0.8125
 40
0.875
 40
0.875
 40
1.0
 40
1.0
 40
1.0
 40
1.0
 10
846.1021931351378
 20
471.6010743553379
 30
0.0
 10
845.9059476285589
 20
471.6621240275049
 30
0.0
 10
845.7064845652756
 20
471.7142321807281
 30
0.0
 10
845.3071996504674
 20
471.7993603853602
 30
0.0
 10
845.1065122964189
 20
471.8326610596027
 30
0.0
 10
844.5013612831382
 20
471.9051782908477
 30
0.0
 10
844.0938152616807
 20
471.9172350151603
 30
0.0
 10
843.6820368655735
 20
471.891436948745
 30
0.0
  0
SPLINE
  5
107
330
1F
100
AcDbEntity
  8
0
  6
SLD-Solid
 62
     7
370
    15
100
AcDbSpline
210
0.0
220
0.0
230
1.0
 70
     8
 71
     3
 72
    12
 73
     8
 74
     0
 42
0.00000001
 43
0.00000001
 40
0.75
 40
0.75
 40
0.75
 40
0.75
 40
0.8125
 40
0.8125
 40
0.875
 40
0.875
 40
1.0
 40
1.0
 40
1.0
 40
1.0
 10
846.1021931351298
 20
442.7847253356438
 30
0.0
 10
845.9059476285506
 20
442.7236756634771
 30
0.0
 10
845.7064845652714
 20
442.6715675102552
 30
0.0
 10
845.3071996504673
 20
442.586439305624
 30
0.0
 10
845.1065122964188
 20
442.5531386313813
 30
0.0
 10
844.5013612831381
 20
442.4806214001364
 30
0.0
 10
844.0938152616806
 20
442.4685646758239
 30
0.0
 10
843.6820368655734
 20
442.4943627422392
 30
0.0
  0
SPLINE
  5
108
330
1F
100
AcDbEntity
  8
0
  6
SLD-Solid
 62
     7
370
    15
100
AcDbSpline
210
0.0
220
0.0
230
1.0
 70
     8
 71
     3
 72
    26
 73
    22
 74
     0
 42
0.00000001
 43
0.00000001
 40
0.0
 40
0.0
 40
0.0
 40
0.0
 40
0.0273633368393009
 40
0.0548360898638657
 40
0.082419138444508
 40
0.1101133609737349
 40
0.1379196348979052
 40
0.1658388367487788
 40
0.1938718421752289
 40
0.222019525974891
 40
0.2502827621272479
 40
0.3723728258291291
 40
0.5000672714552062
 40
0.6191344571856384
 40
0.7498737078546475
 40
0.7815261864260337
 40
0.8171857489089853
 40
0.8568572283824754
 40
0.9005460197812347
 40
0.9482580922300792
 40
1.0
 40
1.0
 40
1.0
 40
1.0
 10
865.4668114176319
 20
448.0238240338564
 30
0.0
 10
865.4476545826199
 20
447.9353061775478
 30
0.0
 10
865.409264311273
 20
447.7579165137214
 30
0.0
 10
865.3384205291098
 20
447.4944420960104
 30
0.0
 10
865.2577225164608
 20
447.2327465902515
 30
0.0
 10
865.1662186234611
 20
446.9734605628613
 30
0.0
 10
865.0641846522874
 20
446.7169693209045
 30
0.0
 10
864.9515872402714
 20
446.4637284050961
 30
0.0
 10
864.8285036957673
 20
446.214183171566
 30
0.0
 10
864.6949903168374
 20
445.9687689071793
 30
0.0
 10
864.392261741819
 20
445.4618761058718
 30
0.0
 10
863.8360797031401
 20
444.7232707967916
 30
0.0
 10
862.9367743974489
 20
443.8898302620628
 30
0.0
 10
861.8831118548773
 20
443.2109099274365
 30
0.0
 10
861.0186904021975
 20
442.8502565271563
 30
0.0
 10
860.389397264422
 20
442.6689500861851
 30
0.0
 10
860.0450684697471
 20
442.5872384240998
 30
0.0
 10
859.657661282859
 20
442.5166732968642
 30
0.0
 10
859.2271280939631
 20
442.4646911153861
 30
0.0
 10
858.754012398638
 20
442.435918355731
 30
0.0
 10
858.4250158291258
 20
442.4454022863411
 30
0.0
 10
858.2538521399614
 20
442.4503363941751
 30
0.0
  0
SPLINE
  5
109
330
1F
100
AcDbEntity
  8
0
  6
SLD-Solid
 62
     7
370
    15
100
AcDbSpline
210
0.0
220
0.0
230
1.0
 70
     8
 71
     3
 72
    26
 73
    22
 74
     0
 42
0.00000001
 43
0.00000001
 40
0.0
 40
0.0
 40
0.0
 40
0.0
 40
0.0273623823797776
 40
0.0548344195310686
 40
0.0824169908493668
 40
0.1101109747513792
 40
0.137917248707445
 40
0.1658366892738145
 40
0.1938701721240766
 40
0.2220185720816961
 40
0.250282763153181
 40
0.3723677889030578
 40
0.5000672726350609
 40
0.6191293059302531
 40
0.7498737071982554
 40
0.7815240527164093
 40
0.817182334173058
 40
0.8568533854067963
 40
0.9005426023347162
 40
0.9482559552931282
 40
1.0
 40
1.0
 40
1.0
 40
1.0
 10
865.4668114176318
 20
466.3619756571384
 30
0.0
 10
865.4476552849785
 20
466.4504904314676
 30
0.0
 10
865.4092662514535
 20
466.6278747031622
 30
0.0
 10
865.3384248251803
 20
466.8913423809757
 30
0.0
 10
865.2577289141229
 20
467.1530335682469
 30
0.0
 10
865.1662266459766
 20
467.4123176487194
 30
0.0
 10
865.0641935451198
 20
467.6688092322585
 30
0.0
 10
864.951595988127
 20
467.9220526755897
 30
0.0
 10
864.8285110268799
 20
468.1716024994588
 30
0.0
 10
864.6949947129071
 20
468.4170232685483
 30
0.0
 10
864.3922721924058
 20
468.9239067815425
 30
0.0
 10
863.8360912531045
 20
469.6625161560968
 30
0.0
 10
862.9368009284169
 20
470.4959488000509
 30
0.0
 10
861.8831274319684
 20
471.1748816507997
 30
0.0
 10
861.0187133026792
 20
471.535535719106
 30
0.0
 10
860.3894149465804
 20
471.7168447004875
 30
0.0
 10
860.0450988524931
 20
471.7985547714546
 30
0.0
 10
859.6576962171762
 20
471.8691211175961
 30
0.0
 10
859.2271591040522
 20
471.9211059945274
 30
0.0
 10
858.7540307988667
 20
471.9498814449042
 30
0.0
 10
858.4250229071304
 20
471.9403974646912
 30
0.0
 10
858.2538521399621
 20
471.9354632968196
 30
0.0
  0
LINE
  5
10A
330
1F
100
AcDbEntity
  8
0
  6
SLD-Solid
 62
     7
370
    15
100
AcDbLine
 10
865.287826323
 20
466.5115976292
 30
0.0
 11
865.4668114176
 21
466.3619756571
 31
0.0
  0
LINE
  5
10B
330
1F
100
AcDbEntity
  8
0
  6
SLD-Solid
 62
     7
370
    15
100
AcDbLine
 10
865.4668114176
 20
448.0238240339
 30
0.0
 11
865.2878095106
 21
447.874202158
 31
0.0
  0
LINE
  5
10C
330
1F
100
AcDbEntity
  8
0
  6
SLD-Solid
 62
   142
420
    32960
370
     0
100
AcDbLine
 10
793.070318699
 20
596.9598421654
 30
0.0
 11
792.92568348
 21
596.6130754263
 31
0.0
  0
LINE
  5
10D
330
1F
100
AcDbEntity
  8
0
  6
SLD-Solid
 62
   142
420
    32960
370
     0
100
AcDbLine
 10
150.2516973063
 20
659.6928998422
 30
0.0
 11
150.2516973063
 21
661.4428998465
 31
0.0
  0
LINE
  5
10E
330
1F
100
AcDbEntity
  8
0
  6
SLD-Solid
 62
   142
420
    32960
370
     0
100
AcDbLine
 10
665.2516973063
 20
661.4428998465
 30
0.0
 11
665.2516973063
 21
659.6928998422
 31
0.0
  0
LINE
  5
10F
330
1F
100
AcDbEntity
  8
0
  6
SLD-Solid
 62
     7
370
    15
100
AcDbLine
 10
150.2516973063
 20
680.1928998465
 30
0.0
 11
150.2516973063
 21
661.4428998465
 31
0.0
  0
LINE
  5
110
330
1F
100
AcDbEntity
  8
0
  6
SLD-Solid
 62
     7
370
    15
100
AcDbLine
 10
660.2516973063
 20
685.1928998465
 30
0.0
 11
155.2516973063
 21
685.1928998465
 31
0.0
  0
LINE
  5
111
330
1F
100
AcDbEntity
  8
0
  6
SLD-Solid
 62
   142
420
    32960
370
     0
100
AcDbLine
 10
665.2516973063
 20
661.4428998465
 30
0.0
 11
665.2516973063
 21
680.1928998465
 31
0.0
  0
ARC
  5
112
330
1F
100
AcDbEntity
  8
0
  6
SLD-Solid
 62
   142
420
    32960
370
     0
100
AcDbCircle
 10
660.2516973063
 20
680.1928998465
 30
0.0
 40
4.999999999999886
100
AcDbArc
 50
360.0
 51
90.0
  0
ARC
  5
113
330
1F
100
AcDbEntity
  8
0
  6
SLD-Solid
 62
   142
420
    32960
370
     0
100
AcDbCircle
 10
155.2516973063
 20
680.1928998465
 30
0.0
 40
5.0
100
AcDbArc
 50
90.0
 51
180.0
  0
LINE
  5
114
330
1F
100
AcDbEntity
  8
0
  6
SLD-Solid
 62
   142
420
    32960
370
     0
100
AcDbLine
 10
148.5016973047
 20
666.3928998462
 30
0.0
 11
148.5016973047
 21
660.9928998462
 31
0.0
  0
SPLINE
  5
115
330
1F
100
AcDbEntity
  8
0
  6
SLD-Solid
 62
   142
420
    32960
370
     0
100
AcDbSpline
210
0.0
220
0.0
230
1.0
 70
     8
 71
     3
 72
    11
 73
     7
 74
     0
 42
0.00000001
 43
0.00000001
 40
0.0
 40
0.0
 40
0.0
 40
0.0
 40
0.2716412431748744
 40
0.5432824863497231
 40
0.8149237295245626
 40
1.0
 40
1.0
 40
1.0
 40
1.0
 10
757.4016973047253
 20
503.5428998454976
 30
0.0
 10
757.4324142360238
 20
503.6411739556546
 30
0.0
 10
757.4938480986209
 20
503.837722175968
 30
0.0
 10
757.9693758792554
 20
504.132544506438
 30
0.0
 10
758.5700312922097
 20
504.3960494435578
 30
0.0
 10
759.0195416144165
 20
504.5612802705206
 30
0.0
 10
759.2016973047237
 20
504.6282369873267
 30
0.0
  0
SPLINE
  5
116
330
1F
100
AcDbEntity
  8
0
  6
SLD-Solid
 62
   142
420
    32960
370
     0
100
AcDbSpline
210
0.0
220
0.0
230
1.0
 70
     8
 71
     3
 72
    12
 73
     8
 74
     0
 42
0.00000001
 43
0.00000001
 40
0.0
 40
0.0
 40
0.0
 40
0.0
 40
0.162230785386346
 40
0.410677595726137
 40
0.6591247578680319
 40
0.9075717193365442
 40
1.0
 40
1.0
 40
1.0
 40
1.0
 10
759.201697304725
 20
-14.24283349283345
 30
0.0
 10
759.0420271772749
 20
-14.18409984499341
 30
0.0
 10
758.6378317349955
 20
-14.03541910461653
 30
0.0
 10
758.0729898943499
 20
-13.79674784972751
 30
0.0
 10
757.6076053884411
 20
-13.52705038226321
 30
0.0
 10
757.4191087045672
 20
-13.31324213296092
 30
0.0
 10
757.40541134273
 20
-13.19040691027301
 30
0.0
 10
757.4016973047251
 20
-13.15710015450233
 30
0.0
  0
LINE
  5
117
330
1F
100
AcDbEntity
  8
0
  6
SLD-Solid
 62
     7
370
    15
100
AcDbLine
 10
757.4016973047
 20
-13.1571001545
 30
0.0
 11
757.4016973047
 21
503.5428998455
 31
0.0
  0
SPLINE
  5
118
330
1F
100
AcDbEntity
  8
0
  6
SLD-Solid
 62
   142
420
    32960
370
     0
100
AcDbSpline
210
0.0
220
0.0
230
1.0
 70
     8
 71
     3
 72
    11
 73
     7
 74
     0
 42
0.00000001
 43
0.00000001
 40
0.0
 40
0.0
 40
0.0
 40
0.0
 40
0.2716412431747499
 40
0.5432824863494917
 40
0.8149237295242441
 40
1.0
 40
1.0
 40
1.0
 40
1.0
 10
757.4016973047254
 20
-13.15710015450228
 30
0.0
 10
757.4324142360238
 20
-13.42601705959384
 30
0.0
 10
757.4938480986207
 20
-13.96385086977697
 30
0.0
 10
757.9693758792556
 20
-14.63710351149494
 30
0.0
 10
758.5700312922102
 20
-15.07563073914314
 30
0.0
 10
759.0195416144177
 20
-15.13380003738396
 30
0.0
 10
759.201697304725
 20
-15.15737206265744
 30
0.0
  0
LINE
  5
119
330
1F
100
AcDbEntity
  8
0
  6
SLD-Solid
 62
   142
420
    32960
370
     0
100
AcDbLine
 10
787.7088801535
 20
625.4213959606
 30
0.0
 11
787.8835764065
 21
625.7711209419
 31
0.0
  0
SPLINE
  5
11A
330
1F
100
AcDbEntity
  8
0
  6
SLD-Solid
 62
   142
420
    32960
370
     0
100
AcDbSpline
210
0.0
220
0.0
230
1.0
 70
     8
 71
     3
 72
    17
 73
    13
 74
     0
 42
0.00000001
 43
0.00000001
 40
0.0
 40
0.0
 40
0.0
 40
0.0
 40
0.0000166887075715
 40
0.0000166887075715
 40
0.0000166887075715
 40
0.0000336582619936
 40
0.0000336582619936
 40
0.0000336582619936
 40
0.0000426621382242
 40
0.0000426621382242
 40
0.0000426621382242
 40
0.0000451385286557
 40
0.0000451385286557
 40
0.0000451385286557
 40
0.0000451385286557
 10
787.8835764065064
 20
625.7711209419381
 30
0.0
 10
787.8845884027039
 20
625.7680063379016
 30
0.0
 10
787.8859278772089
 20
625.7648613595792
 30
0.0
 10
787.8878422888862
 20
625.7617578539202
 30
0.0
 10
787.889774197821
 20
625.7586259829735
 30
0.0
 10
787.8923486795072
 20
625.7554480658316
 30
0.0
 10
787.8959701656443
 20
625.752632668602
 30
0.0
 10
787.8979077160345
 20
625.7511263880878
 30
0.0
 10
787.9001994539019
 20
625.7497035441901
 30
0.0
 10
787.9027547319471
 20
625.7485210721478
 30
0.0
 10
787.9034670469545
 20
625.7481914436038
 30
0.0
 10
787.9042018705048
 20
625.7478786290753
 30
0.0
 10
787.9049537097613
 20
625.7475855545056
 30
0.0
  0
ARC
  5
11B
330
1F
100
AcDbEntity
  8
0
  6
SLD-Solid
 62
   142
420
    32960
370
     0
100
AcDbCircle
 10
787.3879378399
 20
625.0890881405
 30
0.0
 40
0.6821465598067781
100
AcDbArc
 50
18.250989503
 51
45.8852180784
  0
ARC
  5
11C
330
1F
100
AcDbEntity
  8
0
  6
SLD-Solid
 62
     7
370
    15
100
AcDbCircle
 10
785.4685058076
 20
673.8928998405
 30
0.0
 40
22.0000000000001
100
AcDbArc
 50
293.5
 51
88.6977110648
  0
ARC
  5
11D
330
1F
100
AcDbEntity
  8
0
  6
SLD-Solid
 62
     7
370
    15
100
AcDbCircle
 10
772.9685058076
 20
661.3928998405
 30
0.0
 40
2.59999999999993
100
AcDbArc
 50
99.9421486627
 51
260.0578513373
  0
LINE
  5
11E
330
1F
100
AcDbEntity
  8
0
  6
SLD-Solid
 62
   142
420
    32960
370
     0
100
AcDbLine
 10
750.0516973091
 20
662.0428998405
 30
0.0
 11
750.0516973091
 21
659.5928998405
 31
0.0
  0
LINE
  5
11F
330
1F
100
AcDbEntity
  8
0
  6
SLD-Solid
 62
   142
420
    32960
370
     0
100
AcDbLine
 10
750.0516973091
 20
659.5928998405
 30
0.0
 11
748.8743160229
 21
659.5928998405
 31
0.0
  0
LINE
  5
120
330
1F
100
AcDbEntity
  8
0
  6
SLD-Solid
 62
   142
420
    32960
370
     0
100
AcDbLine
 10
667.4116973091
 20
659.8629695619
 30
0.0
 11
667.4116973091
 21
662.0428998405
 31
0.0
  0
LINE
  5
121
330
1F
100
AcDbEntity
  8
0
  6
SLD-Solid
 62
   142
420
    32960
370
     0
100
AcDbLine
 10
667.4116973091
 20
674.7428998405
 30
0.0
 11
667.4116973091
 21
662.0428998405
 31
0.0
  0
ARC
  5
122
330
1F
100
AcDbEntity
  8
0
  6
SLD-Solid
 62
     7
370
    15
100
AcDbCircle
 10
668.6516973091
 20
674.7428998405
 30
0.0
 40
1.240000000000123
100
AcDbArc
 50
90.0
 51
180.0
  0
LINE
  5
123
330
1F
100
AcDbEntity
  8
0
  6
SLD-Solid
 62
     7
370
    15
100
AcDbLine
 10
690.4516973091
 20
675.9828998405
 30
0.0
 11
668.6516973091
 21
675.9828998405
 31
0.0
  0
ARC
  5
124
330
1F
100
AcDbEntity
  8
0
  6
SLD-Solid
 62
     7
370
    15
100
AcDbCircle
 10
690.4516973091
 20
678.4428998405
 30
0.0
 40
2.460000000000036
100
AcDbArc
 50
270.0
 51
0.0
  0
LINE
  5
125
330
1F
100
AcDbEntity
  8
0
  6
SLD-Solid
 62
     7
370
    15
100
AcDbLine
 10
692.9116973091
 20
694.6928998405
 30
0.0
 11
692.9116973091
 21
678.4428998405
 31
0.0
  0
LINE
  5
126
330
1F
100
AcDbEntity
  8
0
  6
SLD-Solid
 62
   142
420
    32960
370
     0
100
AcDbLine
 10
694.1516973091
 20
694.6928998405
 30
0.0
 11
692.9116973091
 21
694.6928998405
 31
0.0
  0
LINE
  5
127
330
1F
100
AcDbEntity
  8
0
  6
SLD-Solid
 62
   142
420
    32960
370
     0
100
AcDbLine
 10
694.1516973091
 20
694.7428998405
 30
0.0
 11
694.1516973091
 21
694.6928998405
 31
0.0
  0
LINE
  5
128
330
1F
100
AcDbEntity
  8
0
  6
SLD-Solid
 62
   142
420
    32960
370
     0
100
AcDbLine
 10
785.4685058076
 20
694.6928998405
 30
0.0
 11
785.4685058076
 21
694.7428998405
 31
0.0
  0
LINE
  5
129
330
1F
100
AcDbEntity
  8
0
  6
SLD-Solid
 62
   142
420
    32960
370
     0
100
AcDbLine
 10
785.9685058076
 20
694.6928998405
 30
0.0
 11
785.4685058076
 21
694.6928998405
 31
0.0
  0
LINE
  5
12A
330
1F
100
AcDbEntity
  8
0
  6
SLD-Solid
 62
   142
420
    32960
370
     0
100
AcDbLine
 10
785.9685058076
 20
695.8872172884
 30
0.0
 11
785.9685058076
 21
694.6928998405
 31
0.0
  0
LINE
  5
12B
330
1F
100
AcDbEntity
  8
0
  6
SLD-Solid
 62
   142
420
    32960
370
     0
100
AcDbLine
 10
770.7458507369
 20
643.5016029342
 30
0.0
 11
794.2409853239
 21
653.717578204
 31
0.0
  0
LINE
  5
12C
330
1F
100
AcDbEntity
  8
0
  6
SLD-Solid
 62
   142
420
    32960
370
     0
100
AcDbLine
 10
770.7458507369
 20
643.5016029342
 30
0.0
 11
770.7458507369
 21
644.6428998405
 31
0.0
  0
ARC
  5
12D
330
1F
100
AcDbEntity
  8
0
  6
SLD-Solid
 62
   142
420
    32960
370
     0
100
AcDbCircle
 10
770.6208507369
 20
644.6428998405
 30
0.0
 40
0.125
100
AcDbArc
 50
0.0
 51
180.0
  0
LINE
  5
12E
330
1F
100
AcDbEntity
  8
0
  6
SLD-Solid
 62
   142
420
    32960
370
     0
100
AcDbLine
 10
750.3016973091
 20
662.0928998405
 30
0.0
 11
750.3016973091
 21
644.6428998405
 31
0.0
  0
LINE
  5
12F
330
1F
100
AcDbEntity
  8
0
  6
SLD-Solid
 62
   142
420
    32960
370
     0
100
AcDbLine
 10
750.2912617015
 20
662.0928998405
 30
0.0
 11
750.3016973091
 21
662.0928998405
 31
0.0
  0
ARC
  5
130
330
1F
100
AcDbEntity
  8
0
  6
SLD-Solid
 62
   142
420
    32960
370
     0
100
AcDbCircle
 10
750.1766973091
 20
662.0428998405
 30
0.0
 40
0.1250000000000312
100
AcDbArc
 50
23.5781784782
 51
156.4218215218
  0
LINE
  5
131
330
1F
100
AcDbEntity
  8
0
  6
SLD-Solid
 62
   142
420
    32960
370
     0
100
AcDbLine
 10
750.0516973091
 20
662.0928998405
 30
0.0
 11
750.0621329167
 21
662.0928998405
 31
0.0
  0
LINE
  5
132
330
1F
100
AcDbEntity
  8
0
  6
SLD-Solid
 62
   142
420
    32960
370
     0
100
AcDbLine
 10
750.0516973091
 20
662.0428998405
 30
0.0
 11
750.0516973091
 21
662.0928998405
 31
0.0
  0
ARC
  5
133
330
1F
100
AcDbEntity
  8
0
  6
SLD-Solid
 62
   142
420
    32960
370
     0
100
AcDbCircle
 10
773.4605689454
 20
658.5856994792
 30
0.0
 40
0.2500000000000596
100
AcDbArc
 50
99.9421486626
 51
279.9421486627
  0
ARC
  5
134
330
1F
100
AcDbEntity
  8
0
  6
SLD-Solid
 62
   142
420
    32960
370
     0
100
AcDbCircle
 10
772.9685058076
 20
661.3928998405
 30
0.0
 40
3.100000000000069
100
AcDbArc
 50
279.9421486627
 51
80.0578513373
  0
ARC
  5
135
330
1F
100
AcDbEntity
  8
0
  6
SLD-Solid
 62
   142
420
    32960
370
     0
100
AcDbCircle
 10
773.4605689454
 20
664.2001002017
 30
0.0
 40
0.2500000000000596
100
AcDbArc
 50
80.0578513373
 51
260.0578513374
  0
ARC
  5
136
330
1F
100
AcDbEntity
  8
0
  6
SLD-Solid
 62
   142
420
    32960
370
     0
100
AcDbCircle
 10
772.9685058076
 20
661.3928998405
 30
0.0
 40
2.59999999999997
100
AcDbArc
 50
279.9421486627
 51
80.0578513373
  0
ARC
  5
137
330
1F
100
AcDbEntity
  8
0
  6
SLD-Solid
 62
   142
420
    32960
370
     0
100
AcDbCircle
 10
772.4764426698
 20
664.2001002017
 30
0.0
 40
0.2500000000000596
100
AcDbArc
 50
279.9421486627
 51
99.9421486627
  0
ARC
  5
138
330
1F
100
AcDbEntity
  8
0
  6
SLD-Solid
 62
     7
370
    15
100
AcDbCircle
 10
772.9685058076
 20
661.3928998405
 30
0.0
 40
3.100000000000049
100
AcDbArc
 50
99.9421486627
 51
260.0578513373
  0
ARC
  5
139
330
1F
100
AcDbEntity
  8
0
  6
SLD-Solid
 62
     7
370
    15
100
AcDbCircle
 10
772.4764426698
 20
658.5856994792
 30
0.0
 40
0.2500000000000793
100
AcDbArc
 50
260.0578513374
 51
80.0578513373
  0
LINE
  5
13A
330
1F
100
AcDbEntity
  8
0
  6
SLD-Solid
 62
     7
370
    15
100
AcDbLine
 10
770.4958507369
 20
644.6428998405
 30
0.0
 11
770.4958507369
 21
642.1928998405
 31
0.0
  0
LINE
  5
13B
330
1F
100
AcDbEntity
  8
0
  6
SLD-Solid
 62
   142
420
    32960
370
     0
100
AcDbLine
 10
750.3016973091
 20
642.1928998405
 30
0.0
 11
750.3016973091
 21
644.6428998405
 31
0.0
  0
LINE
  5
13C
330
1F
100
AcDbEntity
  8
0
  6
SLD-Solid
 62
   142
420
    32960
370
     0
100
AcDbLine
 10
750.3016973091
 20
642.1928998405
 30
0.0
 11
752.201697306
 21
642.1928998405
 31
0.0
  0
LINE
  5
13D
330
1F
100
AcDbEntity
  8
0
  6
SLD-Solid
 62
   142
420
    32960
370
     0
100
AcDbLine
 10
768.4408581219
 20
642.1928998405
 30
0.0
 11
770.4958507369
 21
642.1928998405
 31
0.0
  0
LINE
  5
13E
330
1F
100
AcDbEntity
  8
0
  6
SLD-Solid
 62
     7
370
    15
100
AcDbLine
 10
694.1516973091
 20
697.1928998405
 30
0.0
 11
785.4685058076
 21
697.1928998405
 31
0.0
  0
LINE
  5
13F
330
1F
100
AcDbEntity
  8
0
  6
SLD-Solid
 62
   142
420
    32960
370
     0
100
AcDbLine
 10
694.1516973091
 20
694.7428998405
 30
0.0
 11
694.1516973091
 21
697.1928998405
 31
0.0
  0
LINE
  5
140
330
1F
100
AcDbEntity
  8
0
  6
SLD-Solid
 62
   142
420
    32960
370
     0
100
AcDbLine
 10
785.4685058076
 20
697.1928998405
 30
0.0
 11
785.4685058076
 21
694.7428998405
 31
0.0
  0
LINE
  5
141
330
1F
100
AcDbEntity
  8
0
  6
SLD-Solid
 62
     7
370
    15
100
AcDbLine
 10
691.7016973091
 20
694.7428998405
 30
0.0
 11
691.7016973091
 21
678.4428998405
 31
0.0
  0
LINE
  5
142
330
1F
100
AcDbEntity
  8
0
  6
SLD-Solid
 62
   142
420
    32960
370
     0
100
AcDbLine
 10
692.9016973091
 20
694.7428998405
 30
0.0
 11
692.9016973091
 21
678.4428998405
 31
0.0
  0
LINE
  5
143
330
1F
100
AcDbEntity
  8
0
  6
SLD-Solid
 62
   142
420
    32960
370
     0
100
AcDbLine
 10
692.9016973091
 20
694.7428998405
 30
0.0
 11
691.7016973091
 21
694.7428998405
 31
0.0
  0
ARC
  5
144
330
1F
100
AcDbEntity
  8
0
  6
SLD-Solid
 62
     7
370
    15
100
AcDbCircle
 10
690.4516973091
 20
678.4428998405
 30
0.0
 40
1.25
100
AcDbArc
 50
270.0
 51
0.0
  0
ARC
  5
145
330
1F
100
AcDbEntity
  8
0
  6
SLD-Solid
 62
   142
420
    32960
370
     0
100
AcDbCircle
 10
690.4516973091
 20
678.4428998405
 30
0.0
 40
2.450000000000045
100
AcDbArc
 50
270.0
 51
0.0
  0
LINE
  5
146
330
1F
100
AcDbEntity
  8
0
  6
SLD-Solid
 62
     7
370
    15
100
AcDbLine
 10
772.5053164349
 20
642.8490669577
 30
0.0
 11
794.7593591135
 21
652.5254001073
 31
0.0
  0
LINE
  5
147
330
1F
100
AcDbEntity
  8
0
  6
SLD-Solid
 62
   142
420
    32960
370
     0
100
AcDbLine
 10
772.0268175522
 20
643.949539047
 30
0.0
 11
794.2808602308
 21
653.6258721965
 31
0.0
  0
LINE
  5
148
330
1F
100
AcDbEntity
  8
0
  6
SLD-Solid
 62
   142
420
    32960
370
     0
100
AcDbLine
 10
772.0268175522
 20
643.949539047
 30
0.0
 11
772.5053164349
 21
642.8490669577
 31
0.0
  0
LINE
  5
149
330
1F
100
AcDbEntity
  8
0
  6
SLD-Solid
 62
     7
370
    15
100
AcDbLine
 10
690.4516973091
 20
677.1928998405
 30
0.0
 11
668.6516973091
 21
677.1928998405
 31
0.0
  0
LINE
  5
14A
330
1F
100
AcDbEntity
  8
0
  6
SLD-Solid
 62
   142
420
    32960
370
     0
100
AcDbLine
 10
772.5053164349
 20
642.8490669577
 30
0.0
 11
771.5882563606
 21
642.4503178888
 31
0.0
  0
LINE
  5
14B
330
1F
100
AcDbEntity
  8
0
  6
SLD-Solid
 62
   142
420
    32960
370
     0
100
AcDbLine
 10
668.6516973091
 20
677.1928998405
 30
0.0
 11
668.6516973091
 21
675.9928998405
 31
0.0
  0
LINE
  5
14C
330
1F
100
AcDbEntity
  8
0
  6
SLD-Solid
 62
   142
420
    32960
370
     0
100
AcDbLine
 10
690.4516973091
 20
675.9928998405
 30
0.0
 11
668.6516973091
 21
675.9928998405
 31
0.0
  0
ARC
  5
14D
330
1F
100
AcDbEntity
  8
0
  6
SLD-Solid
 62
     7
370
    15
100
AcDbCircle
 10
785.4685058076
 20
673.8928998405
 30
0.0
 40
23.30000000000002
100
AcDbArc
 50
293.5
 51
88.7703824493
  0
ARC
  5
14E
330
1F
100
AcDbEntity
  8
0
  6
SLD-Solid
 62
   142
420
    32960
370
     0
100
AcDbCircle
 10
785.4685058076
 20
673.8928998405
 30
0.0
 40
23.30000000000002
100
AcDbArc
 50
88.7703824493
 51
90.0
  0
LINE
  5
14F
330
1F
100
AcDbEntity
  8
0
  6
SLD-Solid
 62
   142
420
    32960
370
     0
100
AcDbLine
 10
785.9685058076
 20
695.9872430079
 30
0.0
 11
785.9685058076
 21
697.1875344158
 31
0.0
  0
ARC
  5
150
330
1F
100
AcDbEntity
  8
0
  6
SLD-Solid
 62
   142
420
    32960
370
     0
100
AcDbCircle
 10
785.4685058076
 20
673.8928998405
 30
0.0
 40
22.1
100
AcDbArc
 50
293.5
 51
88.703604783
  0
ARC
  5
151
330
1F
100
AcDbEntity
  8
0
  6
SLD-Solid
 62
     7
370
    15
100
AcDbCircle
 10
694.1516973091
 20
694.7428998405
 30
0.0
 40
2.450000000000159
100
AcDbArc
 50
90.0
 51
180.0
  0
ARC
  5
152
330
1F
100
AcDbEntity
  8
0
  6
SLD-Solid
 62
   142
420
    32960
370
     0
100
AcDbCircle
 10
694.1516973091
 20
694.7428998405
 30
0.0
 40
1.25
100
AcDbArc
 50
90.0
 51
180.0
  0
LINE
  5
153
330
1F
100
AcDbEntity
  8
0
  6
SLD-Solid
 62
   142
420
    32960
370
     0
100
AcDbLine
 10
666.2016973091
 20
674.7428998405
 30
0.0
 11
667.4016973091
 21
674.7428998405
 31
0.0
  0
LINE
  5
154
330
1F
100
AcDbEntity
  8
0
  6
SLD-Solid
 62
   142
420
    32960
370
     0
100
AcDbLine
 10
666.2433783933
 20
675.1928998405
 30
0.0
 11
666.2016973091
 21
674.7428998405
 31
0.0
  0
LWPOLYLINE
  5
155
330
1F
100
AcDbEntity
  8
0
  6
SLD-Solid
 62
   142
420
    32960
370
     0
100
AcDbPolyline
 90
        3
 70
   128
 43
0.0
 10
667.4855069301
 20
675.1928998405
 10
667.4257157086
 20
674.986762743
 10
667.4016973091
 20
674.7428998405
  0
LINE
  5
156
330
1F
100
AcDbEntity
  8
0
  6
SLD-Solid
 62
   142
420
    32960
370
     0
100
AcDbLine
 10
45.1016973047
 20
660.9928998462
 30
0.0
 11
45.1016973047
 21
659.9928998455
 31
0.0
  0
LINE
  5
157
330
1F
100
AcDbEntity
  8
0
  6
SLD-Solid
 62
   142
420
    32960
370
     0
100
AcDbLine
 10
45.9016973047
 20
660.5346422767
 30
0.0
 11
45.9016973047
 21
659.9928998455
 31
0.0
  0
LINE
  5
158
330
1F
100
AcDbEntity
  8
0
  6
SLD-Solid
 62
   142
420
    32960
370
     0
100
AcDbLine
 10
3.6016973047
 20
502.1928998455
 30
0.0
 11
3.6016973047
 21
505.1928998455
 31
0.0
  0
LINE
  5
159
330
1F
100
AcDbEntity
  8
0
  6
SLD-Solid
 62
     7
370
    15
100
AcDbLine
 10
3.6016973047
 20
502.1928998455
 30
0.0
 11
-12.8983026953
 21
502.1928998455
 31
0.0
  0
LINE
  5
15A
330
1F
100
AcDbEntity
  8
0
  6
SLD-Solid
 62
     7
370
    15
100
AcDbLine
 10
-12.8983026953
 20
502.1928998455
 30
0.0
 11
-12.8983026953
 21
505.1928998455
 31
0.0
  0
LINE
  5
15B
330
1F
100
AcDbEntity
  8
0
  6
SLD-Solid
 62
   142
420
    32960
370
     0
100
AcDbLine
 10
20.1016973047
 20
502.1928998455
 30
0.0
 11
3.6016973047
 21
502.1928998455
 31
0.0
  0
LINE
  5
15C
330
1F
100
AcDbEntity
  8
0
  6
SLD-Solid
 62
   142
420
    32960
370
     0
100
AcDbLine
 10
20.1016973047
 20
502.1928998455
 30
0.0
 11
20.1016973047
 21
505.1928998455
 31
0.0
  0
LINE
  5
15D
330
1F
100
AcDbEntity
  8
0
  6
SLD-Solid
 62
     7
370
    15
100
AcDbLine
 10
198.5968418722
 20
707.1928998405
 30
0.0
 11
181.7516973045
 21
707.1928998405
 31
0.0
  0
LINE
  5
15E
330
1F
100
AcDbEntity
  8
0
  6
SLD-Solid
 62
     7
370
    15
100
AcDbLine
 10
368.7516973045
 20
707.1928998405
 30
0.0
 11
198.5968418722
 21
707.1928998405
 31
0.0
  0
LINE
  5
15F
330
1F
100
AcDbEntity
  8
0
  6
SLD-Solid
 62
   142
420
    32960
370
     0
100
AcDbLine
 10
198.5968418722
 20
705.6928998405
 30
0.0
 11
368.7516973045
 21
705.6928998405
 31
0.0
  0
LINE
  5
160
330
1F
100
AcDbEntity
  8
0
  6
SLD-Solid
 62
   142
420
    32960
370
     0
100
AcDbLine
 10
181.7516973045
 20
705.6928998405
 30
0.0
 11
198.5968418722
 21
705.6928998405
 31
0.0
  0
LINE
  5
161
330
1F
100
AcDbEntity
  8
0
  6
SLD-Solid
 62
     7
370
    15
100
AcDbLine
 10
200.2365179242
 20
709.1928998405
 30
0.0
 11
366.7516973045
 21
709.1928998405
 31
0.0
  0
LINE
  5
162
330
1F
100
AcDbEntity
  8
0
  6
SLD-Solid
 62
     7
370
    15
100
AcDbLine
 10
183.7516973045
 20
709.1928998405
 30
0.0
 11
200.2365179242
 21
709.1928998405
 31
0.0
  0
LINE
  5
163
330
1F
100
AcDbEntity
  8
0
  6
SLD-Solid
 62
   142
420
    32960
370
     0
100
AcDbLine
 10
45.6016973047
 20
745.1896691038
 30
0.0
 11
45.6016973047
 21
660.9928998462
 31
0.0
  0
ARC
  5
164
330
1F
100
AcDbEntity
  8
0
  6
SLD-Solid
 62
   142
420
    32960
370
     0
100
AcDbCircle
 10
46.3516973047
 20
745.1896691038
 30
0.0
 40
0.7499999999996376
100
AcDbArc
 50
75.0
 51
180.0000000001
  0
ARC
  5
165
330
1F
100
AcDbEntity
  8
0
  6
SLD-Solid
 62
   142
420
    32960
370
     0
100
AcDbCircle
 10
100.5516973047
 20
698.4428998462
 30
0.0
 40
2.550000000000068
100
AcDbArc
 50
180.0
 51
270.0
  0
ARC
  5
166
330
1F
100
AcDbEntity
  8
0
  6
SLD-Solid
 62
   142
420
    32960
370
     0
100
AcDbCircle
 10
121.7516973047
 20
695.1428998462
 30
0.0
 40
0.75
100
AcDbArc
 50
0.0
 51
90.0
  0
LINE
  5
167
330
1F
100
AcDbEntity
  8
0
  6
SLD-Solid
 62
   142
420
    32960
370
     0
100
AcDbLine
 10
122.5016973047
 20
678.4428998462
 30
0.0
 11
122.5016973047
 21
695.1428998462
 31
0.0
  0
ARC
  5
168
330
1F
100
AcDbEntity
  8
0
  6
SLD-Solid
 62
   142
420
    32960
370
     0
100
AcDbCircle
 10
125.0516973047
 20
678.4428998462
 30
0.0
 40
2.550000000000068
100
AcDbArc
 50
180.0
 51
270.0
  0
ARC
  5
169
330
1F
100
AcDbEntity
  8
0
  6
SLD-Solid
 62
   142
420
    32960
370
     0
100
AcDbCircle
 10
147.2516973047
 20
675.1428998462
 30
0.0
 40
0.7499999999999147
100
AcDbArc
 50
0.0
 51
90.0
  0
LINE
  5
16A
330
1F
100
AcDbEntity
  8
0
  6
SLD-Solid
 62
   142
420
    32960
370
     0
100
AcDbLine
 10
148.0016973047
 20
660.9928998462
 30
0.0
 11
148.0016973047
 21
675.1428998462
 31
0.0
  0
ARC
  5
16B
330
1F
100
AcDbEntity
  8
0
  6
SLD-Solid
 62
   142
420
    32960
370
     0
100
AcDbCircle
 10
147.5016973047
 20
660.9928998462
 30
0.0
 40
0.5000000000000568
100
AcDbArc
 50
270.0
 51
0.0
  0
ARC
  5
16C
330
1F
100
AcDbEntity
  8
0
  6
SLD-Solid
 62
   142
420
    32960
370
     0
100
AcDbCircle
 10
46.1016973047
 20
660.9928998462
 30
0.0
 40
0.5000000000002274
100
AcDbArc
 50
180.0
 51
270.0
  0
LINE
  5
16D
330
1F
100
AcDbEntity
  8
0
  6
SLD-Solid
 62
     7
370
    15
100
AcDbLine
 10
147.5016973047
 20
659.9928998462
 30
0.0
 11
46.1016973047
 21
659.9928998462
 31
0.0
  0
LINE
  5
16E
330
1F
100
AcDbEntity
  8
0
  6
SLD-Solid
 62
   142
420
    32960
370
     0
100
AcDbLine
 10
147.5016973047
 20
659.9928998462
 30
0.0
 11
147.5016973047
 21
660.4928998462
 31
0.0
  0
LINE
  5
16F
330
1F
100
AcDbEntity
  8
0
  6
SLD-Solid
 62
   142
420
    32960
370
     0
100
AcDbLine
 10
46.1016973047
 20
660.4928998462
 30
0.0
 11
46.1016973047
 21
659.9928998462
 31
0.0
  0
LINE
  5
170
330
1F
100
AcDbEntity
  8
0
  6
SLD-Solid
 62
   142
420
    32960
370
     0
100
AcDbLine
 10
125.0516973047
 20
676.3928998462
 30
0.0
 11
125.0516973047
 21
675.8928998462
 31
0.0
  0
LINE
  5
171
330
1F
100
AcDbEntity
  8
0
  6
SLD-Solid
 62
   142
420
    32960
370
     0
100
AcDbLine
 10
147.2516973047
 20
676.3928998462
 30
0.0
 11
147.2516973047
 21
675.8928998462
 31
0.0
  0
LINE
  5
172
330
1F
100
AcDbEntity
  8
0
  6
SLD-Solid
 62
   142
420
    32960
370
     0
100
AcDbLine
 10
100.5516973047
 20
695.8928998462
 30
0.0
 11
100.5516973047
 21
696.3928998462
 31
0.0
  0
LINE
  5
173
330
1F
100
AcDbEntity
  8
0
  6
SLD-Solid
 62
   142
420
    32960
370
     0
100
AcDbLine
 10
121.7516973047
 20
696.3928998462
 30
0.0
 11
121.7516973047
 21
695.8928998462
 31
0.0
  0
LINE
  5
174
330
1F
100
AcDbEntity
  8
0
  6
SLD-Solid
 62
   142
420
    32960
370
     0
100
AcDbLine
 10
98.0016973047
 20
698.4428998462
 30
0.0
 11
98.5016973047
 21
698.4428998462
 31
0.0
  0
LINE
  5
175
330
1F
100
AcDbEntity
  8
0
  6
SLD-Solid
 62
   142
420
    32960
370
     0
100
AcDbLine
 10
98.5016973047
 20
713.3270392446
 30
0.0
 11
98.5016973047
 21
713.3097251468
 31
0.0
  0
LINE
  5
176
330
1F
100
AcDbEntity
  8
0
  6
SLD-Solid
 62
   142
420
    32960
370
     0
100
AcDbLine
 10
46.5458115886
 20
745.9141134735
 30
0.0
 11
46.6708905077
 21
746.3809143547
 31
0.0
  0
LINE
  5
177
330
1F
100
AcDbEntity
  8
0
  6
SLD-Solid
 62
     7
370
    15
100
AcDbLine
 10
140.599830645
 20
-193.244804926
 30
0.0
 11
87.5998307158
 21
-193.244804926
 31
0.0
  0
LINE
  5
178
330
1F
100
AcDbEntity
  8
0
  6
SLD-Solid
 62
     7
370
    15
100
AcDbLine
 10
142.5998307158
 20
-187.244804926
 30
0.0
 11
85.5998307158
 21
-187.244804926
 31
0.0
  0
LINE
  5
179
330
1F
100
AcDbEntity
  8
0
  6
SLD-Solid
 62
     7
370
    15
100
AcDbLine
 10
373.3511093526
 20
697.5060347447
 30
0.0
 11
177.1522852565
 21
697.5060347447
 31
0.0
  0
LINE
  5
17A
330
1F
100
AcDbEntity
  8
0
  6
SLD-Solid
 62
   142
420
    32960
370
     0
100
AcDbLine
 10
366.8495304791
 20
705.5994672926
 30
0.0
 11
183.65386413
 21
705.5994672926
 31
0.0
  0
LINE
  5
17B
330
1F
100
AcDbEntity
  8
0
  6
SLD-Solid
 62
   142
420
    32960
370
     0
100
AcDbLine
 10
45.1016973047
 20
660.9928998462
 30
0.0
 11
45.1016973047
 21
696.3928998462
 31
0.0
  0
LINE
  5
17C
330
1F
100
AcDbEntity
  8
0
  6
SLD-Solid
 62
   142
420
    32960
370
     0
100
AcDbLine
 10
45.6016973047
 20
745.1896691038
 30
0.0
 11
45.1018172217
 21
745.1896691038
 31
0.0
  0
LINE
  5
17D
330
1F
100
AcDbEntity
  8
0
  6
SLD-Solid
 62
   142
420
    32960
370
     0
100
AcDbLine
 10
45.1016973047
 20
660.9928998462
 30
0.0
 11
45.6016973047
 21
660.9928998462
 31
0.0
  0
SPLINE
  5
17E
330
1F
100
AcDbEntity
  8
0
  6
SLD-Solid
 62
   142
420
    32960
370
     0
100
AcDbSpline
210
0.0
220
0.0
230
1.0
 70
     8
 71
     3
 72
    20
 73
    16
 74
     0
 42
0.00000001
 43
0.00000001
 40
0.0
 40
0.0
 40
0.0
 40
0.0
 40
0.124999999999995
 40
0.124999999999995
 40
0.24999999999999
 40
0.24999999999999
 40
0.374999999999985
 40
0.374999999999985
 40
0.49999999999998
 40
0.49999999999998
 40
0.624999999999975
 40
0.624999999999975
 40
0.74999999999997
 40
0.74999999999997
 40
1.0
 40
1.0
 40
1.0
 40
1.0
 10
807.9597129501934
 20
522.5614559031828
 30
0.0
 10
807.9484148377119
 20
522.5962279179686
 30
0.0
 10
807.9246627445092
 20
522.6263388361066
 30
0.0
 10
807.8529218896995
 20
522.6788366240935
 30
0.0
 10
807.8043221769426
 20
522.7013859130041
 30
0.0
 10
807.6839609510039
 20
522.7386884490419
 30
0.0
 10
807.6129716352334
 20
522.7533710629128
 30
0.0
 10
807.4495341108307
 20
522.7762034090033
 30
0.0
 10
807.3559637547868
 20
522.7843647058708
 30
0.0
 10
807.1535377761084
 20
522.7946659903533
 30
0.0
 10
807.04438780001
 20
522.7969316905268
 30
0.0
 10
806.8099939146241
 20
522.7969686915943
 30
0.0
 10
806.6844654242675
 20
522.7946860474988
 30
0.0
 10
806.299057090895
 20
522.7832635996655
 30
0.0
 10
806.0213068796613
 20
522.7693334034658
 30
0.0
 10
805.741255892628
 20
522.7552253133078
 30
0.0
  0
SPLINE
  5
17F
330
1F
100
AcDbEntity
  8
0
  6
SLD-Solid
 62
   142
420
    32960
370
     0
100
AcDbSpline
210
0.0
220
0.0
230
1.0
 70
     8
 71
     3
 72
    14
 73
    10
 74
     0
 42
0.00000001
 43
0.00000001
 40
0.0
 40
0.0
 40
0.0
 40
0.0
 40
0.25
 40
0.25
 40
0.5
 40
0.5
 40
0.75
 40
0.75
 40
1.0
 40
1.0
 40
1.0
 40
1.0
 10
767.8596241007673
 20
639.342899840448
 30
0.0
 10
768.1073631415273
 20
639.4488181039553
 30
0.0
 10
768.3550017677894
 20
639.554703740814
 30
0.0
 10
768.8116263391954
 20
639.7539159971242
 30
0.0
 10
769.02042674254
 20
639.8471823303906
 30
0.0
 10
769.3664058783094
 20
640.0104437053644
 30
0.0
 10
769.5034426031892
 20
640.0803926060235
 30
0.0
 10
769.6838291423727
 20
640.1898496848157
 30
0.0
 10
769.7271021027466
 20
640.229332891594
 30
0.0
 10
769.7196304794352
 20
640.2523281836557
 30
0.0
  0
SPLINE
  5
180
330
1F
100
AcDbEntity
  8
0
  6
SLD-Solid
 62
     7
370
    15
100
AcDbSpline
210
0.0
220
0.0
230
1.0
 70
     8
 71
     3
 72
    14
 73
    10
 74
     0
 42
0.00000001
 43
0.00000001
 40
0.0
 40
0.0
 40
0.0
 40
0.0
 40
0.25
 40
0.25
 40
0.5
 40
0.5
 40
0.75
 40
0.75
 40
1.0
 40
1.0
 40
1.0
 40
1.0
 10
752.2516973073122
 20
639.342899840448
 30
0.0
 10
752.2064562057444
 20
639.611244212942
 30
0.0
 10
752.1612151041766
 20
639.8794830033843
 30
0.0
 10
752.070732901041
 20
640.3753187502082
 30
0.0
 10
752.0254917994732
 20
640.6027206163967
 30
0.0
 10
751.9350095963377
 20
640.9822168673643
 30
0.0
 10
751.8897684947699
 20
641.1341619365743
 30
0.0
 10
751.7992862916343
 20
641.339543827618
 30
0.0
 10
751.7540451900666
 20
641.3928998404481
 30
0.0
 10
751.7088040884987
 20
641.3928998404479
 30
0.0
  0
SPLINE
  5
181
330
1F
100
AcDbEntity
  8
0
  6
SLD-Solid
 62
   142
420
    32960
370
     0
100
AcDbSpline
210
0.0
220
0.0
230
1.0
 70
     8
 71
     3
 72
    14
 73
    10
 74
     0
 42
0.00000001
 43
0.00000001
 40
0.0
 40
0.0
 40
0.0
 40
0.0
 40
0.25
 40
0.25
 40
0.5
 40
0.5
 40
0.75
 40
0.75
 40
1.0
 40
1.0
 40
1.0
 40
1.0
 10
768.1497682720241
 20
641.3928998404479
 30
0.0
 10
768.125589591086
 20
641.3928998404481
 30
0.0
 10
768.101410910148
 20
641.3395438276182
 30
0.0
 10
768.0530535482717
 20
641.1341619365741
 30
0.0
 10
768.0288748673337
 20
640.9822168673643
 30
0.0
 10
767.9805175054576
 20
640.6027206163965
 30
0.0
 10
767.9563388245195
 20
640.3753187502084
 30
0.0
 10
767.9079814626435
 20
639.8794830033845
 30
0.0
 10
767.8838027817053
 20
639.611244212942
 30
0.0
 10
767.8596241007674
 20
639.342899840448
 30
0.0
  0
LINE
  5
182
330
1F
100
AcDbEntity
  8
0
  6
SLD-Solid
 62
   142
420
    32960
370
     0
100
AcDbLine
 10
751.7088040885
 20
641.3928998404
 30
0.0
 11
752.201697306
 21
641.3928998404
 31
0.0
  0
SPLINE
  5
183
330
1F
100
AcDbEntity
  8
0
  6
SLD-Solid
 62
     7
370
    15
100
AcDbSpline
210
0.0
220
0.0
230
1.0
 70
     8
 71
     3
 72
    14
 73
    10
 74
     0
 42
0.00000001
 43
0.00000001
 40
0.0
 40
0.0
 40
0.0
 40
0.0
 40
0.25
 40
0.25
 40
0.5
 40
0.5
 40
0.75
 40
0.75
 40
1.0
 40
1.0
 40
1.0
 40
1.0
 10
751.7088040884987
 20
520.705225313308
 30
0.0
 10
751.7540451900666
 20
520.7052253133082
 30
0.0
 10
751.7992862916343
 20
520.7585813261379
 30
0.0
 10
751.8897684947699
 20
520.9639632171817
 30
0.0
 10
751.9350095963376
 20
521.1159082863919
 30
0.0
 10
752.0254917994733
 20
521.4954045373594
 30
0.0
 10
752.070732901041
 20
521.7228064035477
 30
0.0
 10
752.1612151041767
 20
522.2186421503714
 30
0.0
 10
752.2064562057444
 20
522.4868809408139
 30
0.0
 10
752.2516973073122
 20
522.7552253133081
 30
0.0
  0
SPLINE
  5
184
330
1F
100
AcDbEntity
  8
0
  6
SLD-Solid
 62
   142
420
    32960
370
     0
100
AcDbSpline
210
0.0
220
0.0
230
1.0
 70
     8
 71
     3
 72
    20
 73
    16
 74
     0
 42
0.00000001
 43
0.00000001
 40
0.0
 40
0.0
 40
0.0
 40
0.0
 40
0.1249999999999842
 40
0.1249999999999842
 40
0.2499999999999684
 40
0.2499999999999684
 40
0.3749999999999525
 40
0.3749999999999525
 40
0.4999999999999367
 40
0.4999999999999367
 40
0.624999999999921
 40
0.624999999999921
 40
0.7499999999999051
 40
0.7499999999999051
 40
1.0
 40
1.0
 40
1.0
 40
1.0
 10
805.741255892628
 20
522.7552253133078
 30
0.0
 10
805.7778173526358
 20
522.6198733413514
 30
0.0
 10
805.8137943379942
 20
522.4867055521431
 30
0.0
 10
805.8858918446779
 20
522.2249002927501
 30
0.0
 10
805.9223556299978
 20
522.0950755914515
 30
0.0
 10
805.9950261142496
 20
521.8465211869781
 30
0.0
 10
806.0309270148398
 20
521.7287608449275
 30
0.0
 10
806.1031468389303
 20
521.5063393041241
 30
0.0
 10
806.139823523685
 20
521.4008289914232
 30
0.0
 10
806.212173694933
 20
521.2113770339
 30
0.0
 10
806.2480577013968
 20
521.1266094940274
 30
0.0
 10
806.3205245854646
 20
520.9773121807422
 30
0.0
 10
806.3571440987218
 20
520.9130466443171
 30
0.0
 10
806.4653784300641
 20
520.7594405032934
 30
0.0
 10
806.5379595616573
 20
520.7052253133078
 30
0.0
 10
806.6110824848649
 20
520.7052253133078
 30
0.0
  0
LINE
  5
185
330
1F
100
AcDbEntity
  8
0
  6
SLD-Solid
 62
   142
420
    32960
370
     0
100
AcDbLine
 10
751.7088040885
 20
641.3928998404
 30
0.0
 11
751.7088040885
 21
640.5928998404
 31
0.0
  0
SPLINE
  5
186
330
1F
100
AcDbEntity
  8
0
  6
SLD-Solid
 62
   142
420
    32960
370
     0
100
AcDbSpline
210
0.0
220
0.0
230
1.0
 70
     8
 71
     3
 72
    14
 73
    10
 74
     0
 42
0.00000001
 43
0.00000001
 40
0.0
 40
0.0
 40
0.0
 40
0.0
 40
0.25
 40
0.25
 40
0.5
 40
0.5
 40
0.75
 40
0.75
 40
1.0
 40
1.0
 40
1.0
 40
1.0
 10
752.2516973073122
 20
639.342899840448
 30
0.0
 10
752.2064562057444
 20
639.5065244578224
 30
0.0
 10
752.1612151041766
 20
639.6700846958971
 30
0.0
 10
752.070732901041
 20
639.9724235659114
 30
0.0
 10
752.0254917994732
 20
640.1110832404166
 30
0.0
 10
751.9350095963377
 20
640.3424833934455
 30
0.0
 10
751.8897684947699
 20
640.4351328258908
 30
0.0
 10
751.7992862916343
 20
640.5603656862835
 30
0.0
 10
751.7540451900666
 20
640.5928998404478
 30
0.0
 10
751.7088040884987
 20
640.592899840448
 30
0.0
  0
SPLINE
  5
187
330
1F
100
AcDbEntity
  8
0
  6
SLD-Solid
 62
   142
420
    32960
370
     0
100
AcDbSpline
210
0.0
220
0.0
230
1.0
 70
     8
 71
     3
 72
    14
 73
    10
 74
     0
 42
0.00000001
 43
0.00000001
 40
0.0
 40
0.0
 40
0.0
 40
0.0
 40
0.25
 40
0.25
 40
0.5
 40
0.5
 40
0.75
 40
0.75
 40
1.0
 40
1.0
 40
1.0
 40
1.0
 10
750.2016973073122
 20
639.8857930592615
 30
0.0
 10
750.2016973073121
 20
639.8405519576935
 30
0.0
 10
750.2550533201422
 20
639.7953108561261
 30
0.0
 10
750.4604352111859
 20
639.7048286529903
 30
0.0
 10
750.6123802803959
 20
639.6595875514226
 30
0.0
 10
750.9918765313637
 20
639.569105348287
 30
0.0
 10
751.219278397552
 20
639.5238642467191
 30
0.0
 10
751.7151141443757
 20
639.4333820435834
 30
0.0
 10
751.9833529348181
 20
639.3881409420159
 30
0.0
 10
752.2516973073122
 20
639.342899840448
 30
0.0
  0
LINE
  5
188
330
1F
100
AcDbEntity
  8
0
  6
SLD-Solid
 62
   142
420
    32960
370
     0
100
AcDbLine
 10
750.2016973073
 20
639.8857930593
 30
0.0
 11
750.2016973073
 21
522.2123320945
 31
0.0
  0
SPLINE
  5
189
330
1F
100
AcDbEntity
  8
0
  6
SLD-Solid
 62
   142
420
    32960
370
     0
100
AcDbSpline
210
0.0
220
0.0
230
1.0
 70
     8
 71
     3
 72
    14
 73
    10
 74
     0
 42
0.00000001
 43
0.00000001
 40
0.0
 40
0.0
 40
0.0
 40
0.0
 40
0.25
 40
0.25
 40
0.5
 40
0.5
 40
0.75
 40
0.75
 40
1.0
 40
1.0
 40
1.0
 40
1.0
 10
752.2516973073122
 20
522.7552253133081
 30
0.0
 10
751.9833529348181
 20
522.7099842117402
 30
0.0
 10
751.7151141443757
 20
522.6647431101725
 30
0.0
 10
751.2192783975518
 20
522.5742609070368
 30
0.0
 10
750.9918765313636
 20
522.529019805469
 30
0.0
 10
750.6123802803959
 20
522.4385376023336
 30
0.0
 10
750.4604352111861
 20
522.3932965007658
 30
0.0
 10
750.2550533201422
 20
522.30281429763
 30
0.0
 10
750.2016973073122
 20
522.2575731960626
 30
0.0
 10
750.2016973073122
 20
522.2123320944947
 30
0.0
  0
SPLINE
  5
18A
330
1F
100
AcDbEntity
  8
0
  6
SLD-Solid
 62
   142
420
    32960
370
     0
100
AcDbSpline
210
0.0
220
0.0
230
1.0
 70
     8
 71
     3
 72
    14
 73
    10
 74
     0
 42
0.00000001
 43
0.00000001
 40
0.0
 40
0.0
 40
0.0
 40
0.0
 40
0.25
 40
0.25
 40
0.5
 40
0.5
 40
0.75
 40
0.75
 40
1.0
 40
1.0
 40
1.0
 40
1.0
 10
751.7088040884987
 20
521.5052253133081
 30
0.0
 10
751.7540451900666
 20
521.5052253133078
 30
0.0
 10
751.7992862916343
 20
521.5377594674724
 30
0.0
 10
751.8897684947699
 20
521.6629923278653
 30
0.0
 10
751.9350095963376
 20
521.7556417603104
 30
0.0
 10
752.0254917994733
 20
521.9870419133395
 30
0.0
 10
752.070732901041
 20
522.1257015878444
 30
0.0
 10
752.1612151041767
 20
522.428040457859
 30
0.0
 10
752.2064562057444
 20
522.5916006959337
 30
0.0
 10
752.2516973073122
 20
522.7552253133081
 30
0.0
  0
LINE
  5
18B
330
1F
100
AcDbEntity
  8
0
  6
SLD-Solid
 62
   142
420
    32960
370
     0
100
AcDbLine
 10
751.7088040885
 20
520.7052253133
 30
0.0
 11
751.7088040885
 21
521.5052253133
 31
0.0
  0
LINE
  5
18C
330
1F
100
AcDbEntity
  8
0
  6
SLD-Solid
 62
     7
370
    15
100
AcDbLine
 10
806.3176346915
 20
-17.3071001545
 30
0.0
 11
807.7016973047
 21
-17.3071001545
 31
0.0
  0
LINE
  5
18D
330
1F
100
AcDbEntity
  8
0
  6
SLD-Solid
 62
     7
370
    15
100
AcDbLine
 10
790.7016973047
 20
-17.3071001545
 30
0.0
 11
806.3176346915
 21
-17.3071001545
 31
0.0
  0
LINE
  5
18E
330
1F
100
AcDbEntity
  8
0
  6
SLD-Solid
 62
     7
370
    15
100
AcDbLine
 10
806.3176346915
 20
-18.8071001545
 30
0.0
 11
807.7016973047
 21
-18.8071001545
 31
0.0
  0
LINE
  5
18F
330
1F
100
AcDbEntity
  8
0
  6
SLD-Solid
 62
     7
370
    15
100
AcDbLine
 10
790.7016973047
 20
-18.8071001545
 30
0.0
 11
806.3176346915
 21
-18.8071001545
 31
0.0
  0
LINE
  5
190
330
1F
100
AcDbEntity
  8
0
  6
SLD-Solid
 62
   142
420
    32960
370
     0
100
AcDbLine
 10
805.8990501394
 20
-19.3071001545
 30
0.0
 11
807.2016973047
 21
-19.3071001545
 31
0.0
  0
LINE
  5
191
330
1F
100
AcDbEntity
  8
0
  6
SLD-Solid
 62
   142
420
    32960
370
     0
100
AcDbLine
 10
799.2016973047
 20
-19.3071001545
 30
0.0
 11
805.8990501394
 21
-19.3071001545
 31
0.0
  0
LWPOLYLINE
  5
192
330
1F
100
AcDbEntity
  8
0
  6
SLD-Solid
 62
   142
420
    32960
370
     0
100
AcDbPolyline
 90
        3
 70
   128
 43
0.0
 10
794.8855233976
 20
-17.0071001545
 10
794.8905039109
 20
-16.9979967934
 10
794.9949455908
 20
-16.8071001545
  0
LINE
  5
193
330
1F
100
AcDbEntity
  8
0
  6
SLD-Solid
 62
   142
420
    32960
370
     0
100
AcDbLine
 10
794.8855233976
 20
-17.0071001545
 30
0.0
 11
794.5506557559
 21
-17.0071001545
 31
0.0
  0
LWPOLYLINE
  5
194
330
1F
100
AcDbEntity
  8
0
  6
SLD-Solid
 62
   142
420
    32960
370
     0
100
AcDbPolyline
 90
        3
 70
   128
 43
0.0
 10
794.6600779491
 20
-16.8071001545
 10
794.5556362691
 20
-16.9979967934
 10
794.5506557559
 20
-17.0071001545
  0
LINE
  5
195
330
1F
100
AcDbEntity
  8
0
  6
SLD-Solid
 62
   142
420
    32960
370
     0
100
AcDbLine
 10
807.1516973047
 20
-16.8071001545
 30
0.0
 11
807.2016973047
 21
-16.8071001545
 31
0.0
  0
LINE
  5
196
330
1F
100
AcDbEntity
  8
0
  6
SLD-Solid
 62
     7
370
    15
100
AcDbLine
 10
806.9810825463
 20
513.1769401331
 30
0.0
 11
811.6795456502
 21
514.8870408497
 31
0.0
  0
LINE
  5
197
330
1F
100
AcDbEntity
  8
0
  6
SLD-Solid
 62
     7
370
    15
100
AcDbLine
 10
811.6795456502
 20
514.8870408497
 30
0.0
 11
812.3635859369
 21
513.0076556082
 31
0.0
  0
LINE
  5
198
330
1F
100
AcDbEntity
  8
0
  6
SLD-Solid
 62
     7
370
    15
100
AcDbLine
 10
812.3635859369
 20
513.0076556082
 30
0.0
 11
807.665122833
 21
511.2975548915
 31
0.0
  0
LINE
  5
199
330
1F
100
AcDbEntity
  8
0
  6
SLD-Solid
 62
     7
370
    15
100
AcDbLine
 10
806.9810825463
 20
513.1769401331
 30
0.0
 11
805.651192786
 21
512.6928998455
 31
0.0
  0
LINE
  5
19A
330
1F
100
AcDbEntity
  8
0
  6
SLD-Solid
 62
     7
370
    15
100
AcDbLine
 10
807.2016973047
 20
511.1288817935
 30
0.0
 11
807.665122833
 21
511.2975548915
 31
0.0
  0
ARC
  5
19B
330
1F
100
AcDbEntity
  8
0
  6
SLD-Solid
 62
   142
420
    32960
370
     0
100
AcDbCircle
 10
790.5319828545
 20
513.9928998465
 30
0.0
 40
1.500000000000113
100
AcDbArc
 50
206.7436839504
 51
240.0735652074
  0
ARC
  5
19C
330
1F
100
AcDbEntity
  8
0
  6
SLD-Solid
 62
   142
420
    32960
370
     0
100
AcDbCircle
 10
781.6016973047
 20
509.4928998465
 30
0.0
 40
8.500000000000002
100
AcDbArc
 50
26.7436839504
 51
153.2563160496
  0
ARC
  5
19D
330
1F
100
AcDbEntity
  8
0
  6
SLD-Solid
 62
   142
420
    32960
370
     0
100
AcDbCircle
 10
772.671411755
 20
513.9928998465
 30
0.0
 40
1.50000000000001
100
AcDbArc
 50
299.9264347927
 51
333.2563160496
  0
ARC
  5
19E
330
1F
100
AcDbEntity
  8
0
  6
SLD-Solid
 62
   142
420
    32960
370
     0
100
AcDbCircle
 10
753.1016973047
 20
508.9928998465
 30
0.0
 40
3.500000000000106
100
AcDbArc
 50
116.8096588255
 51
145.9522676305
  0
LINE
  5
19F
330
1F
100
AcDbEntity
  8
0
  6
SLD-Solid
 62
   142
420
    32960
370
     0
100
AcDbLine
 10
750.2016973047
 20
499.4928998465
 30
0.0
 11
751.6016973047
 21
499.4928998465
 31
0.0
  0
LINE
  5
1A0
330
1F
100
AcDbEntity
  8
0
  6
SLD-Solid
 62
   142
420
    32960
370
     0
100
AcDbLine
 10
751.6016973047
 20
499.4928998465
 30
0.0
 11
751.6016973047
 21
508.9928998465
 31
0.0
  0
ARC
  5
1A1
330
1F
100
AcDbEntity
  8
0
  6
SLD-Solid
 62
   142
420
    32960
370
     0
100
AcDbCircle
 10
753.1016973047
 20
508.9928998465
 30
0.0
 40
1.500000000000114
100
AcDbArc
 50
90.0
 51
180.0
  0
LINE
  5
1A2
330
1F
100
AcDbEntity
  8
0
  6
SLD-Solid
 62
   142
420
    32960
370
     0
100
AcDbLine
 10
753.1016973047
 20
510.4928998465
 30
0.0
 11
753.9100500152
 21
510.4928998465
 31
0.0
  0
ARC
  5
1A3
330
1F
100
AcDbEntity
  8
0
  6
SLD-Solid
 62
   142
420
    32960
370
     0
100
AcDbCircle
 10
781.6016973047
 20
509.4928998465
 30
0.0
 40
6.500000000000073
100
AcDbArc
 50
29.4923726653
 51
150.5076273347
  0
LINE
  5
1A4
330
1F
100
AcDbEntity
  8
0
  6
SLD-Solid
 62
   142
420
    32960
370
     0
100
AcDbLine
 10
757.4016973047
 20
58.6928998455
 30
0.0
 11
756.1016973047
 21
58.6928998455
 31
0.0
  0
LINE
  5
1A5
330
1F
100
AcDbEntity
  8
0
  6
SLD-Solid
 62
     7
370
    15
100
AcDbLine
 10
756.1016973047
 20
505.1428998455
 30
0.0
 11
756.1016973047
 21
58.6928998455
 31
0.0
  0
LINE
  5
1A6
330
1F
100
AcDbEntity
  8
0
  6
SLD-Solid
 62
   142
420
    32960
370
     0
100
AcDbLine
 10
756.1016973047
 20
505.1428998455
 30
0.0
 11
758.1516973047
 21
505.1428998455
 31
0.0
  0
LINE
  5
1A7
330
1F
100
AcDbEntity
  8
0
  6
SLD-Solid
 62
   142
420
    32960
370
     0
100
AcDbLine
 10
758.1516973047
 20
505.1428998455
 30
0.0
 11
758.1516973047
 21
504.1988478935
 31
0.0
  0
LINE
  5
1A8
330
1F
100
AcDbEntity
  8
0
  6
SLD-Solid
 62
     7
370
    15
100
AcDbLine
 10
787.7823019093
 20
626.0828117974
 30
0.0
 11
786.195722993
 21
630.9657996082
 31
0.0
  0
LINE
  5
1A9
330
1F
100
AcDbEntity
  8
0
  6
SLD-Solid
 62
     7
370
    15
100
AcDbLine
 10
803.8096916724
 20
576.7555781794
 30
0.0
 11
802.4264076335
 21
581.0128886933
 31
0.0
  0
SPLINE
  5
1AA
330
1F
100
AcDbEntity
  8
0
  6
SLD-Solid
 62
   142
420
    32960
370
     0
100
AcDbSpline
210
0.0
220
0.0
230
1.0
 70
     8
 71
     3
 72
     8
 73
     4
 74
     0
 42
0.00000001
 43
0.00000001
 40
0.0
 40
0.0
 40
0.0
 40
0.0
 40
1.0
 40
1.0
 40
1.0
 40
1.0
 10
800.7066606878086
 20
578.024688586293
 30
0.0
 10
800.4679100669434
 20
577.8381726098042
 30
0.0
 10
800.2291664266544
 20
577.6516351493112
 30
0.0
 10
799.9904297570616
 20
577.4650762352213
 30
0.0
  0
SPLINE
  5
1AB
330
1F
100
AcDbEntity
  8
0
  6
SLD-Solid
 62
   142
420
    32960
370
     0
100
AcDbSpline
210
0.0
220
0.0
230
1.0
 70
     8
 71
     3
 72
     9
 73
     5
 74
     0
 42
0.00000001
 43
0.00000001
 40
0.0
 40
0.0
 40
0.0
 40
0.0
 40
0.4999955739392164
 40
1.0
 40
1.0
 40
1.0
 40
1.0
 10
800.8264989374343
 20
577.6812346870386
 30
0.0
 10
800.8073624849505
 20
577.7375498442511
 30
0.0
 10
800.7690892411835
 20
577.8501811557027
 30
0.0
 10
800.7274755366242
 20
577.9665231688426
 30
0.0
 10
800.7066685001599
 20
578.0246946903495
 30
0.0
  0
LINE
  5
1AC
330
1F
100
AcDbEntity
  8
0
  6
SLD-Solid
 62
   142
420
    32960
370
     0
100
AcDbLine
 10
800.8264989374
 20
577.681234687
 30
0.0
 11
800.1101285419
 21
577.1217770673
 31
0.0
  0
SPLINE
  5
1AD
330
1F
100
AcDbEntity
  8
0
  6
SLD-Solid
 62
   142
420
    32960
370
     0
100
AcDbSpline
210
0.0
220
0.0
230
1.0
 70
     8
 71
     3
 72
    11
 73
     7
 74
     0
 42
0.00000001
 43
0.00000001
 40
0.0
 40
0.0
 40
0.0
 40
0.0
 40
0.250015113144709
 40
0.5000078356072888
 40
0.7499966392902162
 40
1.0
 40
1.0
 40
1.0
 40
1.0
 10
800.3380878912969
 20
576.3747738725451
 30
0.0
 10
800.3217103610041
 20
576.4340629197679
 30
0.0
 10
800.2889567671458
 20
576.5526357044455
 30
0.0
 10
800.2339187456578
 20
576.737199712523
 30
0.0
 10
800.1749545626622
 20
576.9261927289406
 30
0.0
 10
800.1317324257733
 20
577.0565769540576
 30
0.0
 10
800.1101207281331
 20
577.1217709646528
 30
0.0
  0
SPLINE
  5
1AE
330
1F
100
AcDbEntity
  8
0
  6
SLD-Solid
 62
   142
420
    32960
370
     0
100
AcDbSpline
210
0.0
220
0.0
230
1.0
 70
     8
 71
     3
 72
     8
 73
     4
 74
     0
 42
0.00000001
 43
0.00000001
 40
0.0
 40
0.0
 40
0.0
 40
0.0
 40
1.0
 40
1.0
 40
1.0
 40
1.0
 10
799.7249536646378
 20
575.8951792504346
 30
0.0
 10
799.9293376179374
 20
576.0550260346273
 30
0.0
 10
800.1337156900199
 20
576.2148909193456
 30
0.0
 10
800.3380878912969
 20
576.3747738725453
 30
0.0
  0
SPLINE
  5
1AF
330
1F
100
AcDbEntity
  8
0
  6
SLD-Solid
 62
   142
420
    32960
370
     0
100
AcDbSpline
210
0.0
220
0.0
230
1.0
 70
     8
 71
     3
 72
    11
 73
     7
 74
     0
 42
0.00000001
 43
0.00000001
 40
0.0
 40
0.0
 40
0.0
 40
0.0
 40
0.252845638063159
 40
0.5037920205481958
 40
0.7528423195117101
 40
1.0
 40
1.0
 40
1.0
 40
1.0
 10
797.2535785406702
 20
574.8810847015624
 30
0.0
 10
797.4644204197402
 20
574.9636827247547
 30
0.0
 10
797.8845204344625
 20
575.1282583342692
 30
0.0
 10
798.5066668655321
 20
575.3805087781079
 30
0.0
 10
799.1202919203828
 20
575.6351681091685
 30
0.0
 10
799.5239129087304
 20
575.8087295339094
 30
0.0
 10
799.7249536646378
 20
575.8951792504346
 30
0.0
  0
SPLINE
  5
1B0
330
1F
100
AcDbEntity
  8
0
  6
SLD-Solid
 62
   142
420
    32960
370
     0
100
AcDbSpline
210
0.0
220
0.0
230
1.0
 70
     8
 71
     3
 72
     9
 73
     5
 74
     0
 42
0.00000001
 43
0.00000001
 40
0.0
 40
0.0
 40
0.0
 40
0.0
 40
0.5000039696612958
 40
1.0
 40
1.0
 40
1.0
 40
1.0
 10
797.1320185220835
 20
575.2311666633807
 30
0.0
 10
797.1531034261615
 20
575.1719024745314
 30
0.0
 10
797.1952728995202
 20
575.053375037861
 30
0.0
 10
797.234143429822
 20
574.9385145096903
 30
0.0
 10
797.2535785406702
 20
574.8810847015624
 30
0.0
  0
SPLINE
  5
1B1
330
1F
100
AcDbEntity
  8
0
  6
SLD-Solid
 62
   142
420
    32960
370
     0
100
AcDbSpline
210
0.0
220
0.0
230
1.0
 70
     8
 71
     3
 72
     8
 73
     4
 74
     0
 42
0.00000001
 43
0.00000001
 40
0.0
 40
0.0
 40
0.0
 40
0.0
 40
1.0
 40
1.0
 40
1.0
 40
1.0
 10
799.3772197234732
 20
576.985570921996
 30
0.0
 10
798.628754623641
 20
576.4009686266405
 30
0.0
 10
797.880354313792
 20
575.8161669282198
 30
0.0
 10
797.1320185220835
 20
575.2311666633807
 30
0.0
  0
SPLINE
  5
1B2
330
1F
100
AcDbEntity
  8
0
  6
SLD-Solid
 62
   142
420
    32960
370
     0
100
AcDbSpline
210
0.0
220
0.0
230
1.0
 70
     8
 71
     3
 72
     8
 73
     4
 74
     0
 42
0.00000001
 43
0.00000001
 40
0.0
 40
0.0
 40
0.0
 40
0.0
 40
1.0
 40
1.0
 40
1.0
 40
1.0
 10
799.3156504055381
 20
577.155397389302
 30
0.0
 10
799.3364172615567
 20
577.0980383813807
 30
0.0
 10
799.3569408986052
 20
577.0414279244793
 30
0.0
 10
799.3772197234732
 20
576.985570921996
 30
0.0
  0
SPLINE
  5
1B3
330
1F
100
AcDbEntity
  8
0
  6
SLD-Solid
 62
   142
420
    32960
370
     0
100
AcDbSpline
210
0.0
220
0.0
230
1.0
 70
     8
 71
     3
 72
     8
 73
     4
 74
     0
 42
0.00000001
 43
0.00000001
 40
0.0
 40
0.0
 40
0.0
 40
0.0
 40
1.0
 40
1.0
 40
1.0
 40
1.0
 10
799.9287539850498
 20
577.6350200112735
 30
0.0
 10
799.72437902661
 20
577.4751676512018
 30
0.0
 10
799.5200111706533
 20
577.315293431935
 30
0.0
 10
799.3156504055381
 20
577.155397389302
 30
0.0
  0
SPLINE
  5
1B4
330
1F
100
AcDbEntity
  8
0
  6
SLD-Solid
 62
   142
420
    32960
370
     0
100
AcDbSpline
210
0.0
220
0.0
230
1.0
 70
     8
 71
     3
 72
     8
 73
     4
 74
     0
 42
0.00000001
 43
0.00000001
 40
0.0
 40
0.0
 40
0.0
 40
0.0
 40
1.0
 40
1.0
 40
1.0
 40
1.0
 10
799.9904297570616
 20
577.4650762352213
 30
0.0
 10
799.9701177999128
 20
577.5209651006421
 30
0.0
 10
799.9495586674157
 20
577.5776146935634
 30
0.0
 10
799.9287539850498
 20
577.6350200112735
 30
0.0
  0
SPLINE
  5
1B5
330
1F
100
AcDbEntity
  8
0
  6
SLD-Solid
 62
   142
420
    32960
370
     0
100
AcDbSpline
210
0.0
220
0.0
230
1.0
 70
     8
 71
     3
 72
    12
 73
     8
 74
     0
 42
0.00000001
 43
0.00000001
 40
0.0
 40
0.0
 40
0.0
 40
0.0
 40
0.199316912754512
 40
0.4013328749239556
 40
0.5997724692132259
 40
0.7998619996335268
 40
1.0
 40
1.0
 40
1.0
 40
1.0
 10
797.3125784348141
 20
575.1823439709171
 30
0.0
 10
797.3503075229444
 20
575.1729688805343
 30
0.0
 10
797.426276607546
 20
575.1540917470088
 30
0.0
 10
797.5900810077748
 20
575.1955175535255
 30
0.0
 10
797.7653218127008
 20
575.2620271732869
 30
0.0
 10
797.956017593975
 20
575.365627192288
 30
0.0
 10
798.0843559153259
 20
575.4583621419857
 30
0.0
 10
798.1485328472703
 20
575.5047352322129
 30
0.0
  0
SPLINE
  5
1B6
330
1F
100
AcDbEntity
  8
0
  6
SLD-Solid
 62
   142
420
    32960
370
     0
100
AcDbSpline
210
0.0
220
0.0
230
1.0
 70
     8
 71
     3
 72
    14
 73
    10
 74
     0
 42
0.00000001
 43
0.00000001
 40
0.0
 40
0.0
 40
0.0
 40
0.0
 40
0.1251521262463066
 40
0.2502315232111066
 40
0.4997926956395943
 40
0.6240049389517724
 40
0.7498681272111075
 40
0.8748924578462699
 40
1.0
 40
1.0
 40
1.0
 40
1.0
 10
798.8164671724085
 20
576.3376939345726
 30
0.0
 10
798.8031482182109
 20
576.3045383829382
 30
0.0
 10
798.7765180498203
 20
576.2382465472562
 30
0.0
 10
798.705506682639
 20
576.0994916033728
 30
0.0
 10
798.6051716556252
 20
575.9524478002678
 30
0.0
 10
798.4813055266947
 20
575.806285151766
 30
0.0
 10
798.3774919532083
 20
575.6994262613455
 30
0.0
 10
798.2659900583043
 20
575.5965998909613
 30
0.0
 10
798.1876939332211
 20
575.5353635756362
 30
0.0
 10
798.1485328472703
 20
575.5047352322129
 30
0.0
  0
SPLINE
  5
1B7
330
1F
100
AcDbEntity
  8
0
  6
SLD-Solid
 62
   142
420
    32960
370
     0
100
AcDbSpline
210
0.0
220
0.0
230
1.0
 70
     8
 71
     3
 72
    18
 73
    14
 74
     0
 42
0.00000001
 43
0.00000001
 40
0.0
 40
0.0
 40
0.0
 40
0.0
 40
0.0625457692087312
 40
0.1250799684438282
 40
0.2500402054669322
 40
0.3749579694246509
 40
0.4999189686768281
 40
0.5624516703922151
 40
0.6249777403764465
 40
0.7499527049293585
 40
0.8749216484550962
 40
0.9374548383199932
 40
1.0
 40
1.0
 40
1.0
 40
1.0
 10
799.802854728094
 20
576.6484813128847
 30
0.0
 10
799.7775932747686
 20
576.6296645567985
 30
0.0
 10
799.7270750410854
 20
576.5920345254272
 30
0.0
 10
799.6255485465808
 20
576.5212948029008
 30
0.0
 10
799.4984391226201
 20
576.4412548878155
 30
0.0
 10
799.351255457376
 20
576.367060841978
 30
0.0
 10
799.2351310543429
 20
576.3213558182017
 30
0.0
 10
799.1495555764894
 20
576.2980523203354
 30
0.0
 10
799.0678340708214
 20
576.2811778476827
 30
0.0
 10
798.9777653001147
 20
576.2781647592341
 30
0.0
 10
798.9013802999798
 20
576.2926026267598
 30
0.0
 10
798.849771558543
 20
576.3150248261566
 30
0.0
 10
798.8275693428113
 20
576.3301370829463
 30
0.0
 10
798.8164671724085
 20
576.3376939345726
 30
0.0
  0
SPLINE
  5
1B8
330
1F
100
AcDbEntity
  8
0
  6
SLD-Solid
 62
   142
420
    32960
370
     0
100
AcDbSpline
210
0.0
220
0.0
230
1.0
 70
     8
 71
     3
 72
    10
 73
     6
 74
     0
 42
0.00000001
 43
0.00000001
 40
0.0
 40
0.0
 40
0.0
 40
0.0
 40
0.3132713248847817
 40
0.6264347052720124
 40
1.0
 40
1.0
 40
1.0
 40
1.0
 10
799.802854728094
 20
576.6484813128847
 30
0.0
 10
799.8415952962505
 20
576.6786307065516
 30
0.0
 10
799.9190630836522
 20
576.7389191052516
 30
0.0
 10
800.0407126585208
 20
576.8418927779801
 30
0.0
 10
800.1171480378102
 20
576.9185796830034
 30
0.0
 10
800.1587272029544
 20
576.9602956726143
 30
0.0
  0
SPLINE
  5
1B9
330
1F
100
AcDbEntity
  8
0
  6
SLD-Solid
 62
   142
420
    32960
370
     0
100
AcDbSpline
210
0.0
220
0.0
230
1.0
 70
     8
 71
     3
 72
    13
 73
     9
 74
     0
 42
0.00000001
 43
0.00000001
 40
0.0
 40
0.0
 40
0.0
 40
0.0
 40
0.1670691285918939
 40
0.3338896722411189
 40
0.6659815755196832
 40
0.8328700158852365
 40
0.9195329722860378
 40
1.0
 40
1.0
 40
1.0
 40
1.0
 10
799.7090349662933
 20
577.0011912676174
 30
0.0
 10
799.7436620100237
 20
577.0286041180091
 30
0.0
 10
799.8128645753285
 20
577.0833890307549
 30
0.0
 10
799.9402277893595
 20
577.2079848500282
 30
0.0
 10
800.0437079694157
 20
577.3422348353834
 30
0.0
 10
800.1036053544876
 20
577.4530334679737
 30
0.0
 10
800.1285889996217
 20
577.5130957212704
 30
0.0
 10
800.1365069825572
 20
577.5411118661466
 30
0.0
 10
800.1403192042582
 20
577.5546006241226
 30
0.0
  0
SPLINE
  5
1BA
330
1F
100
AcDbEntity
  8
0
  6
SLD-Solid
 62
   142
420
    32960
370
     0
100
AcDbSpline
210
0.0
220
0.0
230
1.0
 70
     8
 71
     3
 72
    12
 73
     8
 74
     0
 42
0.00000001
 43
0.00000001
 40
0.0
 40
0.0
 40
0.0
 40
0.0
 40
0.1675435930923103
 40
0.3350434843432074
 40
0.50262452373496
 40
0.6703280070233398
 40
1.0
 40
1.0
 40
1.0
 40
1.0
 10
799.7090349662934
 20
577.0011912676174
 30
0.0
 10
799.6624862272608
 20
576.9680243347539
 30
0.0
 10
799.5694008909052
 20
576.9016991202441
 30
0.0
 10
799.4332411301517
 20
576.8386662226239
 30
0.0
 10
799.3153423762008
 20
576.8102282076591
 30
0.0
 10
799.1793513985422
 20
576.8050829793688
 30
0.0
 10
799.1209280924024
 20
576.852457034575
 30
0.0
 10
799.0822037710586
 20
576.8838576563196
 30
0.0
  0
SPLINE
  5
1BB
330
1F
100
AcDbEntity
  8
0
  6
SLD-Solid
 62
   142
420
    32960
370
     0
100
AcDbSpline
210
0.0
220
0.0
230
1.0
 70
     8
 71
     3
 72
    10
 73
     6
 74
     0
 42
0.00000001
 43
0.00000001
 40
0.0
 40
0.0
 40
0.0
 40
0.0
 40
0.2655792305798891
 40
0.5348541431629432
 40
1.0
 40
1.0
 40
1.0
 40
1.0
 10
790.6930023317112
 20
595.4669695181254
 30
0.0
 10
790.7473512029885
 20
595.4047580897952
 30
0.0
 10
790.8568052401716
 20
595.2794695266725
 30
0.0
 10
791.1128073303731
 20
595.1072253392493
 30
0.0
 10
791.3315548290999
 20
595.0715667885089
 30
0.0
 10
791.4700986951817
 20
595.0489824229405
 30
0.0
  0
LINE
  5
1BC
330
1F
100
AcDbEntity
  8
0
  6
SLD-Solid
 62
   142
420
    32960
370
     0
100
AcDbLine
 10
793.0891808891
 20
596.3148724669
 30
0.0
 11
793.3557775769
 21
596.8055719526
 31
0.0
  0
SPLINE
  5
1BD
330
1F
100
AcDbEntity
  8
0
  6
SLD-Solid
 62
   142
420
    32960
370
     0
100
AcDbSpline
210
0.0
220
0.0
230
1.0
 70
     8
 71
     3
 72
    10
 73
     6
 74
     0
 42
0.00000001
 43
0.00000001
 40
0.0
 40
0.0
 40
0.0
 40
0.0
 40
0.3333345632710564
 40
0.6666582138734694
 40
1.0
 40
1.0
 40
1.0
 40
1.0
 10
794.1378119705158
 20
595.9912656753789
 30
0.0
 10
794.085247968892
 20
596.1546340610732
 30
0.0
 10
793.9801216864788
 20
596.4813654841261
 30
0.0
 10
793.8180299232564
 20
596.9724022330811
 30
0.0
 10
793.7070938788152
 20
597.3002029685241
 30
0.0
 10
793.6516243476791
 20
597.4641077948828
 30
0.0
  0
LINE
  5
1BE
330
1F
100
AcDbEntity
  8
0
  6
SLD-Solid
 62
   142
420
    32960
370
     0
100
AcDbLine
 10
794.1378119705
 20
595.9912656754
 30
0.0
 11
794.8113679411
 21
596.2808563408
 31
0.0
  0
LINE
  5
1BF
330
1F
100
AcDbEntity
  8
0
  6
SLD-Solid
 62
   142
420
    32960
370
     0
100
AcDbLine
 10
790.5567003919
 20
595.8724242397
 30
0.0
 11
791.2272167868
 21
596.16162807
 31
0.0
  0
SPLINE
  5
1C0
330
1F
100
AcDbEntity
  8
0
  6
SLD-Solid
 62
   142
420
    32960
370
     0
100
AcDbSpline
210
0.0
220
0.0
230
1.0
 70
     8
 71
     3
 72
     9
 73
     5
 74
     0
 42
0.00000001
 43
0.00000001
 40
0.0
 40
0.0
 40
0.0
 40
0.0
 40
0.4999969146686511
 40
1.0
 40
1.0
 40
1.0
 40
1.0
 10
791.6716544710131
 20
594.8122736067846
 30
0.0
 10
791.5992466114072
 20
595.0368388027567
 30
0.0
 10
791.4544299985813
 20
595.4859719661503
 30
0.0
 10
791.302954835638
 20
595.9364084421964
 30
0.0
 10
791.2272167868152
 20
596.1616280699651
 30
0.0
  0
LINE
  5
1C1
330
1F
100
AcDbEntity
  8
0
  6
SLD-Solid
 62
   142
420
    32960
370
     0
100
AcDbLine
 10
791.671654471
 20
594.8122736068
 30
0.0
 11
792.4225134765
 21
594.9438667663
 31
0.0
  0
SPLINE
  5
1C2
330
1F
100
AcDbEntity
  8
0
  6
SLD-Solid
 62
   142
420
    32960
370
     0
100
AcDbSpline
210
0.0
220
0.0
230
1.0
 70
     8
 71
     3
 72
     9
 73
     5
 74
     0
 42
0.00000001
 43
0.00000001
 40
0.0
 40
0.0
 40
0.0
 40
0.0
 40
0.4999059913036025
 40
1.0
 40
1.0
 40
1.0
 40
1.0
 10
792.3013819839558
 20
595.1951541473377
 30
0.0
 10
792.3175987156438
 20
595.1507674773779
 30
0.0
 10
792.3500382782219
 20
595.0619774433876
 30
0.0
 10
792.3983520491278
 20
594.9832419265231
 30
0.0
 10
792.4225134764953
 20
594.9438667662674
 30
0.0
  0
SPLINE
  5
1C3
330
1F
100
AcDbEntity
  8
0
  6
SLD-Solid
 62
   142
420
    32960
370
     0
100
AcDbSpline
210
0.0
220
0.0
230
1.0
 70
     8
 71
     3
 72
    19
 73
    15
 74
     0
 42
0.00000001
 43
0.00000001
 40
0.0
 40
0.0
 40
0.0
 40
0.0
 40
0.0625583465051563
 40
0.125100163386056
 40
0.2500501157123966
 40
0.3749255740713155
 40
0.4998063905395588
 40
0.5999962464121182
 40
0.6748725249125279
 40
0.7498430831687534
 40
0.8123758319883214
 40
0.8749111362464272
 40
0.9374468170257385
 40
1.0
 40
1.0
 40
1.0
 40
1.0
 10
793.1330130298222
 20
597.0482017355396
 30
0.0
 10
793.0925520969408
 20
597.0294915691035
 30
0.0
 10
793.011640922062
 20
596.9920761799683
 30
0.0
 10
792.8557427776452
 20
596.9027835509306
 30
0.0
 10
792.67477734362
 20
596.7633378524138
 30
0.0
 10
792.4908354139903
 20
596.5530340867009
 30
0.0
 10
792.3593920949406
 20
596.3224660664285
 30
0.0
 10
792.280473547811
 20
596.107760441674
 30
0.0
 10
792.2369394257294
 20
595.9216195020535
 30
0.0
 10
792.2214281003623
 20
595.7601531209722
 30
0.0
 10
792.2204847871026
 20
595.6079852727119
 30
0.0
 10
792.2358656253916
 20
595.4670994952371
 30
0.0
 10
792.2612294765088
 20
595.328482120562
 30
0.0
 10
792.287996566407
 20
595.2396009504404
 30
0.0
 10
792.3013819839558
 20
595.1951541473377
 30
0.0
  0
SPLINE
  5
1C4
330
1F
100
AcDbEntity
  8
0
  6
SLD-Solid
 62
   142
420
    32960
370
     0
100
AcDbSpline
210
0.0
220
0.0
230
1.0
 70
     8
 71
     3
 72
    17
 73
    13
 74
     0
 42
0.00000001
 43
0.00000001
 40
0.0
 40
0.0
 40
0.0
 40
0.0
 40
0.0625713784685383
 40
0.125121508847083
 40
0.2500656599897177
 40
0.3750200963255969
 40
0.4999716825898681
 40
0.6277208470488704
 40
0.7499098671822637
 40
0.8748726880329765
 40
0.9374260668416079
 40
1.0
 40
1.0
 40
1.0
 40
1.0
 10
794.9252826659563
 20
596.2061482353142
 30
0.0
 10
794.9092668450834
 20
596.2523603456438
 30
0.0
 10
794.8772406420157
 20
596.3447688735197
 30
0.0
 10
794.7935763920522
 20
596.5195332779936
 30
0.0
 10
794.6597744718744
 20
596.7194986995756
 30
0.0
 10
794.4515607513789
 20
596.9114937597175
 30
0.0
 10
794.2098082507814
 20
597.0547993662891
 30
0.0
 10
793.9480826694603
 20
597.1466248798705
 30
0.0
 10
793.6726689224472
 20
597.1780964001374
 30
0.0
 10
793.4436752897734
 20
597.1511051835174
 30
0.0
 10
793.2640410698926
 20
597.1003017013843
 30
0.0
 10
793.1766938259499
 20
597.0655702925685
 30
0.0
 10
793.1330130298222
 20
597.0482017355396
 30
0.0
  0
SPLINE
  5
1C5
330
1F
100
AcDbEntity
  8
0
  6
SLD-Solid
 62
   142
420
    32960
370
     0
100
AcDbSpline
210
0.0
220
0.0
230
1.0
 70
     8
 71
     3
 72
    17
 73
    13
 74
     0
 42
0.00000001
 43
0.00000001
 40
0.0
 40
0.0
 40
0.0
 40
0.0
 40
0.0625627776868451
 40
0.1251141196028996
 40
0.25008059605644
 40
0.3750527100507641
 40
0.500001331745354
 40
0.6249551927359814
 40
0.749896943906339
 40
0.8748889489927861
 40
0.9374383434517216
 40
1.0
 40
1.0
 40
1.0
 40
1.0
 10
794.318417918229
 20
594.3591873201857
 30
0.0
 10
794.3520340464738
 20
594.384840182498
 30
0.0
 10
794.4192601583139
 20
594.4361412180685
 30
0.0
 10
794.5466835786453
 20
594.5495120428808
 30
0.0
 10
794.6916100096361
 20
594.7101653160416
 30
0.0
 10
794.8334072534598
 20
594.9318838721862
 30
0.0
 10
794.9360397763676
 20
595.1763487471433
 30
0.0
 10
794.9980288511065
 20
595.4340843285567
 30
0.0
 10
795.0185845995297
 20
595.6975281471755
 30
0.0
 10
794.9964331759619
 20
595.9142148262597
 30
0.0
 10
794.9618840918715
 20
596.0830744437009
 30
0.0
 10
794.9374839384113
 20
596.16512095766
 30
0.0
 10
794.9252826659563
 20
596.2061482353142
 30
0.0
  0
SPLINE
  5
1C6
330
1F
100
AcDbEntity
  8
0
  6
SLD-Solid
 62
   142
420
    32960
370
     0
100
AcDbSpline
210
0.0
220
0.0
230
1.0
 70
     8
 71
     3
 72
     9
 73
     5
 74
     0
 42
0.00000001
 43
0.00000001
 40
0.0
 40
0.0
 40
0.0
 40
0.0
 40
0.4999915155784529
 40
1.0
 40
1.0
 40
1.0
 40
1.0
 10
794.0679364331841
 20
595.1792916981549
 30
0.0
 10
794.1103506961275
 20
595.0424049970306
 30
0.0
 10
794.1951806614805
 20
594.7686269490853
 30
0.0
 10
794.2773383679391
 20
594.495668740414
 30
0.0
 10
794.318417918229
 20
594.3591873201857
 30
0.0
  0
SPLINE
  5
1C7
330
1F
100
AcDbEntity
  8
0
  6
SLD-Solid
 62
   142
420
    32960
370
     0
100
AcDbSpline
210
0.0
220
0.0
230
1.0
 70
     8
 71
     3
 72
    13
 73
     9
 74
     0
 42
0.00000001
 43
0.00000001
 40
0.0
 40
0.0
 40
0.0
 40
0.0
 40
0.125213250790684
 40
0.2503205428080577
 40
0.499932749522435
 40
0.7496225238636074
 40
0.8747717100022742
 40
1.0
 40
1.0
 40
1.0
 40
1.0
 10
794.2439971209085
 20
595.931783138883
 30
0.0
 10
794.2527929854866
 20
595.8997946297884
 30
0.0
 10
794.2703772713489
 20
595.8358446811236
 30
0.0
 10
794.2849023971216
 20
595.7020113774631
 30
0.0
 10
794.2660863337665
 20
595.5309533656921
 30
0.0
 10
794.2030663546932
 20
595.3711649346087
 30
0.0
 10
794.1315110537989
 20
595.2567207032739
 30
0.0
 10
794.0891324363998
 20
595.2051068021325
 30
0.0
 10
794.0679364331841
 20
595.1792916981549
 30
0.0
  0
SPLINE
  5
1C8
330
1F
100
AcDbEntity
  8
0
  6
SLD-Solid
 62
   142
420
    32960
370
     0
100
AcDbSpline
210
0.0
220
0.0
230
1.0
 70
     8
 71
     3
 72
    17
 73
    13
 74
     0
 42
0.00000001
 43
0.00000001
 40
0.0
 40
0.0
 40
0.0
 40
0.0
 40
0.0625820088415027
 40
0.1251506259511229
 40
0.250100009285574
 40
0.375044609703911
 40
0.5000411091552952
 40
0.6250436569435788
 40
0.749936219747674
 40
0.8748672129464806
 40
0.9374220428778048
 40
1.0
 40
1.0
 40
1.0
 40
1.0
 10
793.4195939402691
 20
596.2894265052319
 30
0.0
 10
793.439542450621
 20
596.2974253685516
 30
0.0
 10
793.4794352026042
 20
596.3134213835384
 30
0.0
 10
793.5611946504473
 20
596.3377964810162
 30
0.0
 10
793.6659591368665
 20
596.353952730299
 30
0.0
 10
793.792134481185
 20
596.3475021621945
 30
0.0
 10
793.9125674900039
 20
596.3101661669481
 30
0.0
 10
794.0236753497518
 20
596.2493847373185
 30
0.0
 10
794.1201431875596
 20
596.1642151411457
 30
0.0
 10
794.1832252038328
 20
596.0746856635449
 30
0.0
 10
794.2217540672451
 20
595.9950284429914
 30
0.0
 10
794.2365818561907
 20
595.9528675043308
 30
0.0
 10
794.2439971209085
 20
595.931783138883
 30
0.0
  0
SPLINE
  5
1C9
330
1F
100
AcDbEntity
  8
0
  6
SLD-Solid
 62
   142
420
    32960
370
     0
100
AcDbSpline
210
0.0
220
0.0
230
1.0
 70
     8
 71
     3
 72
    16
 73
    12
 74
     0
 42
0.00000001
 43
0.00000001
 40
0.0
 40
0.0
 40
0.0
 40
0.0
 40
0.062576891525621
 40
0.1251365117524243
 40
0.250025866470687
 40
0.374933630279713
 40
0.4998800117691029
 40
0.6248549835765825
 40
0.7498694666725014
 40
0.8748972018541986
 40
1.0
 40
1.0
 40
1.0
 40
1.0
 10
793.0018848679099
 20
595.446260085045
 30
0.0
 10
792.9958315685155
 20
595.4668410843777
 30
0.0
 10
792.9837266404451
 20
595.5079974026625
 30
0.0
 10
792.9704406674707
 20
595.5938199162496
 30
0.0
 10
792.9685389387606
 20
595.7041034482393
 30
0.0
 10
792.9967722972307
 20
595.8342886257868
 30
0.0
 10
793.0476084688395
 20
595.9561565946254
 30
0.0
 10
793.1168479694554
 20
596.0676910561598
 30
0.0
 10
793.206594589341
 20
596.1598750628558
 30
0.0
 10
793.3074983106995
 20
596.2367938299709
 30
0.0
 10
793.3822212557477
 20
596.2718787705379
 30
0.0
 10
793.4195939402691
 20
596.2894265052319
 30
0.0
  0
SPLINE
  5
1CA
330
1F
100
AcDbEntity
  8
0
  6
SLD-Solid
 62
   142
420
    32960
370
     0
100
AcDbSpline
210
0.0
220
0.0
230
1.0
 70
     8
 71
     3
 72
    12
 73
     8
 74
     0
 42
0.00000001
 43
0.00000001
 40
0.0
 40
0.0
 40
0.0
 40
0.0
 40
0.2501215802570718
 40
0.5001385013493213
 40
0.749860598454143
 40
0.8748990456781557
 40
1.0
 40
1.0
 40
1.0
 40
1.0
 10
793.3995935675348
 20
595.0503722478144
 30
0.0
 10
793.3570511477097
 20
595.0703640480199
 30
0.0
 10
793.2719841092195
 20
595.1103392831991
 30
0.0
 10
793.15747374427
 20
595.1967866439508
 30
0.0
 10
793.0775866550701
 20
595.2890642334676
 30
0.0
 10
793.0281025778396
 20
595.3751998551853
 30
0.0
 10
793.010625560325
 20
595.4225693960486
 30
0.0
 10
793.0018848679099
 20
595.446260085045
 30
0.0
  0
SPLINE
  5
1CB
330
1F
100
AcDbEntity
  8
0
  6
SLD-Solid
 62
   142
420
    32960
370
     0
100
AcDbSpline
210
0.0
220
0.0
230
1.0
 70
     8
 71
     3
 72
     9
 73
     5
 74
     0
 42
0.00000001
 43
0.00000001
 40
0.0
 40
0.0
 40
0.0
 40
0.0
 40
0.5001021414441601
 40
1.0
 40
1.0
 40
1.0
 40
1.0
 10
793.4637596639385
 20
594.3561335280145
 30
0.0
 10
793.4534565127574
 20
594.471749108808
 30
0.0
 10
793.4328544190503
 20
594.7029330434732
 30
0.0
 10
793.410679008021
 20
594.9345749531935
 30
0.0
 10
793.3995935675348
 20
595.0503722478144
 30
0.0
  0
SPLINE
  5
1CC
330
1F
100
AcDbEntity
  8
0
  6
SLD-Solid
 62
   142
420
    32960
370
     0
100
AcDbSpline
210
0.0
220
0.0
230
1.0
 70
     8
 71
     3
 72
     9
 73
     5
 74
     0
 42
0.00000001
 43
0.00000001
 40
0.0
 40
0.0
 40
0.0
 40
0.0
 40
0.5036675688378539
 40
1.0
 40
1.0
 40
1.0
 40
1.0
 10
791.1870309528731
 20
593.9363596625286
 30
0.0
 10
791.5695429158059
 20
594.0067537702107
 30
0.0
 10
792.3289961476574
 20
594.1465168044766
 30
0.0
 10
793.0873593914454
 20
594.2866038059828
 30
0.0
 10
793.4637596639385
 20
594.3561335280145
 30
0.0
  0
SPLINE
  5
1CD
330
1F
100
AcDbEntity
  8
0
  6
SLD-Solid
 62
   142
420
    32960
370
     0
100
AcDbSpline
210
0.0
220
0.0
230
1.0
 70
     8
 71
     3
 72
    11
 73
     7
 74
     0
 42
0.00000001
 43
0.00000001
 40
0.0
 40
0.0
 40
0.0
 40
0.0
 40
0.250010201451623
 40
0.500000643697574
 40
0.7499907640102944
 40
1.0
 40
1.0
 40
1.0
 40
1.0
 10
790.5567003919386
 20
595.8724242397176
 30
0.0
 10
790.6111782269087
 20
595.7106866421076
 30
0.0
 10
790.7201295912698
 20
595.3872242295926
 30
0.0
 10
790.8792075455602
 20
594.9028094172411
 30
0.0
 10
791.0353481781528
 20
594.4190279856873
 30
0.0
 10
791.136468739306
 20
594.0972532042155
 30
0.0
 10
791.1870309528731
 20
593.9363596625286
 30
0.0
  0
SPLINE
  5
1CE
330
1F
100
AcDbEntity
  8
0
  6
SLD-Solid
 62
   142
420
    32960
370
     0
100
AcDbSpline
210
0.0
220
0.0
230
1.0
 70
     8
 71
     3
 72
    21
 73
    17
 74
     0
 42
0.00000001
 43
0.00000001
 40
0.0
 40
0.0
 40
0.0
 40
0.0
 40
0.0058710092808552
 40
0.0679694924427028
 40
0.1298970787197867
 40
0.1923195363555777
 40
0.2542898596691013
 40
0.3251818438344617
 40
0.3959557723149338
 40
0.4494641890342245
 40
0.5029207417835763
 40
0.6268212425505233
 40
0.7513131241816315
 40
0.8757012581326344
 40
0.9377771560630537
 40
1.0
 40
1.0
 40
1.0
 40
1.0
 10
783.5688008521865
 20
631.1340526777025
 30
0.0
 10
783.5686171399343
 20
631.1341884299426
 30
0.0
 10
783.5664902775958
 20
631.1357600525427
 30
0.0
 10
783.5582201529502
 20
631.1385434674756
 30
0.0
 10
783.5229444675821
 20
631.142840753263
 30
0.0
 10
783.4598519577081
 20
631.1477488669573
 30
0.0
 10
783.3639264617705
 20
631.1537416672779
 30
0.0
 10
783.2292448456594
 20
631.1613401318732
 30
0.0
 10
783.0706433538546
 20
631.1701175617168
 30
0.0
 10
782.9129470449082
 20
631.1788592035319
 30
0.0
 10
782.6944547074346
 20
631.1912070813877
 30
0.0
 10
782.3909676438047
 20
631.2087899442939
 30
0.0
 10
781.9988496075854
 20
631.2330735334837
 30
0.0
 10
781.6686917031312
 20
631.2543326236308
 30
0.0
 10
781.404061634072
 20
631.2717484632873
 30
0.0
 10
781.2717736504815
 20
631.2805808526621
 30
0.0
 10
781.205551463241
 20
631.2850022681757
 30
0.0
  0
SPLINE
  5
1CF
330
1F
100
AcDbEntity
  8
0
  6
SLD-Solid
 62
   142
420
    32960
370
     0
100
AcDbSpline
210
0.0
220
0.0
230
1.0
 70
     8
 71
     3
 72
    18
 73
    14
 74
     0
 42
0.00000001
 43
0.00000001
 40
0.0
 40
0.0
 40
0.0
 40
0.0
 40
0.1251615752902303
 40
0.2503026028558598
 40
0.3753841869036758
 40
0.5003399629435684
 40
0.6302195788122329
 40
0.7498108645913363
 40
0.8125874632032363
 40
0.8748654797413217
 40
0.9374191148114966
 40
0.9687073650343554
 40
1.0
 40
1.0
 40
1.0
 40
1.0
 10
781.2847856241523
 20
631.2149648920548
 30
0.0
 10
781.4169857171336
 20
631.2063100706462
 30
0.0
 10
781.6813641998608
 20
631.1890018486868
 30
0.0
 10
782.0762361212035
 20
631.1652906613632
 30
0.0
 10
782.4655381524882
 20
631.144684926529
 30
0.0
 10
782.83871041203
 20
631.129564540339
 30
0.0
 10
783.1677428270483
 20
631.1208833890565
 30
0.0
 10
783.3747775706025
 20
631.1202381567083
 30
0.0
 10
783.4826629949785
 20
631.1228252433287
 30
0.0
 10
783.5372567077794
 20
631.1259982025425
 30
0.0
 10
783.55995719213
 20
631.1292910496921
 30
0.0
 10
783.5689464136922
 20
631.13197147231
 30
0.0
 10
783.5688493749547
 20
631.133358910168
 30
0.0
 10
783.5688008521865
 20
631.1340526777025
 30
0.0
  0
SPLINE
  5
1D0
330
1F
100
AcDbEntity
  8
0
  6
SLD-Solid
 62
   142
420
    32960
370
     0
100
AcDbSpline
210
0.0
220
0.0
230
1.0
 70
     8
 71
     3
 72
    14
 73
    10
 74
     0
 42
0.00000001
 43
0.00000001
 40
0.0
 40
0.0
 40
0.0
 40
0.0
 40
0.0625271511718504
 40
0.1250385665834584
 40
0.2500185759795634
 40
0.4998671003519312
 40
0.7498915699466167
 40
0.874941963311737
 40
1.0
 40
1.0
 40
1.0
 40
1.0
 10
779.4998593550017
 20
631.3573488618025
 30
0.0
 10
779.5325928629495
 20
631.3540013283265
 30
0.0
 10
779.5980516410376
 20
631.3473071038243
 30
0.0
 10
779.7342773391305
 20
631.3339046422655
 30
0.0
 10
779.9868242885191
 20
631.3110956073629
 30
0.0
 10
780.3631987922577
 20
631.280257265443
 30
0.0
 10
780.7463587353283
 20
631.2519096684508
 30
0.0
 10
781.0539333689874
 20
631.2304940992401
 30
0.0
 10
781.2078333047012
 20
631.2201413999097
 30
0.0
 10
781.2847856241523
 20
631.2149648920548
 30
0.0
  0
SPLINE
  5
1D1
330
1F
100
AcDbEntity
  8
0
  6
SLD-Solid
 62
   142
420
    32960
370
     0
100
AcDbSpline
210
0.0
220
0.0
230
1.0
 70
     8
 71
     3
 72
    13
 73
     9
 74
     0
 42
0.00000001
 43
0.00000001
 40
0.0
 40
0.0
 40
0.0
 40
0.0
 40
0.1251938662590224
 40
0.2503283849861379
 40
0.5000192369710035
 40
0.7496882904451309
 40
0.874812558558646
 40
1.0
 40
1.0
 40
1.0
 40
1.0
 10
778.8807186016368
 20
631.4441969449605
 30
0.0
 10
778.8831965076513
 20
631.4427160670131
 30
0.0
 10
778.8881511450411
 20
631.4397550131213
 30
0.0
 10
778.9250919272018
 20
631.4306181672815
 30
0.0
 10
779.0246038584943
 20
631.4139460180539
 30
0.0
 10
779.1933551414755
 20
631.3917136314
 30
0.0
 10
779.3599390062116
 20
631.372351235542
 30
0.0
 10
779.4532113920859
 20
631.3623504943735
 30
0.0
 10
779.4998593550017
 20
631.3573488618025
 30
0.0
  0
SPLINE
  5
1D2
330
1F
100
AcDbEntity
  8
0
  6
SLD-Solid
 62
   142
420
    32960
370
     0
100
AcDbSpline
210
0.0
220
0.0
230
1.0
 70
     8
 71
     3
 72
    19
 73
    15
 74
     0
 42
0.00000001
 43
0.00000001
 40
0.0
 40
0.0
 40
0.0
 40
0.0
 40
0.1252636569322551
 40
0.2504606304605807
 40
0.375411700453422
 40
0.5012496476206987
 40
0.5377354893583032
 40
0.5727333229857092
 40
0.6271094136919059
 40
0.7507320422279531
 40
0.8205725051889385
 40
0.8746429677350774
 40
0.9790193147360908
 40
0.9999999999999999
 40
0.9999999999999999
 40
0.9999999999999999
 40
0.9999999999999999
 10
781.205551463241
 20
631.2850022681757
 30
0.0
 10
781.0716477152862
 20
631.2940228660431
 30
0.0
 10
780.8039115022842
 20
631.3120592597135
 30
0.0
 10
780.4045390770027
 20
631.3398110189584
 30
0.0
 10
780.0098804542043
 20
631.3681223464647
 30
0.0
 10
779.723439039681
 20
631.389677875202
 30
0.0
 10
779.5398140393952
 20
631.4036777244729
 30
0.0
 10
779.4282623463005
 20
631.4122513546467
 30
0.0
 10
779.2502628380863
 20
631.4259225682295
 30
0.0
 10
779.0820612128543
 20
631.4386706300344
 30
0.0
 10
778.9714319739936
 20
631.4457348055496
 30
0.0
 10
778.9024950546121
 20
631.4487015182344
 30
0.0
 10
778.8805505914443
 20
631.4474555927694
 30
0.0
 10
778.8806945137324
 20
631.4446641427904
 30
0.0
 10
778.8807186016368
 20
631.4441969449605
 30
0.0
  0
LINE
  5
1D3
330
1F
100
AcDbEntity
  8
0
  6
SLD-Solid
 62
   142
420
    32960
370
     0
100
AcDbLine
 10
782.5778602087
 20
620.3767131097
 30
0.0
 11
783.7707270977
 21
620.4445186172
 31
0.0
  0
LINE
  5
1D4
330
1F
100
AcDbEntity
  8
0
  6
SLD-Solid
 62
   142
420
    32960
370
     0
100
AcDbLine
 10
784.3534619914
 20
620.4776427114
 30
0.0
 11
786.8503421622
 21
620.6195715625
 31
0.0
  0
LINE
  5
1D5
330
1F
100
AcDbEntity
  8
0
  6
SLD-Solid
 62
   142
420
    32960
370
     0
100
AcDbLine
 10
786.251319066
 20
621.2149422445
 30
0.0
 11
784.6590827464
 21
621.1241432826
 31
0.0
  0
SPLINE
  5
1D6
330
1F
100
AcDbEntity
  8
0
  6
SLD-Solid
 62
   142
420
    32960
370
     0
100
AcDbSpline
210
0.0
220
0.0
230
1.0
 70
     8
 71
     3
 72
     9
 73
     5
 74
     0
 42
0.00000001
 43
0.00000001
 40
0.0
 40
0.0
 40
0.0
 40
0.0
 40
0.4978933901262905
 40
1.0
 40
1.0
 40
1.0
 40
1.0
 10
784.3674724283867
 20
620.2707631571287
 30
0.0
 10
784.0965295986084
 20
620.3504690681563
 30
0.0
 10
783.5523511958593
 20
620.5105553689754
 30
0.0
 10
783.007389007449
 20
620.6676007732832
 30
0.0
 10
782.7337598905168
 20
620.7464543088362
 30
0.0
  0
SPLINE
  5
1D7
330
1F
100
AcDbEntity
  8
0
  6
SLD-Solid
 62
   142
420
    32960
370
     0
100
AcDbSpline
210
0.0
220
0.0
230
1.0
 70
     8
 71
     3
 72
    17
 73
    13
 74
     0
 42
0.00000001
 43
0.00000001
 40
0.0
 40
0.0
 40
0.0
 40
0.0
 40
0.0625828327880167
 40
0.1251475851228289
 40
0.2501263684710821
 40
0.3738523636076125
 40
0.5000343517336319
 40
0.6278306699013527
 40
0.7499469008274925
 40
0.8748604327671013
 40
0.9374196577040613
 40
1.0
 40
1.0
 40
1.0
 40
1.0
 10
785.3885785526064
 20
621.3611689953165
 30
0.0
 10
785.345311607571
 20
621.3573285683672
 30
0.0
 10
785.2587902175094
 20
621.3496488239842
 30
0.0
 10
785.0909770789541
 20
621.3223162935446
 30
0.0
 10
784.8947138246763
 20
621.2655623947137
 30
0.0
 10
784.6894635190124
 20
621.1610351984498
 30
0.0
 10
784.524594483742
 20
621.0219087332298
 30
0.0
 10
784.4015828722765
 20
620.8588143641624
 30
0.0
 10
784.3306089318178
 20
620.6741779823785
 30
0.0
 10
784.3185813871964
 20
620.5091732813875
 30
0.0
 10
784.3385656507585
 20
620.3731486642782
 30
0.0
 10
784.3578357518979
 20
620.3048954987629
 30
0.0
 10
784.3674724283867
 20
620.2707631571287
 30
0.0
  0
SPLINE
  5
1D8
330
1F
100
AcDbEntity
  8
0
  6
SLD-Solid
 62
   142
420
    32960
370
     0
100
AcDbSpline
210
0.0
220
0.0
230
1.0
 70
     8
 71
     3
 72
    17
 73
    13
 74
     0
 42
0.00000001
 43
0.00000001
 40
0.0
 40
0.0
 40
0.0
 40
0.0
 40
0.0625792467947475
 40
0.125138617282699
 40
0.2500882291406064
 40
0.3750454651190017
 40
0.5000166197722373
 40
0.6275888092704791
 40
0.7499048935735454
 40
0.8748659115759176
 40
0.9374228974929665
 40
1.0
 40
1.0
 40
1.0
 40
1.0
 10
787.0546491273432
 20
620.4333713088201
 30
0.0
 10
787.0424493758271
 20
620.4673615710068
 30
0.0
 10
787.0180537476579
 20
620.5353312994546
 30
0.0
 10
786.9512835499999
 20
620.6682195158241
 30
0.0
 10
786.8376965671597
 20
620.8272704391346
 30
0.0
 10
786.6518671237815
 20
620.9952561050231
 30
0.0
 10
786.430890706075
 20
621.1383554592089
 30
0.0
 10
786.186645462435
 20
621.2527784187365
 30
0.0
 10
785.9231201277481
 20
621.3310302819785
 30
0.0
 10
785.6989310265434
 20
621.3615559774565
 30
0.0
 10
785.519992167135
 20
621.3680811202543
 30
0.0
 10
785.4323877852174
 20
621.3634732838813
 30
0.0
 10
785.3885785526064
 20
621.3611689953165
 30
0.0
  0
SPLINE
  5
1D9
330
1F
100
AcDbEntity
  8
0
  6
SLD-Solid
 62
   142
420
    32960
370
     0
100
AcDbSpline
210
0.0
220
0.0
230
1.0
 70
     8
 71
     3
 72
    16
 73
    12
 74
     0
 42
0.00000001
 43
0.00000001
 40
0.0
 40
0.0
 40
0.0
 40
0.0
 40
0.0626347164105551
 40
0.12524620455515
 40
0.2503234762037573
 40
0.4994982808584343
 40
0.6245902168365532
 40
0.7496705979364756
 40
0.8747389694974659
 40
0.9373591468078185
 40
1.0
 40
1.0
 40
1.0
 40
1.0
 10
786.0662897715231
 20
619.2704204333647
 30
0.0
 10
786.1096283907214
 20
619.2743088576724
 30
0.0
 10
786.196289556866
 20
619.2820842642545
 30
0.0
 10
786.362269712647
 20
619.3157461788412
 30
0.0
 10
786.6320765981602
 20
619.4102577423378
 30
0.0
 10
786.8709239688867
 20
619.5988264535683
 30
0.0
 10
787.032509209276
 20
619.8272189500686
 30
0.0
 10
787.0975963684655
 20
620.0215842047725
 30
0.0
 10
787.1057788115593
 20
620.1926679028691
 30
0.0
 10
787.08356161765
 20
620.3305895146339
 30
0.0
 10
787.0642876845792
 20
620.3991069408752
 30
0.0
 10
787.0546491273432
 20
620.4333713088201
 30
0.0
  0
SPLINE
  5
1DA
330
1F
100
AcDbEntity
  8
0
  6
SLD-Solid
 62
   142
420
    32960
370
     0
100
AcDbSpline
210
0.0
220
0.0
230
1.0
 70
     8
 71
     3
 72
    13
 73
     9
 74
     0
 42
0.00000001
 43
0.00000001
 40
0.0
 40
0.0
 40
0.0
 40
0.0
 40
0.2862474508623261
 40
0.5000653653801074
 40
0.6274835430651589
 40
0.7500272884545165
 40
0.8750054630897541
 40
1.0
 40
1.0
 40
1.0
 40
1.0
 10
784.9753588789852
 20
619.4706827006917
 30
0.0
 10
785.0781526289609
 20
619.4397721733574
 30
0.0
 10
785.2577301028757
 20
619.3857724465512
 30
0.0
 10
785.4852477646683
 20
619.325166465379
 30
0.0
 10
785.6554623730508
 20
619.2909531759154
 30
0.0
 10
785.7937446735103
 20
619.2731618376417
 30
0.0
 10
785.9309397680405
 20
619.2646979284382
 30
0.0
 10
786.02117113496
 20
619.2685128484858
 30
0.0
 10
786.0662897715232
 20
619.2704204333647
 30
0.0
  0
SPLINE
  5
1DB
330
1F
100
AcDbEntity
  8
0
  6
SLD-Solid
 62
   142
420
    32960
370
     0
100
AcDbSpline
210
0.0
220
0.0
230
1.0
 70
     8
 71
     3
 72
     9
 73
     5
 74
     0
 42
0.00000001
 43
0.00000001
 40
0.0
 40
0.0
 40
0.0
 40
0.0
 40
0.5030935291777832
 40
1.0
 40
1.0
 40
1.0
 40
1.0
 10
782.5630571713933
 20
620.1902882084913
 30
0.0
 10
782.9680563720997
 20
620.071283014483
 30
0.0
 10
783.773074081964
 20
619.834736155686
 30
0.0
 10
784.5762537197412
 20
619.5915322801666
 30
0.0
 10
784.9753588789852
 20
619.4706827006919
 30
0.0
  0
SPLINE
  5
1DC
330
1F
100
AcDbEntity
  8
0
  6
SLD-Solid
 62
   142
420
    32960
370
     0
100
AcDbSpline
210
0.0
220
0.0
230
1.0
 70
     8
 71
     3
 72
     9
 73
     5
 74
     0
 42
0.00000001
 43
0.00000001
 40
0.0
 40
0.0
 40
0.0
 40
0.0
 40
0.499702253755289
 40
1.0
 40
1.0
 40
1.0
 40
1.0
 10
782.7337598905168
 20
620.7464543088362
 30
0.0
 10
782.7054934001867
 20
620.6544653807941
 30
0.0
 10
782.6489267345021
 20
620.4703779019991
 30
0.0
 10
782.5916917201032
 20
620.2836884970402
 30
0.0
 10
782.5630571713933
 20
620.1902882084913
 30
0.0
  0
SPLINE
  5
1DD
330
1F
100
AcDbEntity
  8
0
  6
SLD-Solid
 62
   142
420
    32960
370
     0
100
AcDbSpline
210
0.0
220
0.0
230
1.0
 70
     8
 71
     3
 72
    10
 73
     6
 74
     0
 42
0.00000001
 43
0.00000001
 40
0.0
 40
0.0
 40
0.0
 40
0.0
 40
0.5
 40
0.5
 40
1.0
 40
1.0
 40
1.0
 40
1.0
 10
802.4264076334899
 20
581.0128886932962
 30
0.0
 10
802.1946519301638
 20
581.0490214408286
 30
0.0
 10
802.000442034974
 20
581.1374366374511
 30
0.0
 10
801.6868041652054
 20
581.417516093848
 30
0.0
 10
801.5737578898439
 20
581.6028522696986
 30
0.0
 10
801.4997856055517
 20
581.8305155512746
 30
0.0
  0
SPLINE
  5
1DE
330
1F
100
AcDbEntity
  8
0
  6
SLD-Solid
 62
   142
420
    32960
370
     0
100
AcDbSpline
210
0.0
220
0.0
230
1.0
 70
     8
 71
     3
 72
    10
 73
     6
 74
     0
 42
0.00000001
 43
0.00000001
 40
0.0
 40
0.0
 40
0.0
 40
0.0
 40
0.5
 40
0.5
 40
1.0
 40
1.0
 40
1.0
 40
1.0
 10
787.5382817760211
 20
624.7996060416378
 30
0.0
 10
787.4602956220778
 20
625.0396227437542
 30
0.0
 10
787.4386683411984
 20
625.26876915484
 30
0.0
 10
787.5192244782434
 20
625.7060415100617
 30
0.0
 10
787.6201471536042
 20
625.9047348541362
 30
0.0
 10
787.7823019092817
 20
626.0828117973535
 30
0.0
  0
LINE
  5
1DF
330
1F
100
AcDbEntity
  8
0
  6
SLD-Solid
 62
   142
420
    32960
370
     0
100
AcDbLine
 10
775.4512584594
 20
631.6731814441
 30
0.0
 11
775.4490898526
 21
631.6798557296
 31
0.0
  0
LINE
  5
1E0
330
1F
100
AcDbEntity
  8
0
  6
SLD-Solid
 62
   142
420
    32960
370
     0
100
AcDbLine
 10
795.5351944869
 20
569.8611821704
 30
0.0
 11
775.4512584594
 21
631.6731814441
 31
0.0
  0
LINE
  5
1E1
330
1F
100
AcDbEntity
  8
0
  6
SLD-Solid
 62
     7
370
    15
100
AcDbLine
 10
788.3578688292
 20
624.3113989633
 30
0.0
 11
801.8685107473
 21
582.7299187552
 31
0.0
  0
ARC
  5
1E2
330
1F
100
AcDbEntity
  8
0
  6
SLD-Solid
 62
   142
420
    32960
370
     0
100
AcDbCircle
 10
787.6163856881
 20
623.9986721619
 30
0.0
 40
0.8047330618619505
100
AcDbArc
 50
22.8679974599
 51
95.5696482875
  0
ARC
  5
1E3
330
1F
100
AcDbEntity
  8
0
  6
SLD-Solid
 62
   142
420
    32960
370
     0
100
AcDbCircle
 10
801.0686479838
 20
582.5325515844
 30
0.0
 40
0.8238532882958213
100
AcDbArc
 50
301.5551106294
 51
13.8609220281
  0
SPLINE
  5
1E4
330
1F
100
AcDbEntity
  8
0
  6
SLD-Solid
 62
   142
420
    32960
370
     0
100
AcDbSpline
210
0.0
220
0.0
230
1.0
 70
     8
 71
     3
 72
    10
 73
     6
 74
     0
 42
0.00000001
 43
0.00000001
 40
0.0
 40
0.0
 40
0.0
 40
0.0
 40
0.5
 40
0.5
 40
1.0
 40
1.0
 40
1.0
 40
1.0
 10
801.8685107473489
 20
582.7299187552264
 30
0.0
 10
801.9280006371963
 20
582.5468277006128
 30
0.0
 10
802.0135263471013
 20
582.3979404121711
 30
0.0
 10
802.2467342708171
 20
582.1770235334301
 30
0.0
 10
802.3893937545125
 20
582.110779682655
 30
0.0
 10
802.55689659475
 20
582.0892304510347
 30
0.0
  0
SPLINE
  5
1E5
330
1F
100
AcDbEntity
  8
0
  6
SLD-Solid
 62
   142
420
    32960
370
     0
100
AcDbSpline
210
0.0
220
0.0
230
1.0
 70
     8
 71
     3
 72
    10
 73
     6
 74
     0
 42
0.00000001
 43
0.00000001
 40
0.0
 40
0.0
 40
0.0
 40
0.0
 40
0.5
 40
0.5
 40
1.0
 40
1.0
 40
1.0
 40
1.0
 10
788.5205842423693
 20
625.2885579006145
 30
0.0
 10
788.4007187330031
 20
625.1634945032565
 30
0.0
 10
788.3272863184599
 20
625.0166793429759
 30
0.0
 10
788.2745070931201
 20
624.6822937870902
 30
0.0
 10
788.2956821104962
 20
624.5027900037745
 30
0.0
 10
788.3578688292201
 20
624.3113989633287
 30
0.0
  0
SPLINE
  5
1E6
330
1F
100
AcDbEntity
  8
0
  6
SLD-Solid
 62
     7
370
    15
100
AcDbSpline
210
0.0
220
0.0
230
1.0
 70
     8
 71
     3
 72
     8
 73
     4
 74
     0
 42
0.00000001
 43
0.00000001
 40
0.0
 40
0.0
 40
0.0
 40
0.0
 40
1.0
 40
1.0
 40
1.0
 40
1.0
 10
786.9253148060741
 20
630.8845081885244
 30
0.0
 10
793.2499371113881
 20
630.1990438766014
 30
0.0
 10
799.5736479580495
 20
629.5057931701675
 30
0.0
 10
805.894719299108
 20
628.7899937371695
 30
0.0
  0
LINE
  5
1E7
330
1F
100
AcDbEntity
  8
0
  6
SLD-Solid
 62
     7
370
    15
100
AcDbLine
 10
805.9139835763
 20
628.7307043885
 30
0.0
 11
807.38379763
 21
628.5688706775
 31
0.0
  0
SPLINE
  5
1E8
330
1F
100
AcDbEntity
  8
0
  6
SLD-Solid
 62
   142
420
    32960
370
     0
100
AcDbSpline
210
0.0
220
0.0
230
1.0
 70
     8
 71
     3
 72
    17
 73
    13
 74
     0
 42
0.00000001
 43
0.00000001
 40
0.0
 40
0.0
 40
0.0
 40
0.0
 40
0.0000166887075715
 40
0.0000166887075715
 40
0.0000166887075715
 40
0.0000336582619935
 40
0.0000336582619935
 40
0.0000336582619935
 40
0.0000426621382241
 40
0.0000426621382241
 40
0.0000426621382241
 40
0.0000451385286556
 40
0.0000451385286556
 40
0.0000451385286556
 40
0.0000451385286556
 10
787.7823019092817
 20
626.0828117973535
 30
0.0
 10
787.7832861896627
 20
626.0797824938294
 30
0.0
 10
787.7845982775922
 20
626.0767218027202
 30
0.0
 10
787.786486766594
 20
626.0736980788527
 30
0.0
 10
787.7883925159264
 20
626.0706467188837
 30
0.0
 10
787.7909415973721
 20
626.0675469756434
 30
0.0
 10
787.7945430504268
 20
626.0647932339014
 30
0.0
 10
787.7964698828122
 20
626.0633199400145
 30
0.0
 10
787.7987523460511
 20
626.061925640488
 30
0.0
 10
787.8013011106227
 20
626.0607632148556
 30
0.0
 10
787.8020116099198
 20
626.0604391744935
 30
0.0
 10
787.8027448183733
 20
626.0601313307217
 30
0.0
 10
787.8034952607254
 20
626.0598425553816
 30
0.0
  0
LINE
  5
1E9
330
1F
100
AcDbEntity
  8
0
  6
SLD-Solid
 62
   142
420
    32960
370
     0
100
AcDbLine
 10
808.4923832362
 20
625.1569950079
 30
0.0
 11
807.38379763
 21
628.5688706775
 31
0.0
  0
SPLINE
  5
1EA
330
1F
100
AcDbEntity
  8
0
  6
SLD-Solid
 62
   142
420
    32960
370
     0
100
AcDbSpline
210
0.0
220
0.0
230
1.0
 70
     8
 71
     3
 72
     8
 73
     4
 74
     0
 42
0.00000001
 43
0.00000001
 40
0.0
 40
0.0
 40
0.0
 40
0.0
 40
1.0
 40
1.0
 40
1.0
 40
1.0
 10
786.9287197477393
 20
630.8740288556212
 30
0.0
 10
793.258628580634
 20
630.1722942848016
 30
0.0
 10
799.5876259043744
 20
629.4627734748994
 30
0.0
 10
805.9139835762637
 20
628.7307043885384
 30
0.0
  0
SPLINE
  5
1EB
330
1F
100
AcDbEntity
  8
0
  6
SLD-Solid
 62
   142
420
    32960
370
     0
100
AcDbSpline
210
0.0
220
0.0
230
1.0
 70
     8
 71
     3
 72
    10
 73
     6
 74
     0
 42
0.00000001
 43
0.00000001
 40
0.0
 40
0.0
 40
0.0
 40
0.0
 40
0.5
 40
0.5
 40
1.0
 40
1.0
 40
1.0
 40
1.0
 10
786.9287197477393
 20
630.8740288556212
 30
0.0
 10
786.865891650221
 20
630.8809939872228
 30
0.0
 10
786.8059359435275
 20
630.888342260006
 30
0.0
 10
786.7201702522284
 20
630.8999915637917
 30
0.0
 10
786.6951634007478
 20
630.9041524476904
 30
0.0
 10
786.6947603103122
 20
630.9054354251502
 30
0.0
  0
ELLIPSE
  5
1EC
330
1F
100
AcDbEntity
  8
0
  6
SLD-Solid
 62
   142
420
    32960
370
     0
100
AcDbEllipse
 10
782.4717194357
 20
592.2364434583
 30
0.0
 11
4.218560212309285
 21
38.67538777746314
 31
0.0
210
0.0
220
0.0
230
1.0
 40
0.0076158082
 41
6.265810452742874
 42
6.266711007503012
  0
SPLINE
  5
1ED
330
1F
100
AcDbEntity
  8
0
  6
SLD-Solid
 62
   142
420
    32960
370
     0
100
AcDbSpline
210
0.0
220
0.0
230
1.0
 70
     8
 71
     3
 72
    10
 73
     6
 74
     0
 42
0.00000001
 43
0.00000001
 40
0.0
 40
0.0
 40
0.0
 40
0.0
 40
0.5
 40
0.5
 40
1.0
 40
1.0
 40
1.0
 40
1.0
 10
786.694559389155
 20
630.9060537968876
 30
0.0
 10
786.6941493687642
 20
630.9072733172289
 30
0.0
 10
786.7182913434466
 20
630.9055689966441
 30
0.0
 10
786.8028319658022
 20
630.8975396595731
 30
0.0
 10
786.8625391855024
 20
630.891311827617
 30
0.0
 10
786.9253148060741
 20
630.8845081885244
 30
0.0
  0
SPLINE
  5
1EE
330
1F
100
AcDbEntity
  8
0
  6
SLD-Solid
 62
   142
420
    32960
370
     0
100
AcDbSpline
210
0.0
220
0.0
230
1.0
 70
     8
 71
     3
 72
    12
 73
     8
 74
     0
 42
0.00000001
 43
0.00000001
 40
0.0
 40
0.0
 40
0.0
 40
0.0
 40
0.2500000000000551
 40
0.2500000000000551
 40
0.5000000000001101
 40
0.5000000000001101
 40
1.0
 40
1.0
 40
1.0
 40
1.0
 10
787.8034952607254
 20
626.0598425553816
 30
0.0
 10
787.8871912392041
 20
626.0276357715011
 30
0.0
 10
787.9669460355481
 20
625.9855083214385
 30
0.0
 10
788.1187696090308
 20
625.8819065737564
 30
0.0
 10
788.1897026742979
 20
625.8208120067063
 30
0.0
 10
788.3778493363695
 20
625.6185810937591
 30
0.0
 10
788.4727273385297
 20
625.4540276893609
 30
0.0
 10
788.5205842423703
 20
625.2885579006106
 30
0.0
  0
SPLINE
  5
1EF
330
1F
100
AcDbEntity
  8
0
  6
SLD-Solid
 62
     7
370
    15
100
AcDbSpline
210
0.0
220
0.0
230
1.0
 70
     8
 71
     3
 72
    17
 73
    13
 74
     0
 42
0.00000001
 43
0.00000001
 40
0.0
 40
0.0
 40
0.0
 40
0.0
 40
0.0000166887075716
 40
0.0000166887075716
 40
0.0000166887075716
 40
0.0000336582619937
 40
0.0000336582619937
 40
0.0000336582619937
 40
0.0000426621382241
 40
0.0000426621382241
 40
0.0000426621382241
 40
0.0000451385286555
 40
0.0000451385286555
 40
0.0000451385286555
 40
0.0000451385286555
 10
802.2231127561414
 20
581.6385659902239
 30
0.0
 10
802.2221284757605
 20
581.6415952937482
 30
0.0
 10
802.2213909480978
 20
581.6448426708048
 30
0.0
 10
802.2211414674975
 20
581.6483989407841
 30
0.0
 10
802.2208897067053
 20
581.6519877142073
 30
0.0
 10
802.2211299735521
 20
581.6559937716477
 30
0.0
 10
802.2224250014934
 20
581.6603384765074
 30
0.0
 10
802.2231178612196
 20
581.6626629599592
 30
0.0
 10
802.22414486407
 20
581.665132570202
 30
0.0
 10
802.2255236012795
 20
581.6675711185202
 30
0.0
 10
802.2259079411393
 20
581.6682508936885
 30
0.0
 10
802.2263201732096
 20
581.6689309136474
 30
0.0
 10
802.2267575559397
 20
581.6696056367523
 30
0.0
  0
SPLINE
  5
1F0
330
1F
100
AcDbEntity
  8
0
  6
SLD-Solid
 62
   142
420
    32960
370
     0
100
AcDbSpline
210
0.0
220
0.0
230
1.0
 70
     8
 71
     3
 72
    14
 73
    10
 74
     0
 42
0.00000001
 43
0.00000001
 40
0.0
 40
0.0
 40
0.0
 40
0.0
 40
0.0000095361705259
 40
0.0000095361705259
 40
0.0000095361705259
 40
0.0000219642949668
 40
0.0000219642949668
 40
0.0000219642949668
 40
0.0000450544384129
 40
0.0000450544384129
 40
0.0000450544384129
 40
0.0000450544384129
 10
802.4304496022856
 20
581.04270597934
 30
0.0
 10
802.4287771297061
 20
581.0401808774324
 30
0.0
 10
802.4274675762834
 20
581.0375791032569
 30
0.0
 10
802.4265636191224
 20
581.0351456058697
 30
0.0
 10
802.4253847345424
 20
581.0319719902732
 30
0.0
 10
802.4248203002085
 20
581.0289746052613
 30
0.0
 10
802.4246319666814
 20
581.0262452394077
 30
0.0
 10
802.4242828659534
 20
581.0211860042242
 30
0.0
 10
802.4251300816001
 20
581.0168205937132
 30
0.0
 10
802.4264076334895
 20
581.012888693296
 30
0.0
  0
SPLINE
  5
1F1
330
1F
100
AcDbEntity
  8
0
  6
SLD-Solid
 62
   142
420
    32960
370
     0
100
AcDbSpline
210
0.0
220
0.0
230
1.0
 70
     8
 71
     3
 72
    12
 73
     8
 74
     0
 42
0.00000001
 43
0.00000001
 40
0.0
 40
0.0
 40
0.0
 40
0.0
 40
0.2500000000000003
 40
0.2500000000000003
 40
0.5000000000000006
 40
0.5000000000000006
 40
1.0
 40
1.0
 40
1.0
 40
1.0
 10
802.4304496022856
 20
581.04270597934
 30
0.0
 10
802.479579559249
 20
581.1168824708221
 30
0.0
 10
802.5195964296228
 20
581.197055781326
 30
0.0
 10
802.5818581549466
 20
581.3690970592828
 30
0.0
 10
802.6034022764419
 20
581.4600060313912
 30
0.0
 10
802.6366593354785
 20
581.7344762997809
 30
0.0
 10
802.6162297045934
 20
581.9248032993547
 30
0.0
 10
802.5568965947488
 20
582.0892304510384
 30
0.0
  0
ARC
  5
1F2
330
1F
100
AcDbEntity
  8
0
  6
SLD-Solid
 62
   142
420
    32960
370
     0
100
AcDbCircle
 10
803.076840406
 20
624.9198804516
 30
0.0
 40
5.420731265991571
100
AcDbArc
 50
351.021905538
 51
2.5070417299
  0
ARC
  5
1F3
330
1F
100
AcDbEntity
  8
0
  6
SLD-Solid
 62
   142
420
    32960
370
     0
100
AcDbCircle
 10
813.6977088368
 20
590.7757397383
 30
0.0
 40
5.915284314079126
100
AcDbArc
 50
34.4267914522
 51
44.7780326591
  0
LINE
  5
1F4
330
1F
100
AcDbEntity
  8
0
  6
SLD-Solid
 62
     7
370
    15
100
AcDbLine
 10
809.2824939815
 20
624.6333841605
 30
0.0
 11
818.901762534
 21
595.0283196967
 31
0.0
  0
ARC
  5
1F5
330
1F
100
AcDbEntity
  8
0
  6
SLD-Solid
 62
   142
420
    32960
370
     0
100
AcDbCircle
 10
808.3009178153
 20
625.1996138625
 30
0.0
 40
1.133184824131715
100
AcDbArc
 50
276.5997170054
 51
330.0211740749
  0
ARC
  5
1F6
330
1F
100
AcDbEntity
  8
0
  6
SLD-Solid
 62
   142
420
    32960
370
     0
100
AcDbCircle
 10
818.4978108557
 20
593.8336811835
 30
0.0
 40
1.26108609369664
100
AcDbArc
 50
71.3176939149
 51
118.4717421167
  0
LINE
  5
1F7
330
1F
100
AcDbEntity
  8
0
  6
SLD-Solid
 62
     7
370
    15
100
AcDbLine
 10
818.901762534
 20
595.0283196967
 30
0.0
 11
819.8498631071
 21
592.1103661712
 31
0.0
  0
LINE
  5
1F8
330
1F
100
AcDbEntity
  8
0
  6
SLD-Solid
 62
   142
420
    32960
370
     0
100
AcDbLine
 10
808.2271669722
 20
627.8813467233
 30
0.0
 11
809.2824939815
 21
624.6333841605
 31
0.0
  0
ARC
  5
1F9
330
1F
100
AcDbEntity
  8
0
  6
SLD-Solid
 62
   142
420
    32960
370
     0
100
AcDbCircle
 10
818.0854269176
 20
594.807987083
 30
0.0
 40
0.8455473371768777
100
AcDbArc
 50
305.5406110626
 51
15.1044722468
  0
SPLINE
  5
1FA
330
1F
100
AcDbEntity
  8
0
  6
SLD-Solid
 62
   142
420
    32960
370
     0
100
AcDbSpline
210
0.0
220
0.0
230
1.0
 70
     8
 71
     3
 72
    10
 73
     6
 74
     0
 42
0.00000001
 43
0.00000001
 40
0.0
 40
0.0
 40
0.0
 40
0.0
 40
0.5
 40
0.5
 40
1.0
 40
1.0
 40
1.0
 40
1.0
 10
807.3837976299974
 20
628.5688706774657
 30
0.0
 10
807.575998158974
 20
628.5477021720399
 30
0.0
 10
807.7580778359794
 20
628.4705996766677
 30
0.0
 10
808.0543171060875
 20
628.2292953263517
 30
0.0
 10
808.1674296736834
 20
628.0651992235091
 30
0.0
 10
808.2271669721989
 20
627.8813467233124
 30
0.0
  0
LINE
  5
1FB
330
1F
100
AcDbEntity
  8
0
  6
SLD-Solid
 62
   142
420
    32960
370
     0
100
AcDbLine
 10
807.4607424909
 20
628.6110132062
 30
0.0
 11
807.3645333528
 21
628.6281600261
 31
0.0
  0
LINE
  5
1FC
330
1F
100
AcDbEntity
  8
0
  6
SLD-Solid
 62
     7
370
    15
100
AcDbLine
 10
788.1369039181
 20
624.9914590324
 30
0.0
 11
788.357868829
 21
624.3113989633
 31
0.0
  0
SPLINE
  5
1FD
330
1F
100
AcDbEntity
  8
0
  6
SLD-Solid
 62
   142
420
    32960
370
     0
100
AcDbSpline
210
0.0
220
0.0
230
1.0
 70
     8
 71
     3
 72
    10
 73
     6
 74
     0
 42
0.00000001
 43
0.00000001
 40
0.0
 40
0.0
 40
0.0
 40
0.0
 40
0.5
 40
0.5
 40
1.0
 40
1.0
 40
1.0
 40
1.0
 10
788.1369039180744
 20
624.9914590323511
 30
0.0
 10
788.0774140282269
 20
625.174550086965
 30
0.0
 10
788.0590920285974
 20
625.3452731845352
 30
0.0
 10
788.1179095188023
 20
625.6610748720594
 30
0.0
 10
788.1943863069813
 20
625.7985204137256
 30
0.0
 10
788.3172326307961
 20
625.9144098075311
 30
0.0
  0
SPLINE
  5
1FE
330
1F
100
AcDbEntity
  8
0
  6
SLD-Solid
 62
     7
370
    15
100
AcDbSpline
210
0.0
220
0.0
230
1.0
 70
     8
 71
     3
 72
     9
 73
     5
 74
     0
 42
0.00000001
 43
0.00000001
 40
0.0
 40
0.0
 40
0.0
 40
0.0
 40
0.6346532962183578
 40
1.0
 40
1.0
 40
1.0
 40
1.0
 10
802.2267575559397
 20
581.6696056367523
 30
0.0
 10
802.2818295607345
 20
581.7660918757697
 30
0.0
 10
802.368604505611
 20
581.9181217156713
 30
0.0
 10
802.3885506725007
 20
582.0952617048775
 30
0.0
 10
802.3958379388268
 20
582.1599792160418
 30
0.0
  0
ARC
  5
1FF
330
1F
100
AcDbEntity
  8
0
  6
SLD-Solid
 62
   142
420
    32960
370
     0
100
AcDbCircle
 10
787.4150448931
 20
624.7215552752
 30
0.0
 40
0.7706675613375564
100
AcDbArc
 50
20.5008166327
 51
84.1244340997
  0
LINE
  5
200
330
1F
100
AcDbEntity
  8
0
  6
SLD-Solid
 62
     7
370
    15
100
AcDbLine
 10
149.0998307158
 20
-25.244804926
 30
0.0
 11
149.0998307158
 21
-23.244804926
 31
0.0
  0
LINE
  5
201
330
1F
100
AcDbEntity
  8
0
  6
SLD-Solid
 62
     7
370
    15
100
AcDbLine
 10
79.0998307158
 20
-25.244804926
 30
0.0
 11
149.0998307158
 21
-25.244804926
 31
0.0
  0
LINE
  5
202
330
1F
100
AcDbEntity
  8
0
  6
SLD-Solid
 62
     7
370
    15
100
AcDbLine
 10
79.0998307158
 20
-25.244804926
 30
0.0
 11
79.0998307158
 21
-23.244804926
 31
0.0
  0
LINE
  5
203
330
1F
100
AcDbEntity
  8
0
  6
SLD-Solid
 62
   142
420
    32960
370
     0
100
AcDbLine
 10
79.0998307158
 20
-23.244804926
 30
0.0
 11
149.0998307158
 21
-23.244804926
 31
0.0
  0
LINE
  5
204
330
1F
100
AcDbEntity
  8
0
  6
SLD-Solid
 62
     7
370
    15
100
AcDbLine
 10
145.0594809361
 20
-119.244804926
 30
0.0
 11
83.1401804954
 21
-119.244804926
 31
0.0
  0
ARC
  5
205
330
1F
100
AcDbEntity
  8
0
  6
SLD-Solid
 62
     7
370
    15
100
AcDbCircle
 10
816.009345243
 20
542.6039691295
 30
0.0
 40
10.79999999999998
100
AcDbArc
 50
320.1368571726
 51
70.1368571726
  0
LINE
  5
206
330
1F
100
AcDbEntity
  8
0
  6
SLD-Solid
 62
   142
420
    32960
370
     0
100
AcDbLine
 10
796.9547676453
 20
560.1203338298
 30
0.0
 11
797.226587335
 21
560.872739343
 31
0.0
  0
LINE
  5
207
330
1F
100
AcDbEntity
  8
0
  6
SLD-Solid
 62
     7
370
    15
100
AcDbLine
 10
797.226587335
 20
560.872739343
 30
0.0
 11
801.9291217924
 21
559.1738662819
 31
0.0
  0
LINE
  5
208
330
1F
100
AcDbEntity
  8
0
  6
SLD-Solid
 62
     7
370
    15
100
AcDbLine
 10
801.6573021026
 20
558.4214607688
 30
0.0
 11
796.9547676453
 21
560.1203338298
 31
0.0
  0
LINE
  5
209
330
1F
100
AcDbEntity
  8
0
  6
SLD-Solid
 62
   142
420
    32960
370
     0
100
AcDbLine
 10
818.5459615701
 20
528.7918664284
 30
0.0
 11
817.2640495748
 21
527.2567111802
 31
0.0
  0
LINE
  5
20A
330
1F
100
AcDbEntity
  8
0
  6
SLD-Solid
 62
   142
420
    32960
370
     0
100
AcDbLine
 10
818.5459615701
 20
528.7918664284
 30
0.0
 11
824.2991835838
 21
535.681644355
 31
0.0
  0
ARC
  5
20B
330
1F
100
AcDbEntity
  8
0
  6
SLD-Solid
 62
     7
370
    15
100
AcDbCircle
 10
816.009345243
 20
542.6039691295
 30
0.0
 40
9.999999999999993
100
AcDbArc
 50
320.1368571726
 51
70.1368571726
  0
LINE
  5
20C
330
1F
100
AcDbEntity
  8
0
  6
SLD-Solid
 62
   142
420
    32960
370
     0
100
AcDbLine
 10
824.2991835838
 20
535.681644355
 30
0.0
 11
823.6851214845
 21
536.1944091531
 31
0.0
  0
LINE
  5
20D
330
1F
100
AcDbEntity
  8
0
  6
SLD-Solid
 62
   142
420
    32960
370
     0
100
AcDbLine
 10
816.6499874755
 20
527.7694759783
 30
0.0
 11
817.9318994708
 21
529.3046312266
 31
0.0
  0
LINE
  5
20E
330
1F
100
AcDbEntity
  8
0
  6
SLD-Solid
 62
   142
420
    32960
370
     0
100
AcDbLine
 10
817.9318994708
 20
529.3046312266
 30
0.0
 11
823.6851214845
 21
536.1944091531
 31
0.0
  0
LINE
  5
20F
330
1F
100
AcDbEntity
  8
0
  6
SLD-Solid
 62
     7
370
    15
100
AcDbLine
 10
819.4070913651
 20
552.0090380442
 30
0.0
 11
801.6573021026
 21
558.4214607688
 31
0.0
  0
LINE
  5
210
330
1F
100
AcDbEntity
  8
0
  6
SLD-Solid
 62
   142
420
    32960
370
     0
100
AcDbLine
 10
796.9547676453
 20
560.1203338298
 30
0.0
 11
796.6829479555
 21
560.2185334608
 31
0.0
  0
LINE
  5
211
330
1F
100
AcDbEntity
  8
0
  6
SLD-Solid
 62
     7
370
    15
100
AcDbLine
 10
819.6789110549
 20
552.7614435574
 30
0.0
 11
801.9291217924
 21
559.1738662819
 31
0.0
  0
LINE
  5
212
330
1F
100
AcDbEntity
  8
0
  6
SLD-Solid
 62
   142
420
    32960
370
     0
100
AcDbLine
 10
797.226587335
 20
560.872739343
 30
0.0
 11
796.9547676453
 21
560.970938974
 31
0.0
  0
LINE
  5
213
330
1F
100
AcDbEntity
  8
0
  6
SLD-Solid
 62
   142
420
    32960
370
     0
100
AcDbLine
 10
817.2640495748
 20
527.2567111802
 30
0.0
 11
816.6499874755
 21
527.7694759783
 31
0.0
  0
ARC
  5
214
330
1F
100
AcDbEntity
  8
0
  6
SLD-Solid
 62
   142
420
    32960
370
     0
100
AcDbCircle
 10
796.2582296902
 20
559.0428998465
 30
0.0
 40
2.050000000000068
100
AcDbArc
 50
70.1368571726
 51
90.0
  0
SPLINE
  5
215
330
1F
100
AcDbEntity
  8
0
  6
SLD-Solid
 62
   142
420
    32960
370
     0
100
AcDbSpline
210
0.0
220
0.0
230
1.0
 70
     8
 71
     3
 72
    14
 73
    10
 74
     0
 42
0.00000001
 43
0.00000001
 40
0.0
 40
0.0
 40
0.0
 40
0.0
 40
0.25
 40
0.25
 40
0.5
 40
0.5
 40
0.75
 40
0.75
 40
1.0
 40
1.0
 40
1.0
 40
1.0
 10
44.65169730474333
 20
-21.05710015450285
 30
0.0
 10
44.48805100702364
 20
-21.15538728602939
 30
0.0
 10
44.3245124492942
 20
-21.25364837481647
 30
0.0
 10
44.02217357927968
 20
-21.45019659513003
 30
0.0
 10
43.88351390477469
 20
-21.54847070528659
 30
0.0
 10
43.65211375174555
 20
-21.74501892560021
 30
0.0
 10
43.55946431930052
 20
-21.84329303575705
 30
0.0
 10
43.43423145890785
 20
-22.03984125607061
 30
0.0
 10
43.40169730474336
 20
-22.13810234485753
 30
0.0
 10
43.40169730474336
 20
-22.23638947638423
 30
0.0
  0
SPLINE
  5
216
330
1F
100
AcDbEntity
  8
0
  6
SLD-Solid
 62
     7
370
    15
100
AcDbSpline
210
0.0
220
0.0
230
1.0
 70
     8
 71
     3
 72
    14
 73
    10
 74
     0
 42
0.00000001
 43
0.00000001
 40
0.0
 40
0.0
 40
0.0
 40
0.0
 40
0.25
 40
0.25
 40
0.5
 40
0.5
 40
0.75
 40
0.75
 40
1.0
 40
1.0
 40
1.0
 40
1.0
 10
44.65169730472412
 20
657.9428998454962
 30
0.0
 10
44.38335293222983
 20
658.0411739556531
 30
0.0
 10
44.11511414178732
 20
658.13944806581
 30
0.0
 10
43.61927839496321
 20
658.3359962861231
 30
0.0
 10
43.39187652877469
 20
658.4342703962802
 30
0.0
 10
43.01238027780685
 20
658.6308186165936
 30
0.0
 10
42.86043520859684
 20
658.7290927267504
 30
0.0
 10
42.65505331755281
 20
658.9256409470638
 30
0.0
 10
42.60169730472296
 20
659.0239150572208
 30
0.0
 10
42.60169730472307
 20
659.1221891673775
 30
0.0
  0
LINE
  5
217
330
1F
100
AcDbEntity
  8
0
  6
SLD-Solid
 62
   142
420
    32960
370
     0
100
AcDbLine
 10
43.4016973047
 20
659.1221891674
 30
0.0
 11
42.6016973047
 21
659.1221891674
 31
0.0
  0
SPLINE
  5
218
330
1F
100
AcDbEntity
  8
0
  6
SLD-Solid
 62
   142
420
    32960
370
     0
100
AcDbSpline
210
0.0
220
0.0
230
1.0
 70
     8
 71
     3
 72
    14
 73
    10
 74
     0
 42
0.00000001
 43
0.00000001
 40
0.0
 40
0.0
 40
0.0
 40
0.0
 40
0.25
 40
0.25
 40
0.5
 40
0.5
 40
0.75
 40
0.75
 40
1.0
 40
1.0
 40
1.0
 40
1.0
 10
44.65169730472374
 20
657.9428998454962
 30
0.0
 10
44.48805100700382
 20
658.0411869770227
 30
0.0
 10
44.32451244927449
 20
658.1394480658096
 30
0.0
 10
44.02217357925975
 20
658.3359962861231
 30
0.0
 10
43.88351390475464
 20
658.43427039628
 30
0.0
 10
43.65211375172539
 20
658.6308186165935
 30
0.0
 10
43.55946431928026
 20
658.7290927267504
 30
0.0
 10
43.43423145888769
 20
658.9256409470638
 30
0.0
 10
43.4016973047231
 20
659.0239020358508
 30
0.0
 10
43.4016973047231
 20
659.1221891673773
 30
0.0
  0
LINE
  5
219
330
1F
100
AcDbEntity
  8
0
  6
SLD-Solid
 62
     7
370
    15
100
AcDbLine
 10
42.6016973047
 20
659.1221891674
 30
0.0
 11
42.6016973047
 21
-22.2363894764
 31
0.0
  0
SPLINE
  5
21A
330
1F
100
AcDbEntity
  8
0
  6
SLD-Solid
 62
   142
420
    32960
370
     0
100
AcDbSpline
210
0.0
220
0.0
230
1.0
 70
     8
 71
     3
 72
    14
 73
    10
 74
     0
 42
0.00000001
 43
0.00000001
 40
0.0
 40
0.0
 40
0.0
 40
0.0
 40
0.25
 40
0.25
 40
0.5
 40
0.5
 40
0.75
 40
0.75
 40
1.0
 40
1.0
 40
1.0
 40
1.0
 10
42.60169730472535
 20
-22.23638947638512
 30
0.0
 10
42.60169730472529
 20
-22.13811536622834
 30
0.0
 10
42.65505331755514
 20
-22.03984125607172
 30
0.0
 10
42.86043520859906
 20
-21.84329303575816
 30
0.0
 10
43.01238027780907
 20
-21.74501892560132
 30
0.0
 10
43.3918765287768
 20
-21.54847070528782
 30
0.0
 10
43.61927839496521
 20
-21.45019659513092
 30
0.0
 10
44.11511414178909
 20
-21.25364837481736
 30
0.0
 10
44.38335293223161
 20
-21.15537426466074
 30
0.0
 10
44.65169730472579
 20
-21.05710015450396
 30
0.0
  0
LINE
  5
21B
330
1F
100
AcDbEntity
  8
0
  6
SLD-Solid
 62
     7
370
    15
100
AcDbLine
 10
667.4116973091
 20
659.9928998455
 30
0.0
 11
665.2516973063
 21
659.9928998455
 31
0.0
  0
LINE
  5
21C
330
1F
100
AcDbEntity
  8
0
  6
SLD-Solid
 62
     7
370
    15
100
AcDbLine
 10
150.2516973063
 20
659.9928998455
 30
0.0
 11
147.5016973047
 21
659.9928998455
 31
0.0
  0
LINE
  5
21D
330
1F
100
AcDbEntity
  8
0
  6
SLD-Solid
 62
     7
370
    15
100
AcDbLine
 10
46.1016973047
 20
659.9928998455
 30
0.0
 11
43.4724079828
 21
659.9928998455
 31
0.0
  0
SPLINE
  5
21E
330
1F
100
AcDbEntity
  8
0
  6
SLD-Solid
 62
   142
420
    32960
370
     0
100
AcDbSpline
210
0.0
220
0.0
230
1.0
 70
     8
 71
     3
 72
    11
 73
     7
 74
     0
 42
0.00000001
 43
0.00000001
 40
0.0
 40
0.0
 40
0.0
 40
0.0
 40
0.3237812545456923
 40
0.6475625090913856
 40
0.9713437636370787
 40
1.0
 40
1.0
 40
1.0
 40
1.0
 10
748.1516973047237
 20
657.9428998454986
 30
0.0
 10
748.2499714148805
 20
658.2128745511184
 30
0.0
 10
748.4465196351939
 20
658.7528239623585
 30
0.0
 10
748.741341965664
 20
659.4102095961489
 30
0.0
 10
748.9465879289431
 20
659.7937569392196
 30
0.0
 10
749.053559782065
 20
659.8463847154463
 30
0.0
 10
749.0622575250303
 20
659.8506638118356
 30
0.0
  0
SPLINE
  5
21F
330
1F
100
AcDbEntity
  8
0
  6
SLD-Solid
 62
   142
420
    32960
370
     0
100
AcDbSpline
210
0.0
220
0.0
230
1.0
 70
     8
 71
     3
 72
    22
 73
    18
 74
     0
 42
0.00000001
 43
0.00000001
 40
0.0
 40
0.0
 40
0.0
 40
0.0
 40
0.125
 40
0.125
 40
0.25
 40
0.25
 40
0.375
 40
0.375
 40
0.5
 40
0.5
 40
0.625
 40
0.625
 40
0.75
 40
0.75
 40
0.875
 40
0.875
 40
1.0
 40
1.0
 40
1.0
 40
1.0
 10
43.47240798284269
 20
659.992899845496
 30
0.0
 10
43.52198178563859
 20
659.992899845496
 30
0.0
 10
43.57078459199437
 20
659.9796041129138
 30
0.0
 10
43.66853350612493
 20
659.9275858364014
 30
0.0
 10
43.71786711614606
 20
659.8884300079264
 30
0.0
 10
43.81653737841595
 20
659.7853344185789
 30
0.0
 10
43.86525102135591
 20
659.7222728878673
 30
0.0
 10
43.96309238625451
 20
659.5739769351985
 30
0.0
 10
44.0127389573442
 20
659.4876628164343
 30
0.0
 10
44.11103477076244
 20
659.2979147831985
 30
0.0
 10
44.159705021661
 20
659.1947217110198
 30
0.0
 10
44.25773353055229
 20
658.9722957362354
 30
0.0
 10
44.30747987810463
 20
658.8519842359018
 30
0.0
 10
44.40549893722506
 20
658.6047626713922
 30
0.0
 10
44.45417037873634
 20
658.4770224898211
 30
0.0
 10
44.55248149789065
 20
658.2137895489262
 30
0.0
 10
44.60212349996912
 20
658.0782646074653
 30
0.0
 10
44.65169730472407
 20
657.9428998454962
 30
0.0
  0
SPLINE
  5
220
330
1F
100
AcDbEntity
  8
0
  6
SLD-Solid
 62
     7
370
    15
100
AcDbSpline
210
0.0
220
0.0
230
1.0
 70
     8
 71
     3
 72
    22
 73
    18
 74
     0
 42
0.00000001
 43
0.00000001
 40
0.0
 40
0.0
 40
0.0
 40
0.0
 40
0.125
 40
0.125
 40
0.25
 40
0.25
 40
0.375
 40
0.375
 40
0.5
 40
0.5
 40
0.625
 40
0.625
 40
0.75
 40
0.75
 40
0.875
 40
0.875
 40
1.0
 40
1.0
 40
1.0
 40
1.0
 10
44.65169730472629
 20
-21.05710015450391
 30
0.0
 10
44.60212350128279
 20
-21.19246491289234
 30
0.0
 10
44.55332069608681
 20
-21.32570345800783
 30
0.0
 10
44.45557178771675
 20
-21.58750896681389
 30
0.0
 10
44.40623818847139
 20
-21.71706979901045
 30
0.0
 10
44.30756791414686
 20
-21.9659909206234
 30
0.0
 10
44.25885426891163
 20
-22.08383152505639
 30
0.0
 10
44.16101290628399
 20
-22.30607303041327
 30
0.0
 10
44.11136633975376
 20
-22.41143298805809
 30
0.0
 10
44.0130705168445
 20
-22.60126485820102
 30
0.0
 10
43.96440026478709
 20
-22.68601270580745
 30
0.0
 10
43.86637176051445
 20
-22.83495227424853
 30
0.0
 10
43.81662541215398
 20
-22.89937439557488
 30
0.0
 10
43.71860634601404
 20
-23.00192570834064
 30
0.0
 10
43.66993490446508
 20
-23.04084169538895
 30
0.0
 10
43.57162379230145
 20
-23.09355203278168
 30
0.0
 10
43.52198178824734
 20
-23.10710015450385
 30
0.0
 10
43.47240798284491
 20
-23.10710015450379
 30
0.0
  0
SPLINE
  5
221
330
1F
100
AcDbEntity
  8
0
  6
SLD-Solid
 62
   142
420
    32960
370
     0
100
AcDbSpline
210
0.0
220
0.0
230
1.0
 70
     8
 71
     3
 72
    14
 73
    10
 74
     0
 42
0.00000001
 43
0.00000001
 40
0.0
 40
0.0
 40
0.0
 40
0.0
 40
0.2499999999999998
 40
0.2499999999999998
 40
0.4999999999999999
 40
0.4999999999999999
 40
0.7499999999999999
 40
0.7499999999999999
 40
1.0
 40
1.0
 40
1.0
 40
1.0
 10
44.65169730472629
 20
-21.05710015450385
 30
0.0
 10
44.55248694353059
 20
-21.22228361293782
 30
0.0
 10
44.45609226904612
 20
-21.38283226629551
 30
0.0
 10
44.25770295059655
 20
-21.68800698519646
 30
0.0
 10
44.16127840679762
 20
-21.82415536509019
 30
0.0
 10
43.96292722951634
 20
-22.05769375035899
 30
0.0
 10
43.86646450644993
 20
-22.14870566704519
 30
0.0
 10
43.66815119420814
 20
-22.27509465380401
 30
0.0
 10
43.5716183439559
 20
-22.30710015450388
 30
0.0
 10
43.47240798284491
 20
-22.30710015450382
 30
0.0
  0
LINE
  5
222
330
1F
100
AcDbEntity
  8
0
  6
SLD-Solid
 62
   142
420
    32960
370
     0
100
AcDbLine
 10
43.4724079828
 20
-23.1071001545
 30
0.0
 11
43.4724079828
 21
-22.3071001545
 31
0.0
  0
LINE
  5
223
330
1F
100
AcDbEntity
  8
0
  6
SLD-Solid
 62
     7
370
    15
100
AcDbLine
 10
750.2016973047
 20
-22.2363894764
 30
0.0
 11
750.2016973047
 21
659.1221891674
 31
0.0
  0
SPLINE
  5
224
330
1F
100
AcDbEntity
  8
0
  6
SLD-Solid
 62
   142
420
    32960
370
     0
100
AcDbSpline
210
0.0
220
0.0
230
1.0
 70
     8
 71
     3
 72
    22
 73
    18
 74
     0
 42
0.00000001
 43
0.00000001
 40
0.0
 40
0.0
 40
0.0
 40
0.0
 40
0.1250000000000001
 40
0.1250000000000001
 40
0.2500000000000002
 40
0.2500000000000002
 40
0.3750000000000002
 40
0.3750000000000002
 40
0.5000000000000002
 40
0.5000000000000002
 40
0.6250000000000002
 40
0.6250000000000002
 40
0.7500000000000001
 40
0.7500000000000001
 40
0.8750000000000001
 40
0.8750000000000001
 40
1.0
 40
1.0
 40
1.0
 40
1.0
 10
748.1516973047253
 20
-21.05710015450124
 30
0.0
 10
748.2870620631139
 20
-21.10667395794486
 30
0.0
 10
748.4203006082292
 20
-21.15547676314084
 30
0.0
 10
748.6821061170352
 20
-21.25322567151094
 30
0.0
 10
748.8116669492321
 20
-21.30255927075619
 30
0.0
 10
749.0605880708449
 20
-21.40122954508072
 30
0.0
 10
749.178428675278
 20
-21.44994319031601
 30
0.0
 10
749.4006701806348
 20
-21.54778455294365
 30
0.0
 10
749.5060301382799
 20
-21.59743111947365
 30
0.0
 10
749.6958620084226
 20
-21.69572694238298
 30
0.0
 10
749.7806098560292
 20
-21.74439719444054
 30
0.0
 10
749.9295494244703
 20
-21.84242569871314
 30
0.0
 10
749.9939715457966
 20
-21.89217204707366
 30
0.0
 10
750.0965228585625
 20
-21.99019111321349
 30
0.0
 10
750.1354388456107
 20
-22.03886255476251
 30
0.0
 10
750.1881491830035
 20
-22.13717366692602
 30
0.0
 10
750.2016973047256
 20
-22.18681567098013
 30
0.0
 10
750.2016973047255
 20
-22.23638947638262
 30
0.0
  0
SPLINE
  5
225
330
1F
100
AcDbEntity
  8
0
  6
SLD-Solid
 62
   142
420
    32960
370
     0
100
AcDbSpline
210
0.0
220
0.0
230
1.0
 70
     8
 71
     3
 72
    22
 73
    18
 74
     0
 42
0.00000001
 43
0.00000001
 40
0.0
 40
0.0
 40
0.0
 40
0.0
 40
0.125
 40
0.125
 40
0.25
 40
0.25
 40
0.375
 40
0.375
 40
0.5
 40
0.5
 40
0.625
 40
0.625
 40
0.75
 40
0.75
 40
0.875
 40
0.875
 40
1.0
 40
1.0
 40
1.0
 40
1.0
 10
750.2016973047232
 20
659.1221891673799
 30
0.0
 10
750.2016973047232
 20
659.0726153645841
 30
0.0
 10
750.1884015721414
 20
659.0238125582289
 30
0.0
 10
750.1363832956291
 20
658.9260636440977
 30
0.0
 10
750.0972274671535
 20
658.8767300340766
 30
0.0
 10
749.9941318778059
 20
658.7780597718065
 30
0.0
 10
749.9310703470946
 20
658.7293461288666
 30
0.0
 10
749.7827743944256
 20
658.6315047639681
 30
0.0
 10
749.6964602756615
 20
658.5818581928786
 30
0.0
 10
749.506712242426
 20
658.4835623794601
 30
0.0
 10
749.4035191702471
 20
658.4348921285616
 30
0.0
 10
749.1810931954632
 20
658.3368636196702
 30
0.0
 10
749.0607816951288
 20
658.2871172721176
 30
0.0
 10
748.8135601306193
 20
658.1890982129975
 30
0.0
 10
748.6858199490487
 20
658.1404267714863
 30
0.0
 10
748.4225870081536
 20
658.0421156523317
 30
0.0
 10
748.2870620666923
 20
657.9924736502534
 30
0.0
 10
748.1516973047233
 20
657.9428998454986
 30
0.0
  0
LINE
  5
226
330
1F
100
AcDbEntity
  8
0
  6
SLD-Solid
 62
     7
370
    15
100
AcDbLine
 10
43.4724079828
 20
-23.1071001545
 30
0.0
 11
749.3309866266
 21
-23.1071001545
 31
0.0
  0
SPLINE
  5
227
330
1F
100
AcDbEntity
  8
0
  6
SLD-Solid
 62
   142
420
    32960
370
     0
100
AcDbSpline
210
0.0
220
0.0
230
1.0
 70
     8
 71
     3
 72
    14
 73
    10
 74
     0
 42
0.00000001
 43
0.00000001
 40
0.0
 40
0.0
 40
0.0
 40
0.0
 40
0.25
 40
0.25
 40
0.5
 40
0.5
 40
0.75
 40
0.75
 40
1.0
 40
1.0
 40
1.0
 40
1.0
 10
749.3309866266071
 20
-23.10710015450135
 30
0.0
 10
749.2327125164502
 20
-23.10710015450135
 30
0.0
 10
749.1344384062935
 20
-23.05374414167138
 30
0.0
 10
748.9378901859798
 20
-22.84836225062758
 30
0.0
 10
748.8396160758231
 20
-22.69641718141763
 30
0.0
 10
748.6430678555095
 20
-22.31692093044996
 30
0.0
 10
748.5447937453526
 20
-22.08951906426171
 30
0.0
 10
748.3482455250391
 20
-21.59368331743788
 30
0.0
 10
748.2499714148822
 20
-21.32544452699553
 30
0.0
 10
748.1516973047255
 20
-21.05710015450141
 30
0.0
  0
LINE
  5
228
330
1F
100
AcDbEntity
  8
0
  6
SLD-Solid
 62
     7
370
    15
100
AcDbLine
 10
43.4724079828
 20
659.1928998455
 30
0.0
 11
44.14985493
 21
659.1928998455
 31
0.0
  0
LINE
  5
229
330
1F
100
AcDbEntity
  8
0
  6
SLD-Solid
 62
     7
370
    15
100
AcDbLine
 10
748.6528737481
 20
659.1928998455
 30
0.0
 11
749.3309866266
 21
659.1928998455
 31
0.0
  0
SPLINE
  5
22A
330
1F
100
AcDbEntity
  8
0
  6
SLD-Solid
 62
   142
420
    32960
370
     0
100
AcDbSpline
210
0.0
220
0.0
230
1.0
 70
     8
 71
     3
 72
    14
 73
    10
 74
     0
 42
0.00000001
 43
0.00000001
 40
0.0
 40
0.0
 40
0.0
 40
0.0
 40
0.25
 40
0.25
 40
0.5
 40
0.5
 40
0.75
 40
0.75
 40
1.0
 40
1.0
 40
1.0
 40
1.0
 10
43.47240798284269
 20
659.1928998454961
 30
0.0
 10
43.57161834425421
 20
659.1928998454961
 30
0.0
 10
43.66801298558626
 20
659.1609620465082
 30
0.0
 10
43.86640215852283
 20
659.0345654543679
 30
0.0
 10
43.96282684843322
 20
658.943595999013
 30
0.0
 10
44.16117788124391
 20
658.7100890297861
 30
0.0
 10
44.25764074960764
 20
658.5738938914758
 30
0.0
 10
44.4559539184472
 20
658.2688532343121
 30
0.0
 10
44.55248694339736
 20
658.1080833041482
 30
0.0
 10
44.65169730472407
 20
657.9428998454962
 30
0.0
  0
SPLINE
  5
22B
330
1F
100
AcDbEntity
  8
0
  6
SLD-Solid
 62
   142
420
    32960
370
     0
100
AcDbSpline
210
0.0
220
0.0
230
1.0
 70
     8
 71
     3
 72
    14
 73
    10
 74
     0
 42
0.00000001
 43
0.00000001
 40
0.0
 40
0.0
 40
0.0
 40
0.0
 40
0.25
 40
0.25
 40
0.5
 40
0.5
 40
0.75
 40
0.75
 40
1.0
 40
1.0
 40
1.0
 40
1.0
 10
748.1516973047236
 20
657.9428998454983
 30
0.0
 10
748.2499714148803
 20
658.1065244628728
 30
0.0
 10
748.3482455250371
 20
658.2700847009475
 30
0.0
 10
748.5447937453505
 20
658.5724235709617
 30
0.0
 10
748.6430678555074
 20
658.711083245467
 30
0.0
 10
748.8396160758209
 20
658.9424833984963
 30
0.0
 10
748.9378901859777
 20
659.0351328309412
 30
0.0
 10
749.1344384062912
 20
659.1603656913336
 30
0.0
 10
749.2327125164479
 20
659.1928998454983
 30
0.0
 10
749.3309866266047
 20
659.1928998454983
 30
0.0
  0
LINE
  5
22C
330
1F
100
AcDbEntity
  8
0
  6
SLD-Solid
 62
   142
420
    32960
370
     0
100
AcDbLine
 10
43.4724079828
 20
659.9928998455
 30
0.0
 11
43.4724079828
 21
659.1928998455
 31
0.0
  0
LINE
  5
22D
330
1F
100
AcDbEntity
  8
0
  6
SLD-Solid
 62
   142
420
    32960
370
     0
100
AcDbLine
 10
43.4016973047
 20
-22.2363894764
 30
0.0
 11
43.4016973047
 21
-21.5582765978
 31
0.0
  0
LINE
  5
22E
330
1F
100
AcDbEntity
  8
0
  6
SLD-Solid
 62
   142
420
    32960
370
     0
100
AcDbLine
 10
43.4016973047
 20
-22.2363894764
 30
0.0
 11
42.6016973047
 21
-22.2363894764
 31
0.0
  0
LINE
  5
22F
330
1F
100
AcDbEntity
  8
0
  6
SLD-Solid
 62
   142
420
    32960
370
     0
100
AcDbLine
 10
749.4016973047
 20
659.1221891674
 30
0.0
 11
749.4016973047
 21
658.4447422202
 31
0.0
  0
LINE
  5
230
330
1F
100
AcDbEntity
  8
0
  6
SLD-Solid
 62
   142
420
    32960
370
     0
100
AcDbLine
 10
749.4016973047
 20
-21.5538842844
 30
0.0
 11
749.4016973047
 21
-22.2363894764
 31
0.0
  0
LINE
  5
231
330
1F
100
AcDbEntity
  8
0
  6
SLD-Solid
 62
   142
420
    32960
370
     0
100
AcDbLine
 10
749.4016973047
 20
-22.2363894764
 30
0.0
 11
750.2016973047
 21
-22.2363894764
 31
0.0
  0
LINE
  5
232
330
1F
100
AcDbEntity
  8
0
  6
SLD-Solid
 62
   142
420
    32960
370
     0
100
AcDbLine
 10
748.6528737481
 20
-22.3071001545
 30
0.0
 11
749.3309866266
 21
-22.3071001545
 31
0.0
  0
LINE
  5
233
330
1F
100
AcDbEntity
  8
0
  6
SLD-Solid
 62
   142
420
    32960
370
     0
100
AcDbLine
 10
749.3309866266
 20
-23.1071001545
 30
0.0
 11
749.3309866266
 21
-22.3071001545
 31
0.0
  0
LINE
  5
234
330
1F
100
AcDbEntity
  8
0
  6
SLD-Solid
 62
   142
420
    32960
370
     0
100
AcDbLine
 10
752.7016973047
 20
515.6928998455
 30
0.0
 11
752.7016973047
 21
519.9052253133
 31
0.0
  0
SPLINE
  5
235
330
1F
100
AcDbEntity
  8
0
  6
SLD-Solid
 62
   142
420
    32960
370
     0
100
AcDbSpline
210
0.0
220
0.0
230
1.0
 70
     8
 71
     3
 72
    14
 73
    10
 74
     0
 42
0.00000001
 43
0.00000001
 40
0.0
 40
0.0
 40
0.0
 40
0.0
 40
0.0101072153090502
 40
0.3390716087333016
 40
0.5057682139657708
 40
0.6695042996517031
 40
0.834592927615075
 40
0.9172849698493212
 40
0.9999999999999999
 40
0.9999999999999999
 40
0.9999999999999999
 40
0.9999999999999999
 10
797.1934612608655
 20
575.1972896131525
 30
0.0
 10
797.194687272409
 20
575.1955811295561
 30
0.0
 10
797.2358168707896
 20
575.1382658093809
 30
0.0
 10
797.3894823264523
 20
575.146735637818
 30
0.0
 10
797.5940423372085
 20
575.1863188389248
 30
0.0
 10
797.7720771826853
 20
575.2554586571508
 30
0.0
 10
797.9301253006668
 20
575.3425776088314
 30
0.0
 10
798.0587909753067
 20
575.4263909835333
 30
0.0
 10
798.1227053887176
 20
575.4740445155402
 30
0.0
 10
798.1546670367663
 20
575.497874592936
 30
0.0
  0
SPLINE
  5
236
330
1F
100
AcDbEntity
  8
0
  6
SLD-Solid
 62
   142
420
    32960
370
     0
100
AcDbSpline
210
0.0
220
0.0
230
1.0
 70
     8
 71
     3
 72
    14
 73
    10
 74
     0
 42
0.00000001
 43
0.00000001
 40
0.0
 40
0.0
 40
0.0
 40
0.0
 40
0.1250949725646065
 40
0.2501081631578462
 40
0.3759419851695669
 40
0.5001719986116426
 40
0.7497414360348142
 40
0.8748328309138184
 40
1.0
 40
1.0
 40
1.0
 40
1.0
 10
798.1546670367663
 20
575.497874592936
 30
0.0
 10
798.1938282065182
 20
575.5285030114261
 30
0.0
 10
798.2721249440522
 20
575.5897398248004
 30
0.0
 10
798.383619645723
 20
575.6925651354687
 30
0.0
 10
798.4874335949346
 20
575.7994300590746
 30
0.0
 10
798.6112980430597
 20
575.945608622757
 30
0.0
 10
798.7116312355992
 20
576.0926751751418
 30
0.0
 10
798.7826335268406
 20
576.2314465584708
 30
0.0
 10
798.809259478188
 20
576.2977480136473
 30
0.0
 10
798.8225764848133
 20
576.3309087787347
 30
0.0
  0
SPLINE
  5
237
330
1F
100
AcDbEntity
  8
0
  6
SLD-Solid
 62
   142
420
    32960
370
     0
100
AcDbSpline
210
0.0
220
0.0
230
1.0
 70
     8
 71
     3
 72
    18
 73
    14
 74
     0
 42
0.00000001
 43
0.00000001
 40
0.0
 40
0.0
 40
0.0
 40
0.0
 40
0.062554210635942
 40
0.1250960143830439
 40
0.2500790395065308
 40
0.3750629374711937
 40
0.4375909403369935
 40
0.5001240846707516
 40
0.6250810352524282
 40
0.7499893353082778
 40
0.8749357891962384
 40
0.93746223717588
 40
1.0
 40
1.0
 40
1.0
 40
1.0
 10
798.8225768561819
 20
576.330909141626
 30
0.0
 10
798.8336802194302
 20
576.3233484111807
 30
0.0
 10
798.8558847437059
 20
576.3082284498718
 30
0.0
 10
798.9074977946042
 20
576.2857912137766
 30
0.0
 10
798.9838874593505
 20
576.2713352781457
 30
0.0
 10
799.0739615711864
 20
576.2743314769734
 30
0.0
 10
799.1556880196606
 20
576.2911946728506
 30
0.0
 10
799.2412655848066
 20
576.3144871037116
 30
0.0
 10
799.3573925569146
 20
576.3601803648863
 30
0.0
 10
799.5045798527369
 20
576.4343642678705
 30
0.0
 10
799.6316927249238
 20
576.5144004400593
 30
0.0
 10
799.7332205407665
 20
576.5851384759848
 30
0.0
 10
799.7837390637505
 20
576.62276814819
 30
0.0
 10
799.8090006105057
 20
576.6415846865139
 30
0.0
  0
SPLINE
  5
238
330
1F
100
AcDbEntity
  8
0
  6
SLD-Solid
 62
   142
420
    32960
370
     0
100
AcDbSpline
210
0.0
220
0.0
230
1.0
 70
     8
 71
     3
 72
     9
 73
     5
 74
     0
 42
0.00000001
 43
0.00000001
 40
0.0
 40
0.0
 40
0.0
 40
0.0
 40
0.6319055568113686
 40
1.0
 40
1.0
 40
1.0
 40
1.0
 10
799.8090006105057
 20
576.6415846865139
 30
0.0
 10
799.8870956885563
 20
576.7024809837276
 30
0.0
 10
800.0106823182493
 20
576.7988502853696
 30
0.0
 10
800.1211125160726
 20
576.909612058117
 30
0.0
 10
800.1617612582514
 20
576.950382851183
 30
0.0
  0
SPLINE
  5
239
330
1F
100
AcDbEntity
  8
0
  6
SLD-Solid
 62
   142
420
    32960
370
     0
100
AcDbSpline
210
0.0
220
0.0
230
1.0
 70
     8
 71
     3
 72
    14
 73
    10
 74
     0
 42
0.00000001
 43
0.00000001
 40
0.0
 40
0.0
 40
0.0
 40
0.0
 40
0.1252707907114989
 40
0.2504797874603542
 40
0.3756204263447217
 40
0.5007454021296835
 40
0.749709507416312
 40
0.874762922876174
 40
1.0
 40
1.0
 40
1.0
 40
1.0
 10
800.1475529098875
 20
577.6898279596289
 30
0.0
 10
800.1517350057419
 20
577.6688925821499
 30
0.0
 10
800.1600971344935
 20
577.6270321542598
 30
0.0
 10
800.1500629964669
 20
577.5496782941157
 30
0.0
 10
800.1181599887399
 20
577.4615579897064
 30
0.0
 10
800.0496732055738
 20
577.3354153182966
 30
0.0
 10
799.9463658987745
 20
577.2012146695466
 30
0.0
 10
799.8189731779381
 20
577.0765971894973
 30
0.0
 10
799.7497724635931
 20
577.0218122555734
 30
0.0
 10
799.7151467168859
 20
576.9943996881839
 30
0.0
  0
LINE
  5
23A
330
1F
100
AcDbEntity
  8
0
  6
SLD-Solid
 62
   142
420
    32960
370
     0
100
AcDbLine
 10
148.2504465228
 20
675.1928998405
 30
0.0
 11
148.2516973047
 21
675.1428998462
 31
0.0
  0
LINE
  5
23B
330
1F
100
AcDbEntity
  8
0
  6
SLD-Solid
 62
   142
420
    32960
370
     0
100
AcDbLine
 10
148.2516973047
 20
675.1428998462
 30
0.0
 11
148.2516973047
 21
660.9928998462
 31
0.0
  0
ARC
  5
23C
330
1F
100
AcDbEntity
  8
0
  6
SLD-Solid
 62
   142
420
    32960
370
     0
100
AcDbCircle
 10
147.5016973047
 20
660.9928998462
 30
0.0
 40
0.7500000000001137
100
AcDbArc
 50
270.0
 51
0.0
  0
ARC
  5
23D
330
1F
100
AcDbEntity
  8
0
  6
SLD-Solid
 62
   142
420
    32960
370
     0
100
AcDbCircle
 10
46.1016973047
 20
660.9928998462
 30
0.0
 40
0.7500000000001137
100
AcDbArc
 50
180.0
 51
270.0
  0
ARC
  5
23E
330
1F
100
AcDbEntity
  8
0
  6
SLD-Solid
 62
   142
420
    32960
370
     0
100
AcDbCircle
 10
46.3516973047
 20
745.1896691038
 30
0.0
 40
1.00000000000002
100
AcDbArc
 50
75.0
 51
180.0
  0
ARC
  5
23F
330
1F
100
AcDbEntity
  8
0
  6
SLD-Solid
 62
   142
420
    32960
370
     0
100
AcDbCircle
 10
100.5516973047
 20
698.4428998462
 30
0.0
 40
2.300000000000068
100
AcDbArc
 50
180.0
 51
270.0
  0
ARC
  5
240
330
1F
100
AcDbEntity
  8
0
  6
SLD-Solid
 62
   142
420
    32960
370
     0
100
AcDbCircle
 10
121.7516973047
 20
695.1428998462
 30
0.0
 40
0.9999999999999005
100
AcDbArc
 50
0.0
 51
90.0
  0
LINE
  5
241
330
1F
100
AcDbEntity
  8
0
  6
SLD-Solid
 62
   142
420
    32960
370
     0
100
AcDbLine
 10
122.7516973047
 20
695.1428998462
 30
0.0
 11
122.7516973047
 21
678.4428998462
 31
0.0
  0
ARC
  5
242
330
1F
100
AcDbEntity
  8
0
  6
SLD-Solid
 62
   142
420
    32960
370
     0
100
AcDbCircle
 10
125.0516973047
 20
678.4428998462
 30
0.0
 40
2.299999999999969
100
AcDbArc
 50
180.0
 51
270.0
  0
SPLINE
  5
243
330
1F
100
AcDbEntity
  8
0
  6
SLD-Solid
 62
   142
420
    32960
370
     0
100
AcDbSpline
210
0.0
220
0.0
230
1.0
 70
     8
 71
     3
 72
    27
 73
    23
 74
     0
 42
0.00000001
 43
0.00000001
 40
0.0
 40
0.0
 40
0.0
 40
0.0
 40
0.0429553442438639
 40
0.084724185032328
 40
0.1253154593338635
 40
0.1647389106646881
 40
0.2030051803196573
 40
0.2401259104775936
 40
0.2761138607699977
 40
0.3109830400692686
 40
0.3447488554066203
 40
0.3774282800564223
 40
0.4090400428910332
 40
0.439604841079793
 40
0.4691455780191728
 40
0.497687627958233
 40
0.5590715783691803
 40
0.6292936409266362
 40
0.7084438868552447
 40
0.7965843065510855
 40
0.893758972424822
 40
1.0
 40
1.0
 40
1.0
 40
1.0
 10
807.1516973047239
 20
-15.93638947638393
 30
0.0
 10
807.2012268717383
 20
-15.93185054287122
 30
0.0
 10
807.2989179105174
 20
-15.92289804930969
 30
0.0
 10
807.4424100359474
 20
-15.90708671906671
 30
0.0
 10
807.580242281217
 20
-15.88974295209383
 30
0.0
 10
807.7119130365336
 20
-15.87069692224219
 30
0.0
 10
807.8370569831421
 20
-15.84999218114397
 30
0.0
 10
807.9554120891843
 20
-15.82761750434941
 30
0.0
 10
808.0668160806332
 20
-15.80357569504803
 30
0.0
 10
808.171195007851
 20
-15.77786583736757
 30
0.0
 10
808.268553937642
 20
-15.75048819860297
 30
0.0
 10
808.3589666993747
 20
-15.72144164197092
 30
0.0
 10
808.4425681657481
 20
-15.69072895377732
 30
0.0
 10
808.5195393545133
 20
-15.65833882909851
 30
0.0
 10
808.5901197491265
 20
-15.62430946398613
 30
0.0
 10
808.6799496980987
 20
-15.57436821108143
 30
0.0
 10
808.7893872666616
 20
-15.4996436274728
 30
0.0
 10
808.913089909512
 20
-15.39274930593321
 30
0.0
 10
809.0269260725973
 20
-15.26455504910745
 30
0.0
 10
809.1209061999308
 20
-15.11506601409851
 30
0.0
 10
809.1882779417869
 20
-14.94454925532501
 30
0.0
 10
809.1970932163542
 20
-14.82141261322645
 30
0.0
 10
809.2016973047238
 20
-14.75710015450266
 30
0.0
  0
SPLINE
  5
244
330
1F
100
AcDbEntity
  8
0
  6
SLD-Solid
 62
   142
420
    32960
370
     0
100
AcDbSpline
210
0.0
220
0.0
230
1.0
 70
     8
 71
     3
 72
    29
 73
    25
 74
     0
 42
0.00000001
 43
0.00000001
 40
0.0
 40
0.0
 40
0.0
 40
0.0
 40
0.0500934119596589
 40
0.097951031642187
 40
0.143574139578621
 40
0.1869642294174346
 40
0.2281230533097321
 40
0.2670526802015306
 40
0.3037555716773091
 40
0.3382346820586739
 40
0.3704935926293952
 40
0.400536694840782
 40
0.4283694454006174
 40
0.4539987295328598
 40
0.4774333916779202
 40
0.4986850338261622
 40
0.5440434879115008
 40
0.5941879968404358
 40
0.6492240219550305
 40
0.7092308785169178
 40
0.7742693300887756
 40
0.8443866864020259
 40
0.9196202977430047
 40
1.0
 40
1.0
 40
1.0
 40
1.0
 10
809.2016973047238
 20
505.1428998454972
 30
0.0
 10
809.200661441364
 20
505.1728312586401
 30
0.0
 10
809.1986359477763
 20
505.2313581722836
 30
0.0
 10
809.1827474712223
 20
505.3162490974325
 30
0.0
 10
809.1590298125844
 20
505.3964605476538
 30
0.0
 10
809.1279168994032
 20
505.4719368177583
 30
0.0
 10
809.0909097928252
 20
505.542692264201
 30
0.0
 10
809.0491673723428
 20
505.608723920816
 30
0.0
 10
809.0038452686057
 20
505.6700332691948
 30
0.0
 10
808.9560039642365
 20
505.7266208793585
 30
0.0
 10
808.9066266432907
 20
505.7784878504337
 30
0.0
 10
808.8566126618572
 20
505.8256353843204
 30
0.0
 10
808.806779112518
 20
505.8680656009165
 30
0.0
 10
808.7578624149965
 20
505.9057796552482
 30
0.0
 10
808.7105204036849
 20
505.9387847427954
 30
0.0
 10
808.6467221465648
 20
505.9787275065306
 30
0.0
 10
808.5574857905965
 20
506.0244989233718
 30
0.0
 10
808.4317288965541
 20
506.0752459885936
 30
0.0
 10
808.2821711531809
 20
506.1233269718634
 30
0.0
 10
808.1070928393287
 20
506.1687394937409
 30
0.0
 10
807.905413621741
 20
506.2114992042141
 30
0.0
 10
807.6769774817527
 20
506.2515173841093
 30
0.0
 10
807.4229282992795
 20
506.2891461777441
 30
0.0
 10
807.2440791343565
 20
506.3109346577533
 30
0.0
 10
807.1516973047236
 20
506.3221891673788
 30
0.0
  0
LINE
  5
245
330
1F
100
AcDbEntity
  8
0
  6
SLD-Solid
 62
     7
370
    15
100
AcDbLine
 10
809.2016973047
 20
505.1428998455
 30
0.0
 11
809.2016973047
 21
-14.7571001545
 31
0.0
  0
LINE
  5
246
330
1F
100
AcDbEntity
  8
0
  6
SLD-Solid
 62
     7
370
    15
100
AcDbLine
 10
807.1516973047
 20
-15.9363894764
 30
0.0
 11
759.2016973047
 21
-15.9363894764
 31
0.0
  0
LINE
  5
247
330
1F
100
AcDbEntity
  8
0
  6
SLD-Solid
 62
     7
370
    15
100
AcDbLine
 10
807.1516973047
 20
506.3221891674
 30
0.0
 11
759.2016973047
 21
506.3221891674
 31
0.0
  0
CIRCLE
  5
248
330
1F
100
AcDbEntity
  8
0
  6
SLD-Solid
 62
     7
370
    15
100
AcDbCircle
 10
779.2016973047
 20
13.1928998455
 30
0.0
 40
1.600000000000023
  0
CIRCLE
  5
249
330
1F
100
AcDbEntity
  8
0
  6
SLD-Solid
 62
   142
420
    32960
370
     0
100
AcDbCircle
 10
779.2016973047
 20
477.1928998455
 30
0.0
 40
1.600000000000023
  0
CIRCLE
  5
24A
330
1F
100
AcDbEntity
  8
0
  6
SLD-Solid
 62
   142
420
    32960
370
     0
100
AcDbCircle
 10
779.2016973047
 20
245.1928998455
 30
0.0
 40
1.599999999999909
  0
LINE
  5
24B
330
1F
100
AcDbEntity
  8
0
  6
SLD-Solid
 62
   142
420
    32960
370
     0
100
AcDbLine
 10
759.2016973047
 20
506.3221891674
 30
0.0
 11
759.2016973047
 21
-15.9363894764
 31
0.0
  0
SPLINE
  5
24C
330
1F
100
AcDbEntity
  8
0
  6
SLD-Solid
 62
     7
370
    15
100
AcDbSpline
210
0.0
220
0.0
230
1.0
 70
     8
 71
     3
 72
    22
 73
    18
 74
     0
 42
0.00000001
 43
0.00000001
 40
0.0
 40
0.0
 40
0.0
 40
0.0
 40
0.1250000000000005
 40
0.1250000000000005
 40
0.250000000000001
 40
0.250000000000001
 40
0.3750000000000008
 40
0.3750000000000008
 40
0.5000000000000007
 40
0.5000000000000007
 40
0.6250000000000004
 40
0.6250000000000004
 40
0.7500000000000003
 40
0.7500000000000003
 40
0.8750000000000001
 40
0.8750000000000001
 40
1.0
 40
1.0
 40
1.0
 40
1.0
 10
809.2016973047238
 20
-14.75710015450266
 30
0.0
 10
809.2016973047237
 20
-14.89246491289115
 30
0.0
 10
809.1884015718227
 20
-15.02570345800658
 30
0.0
 10
809.1363832995593
 20
-15.28750896681263
 30
0.0
 10
809.0972274831382
 20
-15.41706979900925
 30
0.0
 10
808.9941318848527
 20
-15.66599092062215
 30
0.0
 10
808.931070350618
 20
-15.78383152505514
 30
0.0
 10
808.7827744025258
 20
-16.00607303041207
 30
0.0
 10
808.6964602934505
 20
-16.11143298805689
 30
0.0
 10
808.5067122431059
 20
-16.30126485819983
 30
0.0
 10
808.4035191675861
 20
-16.38601270580619
 30
0.0
 10
808.1810932035177
 20
-16.53495227424734
 30
0.0
 10
808.0607817019694
 20
-16.59937439557363
 30
0.0
 10
807.8135601196427
 20
-16.70192570833945
 30
0.0
 10
807.6858199373852
 20
-16.7408416953877
 30
0.0
 10
807.422587015147
 20
-16.79355203278043
 30
0.0
 10
807.2870620684612
 20
-16.8071001545026
 30
0.0
 10
807.1516973047237
 20
-16.8071001545026
 30
0.0
  0
LINE
  5
24D
330
1F
100
AcDbEntity
  8
0
  6
SLD-Solid
 62
     7
370
    15
100
AcDbLine
 10
807.1516973047
 20
-16.0071001545
 30
0.0
 11
807.1516973047
 21
-16.8071001545
 31
0.0
  0
SPLINE
  5
24E
330
1F
100
AcDbEntity
  8
0
  6
SLD-Solid
 62
   142
420
    32960
370
     0
100
AcDbSpline
210
0.0
220
0.0
230
1.0
 70
     8
 71
     3
 72
     9
 73
     5
 74
     0
 42
0.00000001
 43
0.00000001
 40
0.0
 40
0.0
 40
0.0
 40
0.0
 40
0.1335047189091811
 40
1.0
 40
1.0
 40
1.0
 40
1.0
 10
807.6878608132023
 20
-15.87251085562247
 30
0.0
 10
807.6674296305612
 20
-15.88683275934766
 30
0.0
 10
807.5143924734627
 20
-15.99410914509786
 30
0.0
 10
807.3200736490792
 20
-16.00106925345512
 30
0.0
 10
807.1516973047238
 20
-16.00710015450257
 30
0.0
  0
SPLINE
  5
24F
330
1F
100
AcDbEntity
  8
0
  6
SLD-Solid
 62
   142
420
    32960
370
     0
100
AcDbSpline
210
0.0
220
0.0
230
1.0
 70
     8
 71
     3
 72
    22
 73
    18
 74
     0
 42
0.00000001
 43
0.00000001
 40
0.0
 40
0.0
 40
0.0
 40
0.0
 40
0.125
 40
0.125
 40
0.25
 40
0.25
 40
0.375
 40
0.375
 40
0.5
 40
0.5
 40
0.625
 40
0.625
 40
0.75
 40
0.75
 40
0.875
 40
0.875
 40
1.0
 40
1.0
 40
1.0
 40
1.0
 10
807.1516973047235
 20
507.1928998454973
 30
0.0
 10
807.2870620613432
 20
507.1928998454973
 30
0.0
 10
807.4203006097159
 20
507.1796041129153
 30
0.0
 10
807.682106133716
 20
507.1275858364031
 30
0.0
 10
807.8116669929926
 20
507.0884300079279
 30
0.0
 10
808.0605880826886
 20
506.98533441858
 30
0.0
 10
808.1784286817843
 20
506.9222728878686
 30
0.0
 10
808.4006701915418
 20
506.7739769351998
 30
0.0
 10
808.5060301572835
 20
506.6876628164354
 30
0.0
 10
808.6958620078908
 20
506.4979147831996
 30
0.0
 10
808.7806098545001
 20
506.3947217110212
 30
0.0
 10
808.9295494296067
 20
506.1722957362371
 30
0.0
 10
808.993971548474
 20
506.051984235903
 30
0.0
 10
809.0965228541653
 20
505.8047626713933
 30
0.0
 10
809.1354388431142
 20
505.6770224898226
 30
0.0
 10
809.1881491845609
 20
505.4137895489275
 30
0.0
 10
809.2016973047236
 20
505.2782646074665
 30
0.0
 10
809.2016973047236
 20
505.1428998454974
 30
0.0
  0
LINE
  5
250
330
1F
100
AcDbEntity
  8
0
  6
SLD-Solid
 62
     7
370
    15
100
AcDbLine
 10
759.2016973047
 20
507.1928998455
 30
0.0
 11
759.2016973047
 21
506.3928998455
 31
0.0
  0
LINE
  5
251
330
1F
100
AcDbEntity
  8
0
  6
SLD-Solid
 62
     7
370
    15
100
AcDbLine
 10
807.1516973047
 20
507.1928998455
 30
0.0
 11
759.2016973047
 21
507.1928998455
 31
0.0
  0
LINE
  5
252
330
1F
100
AcDbEntity
  8
0
  6
SLD-Solid
 62
   142
420
    32960
370
     0
100
AcDbLine
 10
807.1516973047
 20
506.3928998455
 30
0.0
 11
807.1516973047
 21
507.1928998455
 31
0.0
  0
LINE
  5
253
330
1F
100
AcDbEntity
  8
0
  6
SLD-Solid
 62
   142
420
    32960
370
     0
100
AcDbLine
 10
807.1516973047
 20
506.3928998455
 30
0.0
 11
759.2016973047
 21
506.3928998455
 31
0.0
  0
LINE
  5
254
330
1F
100
AcDbEntity
  8
0
  6
SLD-Solid
 62
     7
370
    15
100
AcDbLine
 10
807.1516973047
 20
-16.0071001545
 30
0.0
 11
759.2016973047
 21
-16.0071001545
 31
0.0
  0
LINE
  5
255
330
1F
100
AcDbEntity
  8
0
  6
SLD-Solid
 62
     7
370
    15
100
AcDbLine
 10
807.1516973047
 20
-16.8071001545
 30
0.0
 11
759.2016973047
 21
-16.8071001545
 31
0.0
  0
LINE
  5
256
330
1F
100
AcDbEntity
  8
0
  6
SLD-Solid
 62
     7
370
    15
100
AcDbLine
 10
759.2016973047
 20
-16.8071001545
 30
0.0
 11
759.2016973047
 21
-16.0071001545
 31
0.0
  0
LINE
  5
257
330
1F
100
AcDbEntity
  8
0
  6
SLD-Solid
 62
   142
420
    32960
370
     0
100
AcDbLine
 10
758.1516973047
 20
506.3221891674
 30
0.0
 11
758.1516973047
 21
505.1428998455
 31
0.0
  0
LINE
  5
258
330
1F
100
AcDbEntity
  8
0
  6
SLD-Solid
 62
   142
420
    32960
370
     0
100
AcDbLine
 10
759.2016973047
 20
506.3221891674
 30
0.0
 11
758.1516973047
 21
506.3221891674
 31
0.0
  0
LINE
  5
259
330
1F
100
AcDbEntity
  8
0
  6
SLD-Solid
 62
     7
370
    15
100
AcDbLine
 10
799.2016973047
 20
512.6928998455
 30
0.0
 11
807.2016973047
 21
512.6928998455
 31
0.0
  0
LINE
  5
25A
330
1F
100
AcDbEntity
  8
0
  6
SLD-Solid
 62
     7
370
    15
100
AcDbLine
 10
755.7016973047
 20
512.6928998455
 30
0.0
 11
799.2016973047
 21
512.6928998455
 31
0.0
  0
LINE
  5
25B
330
1F
100
AcDbEntity
  8
0
  6
SLD-Solid
 62
     7
370
    15
100
AcDbLine
 10
755.7016973047
 20
510.1928998455
 30
0.0
 11
799.2016973047
 21
510.1928998455
 31
0.0
  0
LINE
  5
25C
330
1F
100
AcDbEntity
  8
0
  6
SLD-Solid
 62
     7
370
    15
100
AcDbLine
 10
799.2016973047
 20
510.1928998455
 30
0.0
 11
807.2016973047
 21
510.1928998455
 31
0.0
  0
ARC
  5
25D
330
1F
100
AcDbEntity
  8
0
  6
SLD-Solid
 62
   142
420
    32960
370
     0
100
AcDbCircle
 10
755.7016973047
 20
515.6928998455
 30
0.0
 40
3.0
100
AcDbArc
 50
180.0
 51
270.0
  0
LINE
  5
25E
330
1F
100
AcDbEntity
  8
0
  6
SLD-Solid
 62
   142
420
    32960
370
     0
100
AcDbLine
 10
752.7016973047
 20
515.6928998455
 30
0.0
 11
750.2016973047
 21
515.6928998455
 31
0.0
  0
ARC
  5
25F
330
1F
100
AcDbEntity
  8
0
  6
SLD-Solid
 62
   142
420
    32960
370
     0
100
AcDbCircle
 10
755.7016973047
 20
515.6928998455
 30
0.0
 40
5.500000000000114
100
AcDbArc
 50
180.0
 51
270.0
  0
LINE
  5
260
330
1F
100
AcDbEntity
  8
0
  6
SLD-Solid
 62
     7
370
    15
100
AcDbLine
 10
732.0998307158
 20
-187.244804926
 30
0.0
 11
675.0998307158
 21
-187.244804926
 31
0.0
  0
LINE
  5
261
330
1F
100
AcDbEntity
  8
0
  6
SLD-Solid
 62
     7
370
    15
100
AcDbLine
 10
730.099830645
 20
-193.244804926
 30
0.0
 11
677.0998307158
 21
-193.244804926
 31
0.0
  0
LINE
  5
262
330
1F
100
AcDbEntity
  8
0
  6
SLD-Solid
 62
     7
370
    15
100
AcDbLine
 10
33.5516973047
 20
506.7000066267
 30
0.0
 11
-28.3983026953
 21
506.7000066267
 31
0.0
  0
LINE
  5
263
330
1F
100
AcDbEntity
  8
0
  6
SLD-Solid
 62
   142
420
    32960
370
     0
100
AcDbLine
 10
-27.1412316274
 20
663.1428998455
 30
0.0
 11
-27.1553737631
 21
663.1428998455
 31
0.0
  0
LINE
  5
264
330
1F
100
AcDbEntity
  8
0
  6
SLD-Solid
 62
   142
420
    32960
370
     0
100
AcDbLine
 10
-28.3983026953
 20
506.7928998455
 30
0.0
 11
-28.3983026953
 21
506.7000066267
 31
0.0
  0
LINE
  5
265
330
1F
100
AcDbEntity
  8
0
  6
SLD-Solid
 62
   142
420
    32960
370
     0
100
AcDbLine
 10
35.6016973047
 20
664.3928998455
 30
0.0
 11
35.6016973047
 21
663.1428998455
 31
0.0
  0
LINE
  5
266
330
1F
100
AcDbEntity
  8
0
  6
SLD-Solid
 62
   142
420
    32960
370
     0
100
AcDbLine
 10
35.0016973047
 20
664.3928998455
 30
0.0
 11
35.6016973047
 21
664.3928998455
 31
0.0
  0
SPLINE
  5
267
330
1F
100
AcDbEntity
  8
0
  6
SLD-Solid
 62
   142
420
    32960
370
     0
100
AcDbSpline
210
0.0
220
0.0
230
1.0
 70
     8
 71
     3
 72
    14
 73
    10
 74
     0
 42
0.00000001
 43
0.00000001
 40
0.0
 40
0.0
 40
0.0
 40
0.0
 40
0.25
 40
0.25
 40
0.5
 40
0.5
 40
0.75
 40
0.75
 40
1.0
 40
1.0
 40
1.0
 40
1.0
 10
35.60169730474511
 20
507.2428998454956
 30
0.0
 10
35.60169730474511
 20
507.1976587439278
 30
0.0
 10
35.54834129191514
 20
507.1524176423599
 30
0.0
 10
35.34295940087129
 20
507.0619354392243
 30
0.0
 10
35.19101433166133
 20
507.0166943376566
 30
0.0
 10
34.81151808069355
 20
506.9262121345211
 30
0.0
 10
34.58411621450536
 20
506.8809710329534
 30
0.0
 10
34.08828046768153
 20
506.7904888298176
 30
0.0
 10
33.82004167723917
 20
506.7452477282499
 30
0.0
 10
33.55169730474505
 20
506.700006626682
 30
0.0
  0
LINE
  5
268
330
1F
100
AcDbEntity
  8
0
  6
SLD-Solid
 62
   142
420
    32960
370
     0
100
AcDbLine
 10
35.6016973047
 20
663.1428998455
 30
0.0
 11
35.6016973047
 21
507.2428998455
 31
0.0
  0
LINE
  5
269
330
1F
100
AcDbEntity
  8
0
  6
SLD-Solid
 62
   142
420
    32960
370
     0
100
AcDbLine
 10
3.6016973047
 20
502.9928998455
 30
0.0
 11
16.1016973047
 21
502.9928998455
 31
0.0
  0
LINE
  5
26A
330
1F
100
AcDbEntity
  8
0
  6
SLD-Solid
 62
     7
370
    15
100
AcDbLine
 10
-3.2351044278
 20
489.9928998455
 30
0.0
 11
16.1016973047
 21
489.9928998455
 31
0.0
  0
LINE
  5
26B
330
1F
100
AcDbEntity
  8
0
  6
SLD-Solid
 62
     7
370
    15
100
AcDbLine
 10
-8.8983026953
 20
489.9928998455
 30
0.0
 11
-3.2351044278
 21
489.9928998455
 31
0.0
  0
LINE
  5
26C
330
1F
100
AcDbEntity
  8
0
  6
SLD-Solid
 62
     7
370
    15
100
AcDbLine
 10
-2.6881602892
 20
488.9928998455
 30
0.0
 11
-7.8983026953
 21
488.9928998455
 31
0.0
  0
LINE
  5
26D
330
1F
100
AcDbEntity
  8
0
  6
SLD-Solid
 62
     7
370
    15
100
AcDbLine
 10
15.1016973047
 20
488.9928998455
 30
0.0
 11
-2.6881602892
 21
488.9928998455
 31
0.0
  0
LINE
  5
26E
330
1F
100
AcDbEntity
  8
0
  6
SLD-Solid
 62
     7
370
    15
100
AcDbLine
 10
800.5080792665
 20
509.1928998455
 30
0.0
 11
790.7016973047
 21
509.1928998455
 31
0.0
  0
LINE
  5
26F
330
1F
100
AcDbEntity
  8
0
  6
SLD-Solid
 62
     7
370
    15
100
AcDbLine
 10
807.7016973047
 20
509.1928998455
 30
0.0
 11
800.5080792665
 21
509.1928998455
 31
0.0
  0
LINE
  5
270
330
1F
100
AcDbEntity
  8
0
  6
SLD-Solid
 62
   142
420
    32960
370
     0
100
AcDbLine
 10
800.5080792665
 20
507.6928998455
 30
0.0
 11
790.7016973047
 21
507.6928998455
 31
0.0
  0
LINE
  5
271
330
1F
100
AcDbEntity
  8
0
  6
SLD-Solid
 62
   142
420
    32960
370
     0
100
AcDbLine
 10
807.7016973047
 20
507.6928998455
 30
0.0
 11
800.5080792665
 21
507.6928998455
 31
0.0
  0
LINE
  5
272
330
1F
100
AcDbEntity
  8
0
  6
SLD-Solid
 62
   142
420
    32960
370
     0
100
AcDbLine
 10
800.4312332688
 20
509.6928998455
 30
0.0
 11
791.2016973047
 21
509.6928998455
 31
0.0
  0
LINE
  5
273
330
1F
100
AcDbEntity
  8
0
  6
SLD-Solid
 62
   142
420
    32960
370
     0
100
AcDbLine
 10
807.2016973047
 20
509.6928998455
 30
0.0
 11
800.4312332688
 21
509.6928998455
 31
0.0
  0
LINE
  5
274
330
1F
100
AcDbEntity
  8
0
  6
SLD-Solid
 62
     7
370
    15
100
AcDbLine
 10
795.3016973047
 20
-22.3071001545
 30
0.0
 11
803.1016973047
 21
-22.3071001545
 31
0.0
  0
SPLINE
  5
275
330
1F
100
AcDbEntity
  8
0
  6
SLD-Solid
 62
   142
420
    32960
370
     0
100
AcDbSpline
210
0.0
220
0.0
230
1.0
 70
     8
 71
     3
 72
    14
 73
    10
 74
     0
 42
0.00000001
 43
0.00000001
 40
0.0
 40
0.0
 40
0.0
 40
0.0
 40
0.25
 40
0.25
 40
0.5
 40
0.5
 40
0.75
 40
0.75
 40
1.0
 40
1.0
 40
1.0
 40
1.0
 10
33.551697304745
 20
505.1928998454956
 30
0.0
 10
33.82004167723923
 20
505.1928998454957
 30
0.0
 10
34.08828046768142
 20
505.2462558583255
 30
0.0
 10
34.5841162145053
 20
505.451637749369
 30
0.0
 10
34.81151808069355
 20
505.6035828185794
 30
0.0
 10
35.19101433166127
 20
505.9830790695468
 30
0.0
 10
35.34295940087123
 20
506.2104809357353
 30
0.0
 10
35.54834129191503
 20
506.7063166825592
 30
0.0
 10
35.601697304745
 20
506.9745554730014
 30
0.0
 10
35.601697304745
 20
507.2428998454956
 30
0.0
  0
LINE
  5
276
330
1F
100
AcDbEntity
  8
0
  6
SLD-Solid
 62
     7
370
    15
100
AcDbLine
 10
33.5516973047
 20
505.1928998455
 30
0.0
 11
-27.1483026953
 21
505.1928998455
 31
0.0
  0
LINE
  5
277
330
1F
100
AcDbEntity
  8
0
  6
SLD-Solid
 62
   142
420
    32960
370
     0
100
AcDbLine
 10
33.5516973047
 20
505.9928998455
 30
0.0
 11
-27.1483026953
 21
505.9928998455
 31
0.0
  0
LINE
  5
278
330
1F
100
AcDbEntity
  8
0
  6
SLD-Solid
 62
   142
420
    32960
370
     0
100
AcDbLine
 10
33.5516973047
 20
505.1928998455
 30
0.0
 11
33.5516973047
 21
505.9928998455
 31
0.0
  0
LINE
  5
279
330
1F
100
AcDbEntity
  8
0
  6
SLD-Solid
 62
   142
420
    32960
370
     0
100
AcDbLine
 10
-27.1483026953
 20
505.1928998455
 30
0.0
 11
-27.1483026953
 21
505.9928998455
 31
0.0
  0
LINE
  5
27A
330
1F
100
AcDbEntity
  8
0
  6
SLD-Solid
 62
     7
370
    15
100
AcDbLine
 10
-29.1983026953
 20
500.1928998455
 30
0.0
 11
-29.1983026953
 21
503.9428998455
 31
0.0
  0
LINE
  5
27B
330
1F
100
AcDbEntity
  8
0
  6
SLD-Solid
 62
   142
420
    32960
370
     0
100
AcDbLine
 10
-29.1983026953
 20
495.1928998455
 30
0.0
 11
-29.1983026953
 21
500.1928998455
 31
0.0
  0
LINE
  5
27C
330
1F
100
AcDbEntity
  8
0
  6
SLD-Solid
 62
     7
370
    15
100
AcDbLine
 10
-28.3983026953
 20
500.1928998455
 30
0.0
 11
-28.3983026953
 21
503.9428998455
 31
0.0
  0
LINE
  5
27D
330
1F
100
AcDbEntity
  8
0
  6
SLD-Solid
 62
   142
420
    32960
370
     0
100
AcDbLine
 10
-28.3983026953
 20
495.1928998455
 30
0.0
 11
-28.3983026953
 21
500.1928998455
 31
0.0
  0
LINE
  5
27E
330
1F
100
AcDbEntity
  8
0
  6
SLD-Solid
 62
   142
420
    32960
370
     0
100
AcDbLine
 10
-28.3983026953
 20
503.9428998455
 30
0.0
 11
-29.1983026953
 21
503.9428998455
 31
0.0
  0
LINE
  5
27F
330
1F
100
AcDbEntity
  8
0
  6
SLD-Solid
 62
   142
420
    32960
370
     0
100
AcDbLine
 10
-29.1983026953
 20
500.1928998455
 30
0.0
 11
-28.3983026953
 21
500.1928998455
 31
0.0
  0
ARC
  5
280
330
1F
100
AcDbEntity
  8
0
  6
SLD-Solid
 62
   142
420
    32960
370
     0
100
AcDbCircle
 10
-27.1483026953
 20
503.9428998455
 30
0.0
 40
2.050000000000352
100
AcDbArc
 50
90.0
 51
180.0
  0
ARC
  5
281
330
1F
100
AcDbEntity
  8
0
  6
SLD-Solid
 62
   142
420
    32960
370
     0
100
AcDbCircle
 10
-27.1483026953
 20
503.9428998455
 30
0.0
 40
1.25
100
AcDbArc
 50
90.0
 51
180.0
  0
LINE
  5
282
330
1F
100
AcDbEntity
  8
0
  6
SLD-Solid
 62
   142
420
    32960
370
     0
100
AcDbLine
 10
-29.1983026953
 20
495.1928998455
 30
0.0
 11
-28.3983026953
 21
495.1928998455
 31
0.0
  0
SPLINE
  5
283
330
1F
100
AcDbEntity
  8
0
  6
SLD-Solid
 62
   142
420
    32960
370
     0
100
AcDbSpline
210
0.0
220
0.0
230
1.0
 70
     8
 71
     3
 72
    11
 73
     7
 74
     0
 42
0.00000001
 43
0.00000001
 40
0.0
 40
0.0
 40
0.0
 40
0.0
 40
0.0963281961547583
 40
0.3975521307697975
 40
0.6987760653849072
 40
1.0
 40
1.0
 40
1.0
 40
1.0
 10
34.73697486071848
 20
506.9175181466139
 30
0.0
 10
34.72891210293788
 20
506.8658282133591
 30
0.0
 10
34.69563662739139
 20
506.6525008188369
 30
0.0
 10
34.45033823489885
 20
506.3403225384566
 30
0.0
 10
34.04456850789106
 20
506.0487700487959
 30
0.0
 10
33.71598770579359
 20
506.0115232465954
 30
0.0
 10
33.55169730474488
 20
505.9928998454952
 30
0.0
  0
SPLINE
  5
284
330
1F
100
AcDbEntity
  8
0
  6
SLD-Solid
 62
   142
420
    32960
370
     0
100
AcDbSpline
210
0.0
220
0.0
230
1.0
 70
     8
 71
     3
 72
    14
 73
    10
 74
     0
 42
0.00000001
 43
0.00000001
 40
0.0
 40
0.0
 40
0.0
 40
0.0
 40
0.25
 40
0.25
 40
0.5
 40
0.5
 40
0.75
 40
0.75
 40
1.0
 40
1.0
 40
1.0
 40
1.0
 10
751.0016973047295
 20
522.2123320944978
 30
0.0
 10
751.0016973047296
 20
522.2575731960657
 30
0.0
 10
751.0342314588944
 20
522.3028142976334
 30
0.0
 10
751.1594643192867
 20
522.3932965007689
 30
0.0
 10
751.2521137517318
 20
522.4385376023369
 30
0.0
 10
751.4835139047609
 20
522.5290198054722
 30
0.0
 10
751.622173579266
 20
522.5742609070401
 30
0.0
 10
751.9245124492807
 20
522.6647431101757
 30
0.0
 10
752.0880726873551
 20
522.7099842117433
 30
0.0
 10
752.2516973047295
 20
522.7552253133113
 30
0.0
  0
LINE
  5
285
330
1F
100
AcDbEntity
  8
0
  6
SLD-Solid
 62
   142
420
    32960
370
     0
100
AcDbLine
 10
750.2016973047
 20
522.2123320945
 30
0.0
 11
751.0016973047
 21
522.2123320945
 31
0.0
  0
LINE
  5
286
330
1F
100
AcDbEntity
  8
0
  6
SLD-Solid
 62
   142
420
    32960
370
     0
100
AcDbLine
 10
750.2016973047
 20
639.8857930593
 30
0.0
 11
751.0016973047
 21
639.8857930593
 31
0.0
  0
SPLINE
  5
287
330
1F
100
AcDbEntity
  8
0
  6
SLD-Solid
 62
   142
420
    32960
370
     0
100
AcDbSpline
210
0.0
220
0.0
230
1.0
 70
     8
 71
     3
 72
    14
 73
    10
 74
     0
 42
0.00000001
 43
0.00000001
 40
0.0
 40
0.0
 40
0.0
 40
0.0
 40
0.25
 40
0.25
 40
0.5
 40
0.5
 40
0.75
 40
0.75
 40
1.0
 40
1.0
 40
1.0
 40
1.0
 10
752.2516973047295
 20
639.3428998404511
 30
0.0
 10
752.0880726873551
 20
639.388140942019
 30
0.0
 10
751.9245124492807
 20
639.4333820435869
 30
0.0
 10
751.6221735792659
 20
639.5238642467223
 30
0.0
 10
751.483513904761
 20
639.5691053482901
 30
0.0
 10
751.2521137517318
 20
639.659587551426
 30
0.0
 10
751.1594643192868
 20
639.7048286529936
 30
0.0
 10
751.0342314588943
 20
639.7953108561292
 30
0.0
 10
751.0016973047295
 20
639.8405519576968
 30
0.0
 10
751.0016973047295
 20
639.8857930592645
 30
0.0
  0
LINE
  5
288
330
1F
100
AcDbEntity
  8
0
  6
SLD-Solid
 62
     7
370
    15
100
AcDbLine
 10
738.5998307158
 20
-25.244804926
 30
0.0
 11
738.5998307158
 21
-23.244804926
 31
0.0
  0
LINE
  5
289
330
1F
100
AcDbEntity
  8
0
  6
SLD-Solid
 62
     7
370
    15
100
AcDbLine
 10
668.5998307158
 20
-25.244804926
 30
0.0
 11
738.5998307158
 21
-25.244804926
 31
0.0
  0
LINE
  5
28A
330
1F
100
AcDbEntity
  8
0
  6
SLD-Solid
 62
     7
370
    15
100
AcDbLine
 10
668.5998307158
 20
-25.244804926
 30
0.0
 11
668.5998307158
 21
-23.244804926
 31
0.0
  0
LINE
  5
28B
330
1F
100
AcDbEntity
  8
0
  6
SLD-Solid
 62
   142
420
    32960
370
     0
100
AcDbLine
 10
668.5998307158
 20
-23.244804926
 30
0.0
 11
738.5998307158
 21
-23.244804926
 31
0.0
  0
LINE
  5
28C
330
1F
100
AcDbEntity
  8
0
  6
SLD-Solid
 62
     7
370
    15
100
AcDbLine
 10
734.5594809361
 20
-119.244804926
 30
0.0
 11
672.6401804954
 21
-119.244804926
 31
0.0
  0
LINE
  5
28D
330
1F
100
AcDbEntity
  8
0
  6
SLD-Solid
 62
   142
420
    32960
370
     0
100
AcDbLine
 10
-27.9442367022
 20
665.1928998455
 30
0.0
 11
-28.3983026953
 21
665.1928998455
 31
0.0
  0
LINE
  5
28E
330
1F
100
AcDbEntity
  8
0
  6
SLD-Solid
 62
   142
420
    32960
370
     0
100
AcDbLine
 10
-19.2483026953
 20
505.9928998455
 30
0.0
 11
-19.2483026953
 21
506.7000066267
 31
0.0
  0
LWPOLYLINE
  5
28F
330
1F
100
AcDbEntity
  8
0
  6
SLD-Solid
 62
   142
420
    32960
370
     0
100
AcDbPolyline
 90
        3
 70
   128
 43
0.0
 10
-17.1983026953
 20
504.7428998455
 10
-17.2376928704
 20
505.1428350056
 10
-17.2483026953
 20
505.1928998455
  0
ARC
  5
290
330
1F
100
AcDbEntity
  8
0
  6
SLD-Solid
 62
   142
420
    32960
370
     0
100
AcDbCircle
 10
-19.2483026953
 20
504.7428998455
 30
0.0
 40
2.050000000000057
100
AcDbArc
 50
37.5718693197
 51
72.6856392412
  0
LWPOLYLINE
  5
291
330
1F
100
AcDbEntity
  8
0
  6
SLD-Solid
 62
     7
370
    15
100
AcDbPolyline
 90
        3
 70
   128
 43
0.0
 10
-17.9983026953
 20
504.7428998455
 10
-18.0223210948
 20
504.986762748
 10
-18.0821123163
 20
505.1928998455
  0
LINE
  5
292
330
1F
100
AcDbEntity
  8
0
  6
SLD-Solid
 62
     7
370
    15
100
AcDbLine
 10
-17.9983026953
 20
499.9928998455
 30
0.0
 11
-17.9983026953
 21
504.7428998455
 31
0.0
  0
LINE
  5
293
330
1F
100
AcDbEntity
  8
0
  6
SLD-Solid
 62
   142
420
    32960
370
     0
100
AcDbLine
 10
-17.1983026953
 20
499.9928998455
 30
0.0
 11
-17.1983026953
 21
504.7428998455
 31
0.0
  0
LINE
  5
294
330
1F
100
AcDbEntity
  8
0
  6
SLD-Solid
 62
   142
420
    32960
370
     0
100
AcDbLine
 10
-17.1983026953
 20
499.9928998455
 30
0.0
 11
-17.9983026953
 21
499.9928998455
 31
0.0
  0
LINE
  5
295
330
1F
100
AcDbEntity
  8
0
  6
SLD-Solid
 62
   142
420
    32960
370
     0
100
AcDbLine
 10
768.4408581219
 20
641.3928998405
 30
0.0
 11
768.4408581219
 21
642.1928998405
 31
0.0
  0
LINE
  5
296
330
1F
100
AcDbEntity
  8
0
  6
SLD-Solid
 62
   142
420
    32960
370
     0
100
AcDbLine
 10
752.201697306
 20
641.3928998405
 30
0.0
 11
768.4408581219
 21
641.3928998405
 31
0.0
  0
LINE
  5
297
330
1F
100
AcDbEntity
  8
0
  6
SLD-Solid
 62
   142
420
    32960
370
     0
100
AcDbLine
 10
752.201697306
 20
642.1928998405
 30
0.0
 11
752.201697306
 21
641.3928998405
 31
0.0
  0
LINE
  5
298
330
1F
100
AcDbEntity
  8
0
  6
SLD-Solid
 62
   142
420
    32960
370
     0
100
AcDbLine
 10
752.201697306
 20
642.1928998405
 30
0.0
 11
768.4408581219
 21
642.1928998405
 31
0.0
  0
LINE
  5
299
330
1F
100
AcDbEntity
  8
0
  6
SLD-Solid
 62
     7
370
    15
100
AcDbLine
 10
35.0016973047
 20
665.9928998455
 30
0.0
 11
34.9471211261
 21
665.9928998455
 31
0.0
  0
LINE
  5
29A
330
1F
100
AcDbEntity
  8
0
  6
SLD-Solid
 62
     7
370
    15
100
AcDbLine
 10
-27.9483026953
 20
665.9928998455
 30
0.0
 11
34.9471211261
 21
665.9928998455
 31
0.0
  0
SPLINE
  5
29B
330
1F
100
AcDbEntity
  8
0
  6
SLD-Solid
 62
   142
420
    32960
370
     0
100
AcDbSpline
210
0.0
220
0.0
230
1.0
 70
     8
 71
     3
 72
    14
 73
    10
 74
     0
 42
0.00000001
 43
0.00000001
 40
0.0
 40
0.0
 40
0.0
 40
0.0
 40
0.25
 40
0.25
 40
0.5
 40
0.5
 40
0.75
 40
0.75
 40
1.0
 40
1.0
 40
1.0
 40
1.0
 10
-27.94123162744377
 20
663.9428998454957
 30
0.0
 10
-27.94182088309477
 20
664.2112442179899
 30
0.0
 10
-27.94241013874582
 20
664.4794830084322
 30
0.0
 10
-27.94358865004776
 20
664.975318755256
 30
0.0
 10
-27.94417790569875
 20
665.2027206214443
 30
0.0
 10
-27.94535641700075
 20
665.5822168724117
 30
0.0
 10
-27.94594567265174
 20
665.7341619416219
 30
0.0
 10
-27.94712418395379
 20
665.9395438326659
 30
0.0
 10
-27.94771343960467
 20
665.9928998454958
 30
0.0
 10
-27.94830269525567
 20
665.9928998454956
 30
0.0
  0
LINE
  5
29C
330
1F
100
AcDbEntity
  8
0
  6
SLD-Solid
 62
   142
420
    32960
370
     0
100
AcDbLine
 10
35.0016973047
 20
665.9928998455
 30
0.0
 11
35.0016973047
 21
663.9428998455
 31
0.0
  0
LINE
  5
29D
330
1F
100
AcDbEntity
  8
0
  6
SLD-Solid
 62
     7
370
    15
100
AcDbLine
 10
-17.9912316274
 20
653.9928998455
 30
0.0
 11
35.0016973047
 21
653.9928998455
 31
0.0
  0
LINE
  5
29E
330
1F
100
AcDbEntity
  8
0
  6
SLD-Solid
 62
   142
420
    32960
370
     0
100
AcDbLine
 10
-17.9912316274
 20
653.9928998455
 30
0.0
 11
-27.9412316274
 21
663.9428998455
 31
0.0
  0
LINE
  5
29F
330
1F
100
AcDbEntity
  8
0
  6
SLD-Solid
 62
   142
420
    32960
370
     0
100
AcDbLine
 10
35.0016973047
 20
653.9928998455
 30
0.0
 11
35.0016973047
 21
663.9428998455
 31
0.0
  0
LINE
  5
2A0
330
1F
100
AcDbEntity
  8
0
  6
SLD-Solid
 62
     7
370
    15
100
AcDbLine
 10
-27.9483026953
 20
506.7928998455
 30
0.0
 11
-17.9983026953
 21
506.7928998455
 31
0.0
  0
LINE
  5
2A1
330
1F
100
AcDbEntity
  8
0
  6
SLD-Solid
 62
   142
420
    32960
370
     0
100
AcDbLine
 10
-27.9483026953
 20
663.9358287777
 30
0.0
 11
-17.9983026953
 21
653.9858287777
 31
0.0
  0
LINE
  5
2A2
330
1F
100
AcDbEntity
  8
0
  6
SLD-Solid
 62
   142
420
    32960
370
     0
100
AcDbLine
 10
-17.9983026953
 20
506.7928998455
 30
0.0
 11
-17.9983026953
 21
653.9858287777
 31
0.0
  0
LINE
  5
2A3
330
1F
100
AcDbEntity
  8
0
  6
SLD-Solid
 62
     7
370
    15
100
AcDbLine
 10
-29.9983026953
 20
506.7928998455
 30
0.0
 11
-29.9983026953
 21
663.9428998455
 31
0.0
  0
LINE
  5
2A4
330
1F
100
AcDbEntity
  8
0
  6
SLD-Solid
 62
   142
420
    32960
370
     0
100
AcDbLine
 10
-27.9483026953
 20
506.7928998455
 30
0.0
 11
-29.9983026953
 21
506.7928998455
 31
0.0
  0
SPLINE
  5
2A5
330
1F
100
AcDbEntity
  8
0
  6
SLD-Solid
 62
   142
420
    32960
370
     0
100
AcDbSpline
210
0.0
220
0.0
230
1.0
 70
     8
 71
     3
 72
    14
 73
    10
 74
     0
 42
0.00000001
 43
0.00000001
 40
0.0
 40
0.0
 40
0.0
 40
0.0
 40
0.25
 40
0.25
 40
0.5
 40
0.5
 40
0.75
 40
0.75
 40
1.0
 40
1.0
 40
1.0
 40
1.0
 10
-29.99830269525566
 20
663.9428998454957
 30
0.0
 10
-29.99830269525566
 20
663.942310589845
 30
0.0
 10
-29.94494668242575
 20
663.9417213341939
 30
0.0
 10
-29.73956479138179
 20
663.940542822892
 30
0.0
 10
-29.58761972217194
 20
663.9399535672408
 30
0.0
 10
-29.20812347120433
 20
663.9387750559389
 30
0.0
 10
-28.98072160501597
 20
663.938185800288
 30
0.0
 10
-28.48488585819225
 20
663.937007288986
 30
0.0
 10
-28.21664706774985
 20
663.9364180333349
 30
0.0
 10
-27.94830269525567
 20
663.9358287776839
 30
0.0
  0
ARC
  5
2A6
330
1F
100
AcDbEntity
  8
0
  6
SLD-Solid
 62
   142
420
    32960
370
     0
100
AcDbCircle
 10
-27.9483026953
 20
663.9428998455
 30
0.0
 40
2.050000000000068
100
AcDbArc
 50
90.0
 51
180.0
  0
SPLINE
  5
2A7
330
1F
100
AcDbEntity
  8
0
  6
SLD-Solid
 62
   142
420
    32960
370
     0
100
AcDbSpline
210
0.0
220
0.0
230
1.0
 70
     8
 71
     3
 72
     8
 73
     4
 74
     0
 42
0.00000001
 43
0.00000001
 40
0.0
 40
0.0
 40
0.0
 40
0.0
 40
1.0
 40
1.0
 40
1.0
 40
1.0
 10
35.00168782788443
 20
665.9921734912217
 30
0.0
 10
35.04311417818695
 20
665.9910704177952
 30
0.0
 10
35.08450706073107
 20
665.9887108006548
 30
0.0
 10
35.12579039874131
 20
665.9850989765863
 30
0.0
  0
LINE
  5
2A8
330
1F
100
AcDbEntity
  8
0
  6
SLD-Solid
 62
   142
420
    32960
370
     0
100
AcDbLine
 10
40.0523953894
 20
665.5540768902
 30
0.0
 11
35.1257903987
 21
665.9850989766
 31
0.0
  0
ARC
  5
2A9
330
1F
100
AcDbEntity
  8
0
  6
SLD-Solid
 62
   142
420
    32960
370
     0
100
AcDbCircle
 10
-27.9483026953
 20
508.0428998455
 30
0.0
 40
2.050000000000068
100
AcDbArc
 50
217.5718693197
 51
270.0
  0
SPLINE
  5
2AA
330
1F
100
AcDbEntity
  8
0
  6
SLD-Solid
 62
   142
420
    32960
370
     0
100
AcDbSpline
210
0.0
220
0.0
230
1.0
 70
     8
 71
     3
 72
    13
 73
     9
 74
     0
 42
0.00000001
 43
0.00000001
 40
0.0
 40
0.0
 40
0.0
 40
0.0
 40
0.1254264937544688
 40
0.2506940358655024
 40
0.4999552364688549
 40
0.7492722256129819
 40
0.8745345344691571
 40
1.0
 40
1.0
 40
1.0
 40
1.0
 10
785.4329968207428
 20
621.2189656771727
 30
0.0
 10
785.3961543363231
 20
621.215571701594
 30
0.0
 10
785.3225160575666
 20
621.2087880515849
 30
0.0
 10
785.1884500493618
 20
621.1700498540009
 30
0.0
 10
785.052291187372
 20
621.0843103097188
 30
0.0
 10
784.9814127942518
 20
620.9587593127503
 30
0.0
 10
784.9752619807118
 20
620.846441680572
 30
0.0
 10
784.9893475359617
 20
620.7891316212688
 30
0.0
 10
784.9963960201231
 20
620.7604533733657
 30
0.0
  0
LINE
  5
2AB
330
1F
100
AcDbEntity
  8
0
  6
SLD-Solid
 62
   142
420
    32960
370
     0
100
AcDbLine
 10
806.8423614277
 20
519.9052253133
 30
0.0
 11
806.8423614277
 21
520.7052253133
 31
0.0
  0
LINE
  5
2AC
330
1F
100
AcDbEntity
  8
0
  6
SLD-Solid
 62
     7
370
    15
100
AcDbLine
 10
752.201697306
 20
519.9052253133
 30
0.0
 11
806.8423614277
 21
519.9052253133
 31
0.0
  0
LINE
  5
2AD
330
1F
100
AcDbEntity
  8
0
  6
SLD-Solid
 62
   142
420
    32960
370
     0
100
AcDbLine
 10
752.201697306
 20
520.7052253133
 30
0.0
 11
752.201697306
 21
519.9052253133
 31
0.0
  0
LINE
  5
2AE
330
1F
100
AcDbEntity
  8
0
  6
SLD-Solid
 62
     7
370
    15
100
AcDbLine
 10
752.201697306
 20
520.7052253133
 30
0.0
 11
806.8423614277
 21
520.7052253133
 31
0.0
  0
LINE
  5
2AF
330
1F
100
AcDbEntity
  8
0
  6
SLD-Solid
 62
     7
370
    15
100
AcDbLine
 10
808.7920272861
 20
522.5887101518
 30
0.0
 11
770.3905239803
 21
640.7763846789
 31
0.0
  0
LINE
  5
2B0
330
1F
100
AcDbEntity
  8
0
  6
SLD-Solid
 62
     7
370
    15
100
AcDbLine
 10
808.0311820731
 20
522.3414965563
 30
0.0
 11
769.6296787672
 21
640.5291710834
 31
0.0
  0
LINE
  5
2B1
330
1F
100
AcDbEntity
  8
0
  6
SLD-Solid
 62
   142
420
    32960
370
     0
100
AcDbLine
 10
769.6296787672
 20
640.5291710834
 30
0.0
 11
770.3905239803
 21
640.7763846789
 31
0.0
  0
LINE
  5
2B2
330
1F
100
AcDbEntity
  8
0
  6
SLD-Solid
 62
   142
420
    32960
370
     0
100
AcDbLine
 10
808.0311820731
 20
522.3414965563
 30
0.0
 11
808.7920272861
 21
522.5887101518
 31
0.0
  0
LINE
  5
2B3
330
1F
100
AcDbEntity
  8
0
  6
SLD-Solid
 62
   142
420
    32960
370
     0
100
AcDbLine
 10
769.9941561927
 20
641.9962792934
 30
0.0
 11
770.3905239803
 21
640.7763846789
 31
0.0
  0
LINE
  5
2B4
330
1F
100
AcDbEntity
  8
0
  6
SLD-Solid
 62
   142
420
    32960
370
     0
100
AcDbLine
 10
769.2333109797
 20
641.7490656979
 30
0.0
 11
769.6296787672
 21
640.5291710834
 31
0.0
  0
LINE
  5
2B5
330
1F
100
AcDbEntity
  8
0
  6
SLD-Solid
 62
   142
420
    32960
370
     0
100
AcDbLine
 10
750.201697306
 20
520.7052253133
 30
0.0
 11
752.201697306
 21
520.7052253133
 31
0.0
  0
ARC
  5
2B6
330
1F
100
AcDbEntity
  8
0
  6
SLD-Solid
 62
   142
420
    32960
370
     0
100
AcDbCircle
 10
806.8423614277
 20
521.9552253133
 30
0.0
 40
2.050000000000182
100
AcDbArc
 50
270.0
 51
18.0
  0
LINE
  5
2B7
330
1F
100
AcDbEntity
  8
0
  6
SLD-Solid
 62
   142
420
    32960
370
     0
100
AcDbLine
 10
752.201697306
 20
519.9052253133
 30
0.0
 11
750.201697306
 21
519.9052253133
 31
0.0
  0
ARC
  5
2B8
330
1F
100
AcDbEntity
  8
0
  6
SLD-Solid
 62
   142
420
    32960
370
     0
100
AcDbCircle
 10
771.4587009279
 20
641.5339590444
 30
0.0
 40
1.249999999999825
100
AcDbArc
 50
153.0
 51
198.0
  0
LINE
  5
2B9
330
1F
100
AcDbEntity
  8
0
  6
SLD-Solid
 62
   142
420
    32960
370
     0
100
AcDbLine
 10
771.1472974794
 20
643.6761569457
 30
0.0
 11
770.4958507369
 21
642.3976207251
 31
0.0
  0
LINE
  5
2BA
330
1F
100
AcDbEntity
  8
0
  6
SLD-Solid
 62
   142
420
    32960
370
     0
100
AcDbLine
 10
770.3915402361
 20
642.1928998405
 30
0.0
 11
770.3449427726
 21
642.1014471691
 31
0.0
  0
LINE
  5
2BB
330
1F
100
AcDbEntity
  8
0
  6
SLD-Solid
 62
   142
420
    32960
370
     0
100
AcDbLine
 10
770.6745560342
 20
643.5244823584
 30
0.0
 11
770.4958507369
 21
643.4267524905
 31
0.0
  0
LINE
  5
2BC
330
1F
100
AcDbEntity
  8
0
  6
SLD-Solid
 62
   142
420
    32960
370
     0
100
AcDbLine
 10
769.9474475533
 20
642.1928998404
 30
0.0
 11
769.9941561927
 21
641.9962792934
 31
0.0
  0
LINE
  5
2BD
330
1F
100
AcDbEntity
  8
0
  6
SLD-Solid
 62
   142
420
    32960
370
     0
100
AcDbLine
 10
770.6228506249
 20
644.4090234511
 30
0.0
 11
770.4958507369
 21
644.1597721368
 31
0.0
  0
LINE
  5
2BE
330
1F
100
AcDbEntity
  8
0
  6
SLD-Solid
 62
   142
420
    32960
370
     0
100
AcDbLine
 10
770.3449427726
 20
642.1014471691
 30
0.0
 11
770.165456799
 21
642.1928998405
 31
0.0
  0
LINE
  5
2BF
330
1F
100
AcDbEntity
  8
0
  6
SLD-Solid
 62
   142
420
    32960
370
     0
100
AcDbLine
 10
770.6228506249
 20
644.4090234511
 30
0.0
 11
770.7458507369
 21
644.3463517637
 31
0.0
  0
ARC
  5
2C0
330
1F
100
AcDbEntity
  8
0
  6
SLD-Solid
 62
   142
420
    32960
370
     0
100
AcDbCircle
 10
768.4408581219
 20
640.1428998405
 30
0.0
 40
2.049999999999984
100
AcDbArc
 50
18.0
 51
90.0
  0
ENDSEC
  0
SECTION
  2
OBJECTS
  0
DICTIONARY
  5
C
330
0
100
AcDbDictionary
281
     1
  3
ACAD_GROUP
350
D
  3
ACAD_LAYOUT
350
1A
  3
ACAD_MATERIAL
350
3B
  3
ACAD_MLEADERSTYLE
350
2C2
  3
ACAD_MLINESTYLE
350
17
  3
ACAD_PLOTSETTINGS
350
19
  3
ACAD_PLOTSTYLENAME
350
E
  3
ACAD_TABLESTYLE
350
2C1
  3
ACAD_VISUALSTYLE
350
2A
  0
DICTIONARY
  5
D
102
{ACAD_REACTORS
330
C
102
}
330
C
100
AcDbDictionary
281
     1
  0
DICTIONARY
  5
1A
102
{ACAD_REACTORS
330
C
102
}
330
C
100
AcDbDictionary
281
     1
  3
Layout1
350
1E
  3
Layout2
350
26
  3
Model
350
22
  0
DICTIONARY
  5
3B
102
{ACAD_REACTORS
330
C
102
}
330
C
100
AcDbDictionary
281
     1
  3
ByBlock
350
3D
  3
ByLayer
350
3C
  3
Global
350
3E
  0
DICTIONARY
  5
2C2
102
{ACAD_REACTORS
330
C
102
}
330
C
100
AcDbDictionary
281
     1
  0
DICTIONARY
  5
17
102
{ACAD_REACTORS
330
C
102
}
330
C
100
AcDbDictionary
281
     1
  3
Standard
350
18
  0
DICTIONARY
  5
19
102
{ACAD_REACTORS
330
C
102
}
330
C
100
AcDbDictionary
281
     1
  0
ACDBDICTIONARYWDFLT
  5
E
102
{ACAD_REACTORS
330
C
102
}
330
C
100
AcDbDictionary
281
     1
  3
Normal
350
F
100
AcDbDictionaryWithDefault
340
F
  0
DICTIONARY
  5
2C1
102
{ACAD_REACTORS
330
C
102
}
330
C
100
AcDbDictionary
281
     1
  0
DICTIONARY
  5
2A
102
{ACAD_REACTORS
330
C
102
}
330
C
100
AcDbDictionary
281
     1
  3
2dWireframe
350
2F
  3
3D Hidden
350
31
  3
3dWireframe
350
30
  3
Basic
350
32
  3
Brighten
350
36
  3
ColorChange
350
3A
  3
Conceptual
350
34
  3
Dim
350
35
  3
Facepattern
350
39
  3
Flat
350
2B
  3
FlatWithEdges
350
2C
  3
Gouraud
350
2D
  3
GouraudWithEdges
350
2E
  3
Linepattern
350
38
  3
Realistic
350
33
  3
Thicken
350
37
  0
LAYOUT
  5
1E
102
{ACAD_REACTORS
330
1A
102
}
330
1A
100
AcDbPlotSettings
  1

  2
none_device
  4

  6

 40
0.0
 41
0.0
 42
0.0
 43
0.0
 44
0.0
 45
0.0
 46
0.0
 47
0.0
 48
0.0
 49
0.0
140
0.0
141
0.0
142
1.0
143
1.0
 70
   688
 72
     0
 73
     0
 74
     5
  7

 75
    16
 76
     0
 77
     2
 78
   300
147
1.0
148
0.0
149
0.0
100
AcDbLayout
  1
Layout1
 70
     1
 71
     1
 10
0.0
 20
0.0
 11
420.0
 21
297.0
 12
0.0
 22
0.0
 32
0.0
 14
1.0000000000E+20
 24
1.0000000000E+20
 34
1.0000000000E+20
 15
-1.0000000000E+20
 25
-1.0000000000E+20
 35
-1.0000000000E+20
146
0.0
 13
0.0
 23
0.0
 33
0.0
 16
1.0
 26
0.0
 36
0.0
 17
0.0
 27
1.0
 37
0.0
 76
     0
330
1B
  0
LAYOUT
  5
26
102
{ACAD_REACTORS
330
1A
102
}
330
1A
100
AcDbPlotSettings
  1

  2
none_device
  4

  6

 40
0.0
 41
0.0
 42
0.0
 43
0.0
 44
0.0
 45
0.0
 46
0.0
 47
0.0
 48
0.0
 49
0.0
140
0.0
141
0.0
142
1.0
143
1.0
 70
   688
 72
     0
 73
     0
 74
     5
  7

 75
    16
 76
     0
 77
     2
 78
   300
147
1.0
148
0.0
149
0.0
100
AcDbLayout
  1
Layout2
 70
     1
 71
     2
 10
0.0
 20
0.0
 11
0.0
 21
0.0
 12
0.0
 22
0.0
 32
0.0
 14
0.0
 24
0.0
 34
0.0
 15
0.0
 25
0.0
 35
0.0
146
0.0
 13
0.0
 23
0.0
 33
0.0
 16
1.0
 26
0.0
 36
0.0
 17
0.0
 27
1.0
 37
0.0
 76
     0
330
23
  0
LAYOUT
  5
22
102
{ACAD_REACTORS
330
1A
102
}
330
1A
100
AcDbPlotSettings
  1

  2
none_device
  4

  6

 40
0.0
 41
0.0
 42
0.0
 43
0.0
 44
0.0
 45
0.0
 46
0.0
 47
0.0
 48
0.0
 49
0.0
140
0.0
141
0.0
142
1.0
143
1.0
 70
  1712
 72
     0
 73
     0
 74
     0
  7

 75
     0
 76
     0
 77
     2
 78
   300
147
1.0
148
0.0
149
0.0
100
AcDbLayout
  1
Model
 70
     1
 71
     0
 10
0.0
 20
0.0
 11
841.0
 21
594.0
 12
0.0
 22
0.0
 32
0.0
 14
0.0
 24
0.0
 34
0.0
 15
841.0
 25
594.0
 35
0.0
146
0.0
 13
0.0
 23
0.0
 33
0.0
 16
1.0
 26
0.0
 36
0.0
 17
0.0
 27
1.0
 37
0.0
 76
     0
330
1F
331
29
  0
MATERIAL
  5
3D
102
{ACAD_REACTORS
330
3B
102
}
330
3B
100
AcDbMaterial
  1
ByBlock
 72
     1
 94
      127
  0
MATERIAL
  5
3C
102
{ACAD_REACTORS
330
3B
102
}
330
3B
100
AcDbMaterial
  1
ByLayer
 72
     1
 94
      127
  0
MATERIAL
  5
3E
102
{ACAD_REACTORS
330
3B
102
}
330
3B
100
AcDbMaterial
  1
Global
 72
     1
 94
      127
  0
MLINESTYLE
  5
18
102
{ACAD_REACTORS
330
17
102
}
330
17
100
AcDbMlineStyle
  2
Standard
 70
     0
  3

 62
   256
 51
90.0
 52
90.0
 71
     2
 49
0.5
 62
   256
  6
BYLAYER
 49
-0.5
 62
   256
  6
BYLAYER
  0
ACDBPLACEHOLDER
  5
F
102
{ACAD_REACTORS
330
E
102
}
330
E
  0
VISUALSTYLE
  5
2F
102
{ACAD_REACTORS
330
2A
102
}
330
2A
100
AcDbVisualStyle
  2
2dWireframe
 70
     4
 71
     0
 72
     2
 73
     0
 90
        0
 40
-0.6
 41
-30.0
 62
     5
 63
     7
421
 16777215
 74
     1
 91
        4
 64
     7
 65
   257
 75
     1
175
     1
 42
1.0
 92
        0
 66
   257
 43
1.0
 76
     1
 77
     6
 78
     2
 67
     7
 79
     5
170
     0
171
     0
290
     0
174
     0
 93
        1
 44
0.0
173
     0
291
     0
 45
0.0
  0
VISUALSTYLE
  5
31
102
{ACAD_REACTORS
330
2A
102
}
330
2A
100
AcDbVisualStyle
  2
3D Hidden
 70
     6
 71
     1
 72
     2
 73
     2
 90
        0
 40
-0.6
 41
-30.0
 62
     5
 63
     7
421
 16777215
 74
     2
 91
        2
 64
     7
 65
   257
 75
     2
175
     1
 42
40.0
 92
        0
 66
   257
 43
1.0
 76
     1
 77
     6
 78
     2
 67
     7
 79
     3
170
     0
171
     0
290
     0
174
     0
 93
        1
 44
0.0
173
     0
291
     0
 45
0.0
  0
VISUALSTYLE
  5
30
102
{ACAD_REACTORS
330
2A
102
}
330
2A
100
AcDbVisualStyle
  2
3dWireframe
 70
     5
 71
     0
 72
     2
 73
     0
 90
        0
 40
-0.6
 41
-30.0
 62
     5
 63
     7
421
 16777215
 74
     1
 91
        4
 64
     7
 65
   257
 75
     1
175
     1
 42
1.0
 92
        0
 66
   257
 43
1.0
 76
     1
 77
     6
 78
     2
 67
     7
 79
     5
170
     0
171
     0
290
     0
174
     0
 93
        1
 44
0.0
173
     0
291
     0
 45
0.0
  0
VISUALSTYLE
  5
32
102
{ACAD_REACTORS
330
2A
102
}
330
2A
100
AcDbVisualStyle
  2
Basic
 70
     7
 71
     1
 72
     0
 73
     1
 90
        0
 40
-0.6
 41
-30.0
 62
     5
 63
     7
421
 16777215
 74
     0
 91
        4
 64
     7
 65
   257
 75
     1
175
     1
 42
1.0
 92
        8
 66
     7
 43
1.0
 76
     1
 77
     6
 78
     2
 67
     7
 79
     5
170
     0
171
     0
290
     0
174
     0
 93
        1
 44
0.0
173
     0
291
     1
 45
0.0
  0
VISUALSTYLE
  5
36
102
{ACAD_REACTORS
330
2A
102
}
330
2A
100
AcDbVisualStyle
  2
Brighten
 70
    12
 71
     2
 72
     2
 73
     0
 90
        0
 40
-0.6
 41
-30.0
 62
     5
 63
     7
421
 16777215
 74
     1
 91
        4
 64
     7
 65
   257
 75
     1
175
     1
 42
1.0
 92
        8
 66
     7
 43
1.0
 76
     1
 77
     6
 78
     2
 67
     7
 79
     5
170
     0
171
     0
290
     0
174
     0
 93
        1
 44
50.0
173
     0
291
     1
 45
0.0
  0
VISUALSTYLE
  5
3A
102
{ACAD_REACTORS
330
2A
102
}
330
2A
100
AcDbVisualStyle
  2
ColorChange
 70
    16
 71
     2
 72
     2
 73
     3
 90
        0
 40
-0.6
 41
-30.0
 62
     5
 63
     8
421
  8421504
 74
     1
 91
        4
 64
     7
 65
   257
 75
     1
175
     1
 42
1.0
 92
        8
 66
     8
424
  8421504
 43
1.0
 76
     1
 77
     6
 78
     2
 67
     7
 79
     5
170
     0
171
     0
290
     0
174
     0
 93
        1
 44
0.0
173
     0
291
     1
 45
0.0
  0
VISUALSTYLE
  5
34
102
{ACAD_REACTORS
330
2A
102
}
330
2A
100
AcDbVisualStyle
  2
Conceptual
 70
     9
 71
     3
 72
     2
 73
     0
 90
        0
 40
-0.6
 41
-30.0
 62
     5
 63
     7
421
 16777215
 74
     2
 91
        2
 64
     7
 65
   257
 75
     1
175
     1
 42
40.0
 92
        8
 66
     7
 43
1.0
 76
     1
 77
     6
 78
     2
 67
     7
 79
     3
170
     0
171
     0
290
     0
174
     0
 93
        1
 44
0.0
173
     0
291
     0
 45
0.0
  0
VISUALSTYLE
  5
35
102
{ACAD_REACTORS
330
2A
102
}
330
2A
100
AcDbVisualStyle
  2
Dim
 70
    11
 71
     2
 72
     2
 73
     0
 90
        0
 40
-0.6
 41
-30.0
 62
     5
 63
     7
421
 16777215
 74
     1
 91
        4
 64
     7
 65
   257
 75
     1
175
     1
 42
1.0
 92
        8
 66
     7
 43
1.0
 76
     1
 77
     6
 78
     2
 67
     7
 79
     5
170
     0
171
     0
290
     0
174
     0
 93
        1
 44
-50.0
173
     0
291
     1
 45
0.0
  0
VISUALSTYLE
  5
39
102
{ACAD_REACTORS
330
2A
102
}
330
2A
100
AcDbVisualStyle
  2
Facepattern
 70
    15
 71
     2
 72
     2
 73
     0
 90
        0
 40
-0.6
 41
-30.0
 62
     5
 63
     7
421
 16777215
 74
     1
 91
        4
 64
     7
 65
   257
 75
     1
175
     1
 42
1.0
 92
        8
 66
     7
 43
1.0
 76
     1
 77
     6
 78
     2
 67
     7
 79
     5
170
     0
171
     0
290
     0
174
     0
 93
        1
 44
0.0
173
     0
291
     1
 45
0.0
  0
VISUALSTYLE
  5
2B
102
{ACAD_REACTORS
330
2A
102
}
330
2A
100
AcDbVisualStyle
  2
Flat
 70
     0
 71
     2
 72
     1
 73
     1
 90
        2
 40
-0.6
 41
30.0
 62
     5
 63
     7
421
 16777215
 74
     0
 91
        4
 64
     7
 65
   257
 75
     1
175
     1
 42
1.0
 92
        8
 66
     7
 43
1.0
 76
     1
 77
     6
 78
     2
 67
     7
 79
     5
170
     0
171
     0
290
     0
174
     0
 93
       13
 44
0.0
173
     0
291
     1
 45
0.0
  0
VISUALSTYLE
  5
2C
102
{ACAD_REACTORS
330
2A
102
}
330
2A
100
AcDbVisualStyle
  2
FlatWithEdges
 70
     1
 71
     2
 72
     1
 73
     1
 90
        2
 40
-0.6
 41
30.0
 62
     5
 63
     7
421
 16777215
 74
     1
 91
        4
 64
     7
 65
   257
 75
     1
175
     1
 42
1.0
 92
        0
 66
   257
 43
1.0
 76
     1
 77
     6
 78
     2
 67
     7
 79
     5
170
     0
171
     0
290
     0
174
     0
 93
       13
 44
0.0
173
     0
291
     1
 45
0.0
  0
VISUALSTYLE
  5
2D
102
{ACAD_REACTORS
330
2A
102
}
330
2A
100
AcDbVisualStyle
  2
Gouraud
 70
     2
 71
     2
 72
     2
 73
     1
 90
        2
 40
-0.6
 41
30.0
 62
     5
 63
     7
421
 16777215
 74
     0
 91
        4
 64
     7
 65
   257
 75
     1
175
     1
 42
1.0
 92
        0
 66
     7
 43
1.0
 76
     1
 77
     6
 78
     2
 67
     7
 79
     5
170
     0
171
     0
290
     0
174
     0
 93
       13
 44
0.0
173
     0
291
     1
 45
0.0
  0
VISUALSTYLE
  5
2E
102
{ACAD_REACTORS
330
2A
102
}
330
2A
100
AcDbVisualStyle
  2
GouraudWithEdges
 70
     3
 71
     2
 72
     2
 73
     1
 90
        2
 40
-0.6
 41
30.0
 62
     5
 63
     7
421
 16777215
 74
     1
 91
        4
 64
     7
 65
   257
 75
     1
175
     1
 42
1.0
 92
        0
 66
   257
 43
1.0
 76
     1
 77
     6
 78
     2
 67
     7
 79
     5
170
     0
171
     0
290
     0
174
     0
 93
       13
 44
0.0
173
     0
291
     1
 45
0.0
  0
VISUALSTYLE
  5
38
102
{ACAD_REACTORS
330
2A
102
}
330
2A
100
AcDbVisualStyle
  2
Linepattern
 70
    14
 71
     2
 72
     2
 73
     0
 90
        0
 40
-0.6
 41
-30.0
 62
     5
 63
     7
421
 16777215
 74
     1
 91
        4
 64
     7
 65
   257
 75
     7
175
     7
 42
1.0
 92
        8
 66
     7
 43
1.0
 76
     1
 77
     6
 78
     2
 67
     7
 79
     5
170
     0
171
     0
290
     0
174
     0
 93
        1
 44
0.0
173
     0
291
     1
 45
0.0
  0
VISUALSTYLE
  5
33
102
{ACAD_REACTORS
330
2A
102
}
330
2A
100
AcDbVisualStyle
  2
Realistic
 70
     8
 71
     2
 72
     2
 73
     0
 90
        0
 40
-0.6
 41
-30.0
 62
     5
 63
     7
421
 16777215
 74
     1
 91
        0
 64
     7
 65
   257
 75
     1
175
     1
 42
1.0
 92
        8
 66
     8
424
  7895160
 43
1.0
 76
     1
 77
     6
 78
     2
 67
     7
 79
     5
170
     0
171
     0
290
     0
174
     0
 93
       13
 44
0.0
173
     0
291
     0
 45
0.0
  0
VISUALSTYLE
  5
37
102
{ACAD_REACTORS
330
2A
102
}
330
2A
100
AcDbVisualStyle
  2
Thicken
 70
    13
 71
     2
 72
     2
 73
     0
 90
        0
 40
-0.6
 41
-30.0
 62
     5
 63
     7
421
 16777215
 74
     1
 91
        4
 64
     7
 65
   257
 75
     1
175
     1
 42
1.0
 92
       12
 66
     7
 43
1.0
 76
     1
 77
     6
 78
     2
 67
     7
 79
     5
170
     0
171
     0
290
     0
174
     0
 93
        1
 44
0.0
173
     0
291
     1
 45
0.0
  0
ENDSEC
  0
EOF
