  0
SECTION
  2
HEADER
  9
$ACADVER
  1
AC1021
  9
$ACADMAINTVER
 70
    25
  9
$DWGCODEPAGE
  3
ANSI_1252
  9
$INSBASE
 10
0.0
 20
0.0
 30
0.0
  9
$EXTMIN
 10
0.0
 20
0.0
 30
0.0
  9
$EXTMAX
 10
841.0
 20
594.0
 30
0.0
  9
$LIMMIN
 10
0.0
 20
0.0
  9
$LIMMAX
 10
841.0
 20
594.0
  9
$ORTHOMODE
 70
     0
  9
$REGENMODE
 70
     1
  9
$FILLMODE
 70
     1
  9
$QTEXTMODE
 70
     0
  9
$MIRRTEXT
 70
     1
  9
$LTSCALE
 40
1.0
  9
$ATTMODE
 70
     1
  9
$TEXTSIZE
 40
3.5
  9
$TRACEWID
 40
1.0
  9
$TEXTSTYLE
  7
STANDARD
  9
$CLAYER
  8
0
  9
$CELTYPE
  6
ByLayer
  9
$CECOLOR
 62
   256
  9
$CELTSCALE
 40
1.0
  9
$DISPSILH
 70
     0
  9
$DIMSCALE
 40
1.0
  9
$DIMASZ
 40
3.302
  9
$DIMEXO
 40
1.0
  9
$DIMDLI
 40
3.75
  9
$DIMRND
 40
0.0
  9
$DIMDLE
 40
0.0
  9
$DIMEXE
 40
1.0
  9
$DIMTP
 40
0.0
  9
$DIMTM
 40
0.0
  9
$DIMTXT
 40
3.5
  9
$DIMCEN
 40
2.5
  9
$DIMTSZ
 40
0.0
  9
$DIMTOL
 70
     0
  9
$DIMLIM
 70
     0
  9
$DIMTIH
 70
     1
  9
$DIMTOH
 70
     1
  9
$DIMSE1
 70
     0
  9
$DIMSE2
 70
     0
  9
$DIMTAD
 70
     1
  9
$DIMZIN
 70
     0
  9
$DIMBLK
  1

  9
$DIMASO
 70
     1
  9
$DIMSHO
 70
     1
  9
$DIMPOST
  1

  9
$DIMAPOST
  1

  9
$DIMALT
 70
     0
  9
$DIMALTD
 70
     3
  9
$DIMALTF
 40
0.0393700787
  9
$DIMLFAC
 40
1.0
  9
$DIMTOFL
 70
     1
  9
$DIMTVP
 40
0.0
  9
$DIMTIX
 70
     0
  9
$DIMSOXD
 70
     0
  9
$DIMSAH
 70
     0
  9
$DIMBLK1
  1

  9
$DIMBLK2
  1

  9
$DIMSTYLE
  2
ISO-25
  9
$DIMCLRD
 70
     0
  9
$DIMCLRE
 70
     0
  9
$DIMCLRT
 70
     0
  9
$DIMTFAC
 40
1.0
  9
$DIMGAP
 40
1.524
  9
$DIMJUST
 70
     0
  9
$DIMSD1
 70
     0
  9
$DIMSD2
 70
     0
  9
$DIMTOLJ
 70
     0
  9
$DIMTZIN
 70
     0
  9
$DIMALTZ
 70
     0
  9
$DIMALTTZ
 70
     0
  9
$DIMUPT
 70
     0
  9
$DIMDEC
 70
     1
  9
$DIMTDEC
 70
     1
  9
$DIMALTU
 70
     2
  9
$DIMALTTD
 70
     3
  9
$DIMTXSTY
  7
STANDARD
  9
$DIMAUNIT
 70
     0
  9
$DIMADEC
 70
     1
  9
$DIMALTRND
 40
0.0
  9
$DIMAZIN
 70
     0
  9
$DIMDSEP
 70
    44
  9
$DIMATFIT
 70
     3
  9
$DIMFRAC
 70
     0
  9
$DIMLDRBLK
  1

  9
$DIMLUNIT
 70
     2
  9
$DIMLWD
 70
    -2
  9
$DIMLWE
 70
    -2
  9
$DIMTMOVE
 70
     0
  9
$DIMFXL
 40
1.0
  9
$DIMFXLON
 70
     0
  9
$DIMJOGANG
 40
0.7853981634
  9
$DIMTFILL
 70
     0
  9
$DIMTFILLCLR
 70
     0
  9
$DIMARCSYM
 70
     0
  9
$DIMLTYPE
  6

  9
$DIMLTEX1
  6

  9
$DIMLTEX2
  6

  9
$LUNITS
 70
     2
  9
$LUPREC
 70
     1
  9
$SKETCHINC
 40
1.0
  9
$FILLETRAD
 40
10.0
  9
$AUNITS
 70
     0
  9
$AUPREC
 70
     1
  9
$MENU
  1
.
  9
$ELEVATION
 40
0.0
  9
$PELEVATION
 40
0.0
  9
$THICKNESS
 40
0.0
  9
$LIMCHECK
 70
     0
  9
$CHAMFERA
 40
10.0
  9
$CHAMFERB
 40
10.0
  9
$CHAMFERC
 40
20.0
  9
$CHAMFERD
 40
0.0
  9
$SKPOLY
 70
     0
  9
$TDCREATE
 40
2455700.638309433
  9
$TDUCREATE
 40
2455700.596642766
  9
$TDUPDATE
 40
2455700.638309444
  9
$TDUUPDATE
 40
2455700.596642778
  9
$TDINDWG
 40
0.0000000116
  9
$TDUSRTIMER
 40
0.0000000116
  9
$USRTIMER
 70
     1
  9
$ANGBASE
 50
0.0
  9
$ANGDIR
 70
     0
  9
$PDMODE
 70
     0
  9
$PDSIZE
 40
-1.0
  9
$PLINEWID
 40
0.0
  9
$SPLFRAME
 70
     0
  9
$SPLINETYPE
 70
     6
  9
$SPLINESEGS
 70
     8
  9
$HANDSEED
  5
355
  9
$SURFTAB1
 70
     6
  9
$SURFTAB2
 70
     6
  9
$SURFTYPE
 70
     6
  9
$SURFU
 70
     6
  9
$SURFV
 70
     6
  9
$UCSBASE
  2

  9
$UCSNAME
  2

  9
$UCSORG
 10
0.0
 20
0.0
 30
0.0
  9
$UCSXDIR
 10
1.0
 20
0.0
 30
0.0
  9
$UCSYDIR
 10
0.0
 20
1.0
 30
0.0
  9
$UCSORTHOREF
  2

  9
$UCSORTHOVIEW
 70
     0
  9
$UCSORGTOP
 10
0.0
 20
0.0
 30
0.0
  9
$UCSORGBOTTOM
 10
0.0
 20
0.0
 30
0.0
  9
$UCSORGLEFT
 10
0.0
 20
0.0
 30
0.0
  9
$UCSORGRIGHT
 10
0.0
 20
0.0
 30
0.0
  9
$UCSORGFRONT
 10
0.0
 20
0.0
 30
0.0
  9
$UCSORGBACK
 10
0.0
 20
0.0
 30
0.0
  9
$PUCSBASE
  2

  9
$PUCSNAME
  2

  9
$PUCSORG
 10
0.0
 20
0.0
 30
0.0
  9
$PUCSXDIR
 10
1.0
 20
0.0
 30
0.0
  9
$PUCSYDIR
 10
0.0
 20
1.0
 30
0.0
  9
$PUCSORTHOREF
  2

  9
$PUCSORTHOVIEW
 70
     0
  9
$PUCSORGTOP
 10
0.0
 20
0.0
 30
0.0
  9
$PUCSORGBOTTOM
 10
0.0
 20
0.0
 30
0.0
  9
$PUCSORGLEFT
 10
0.0
 20
0.0
 30
0.0
  9
$PUCSORGRIGHT
 10
0.0
 20
0.0
 30
0.0
  9
$PUCSORGFRONT
 10
0.0
 20
0.0
 30
0.0
  9
$PUCSORGBACK
 10
0.0
 20
0.0
 30
0.0
  9
$USERI1
 70
     0
  9
$USERI2
 70
     0
  9
$USERI3
 70
     0
  9
$USERI4
 70
     0
  9
$USERI5
 70
     0
  9
$USERR1
 40
0.0
  9
$USERR2
 40
0.0
  9
$USERR3
 40
0.0
  9
$USERR4
 40
0.0
  9
$USERR5
 40
0.0
  9
$WORLDVIEW
 70
     1
  9
$SHADEDGE
 70
     3
  9
$SHADEDIF
 70
    70
  9
$TILEMODE
 70
     1
  9
$MAXACTVP
 70
    64
  9
$PINSBASE
 10
0.0
 20
0.0
 30
0.0
  9
$PLIMCHECK
 70
     0
  9
$PEXTMIN
 10
1.0000000000E+20
 20
1.0000000000E+20
 30
1.0000000000E+20
  9
$PEXTMAX
 10
-1.0000000000E+20
 20
-1.0000000000E+20
 30
-1.0000000000E+20
  9
$PLIMMIN
 10
0.0
 20
0.0
  9
$PLIMMAX
 10
420.0
 20
297.0
  9
$UNITMODE
 70
     0
  9
$VISRETAIN
 70
     1
  9
$PLINEGEN
 70
     0
  9
$PSLTSCALE
 70
     1
  9
$TREEDEPTH
 70
  3020
  9
$CMLSTYLE
  2
Standard
  9
$CMLJUST
 70
     0
  9
$CMLSCALE
 40
20.0
  9
$PROXYGRAPHICS
 70
     1
  9
$MEASUREMENT
 70
     1
  9
$CELWEIGHT
370
    -1
  9
$ENDCAPS
280
     0
  9
$JOINSTYLE
280
     0
  9
$LWDISPLAY
290
     1
  9
$INSUNITS
 70
     4
  9
$HYPERLINKBASE
  1

  9
$STYLESHEET
  1

  9
$XEDIT
290
     1
  9
$CEPSNTYPE
380
     0
  9
$PSTYLEMODE
290
     1
  9
$FINGERPRINTGUID
  2
{B6BA1874-FAA0-40FE-B43A-162F8C2D54B0}
  9
$VERSIONGUID
  2
{FAEB1C32-E019-11D5-929B-00C0DF256EC4}
  9
$EXTNAMES
290
     1
  9
$PSVPSCALE
 40
0.0
  9
$OLESTARTUP
290
     0
  9
$SORTENTS
280
   127
  9
$INDEXCTL
280
     0
  9
$HIDETEXT
280
     1
  9
$XCLIPFRAME
290
     0
  9
$HALOGAP
280
     0
  9
$OBSCOLOR
 70
   257
  9
$OBSLTYPE
280
     0
  9
$INTERSECTIONDISPLAY
280
     0
  9
$INTERSECTIONCOLOR
 70
   257
  9
$DIMASSOC
280
     2
  9
$PROJECTNAME
  1

  9
$CAMERADISPLAY
290
     0
  9
$LENSLENGTH
 40
50.0
  9
$CAMERAHEIGHT
 40
0.0
  9
$STEPSPERSEC
 40
2.0
  9
$STEPSIZE
 40
6.0
  9
$3DDWFPREC
 40
2.0
  9
$PSOLWIDTH
 40
5.0
  9
$PSOLHEIGHT
 40
80.0
  9
$LOFTANG1
 40
1.5707963268
  9
$LOFTANG2
 40
1.5707963268
  9
$LOFTMAG1
 40
0.0
  9
$LOFTMAG2
 40
0.0
  9
$LOFTPARAM
 70
     7
  9
$LOFTNORMALS
280
     1
  9
$LATITUDE
 40
37.795
  9
$LONGITUDE
 40
-122.394
  9
$NORTHDIRECTION
 40
0.0
  9
$TIMEZONE
 70
 -8000
  9
$LIGHTGLYPHDISPLAY
280
     1
  9
$TILEMODELIGHTSYNCH
280
     1
  9
$SOLIDHIST
280
     1
  9
$SHOWHIST
280
     1
  9
$DWFFRAME
280
     2
  9
$DGNFRAME
280
     2
  9
$REALWORLDSCALE
290
     1
  9
$INTERFERECOLOR
 62
   256
  9
$CSHADOW
280
     0
  9
$SHADOWPLANELOCATION
 40
0.0
  0
ENDSEC
  0
SECTION
  2
CLASSES
  0
CLASS
  1
ACDBDICTIONARYWDFLT
  2
AcDbDictionaryWithDefault
  3
ObjectDBX Classes
 90
        0
 91
        4
280
     0
281
     0
  0
CLASS
  1
VISUALSTYLE
  2
AcDbVisualStyle
  3
ObjectDBX Classes
 90
     4095
 91
        4
280
     0
281
     0
  0
CLASS
  1
MATERIAL
  2
AcDbMaterial
  3
ObjectDBX Classes
 90
     1153
 91
        4
280
     0
281
     0
  0
ENDSEC
  0
SECTION
  2
TABLES
  0
TABLE
  2
VPORT
  5
8
330
0
100
AcDbSymbolTable
 70
     1
  0
VPORT
  5
29
330
8
100
AcDbSymbolTableRecord
100
AcDbViewportTableRecord
  2
*Active
 70
     0
 10
0.0
 20
0.0
 11
1.0
 21
1.0
 12
420.5
 22
297.0
 13
0.0
 23
0.0
 14
10.0
 24
10.0
 15
10.0
 25
10.0
 16
0.0
 26
0.0
 36
1.0
 17
0.0
 27
0.0
 37
0.0
 40
594.0
 41
1.4158249158
 42
50.0
 43
0.0
 44
0.0
 50
0.0
 51
0.0
 71
     0
 72
  2000
 73
     1
 74
     3
 75
     0
 76
     0
 77
     0
 78
     0
281
     0
 65
     1
110
0.0
120
0.0
130
0.0
111
1.0
121
0.0
131
0.0
112
0.0
122
1.0
132
0.0
 79
     0
146
0.0
 60
     3
 61
     5
292
     1
282
     1
141
0.0
142
0.0
 63
   250
  0
ENDTAB
  0
TABLE
  2
LTYPE
  5
5
330
0
100
AcDbSymbolTable
 70
     8
  0
LTYPE
  5
14
330
5
100
AcDbSymbolTableRecord
100
AcDbLinetypeTableRecord
  2
ByBlock
 70
     0
  3

 72
    65
 73
     0
 40
0.0
  0
LTYPE
  5
15
330
5
100
AcDbSymbolTableRecord
100
AcDbLinetypeTableRecord
  2
ByLayer
 70
     0
  3

 72
    65
 73
     0
 40
0.0
  0
LTYPE
  5
16
330
5
100
AcDbSymbolTableRecord
100
AcDbLinetypeTableRecord
  2
Continuous
 70
     0
  3
Solid line
 72
    65
 73
     0
 40
0.0
  0
LTYPE
  5
3F
330
5
100
AcDbSymbolTableRecord
100
AcDbLinetypeTableRecord
  2
SLD-Solid
 70
     0
  3
SolidWorks Line Style
 72
    65
 73
     0
 40
0.0
  0
LTYPE
  5
40
330
5
100
AcDbSymbolTableRecord
100
AcDbLinetypeTableRecord
  2
SLD-Dashed
 70
     0
  3
SolidWorks Line Style
 72
    65
 73
     2
 40
1.905
 49
1.27
 74
     0
 49
-0.635
 74
     0
  0
LTYPE
  5
41
330
5
100
AcDbSymbolTableRecord
100
AcDbLinetypeTableRecord
  2
SLD-Phantom
 70
     0
  3
SolidWorks Line Style
 72
    65
 73
     6
 40
12.7
 49
6.35
 74
     0
 49
-1.27
 74
     0
 49
1.27
 74
     0
 49
-1.27
 74
     0
 49
1.27
 74
     0
 49
-1.27
 74
     0
  0
LTYPE
  5
42
330
5
100
AcDbSymbolTableRecord
100
AcDbLinetypeTableRecord
  2
SLD-Chain
 70
     0
  3
SolidWorks Line Style
 72
    65
 73
     4
 40
10.16
 49
6.35
 74
     0
 49
-1.27
 74
     0
 49
1.27
 74
     0
 49
-1.27
 74
     0
  0
LTYPE
  5
43
330
5
100
AcDbSymbolTableRecord
100
AcDbLinetypeTableRecord
  2
SLD-Center
 70
     0
  3
SolidWorks Line Style
 72
    65
 73
     4
 40
19.05
 49
15.24
 74
     0
 49
-1.27
 74
     0
 49
1.27
 74
     0
 49
-1.27
 74
     0
  0
LTYPE
  5
44
330
5
100
AcDbSymbolTableRecord
100
AcDbLinetypeTableRecord
  2
SLD-Stitch
 70
     0
  3
SolidWorks Line Style
 72
    65
 73
     2
 40
0.635
 49
0.0
 74
     0
 49
-0.635
 74
     0
  0
LTYPE
  5
45
330
5
100
AcDbSymbolTableRecord
100
AcDbLinetypeTableRecord
  2
SLD-Thin-Thick-Chain
 70
     0
  3
SolidWorks Line Style
 72
    65
 73
     4
 40
10.16
 49
6.35
 74
     0
 49
-1.27
 74
     0
 49
1.27
 74
     0
 49
-1.27
 74
     0
  0
ENDTAB
  0
TABLE
  2
LAYER
  5
2
330
0
100
AcDbSymbolTable
 70
     1
  0
LAYER
  5
10
330
2
100
AcDbSymbolTableRecord
100
AcDbLayerTableRecord
  2
0
 70
     0
 62
     7
  6
Continuous
370
    -3
390
F
347
3E
  0
ENDTAB
  0
TABLE
  2
STYLE
  5
3
330
0
100
AcDbSymbolTable
 70
     1
  0
STYLE
  5
11
330
3
100
AcDbSymbolTableRecord
100
AcDbTextStyleTableRecord
  2
STANDARD
 70
     0
 40
0.0
 41
1.0
 50
0.0
 71
     0
 42
2.5
  3
GOTHIC.TTF
  4

1001
ACAD
1000
CENTURY GOTHIC
1071
       34
  0
ENDTAB
  0
TABLE
  2
VIEW
  5
6
330
0
100
AcDbSymbolTable
 70
     0
  0
ENDTAB
  0
TABLE
  2
UCS
  5
7
330
0
100
AcDbSymbolTable
 70
     0
  0
ENDTAB
  0
TABLE
  2
APPID
  5
9
330
0
100
AcDbSymbolTable
 70
     1
  0
APPID
  5
12
330
9
100
AcDbSymbolTableRecord
100
AcDbRegAppTableRecord
  2
ACAD
 70
     0
  0
ENDTAB
  0
TABLE
  2
DIMSTYLE
  5
A
330
0
100
AcDbSymbolTable
 70
     1
100
AcDbDimStyleTable
  0
DIMSTYLE
105
27
330
A
100
AcDbSymbolTableRecord
100
AcDbDimStyleTableRecord
  2
ISO-25
 70
     0
 41
2.5
 42
0.625
 43
3.75
 44
1.25
 73
     0
 74
     0
 77
     1
 78
     8
140
2.5
141
2.5
143
0.0393700787
147
0.625
171
     3
172
     1
271
     2
272
     2
274
     3
278
    44
283
     0
284
     8
340
11
  0
ENDTAB
  0
TABLE
  2
BLOCK_RECORD
  5
1
330
0
100
AcDbSymbolTable
 70
     1
  0
BLOCK_RECORD
  5
1F
330
1
100
AcDbSymbolTableRecord
100
AcDbBlockTableRecord
  2
*Model_Space
340
22
 70
     0
280
     1
281
     0
  0
BLOCK_RECORD
  5
1B
330
1
100
AcDbSymbolTableRecord
100
AcDbBlockTableRecord
  2
*Paper_Space
340
1E
 70
     0
280
     1
281
     0
  0
BLOCK_RECORD
  5
23
330
1
100
AcDbSymbolTableRecord
100
AcDbBlockTableRecord
  2
*Paper_Space0
340
26
 70
     0
280
     1
281
     0
  0
ENDTAB
  0
ENDSEC
  0
SECTION
  2
BLOCKS
  0
BLOCK
  5
20
330
1F
100
AcDbEntity
  8
0
100
AcDbBlockBegin
  2
*Model_Space
 70
     0
 10
0.0
 20
0.0
 30
0.0
  3
*Model_Space
  1

  0
ENDBLK
  5
21
330
1F
100
AcDbEntity
  8
0
100
AcDbBlockEnd
  0
BLOCK
  5
1C
330
1B
100
AcDbEntity
 67
     1
  8
0
100
AcDbBlockBegin
  2
*Paper_Space
 70
     0
 10
0.0
 20
0.0
 30
0.0
  3
*Paper_Space
  1

  0
ENDBLK
  5
1D
330
1B
100
AcDbEntity
 67
     1
  8
0
100
AcDbBlockEnd
  0
BLOCK
  5
24
330
23
100
AcDbEntity
  8
0
100
AcDbBlockBegin
  2
*Paper_Space0
 70
     0
 10
0.0
 20
0.0
 30
0.0
  3
*Paper_Space0
  1

  0
ENDBLK
  5
25
330
23
100
AcDbEntity
  8
0
100
AcDbBlockEnd
  0
ENDSEC
  0
SECTION
  2
ENTITIES
  0
LINE
  5
46
330
1F
100
AcDbEntity
  8
0
  6
SLD-Solid
 62
     7
370
    15
100
AcDbLine
 10
819.1822767447
 20
-41.3666275791
 30
0.0
 11
819.1822767447
 21
-38.8666275791
 31
0.0
  0
LINE
  5
47
330
1F
100
AcDbEntity
  8
0
  6
SLD-Solid
 62
     7
370
    15
100
AcDbLine
 10
791.6709055669
 20
612.3485429612
 30
0.0
 11
790.8544445583
 21
612.4027924152
 31
0.0
  0
LINE
  5
48
330
1F
100
AcDbEntity
  8
0
  6
SLD-Solid
 62
     7
370
    15
100
AcDbLine
 10
795.5633355334
 20
612.089911871
 30
0.0
 11
794.7549504477
 21
612.1436247233
 31
0.0
  0
LINE
  5
49
330
1F
100
AcDbEntity
  8
0
  6
SLD-Solid
 62
   142
420
    32960
370
     0
100
AcDbLine
 10
378.9822767448
 20
688.1333724202
 30
0.0
 11
376.9822767448
 21
690.1333724202
 31
0.0
  0
LINE
  5
4A
330
1F
100
AcDbEntity
  8
0
  6
SLD-Solid
 62
   142
420
    32960
370
     0
100
AcDbLine
 10
193.9822767448
 20
690.1333724202
 30
0.0
 11
191.9822767448
 21
688.1333724202
 31
0.0
  0
LINE
  5
4B
330
1F
100
AcDbEntity
  8
0
  6
SLD-Solid
 62
     7
370
    15
100
AcDbLine
 10
378.9822767448
 20
686.6333724202
 30
0.0
 11
378.9822767448
 21
688.1333724202
 31
0.0
  0
LINE
  5
4C
330
1F
100
AcDbEntity
  8
0
  6
SLD-Solid
 62
     7
370
    15
100
AcDbLine
 10
191.9822767448
 20
688.1333724202
 30
0.0
 11
191.9822767448
 21
686.6333724202
 31
0.0
  0
LINE
  5
4D
330
1F
100
AcDbEntity
  8
0
  6
SLD-Solid
 62
   142
420
    32960
370
     0
100
AcDbLine
 10
300.242411483
 20
686.5399398723
 30
0.0
 11
300.7200100288
 21
686.6333724202
 31
0.0
  0
LINE
  5
4E
330
1F
100
AcDbEntity
  8
0
  6
SLD-Solid
 62
   142
420
    32960
370
     0
100
AcDbLine
 10
270.2445434609
 20
686.6333724202
 30
0.0
 11
270.7221420067
 21
686.5399398723
 31
0.0
  0
LINE
  5
4F
330
1F
100
AcDbEntity
  8
0
  6
SLD-Solid
 62
     7
370
    15
100
AcDbLine
 10
52.8822767447
 20
686.8333724201
 30
0.0
 11
53.6822767447
 21
686.8333724201
 31
0.0
  0
LINE
  5
50
330
1F
100
AcDbEntity
  8
0
  6
SLD-Solid
 62
     7
370
    15
100
AcDbLine
 10
53.6822767447
 20
690.8333724201
 30
0.0
 11
52.8822767447
 21
690.8333724201
 31
0.0
  0
LINE
  5
51
330
1F
100
AcDbEntity
  8
0
  6
SLD-Solid
 62
     7
370
    15
100
AcDbLine
 10
52.8822767447
 20
682.4833724201
 30
0.0
 11
53.6822767447
 21
682.4833724201
 31
0.0
  0
LINE
  5
52
330
1F
100
AcDbEntity
  8
0
  6
SLD-Solid
 62
     7
370
    15
100
AcDbLine
 10
794.3825516639
 20
591.2215566927
 30
0.0
 11
792.4804386313
 21
590.6035227039
 31
0.0
  0
LINE
  5
53
330
1F
100
AcDbEntity
  8
0
  6
SLD-Solid
 62
     7
370
    15
100
AcDbLine
 10
798.6607785188
 20
571.582392378
 30
0.0
 11
800.5628915514
 21
572.2004263668
 31
0.0
  0
LINE
  5
54
330
1F
100
AcDbEntity
  8
0
  6
SLD-Solid
 62
     7
370
    15
100
AcDbLine
 10
383.5816887929
 20
678.4465073244
 30
0.0
 11
377.0801099194
 21
686.5399398723
 31
0.0
  0
LINE
  5
55
330
1F
100
AcDbEntity
  8
0
  6
SLD-Solid
 62
     7
370
    15
100
AcDbLine
 10
193.8844435703
 20
686.5399398723
 30
0.0
 11
187.3828646968
 21
678.4465073244
 31
0.0
  0
LINE
  5
56
330
1F
100
AcDbEntity
  8
0
  6
SLD-Solid
 62
     7
370
    15
100
AcDbLine
 10
36.1822767447
 20
5.7333724201
 30
0.0
 11
36.4106400893
 21
6.0595090755
 31
0.0
  0
LINE
  5
57
330
1F
100
AcDbEntity
  8
0
  6
SLD-Solid
 62
     7
370
    15
100
AcDbLine
 10
794.1468182776
 20
612.1840318437
 30
0.0
 11
791.6914893058
 21
612.3471752821
 31
0.0
  0
LINE
  5
58
330
1F
100
AcDbEntity
  8
0
  6
SLD-Solid
 62
     7
370
    15
100
AcDbLine
 10
790.8544445583
 20
612.4027924152
 30
0.0
 11
789.9223983552
 21
612.4647218854
 31
0.0
  0
LINE
  5
59
330
1F
100
AcDbEntity
  8
0
  6
SLD-Solid
 62
     7
370
    15
100
AcDbLine
 10
807.5157739248
 20
550.8016547501
 30
0.0
 11
815.7902711103
 21
557.696050759
 31
0.0
  0
LINE
  5
5A
330
1F
100
AcDbEntity
  8
0
  6
SLD-Solid
 62
     7
370
    15
100
AcDbLine
 10
790.8660235107
 20
612.3920010058
 30
0.0
 11
787.4296692905
 21
612.6203283093
 31
0.0
  0
LINE
  5
5B
330
1F
100
AcDbEntity
  8
0
  6
SLD-Solid
 62
     7
370
    15
100
AcDbLine
 10
798.1763024309
 20
611.9062721879
 30
0.0
 11
795.5452120819
 21
612.081094027
 31
0.0
  0
LINE
  5
5C
330
1F
100
AcDbEntity
  8
0
  6
SLD-Solid
 62
     7
370
    15
100
AcDbLine
 10
815.7902711103
 20
557.696050759
 30
0.0
 11
831.5514652718
 21
572.0013425259
 31
0.0
  0
LINE
  5
5D
330
1F
100
AcDbEntity
  8
0
  6
SLD-Solid
 62
     7
370
    15
100
AcDbLine
 10
798.6733517054
 20
611.852031809
 30
0.0
 11
798.1763024309
 21
611.9062721879
 31
0.0
  0
ARC
  5
5E
330
1F
100
AcDbEntity
  8
0
  6
SLD-Solid
 62
     7
370
    15
100
AcDbCircle
 10
830.8793860287
 20
572.7418217565
 30
0.0
 40
1.000000000000087
100
AcDbArc
 50
312.2277453179
 51
18.0
  0
LINE
  5
5F
330
1F
100
AcDbEntity
  8
0
  6
SLD-Solid
 62
     7
370
    15
100
AcDbLine
 10
56.1822767447
 20
639.4333724201
 30
0.0
 11
55.3822767447
 21
639.4333724201
 31
0.0
  0
LINE
  5
60
330
1F
100
AcDbEntity
  8
0
  6
SLD-Solid
 62
     7
370
    15
100
AcDbLine
 10
792.259941444
 20
628.5218013186
 30
0.0
 11
792.2192662309
 21
628.613159343
 31
0.0
  0
LINE
  5
61
330
1F
100
AcDbEntity
  8
0
  6
SLD-Solid
 62
     7
370
    15
100
AcDbLine
 10
792.8228485549
 20
627.4580309715
 30
0.0
 11
792.3443496722
 21
628.5585030608
 31
0.0
  0
LINE
  5
62
330
1F
100
AcDbEntity
  8
0
  6
SLD-Solid
 62
     7
370
    15
100
AcDbLine
 10
786.4751651962
 20
626.0065090196
 30
0.0
 11
786.9536640789
 21
624.9060369304
 31
0.0
  0
LINE
  5
63
330
1F
100
AcDbEntity
  8
0
  6
SLD-Solid
 62
     7
370
    15
100
AcDbLine
 10
802.6822767447
 20
-38.3666275791
 30
0.0
 11
803.1822767447
 21
-38.8666275791
 31
0.0
  0
LINE
  5
64
330
1F
100
AcDbEntity
  8
0
  6
SLD-Solid
 62
     7
370
    15
100
AcDbLine
 10
819.1822767447
 20
-38.8666275791
 30
0.0
 11
819.6822767447
 21
-38.3666275791
 31
0.0
  0
LINE
  5
65
330
1F
100
AcDbEntity
  8
0
  6
SLD-Solid
 62
     7
370
    15
100
AcDbLine
 10
802.6822767447
 20
-36.8666275791
 30
0.0
 11
802.6822767447
 21
-38.3666275791
 31
0.0
  0
LINE
  5
66
330
1F
100
AcDbEntity
  8
0
  6
SLD-Solid
 62
     7
370
    15
100
AcDbLine
 10
819.6822767447
 20
-38.3666275791
 30
0.0
 11
819.6822767447
 21
-36.8666275791
 31
0.0
  0
LINE
  5
67
330
1F
100
AcDbEntity
  8
0
  6
SLD-Solid
 62
     7
370
    15
100
AcDbLine
 10
797.9809411312
 20
573.6747167139
 30
0.0
 11
799.6799858532
 21
574.917730699
 31
0.0
  0
LINE
  5
68
330
1F
100
AcDbEntity
  8
0
  6
SLD-Solid
 62
     7
370
    15
100
AcDbLine
 10
795.2654573621
 20
588.5042523604
 30
0.0
 11
793.1602760189
 21
588.5111983681
 31
0.0
  0
LINE
  5
69
330
1F
100
AcDbEntity
  8
0
  6
SLD-Solid
 62
     7
370
    15
100
AcDbLine
 10
744.3822767447
 20
-209.3666275799
 30
0.0
 11
744.3822767447
 21
-205.3666275799
 31
0.0
  0
LINE
  5
6A
330
1F
100
AcDbEntity
  8
0
  6
SLD-Solid
 62
     7
370
    15
100
AcDbLine
 10
687.3822767447
 20
-205.3666275799
 30
0.0
 11
687.3822767447
 21
-209.3666275799
 31
0.0
  0
ARC
  5
6B
330
1F
100
AcDbEntity
  8
0
  6
SLD-Solid
 62
     7
370
    15
100
AcDbCircle
 10
742.3822767447
 20
-209.3666275799
 30
0.0
 40
2.0
100
AcDbArc
 50
270.0
 51
0.0
  0
ARC
  5
6C
330
1F
100
AcDbEntity
  8
0
  6
SLD-Solid
 62
     7
370
    15
100
AcDbCircle
 10
689.3822767447
 20
-209.3666275799
 30
0.0
 40
2.0
100
AcDbArc
 50
180.0
 51
270.0
  0
LINE
  5
6D
330
1F
100
AcDbEntity
  8
0
  6
SLD-Solid
 62
     7
370
    15
100
AcDbLine
 10
643.9822767448
 20
688.1333724201
 30
0.0
 11
641.9822767448
 21
690.1333724201
 31
0.0
  0
LINE
  5
6E
330
1F
100
AcDbEntity
  8
0
  6
SLD-Solid
 62
     7
370
    15
100
AcDbLine
 10
458.9822767448
 20
690.1333724202
 30
0.0
 11
456.9822767448
 21
688.1333724202
 31
0.0
  0
LINE
  5
6F
330
1F
100
AcDbEntity
  8
0
  6
SLD-Solid
 62
     7
370
    15
100
AcDbLine
 10
643.9822767448
 20
686.6333724201
 30
0.0
 11
643.9822767448
 21
688.1333724201
 31
0.0
  0
LINE
  5
70
330
1F
100
AcDbEntity
  8
0
  6
SLD-Solid
 62
     7
370
    15
100
AcDbLine
 10
456.9822767448
 20
688.1333724202
 30
0.0
 11
456.9822767448
 21
686.6333724202
 31
0.0
  0
LINE
  5
71
330
1F
100
AcDbEntity
  8
0
  6
SLD-Solid
 62
     7
370
    15
100
AcDbLine
 10
565.242411483
 20
686.5399398722
 30
0.0
 11
565.7200100288
 21
686.6333724202
 31
0.0
  0
LINE
  5
72
330
1F
100
AcDbEntity
  8
0
  6
SLD-Solid
 62
     7
370
    15
100
AcDbLine
 10
535.2445434608
 20
686.6333724202
 30
0.0
 11
535.7221420067
 21
686.5399398722
 31
0.0
  0
SPLINE
  5
73
330
1F
100
AcDbEntity
  8
0
  6
SLD-Solid
 62
     7
370
    15
100
AcDbSpline
210
0.0
220
0.0
230
1.0
 70
     8
 71
     3
 72
    11
 73
     7
 74
     0
 42
0.00000001
 43
0.00000001
 40
0.0
 40
0.0
 40
0.0
 40
0.0
 40
0.121479036194275
 40
0.5678269664111774
 40
0.8436747018727196
 40
1.0
 40
1.0
 40
1.0
 40
1.0
 10
821.1834588080109
 20
423.0679507010903
 30
0.0
 10
822.5846352894706
 20
423.0666983065943
 30
0.0
 10
829.1341257678234
 20
423.0608442646982
 30
0.0
 10
838.8736507455916
 20
423.1897235937621
 30
0.0
 10
848.9970054325978
 20
423.1764235437061
 30
0.0
 10
853.9680802640754
 20
422.9746653055045
 30
0.0
 10
855.7662136380868
 20
422.9016854703802
 30
0.0
  0
SPLINE
  5
74
330
1F
100
AcDbEntity
  8
0
  6
SLD-Solid
 62
     7
370
    15
100
AcDbSpline
210
0.0
220
0.0
230
1.0
 70
     8
 71
     3
 72
    11
 73
     7
 74
     0
 42
0.00000001
 43
0.00000001
 40
0.0
 40
0.0
 40
0.0
 40
0.0
 40
0.1810018577863109
 40
0.4503554019099659
 40
0.7687378788769227
 40
1.0
 40
1.0
 40
1.0
 40
1.0
 10
855.76230533991
 20
452.3642910375319
 30
0.0
 10
853.6815298942082
 20
452.2903668262878
 30
0.0
 10
848.5042987121965
 20
452.1064340850836
 30
0.0
 10
839.6421547825206
 20
452.0962923230099
 30
0.0
 10
830.1913494928765
 20
452.2067853854699
 30
0.0
 10
823.8502797154492
 20
452.2047985522074
 30
0.0
 10
821.1822843380487
 20
452.2039625951612
 30
0.0
  0
SPLINE
  5
75
330
1F
100
AcDbEntity
  8
0
  6
SLD-Solid
 62
     7
370
    15
100
AcDbSpline
210
0.0
220
0.0
230
1.0
 70
     8
 71
     3
 72
    21
 73
    17
 74
     0
 42
0.00000001
 43
0.00000001
 40
0.0
 40
0.0
 40
0.0
 40
0.0
 40
0.0060458929405824
 40
0.0323461864633106
 40
0.0604021681243528
 40
0.0780950001844018
 40
0.0913592483232277
 40
0.1040630430617503
 40
0.2769288961722993
 40
0.4498013498054714
 40
0.6226597888043568
 40
0.7955421650250618
 40
0.9684260143807255
 40
0.9906573003582912
 40
0.997823193575627
 40
1.0
 40
1.0
 40
1.0
 40
1.0
 10
857.3039511031037
 20
423.0874225696421
 30
0.0
 10
857.296821768106
 20
423.0870158773785
 30
0.0
 10
857.2586790484996
 20
423.0848400294227
 30
0.0
 10
857.4637291138891
 20
423.0858605486375
 30
0.0
 10
857.846891377085
 20
423.0635150260232
 30
0.0
 10
858.5143270288964
 20
423.0507521651087
 30
0.0
 10
858.7565116391318
 20
423.0524444400538
 30
0.0
 10
859.9125817084199
 20
423.0500018746479
 30
0.0
 10
861.854778612489
 20
423.0508345244373
 30
0.0
 10
864.3391746393138
 20
423.0481576436651
 30
0.0
 10
866.6229870304168
 20
423.0477131482778
 30
0.0
 10
868.1473030422464
 20
423.0428589160892
 30
0.0
 10
870.1866075009161
 20
423.0508692033929
 30
0.0
 10
869.8706523700143
 20
423.0422511084588
 30
0.0
 10
870.3172414343925
 20
423.0456625072297
 30
0.0
 10
870.2843325931559
 20
423.0454309343314
 30
0.0
 10
870.276664983175
 20
423.0453769789018
 30
0.0
  0
SPLINE
  5
76
330
1F
100
AcDbEntity
  8
0
  6
SLD-Solid
 62
     7
370
    15
100
AcDbSpline
210
0.0
220
0.0
230
1.0
 70
     8
 71
     3
 72
    10
 73
     6
 74
     0
 42
0.00000001
 43
0.00000001
 40
0.0
 40
0.0
 40
0.0
 40
0.0
 40
0.0119600079156618
 40
0.5055839076892239
 40
1.0
 40
1.0
 40
1.0
 40
1.0
 10
869.4401577032562
 20
452.1523894165127
 30
0.0
 10
869.447252551694
 20
452.1536724489815
 30
0.0
 10
869.7471721857647
 20
452.2079099188638
 30
0.0
 10
870.1315934934414
 20
452.1829012553159
 30
0.0
 10
870.3315480667407
 20
452.1784963610477
 30
0.0
 10
870.4316055133645
 20
452.1762921480315
 30
0.0
  0
SPLINE
  5
77
330
1F
100
AcDbEntity
  8
0
  6
SLD-Solid
 62
     7
370
    15
100
AcDbSpline
210
0.0
220
0.0
230
1.0
 70
     8
 71
     3
 72
    24
 73
    20
 74
     0
 42
0.00000001
 43
0.00000001
 40
0.0
 40
0.0
 40
0.0
 40
0.0
 40
0.0035341614625216
 40
0.018893023010246
 40
0.0351931169361925
 40
0.040051880485317
 40
0.0449635665556132
 40
0.0497977310175142
 40
0.2197337095476812
 40
0.38959238580212
 40
0.5593670584760141
 40
0.7290362162193491
 40
0.8987138573863033
 40
0.945702199035797
 40
0.9557502402597922
 40
0.9664212224886493
 40
0.9778353068200724
 40
0.9887592357256515
 40
1.0
 40
1.0
 40
1.0
 40
1.0
 10
870.4857130417081
 20
452.1721675225031
 30
0.0
 10
870.4935019942217
 20
452.1715502692701
 30
0.0
 10
870.53514040283
 20
452.1682505390065
 30
0.0
 10
870.2975133666141
 20
452.1898838678999
 30
0.0
 10
869.9798871891968
 20
452.2185796097309
 30
0.0
 10
869.5086137251747
 20
452.225191599878
 30
0.0
 10
869.4861761392239
 20
452.2243618727692
 30
0.0
 10
868.9015131303859
 20
452.2269236327645
 30
0.0
 10
867.8403548341722
 20
452.2247682142172
 30
0.0
 10
865.810629656947
 20
452.2268690206083
 30
0.0
 10
863.5599900609168
 20
452.2271971337217
 30
0.0
 10
860.7685544250377
 20
452.2286525080718
 30
0.0
 10
859.0299792897309
 20
452.2271410627475
 30
0.0
 10
857.0585987931072
 20
452.2296029032438
 30
0.0
 10
856.8025267985614
 20
452.2228597246395
 30
0.0
 10
857.0180964741115
 20
452.2293232668652
 30
0.0
 10
857.6619936903886
 20
452.1593405021891
 30
0.0
 10
858.0049840139617
 20
452.073037508626
 30
0.0
 10
858.0394154039149
 20
452.0625834600995
 30
0.0
 10
858.0568771903224
 20
452.057281717628
 30
0.0
  0
SPLINE
  5
78
330
1F
100
AcDbEntity
  8
0
  6
SLD-Solid
 62
     7
370
    15
100
AcDbSpline
210
0.0
220
0.0
230
1.0
 70
     8
 71
     3
 72
     9
 73
     5
 74
     0
 42
0.00000001
 43
0.00000001
 40
0.0
 40
0.0
 40
0.0
 40
0.0
 40
0.7685820790848401
 40
1.0
 40
1.0
 40
1.0
 40
1.0
 10
821.1821818110751
 20
423.0364031578463
 30
0.0
 10
829.0876966856332
 20
423.0373362151063
 30
0.0
 10
839.3735400453576
 20
423.0385502133054
 30
0.0
 10
849.657836478988
 20
423.0359315122516
 30
0.0
 10
852.0378069777339
 20
423.0353254978981
 30
0.0
  0
SPLINE
  5
79
330
1F
100
AcDbEntity
  8
0
  6
SLD-Solid
 62
     7
370
    15
100
AcDbSpline
210
0.0
220
0.0
230
1.0
 70
     8
 71
     3
 72
    10
 73
     6
 74
     0
 42
0.00000001
 43
0.00000001
 40
0.0
 40
0.0
 40
0.0
 40
0.0
 40
0.4111368807822278
 40
0.9939246343441159
 40
1.0
 40
1.0
 40
1.0
 40
1.0
 10
856.4256009980895
 20
423.0343343806563
 30
0.0
 10
858.3625341219088
 20
423.0394642129698
 30
0.0
 10
863.0450757201678
 20
423.0518655978732
 30
0.0
 10
867.7333588746806
 20
422.9661392032687
 30
0.0
 10
870.5032182268742
 20
422.8752021220704
 30
0.0
 10
870.5317951708715
 20
422.8742639141884
 30
0.0
  0
SPLINE
  5
7A
330
1F
100
AcDbEntity
  8
0
  6
SLD-Solid
 62
     7
370
    15
100
AcDbSpline
210
0.0
220
0.0
230
1.0
 70
     8
 71
     3
 72
    10
 73
     6
 74
     0
 42
0.00000001
 43
0.00000001
 40
0.0
 40
0.0
 40
0.0
 40
0.0
 40
0.0093101019605398
 40
0.6027867731082678
 40
1.0
 40
1.0
 40
1.0
 40
1.0
 10
870.3177908368407
 20
452.3851193881249
 30
0.0
 10
870.2751289681048
 20
452.3836404480043
 30
0.0
 10
867.5129669317503
 20
452.2878857992687
 30
0.0
 10
862.9417095364654
 20
452.2190948647493
 30
0.0
 10
858.3941016731698
 20
452.2275312887114
 30
0.0
 10
856.5707561463884
 20
452.2309138397922
 30
0.0
  0
LWPOLYLINE
  5
7B
330
1F
100
AcDbEntity
  8
0
  6
SLD-Solid
 62
     7
370
    15
100
AcDbPolyline
 90
        3
 70
   128
 43
0.0
 10
851.4099635487
 20
452.229761107
 10
837.8875883034
 20
452.2298085673
 10
821.1835289924
 20
452.2298540489
  0
SPLINE
  5
7C
330
1F
100
AcDbEntity
  8
0
  6
SLD-Solid
 62
     7
370
    15
100
AcDbSpline
210
0.0
220
0.0
230
1.0
 70
     8
 71
     3
 72
    11
 73
     7
 74
     0
 42
0.00000001
 43
0.00000001
 40
0.0
 40
0.0
 40
0.0
 40
0.0
 40
0.246409275927379
 40
0.4969199590963982
 40
0.748277456956492
 40
1.0
 40
1.0
 40
1.0
 40
1.0
 10
870.2344315799809
 20
422.8910637395376
 30
0.0
 10
871.0117636295473
 20
422.9242178857818
 30
0.0
 10
872.5793661835551
 20
422.9910780189223
 30
0.0
 10
874.7668027445682
 20
424.1161859985658
 30
0.0
 10
876.5672173917891
 20
425.8992039491704
 30
0.0
 10
877.0922190874246
 20
427.4961987477413
 30
0.0
 10
877.354910411235
 20
428.2952755530969
 30
0.0
  0
SPLINE
  5
7D
330
1F
100
AcDbEntity
  8
0
  6
SLD-Solid
 62
     7
370
    15
100
AcDbSpline
210
0.0
220
0.0
230
1.0
 70
     8
 71
     3
 72
    11
 73
     7
 74
     0
 42
0.00000001
 43
0.00000001
 40
0.0
 40
0.0
 40
0.0
 40
0.0
 40
0.2517225408890096
 40
0.5030806063225843
 40
0.7535913286369386
 40
0.9999999999999999
 40
0.9999999999999999
 40
0.9999999999999999
 40
0.9999999999999999
 10
877.3549377051066
 20
446.9718125213063
 30
0.0
 10
877.0922449969601
 20
447.7708894706189
 30
0.0
 10
876.5672399401061
 20
449.3678863654492
 30
0.0
 10
874.7668144332556
 20
451.1509343132578
 30
0.0
 10
872.5793690299278
 20
452.2761007524182
 30
0.0
 10
871.0117638894229
 20
452.3430114401093
 30
0.0
 10
870.2344315799811
 20
452.3761906113467
 30
0.0
  0
SPLINE
  5
7E
330
1F
100
AcDbEntity
  8
0
  6
SLD-Solid
 62
     7
370
    15
100
AcDbSpline
210
0.0
220
0.0
230
1.0
 70
     8
 71
     3
 72
    13
 73
     9
 74
     0
 42
0.00000001
 43
0.00000001
 40
0.0
 40
0.0
 40
0.0
 40
0.0
 40
0.0883118284164058
 40
0.3003794254270572
 40
0.5092844779808956
 40
0.7152412373741669
 40
0.9184115260256288
 40
1.0
 40
1.0
 40
1.0
 40
1.0
 10
877.4041525613015
 20
428.4273621643122
 30
0.0
 10
877.5229562183641
 20
428.9604809660348
 30
0.0
 10
877.9270490209591
 20
430.7738045288845
 30
0.0
 10
878.2638604001911
 20
433.9124111914405
 30
0.0
 10
878.431693125735
 20
437.7878376602137
 30
0.0
 10
878.2405698084017
 20
441.6072094467543
 30
0.0
 10
877.8999693580887
 20
444.6288434821951
 30
0.0
 10
877.5187670049196
 20
446.3481978505331
 30
0.0
 10
877.4095457188607
 20
446.8408236009765
 30
0.0
  0
ARC
  5
7F
330
1F
100
AcDbEntity
  8
0
  6
SLD-Solid
 62
     7
370
    15
100
AcDbCircle
 10
26.0322767447
 20
484.9333724201
 30
0.0
 40
1.5
100
AcDbArc
 50
180.0
 51
270.0
  0
LINE
  5
80
330
1F
100
AcDbEntity
  8
0
  6
SLD-Solid
 62
     7
370
    15
100
AcDbLine
 10
24.5322767447
 20
484.9333724201
 30
0.0
 11
24.5322767447
 21
486.7333724201
 31
0.0
  0
LINE
  5
81
330
1F
100
AcDbEntity
  8
0
  6
SLD-Solid
 62
     7
370
    15
100
AcDbLine
 10
24.5322767447
 20
487.5333724201
 30
0.0
 11
24.5322767447
 21
488.2404792013
 31
0.0
  0
LINE
  5
82
330
1F
100
AcDbEntity
  8
0
  6
SLD-Solid
 62
     7
370
    15
100
AcDbLine
 10
3.2322767447
 20
488.2404792013
 30
0.0
 11
3.2322767447
 21
487.5333724201
 31
0.0
  0
LINE
  5
83
330
1F
100
AcDbEntity
  8
0
  6
SLD-Solid
 62
     7
370
    15
100
AcDbLine
 10
-0.9015287936
 20
484.5864424463
 30
0.0
 11
0.8822767447
 21
483.4333724201
 31
0.0
  0
LINE
  5
84
330
1F
100
AcDbEntity
  8
0
  6
SLD-Solid
 62
     7
370
    15
100
AcDbLine
 10
744.1822767447
 20
-205.3666275799
 30
0.0
 11
744.1822767447
 21
-137.3666275799
 31
0.0
  0
LINE
  5
85
330
1F
100
AcDbEntity
  8
0
  6
SLD-Solid
 62
     7
370
    15
100
AcDbLine
 10
687.5822767447
 20
-137.3666275799
 30
0.0
 11
687.5822767447
 21
-205.3666275799
 31
0.0
  0
LINE
  5
86
330
1F
100
AcDbEntity
  8
0
  6
SLD-Solid
 62
     7
370
    15
100
AcDbLine
 10
648.5816887928
 20
678.4465073243
 30
0.0
 11
642.0801099194
 21
686.5399398722
 31
0.0
  0
LINE
  5
87
330
1F
100
AcDbEntity
  8
0
  6
SLD-Solid
 62
     7
370
    15
100
AcDbLine
 10
458.8844435703
 20
686.5399398723
 30
0.0
 11
452.3828646968
 21
678.4465073243
 31
0.0
  0
ARC
  5
88
330
1F
100
AcDbEntity
  8
0
  6
SLD-Solid
 62
     7
370
    15
100
AcDbCircle
 10
749.2822767447
 20
-44.8666275799
 30
0.0
 40
1.500000000000114
100
AcDbArc
 50
90.0
 51
180.0
  0
ARC
  5
89
330
1F
100
AcDbEntity
  8
0
  6
SLD-Solid
 62
     7
370
    15
100
AcDbCircle
 10
682.4822767447
 20
-44.8666275799
 30
0.0
 40
1.5
100
AcDbArc
 50
0.0
 51
90.0
  0
LINE
  5
8A
330
1F
100
AcDbEntity
  8
0
  6
SLD-Solid
 62
     7
370
    15
100
AcDbLine
 10
747.7822767447
 20
-131.3340616342
 30
0.0
 11
747.7822767447
 21
-44.8666275799
 31
0.0
  0
LINE
  5
8B
330
1F
100
AcDbEntity
  8
0
  6
SLD-Solid
 62
     7
370
    15
100
AcDbLine
 10
683.9822767447
 20
-44.8666275799
 30
0.0
 11
683.9822767447
 21
-131.3340616342
 31
0.0
  0
ARC
  5
8C
330
1F
100
AcDbEntity
  8
0
  6
SLD-Solid
 62
     7
370
    15
100
AcDbCircle
 10
743.0822767447
 20
-131.3340616342
 30
0.0
 40
4.700000000000006
100
AcDbArc
 50
350.5402980318
 51
0.0
  0
ARC
  5
8D
330
1F
100
AcDbEntity
  8
0
  6
SLD-Solid
 62
     7
370
    15
100
AcDbCircle
 10
688.6822767447
 20
-131.3340616342
 30
0.0
 40
4.699999999999932
100
AcDbArc
 50
180.0
 51
189.4597019682
  0
LINE
  5
8E
330
1F
100
AcDbEntity
  8
0
  6
SLD-Solid
 62
     7
370
    15
100
AcDbLine
 10
684.0461899717
 20
-132.1065248587
 30
0.0
 11
684.9226265244
 21
-137.3666275799
 31
0.0
  0
LINE
  5
8F
330
1F
100
AcDbEntity
  8
0
  6
SLD-Solid
 62
     7
370
    15
100
AcDbLine
 10
746.8419269651
 20
-137.3666275799
 30
0.0
 11
747.7183635177
 21
-132.1065248587
 31
0.0
  0
LINE
  5
90
330
1F
100
AcDbEntity
  8
0
  6
SLD-Solid
 62
     7
370
    15
100
AcDbLine
 10
42.0393946542
 20
17.4333724201
 30
0.0
 11
41.6322767447
 21
17.4333724201
 31
0.0
  0
LINE
  5
91
330
1F
100
AcDbEntity
  8
0
  6
SLD-Solid
 62
     7
370
    15
100
AcDbLine
 10
54.5822767447
 20
545.7333724201
 30
0.0
 11
45.8822767448
 21
545.7333724201
 31
0.0
  0
LINE
  5
92
330
1F
100
AcDbEntity
  8
0
  6
SLD-Solid
 62
     7
370
    15
100
AcDbLine
 10
45.8822767448
 20
535.7333724201
 30
0.0
 11
54.5822767447
 21
535.7333724201
 31
0.0
  0
LINE
  5
93
330
1F
100
AcDbEntity
  8
0
  6
SLD-Solid
 62
     7
370
    15
100
AcDbLine
 10
819.1822767447
 20
490.9333721095
 30
0.0
 11
819.1822767447
 21
493.4333721095
 31
0.0
  0
ARC
  5
94
330
1F
100
AcDbEntity
  8
0
  6
SLD-Solid
 62
     7
370
    15
100
AcDbCircle
 10
42.3322767447
 20
0.2833724201
 30
0.0
 40
0.2499999999999725
100
AcDbArc
 50
270.0
 51
0.0
  0
LINE
  5
95
330
1F
100
AcDbEntity
  8
0
  6
SLD-Solid
 62
     7
370
    15
100
AcDbLine
 10
48.0822767448
 20
578.2333724201
 30
0.0
 11
54.5822767447
 21
578.2333724201
 31
0.0
  0
LINE
  5
96
330
1F
100
AcDbEntity
  8
0
  6
SLD-Solid
 62
     7
370
    15
100
AcDbLine
 10
54.5822767447
 20
603.2333724201
 30
0.0
 11
48.0822767448
 21
603.2333724201
 31
0.0
  0
LINE
  5
97
330
1F
100
AcDbEntity
  8
0
  6
SLD-Solid
 62
     7
370
    15
100
AcDbLine
 10
155.3822767447
 20
-209.3666275799
 30
0.0
 11
155.3822767447
 21
-205.3666275799
 31
0.0
  0
LINE
  5
98
330
1F
100
AcDbEntity
  8
0
  6
SLD-Solid
 62
     7
370
    15
100
AcDbLine
 10
98.3822767447
 20
-205.3666275799
 30
0.0
 11
98.3822767447
 21
-209.3666275799
 31
0.0
  0
ARC
  5
99
330
1F
100
AcDbEntity
  8
0
  6
SLD-Solid
 62
     7
370
    15
100
AcDbCircle
 10
153.3822767447
 20
-209.3666275799
 30
0.0
 40
2.0
100
AcDbArc
 50
270.0
 51
0.0
  0
ARC
  5
9A
330
1F
100
AcDbEntity
  8
0
  6
SLD-Solid
 62
     7
370
    15
100
AcDbCircle
 10
100.3822767447
 20
-209.3666275799
 30
0.0
 40
2.0
100
AcDbArc
 50
180.0
 51
270.0
  0
LINE
  5
9B
330
1F
100
AcDbEntity
  8
0
  6
SLD-Solid
 62
     7
370
    15
100
AcDbLine
 10
155.1822767447
 20
-205.3666275799
 30
0.0
 11
155.1822767447
 21
-137.3666275799
 31
0.0
  0
LINE
  5
9C
330
1F
100
AcDbEntity
  8
0
  6
SLD-Solid
 62
     7
370
    15
100
AcDbLine
 10
98.5822767447
 20
-137.3666275799
 30
0.0
 11
98.5822767447
 21
-205.3666275799
 31
0.0
  0
LINE
  5
9D
330
1F
100
AcDbEntity
  8
0
  6
SLD-Solid
 62
     7
370
    15
100
AcDbLine
 10
815.0822767447
 20
-41.8666275791
 30
0.0
 11
815.0822767447
 21
-41.3666275791
 31
0.0
  0
LINE
  5
9E
330
1F
100
AcDbEntity
  8
0
  6
SLD-Solid
 62
     7
370
    15
100
AcDbLine
 10
807.2822767447
 20
-41.3666275791
 30
0.0
 11
807.2822767447
 21
-41.8666275791
 31
0.0
  0
SPLINE
  5
9F
330
1F
100
AcDbEntity
  8
0
  6
SLD-Solid
 62
     7
370
    15
100
AcDbSpline
210
0.0
220
0.0
230
1.0
 70
     8
 71
     3
 72
    13
 73
     9
 74
     0
 42
0.00000001
 43
0.00000001
 40
0.0
 40
0.0
 40
0.0
 40
0.0
 40
0.0566209566962608
 40
0.2140330444158257
 40
0.3780424165479937
 40
0.5562516649743885
 40
0.7643110424247272
 40
1.0
 40
1.0
 40
1.0
 40
1.0
 10
42.3324638131426
 20
13.22409089113785
 30
0.0
 10
42.34205396033664
 20
13.2245768252606
 30
0.0
 10
42.37830570386242
 20
13.22641370626271
 30
0.0
 10
42.44042345021243
 20
13.21177499605763
 30
0.0
 10
42.50676289686106
 20
13.1825508097636
 30
0.0
 10
42.55421953127397
 20
13.14255356796248
 30
0.0
 10
42.58009669284901
 20
13.10252290228994
 30
0.0
 10
42.57909390809161
 20
13.08214466682231
 30
0.0
 10
42.57856129697957
 20
13.07132113308596
 30
0.0
  0
LINE
  5
A0
330
1F
100
AcDbEntity
  8
0
  6
SLD-Solid
 62
     7
370
    15
100
AcDbLine
 10
36.4106400893
 20
6.0595090755
 30
0.0
 11
36.7367767447
 21
5.7333724201
 31
0.0
  0
ARC
  5
A1
330
1F
100
AcDbEntity
  8
0
  6
SLD-Solid
 62
     7
370
    15
100
AcDbCircle
 10
160.2822767447
 20
-44.8666275799
 30
0.0
 40
1.5
100
AcDbArc
 50
90.0
 51
180.0
  0
ARC
  5
A2
330
1F
100
AcDbEntity
  8
0
  6
SLD-Solid
 62
     7
370
    15
100
AcDbCircle
 10
93.4822767447
 20
-44.8666275799
 30
0.0
 40
1.5
100
AcDbArc
 50
0.0
 51
90.0
  0
LINE
  5
A3
330
1F
100
AcDbEntity
  8
0
  6
SLD-Solid
 62
     7
370
    15
100
AcDbLine
 10
158.7822767447
 20
-131.3340616342
 30
0.0
 11
158.7822767447
 21
-44.8666275799
 31
0.0
  0
LINE
  5
A4
330
1F
100
AcDbEntity
  8
0
  6
SLD-Solid
 62
     7
370
    15
100
AcDbLine
 10
94.9822767447
 20
-44.8666275799
 30
0.0
 11
94.9822767447
 21
-131.3340616342
 31
0.0
  0
ARC
  5
A5
330
1F
100
AcDbEntity
  8
0
  6
SLD-Solid
 62
     7
370
    15
100
AcDbCircle
 10
154.0822767447
 20
-131.3340616342
 30
0.0
 40
4.699999999999989
100
AcDbArc
 50
350.5402980318
 51
0.0
  0
ARC
  5
A6
330
1F
100
AcDbEntity
  8
0
  6
SLD-Solid
 62
     7
370
    15
100
AcDbCircle
 10
99.6822767447
 20
-131.3340616342
 30
0.0
 40
4.700000000000001
100
AcDbArc
 50
180.0
 51
189.4597019682
  0
LINE
  5
A7
330
1F
100
AcDbEntity
  8
0
  6
SLD-Solid
 62
     7
370
    15
100
AcDbLine
 10
95.0461899717
 20
-132.1065248587
 30
0.0
 11
95.9226265244
 21
-137.3666275799
 31
0.0
  0
LINE
  5
A8
330
1F
100
AcDbEntity
  8
0
  6
SLD-Solid
 62
     7
370
    15
100
AcDbLine
 10
157.8419269651
 20
-137.3666275799
 30
0.0
 11
158.7183635177
 21
-132.1065248587
 31
0.0
  0
LINE
  5
A9
330
1F
100
AcDbEntity
  8
0
  6
SLD-Solid
 62
     7
370
    15
100
AcDbLine
 10
819.6822767447
 20
488.1333724209
 30
0.0
 11
819.6822767447
 21
489.6333724209
 31
0.0
  0
LINE
  5
AA
330
1F
100
AcDbEntity
  8
0
  6
SLD-Solid
 62
     7
370
    15
100
AcDbLine
 10
802.6822767447
 20
489.6333724209
 30
0.0
 11
802.6822767447
 21
488.1333724209
 31
0.0
  0
LINE
  5
AB
330
1F
100
AcDbEntity
  8
0
  6
SLD-Solid
 62
     7
370
    15
100
AcDbLine
 10
54.4322767447
 20
2.6333724201
 30
0.0
 11
54.5822767447
 21
2.6333724201
 31
0.0
  0
LINE
  5
AC
330
1F
100
AcDbEntity
  8
0
  6
SLD-Solid
 62
     7
370
    15
100
AcDbLine
 10
54.5822767447
 20
14.8333724201
 30
0.0
 11
54.4322767447
 21
14.8333724201
 31
0.0
  0
LINE
  5
AD
330
1F
100
AcDbEntity
  8
0
  6
SLD-Solid
 62
   142
420
    32960
370
     0
100
AcDbLine
 10
786.8548037806
 20
625.7874495982
 30
0.0
 11
793.2060134915
 21
628.6151903478
 31
0.0
  0
LINE
  5
AE
330
1F
100
AcDbEntity
  8
0
  6
SLD-Solid
 62
   142
420
    32960
370
     0
100
AcDbLine
 10
-6.7177232553
 20
486.2833724201
 30
0.0
 11
-6.7177232553
 21
481.5333724201
 31
0.0
  0
LINE
  5
AF
330
1F
100
AcDbEntity
  8
0
  6
SLD-Solid
 62
     7
370
    15
100
AcDbLine
 10
-6.7177232553
 20
481.5333724201
 30
0.0
 11
-7.5177232553
 21
481.5333724201
 31
0.0
  0
LINE
  5
B0
330
1F
100
AcDbEntity
  8
0
  6
SLD-Solid
 62
   142
420
    32960
370
     0
100
AcDbLine
 10
-7.5177232553
 20
486.2833724201
 30
0.0
 11
-6.7177232553
 21
486.2833724201
 31
0.0
  0
SPLINE
  5
B1
330
1F
100
AcDbEntity
  8
0
  6
SLD-Solid
 62
   142
420
    32960
370
     0
100
AcDbSpline
210
0.0
220
0.0
230
1.0
 70
     8
 71
     3
 72
    14
 73
    10
 74
     0
 42
0.00000001
 43
0.00000001
 40
0.0
 40
0.0
 40
0.0
 40
0.0
 40
0.25
 40
0.25
 40
0.5
 40
0.5
 40
0.75
 40
0.75
 40
1.0
 40
1.0
 40
1.0
 40
1.0
 10
43.83227674475098
 20
486.7333724201049
 30
0.0
 10
44.10062111724516
 20
486.7333724201049
 30
0.0
 10
44.36885990768747
 20
486.7867284329349
 30
0.0
 10
44.8646956545114
 20
486.9921103239785
 30
0.0
 10
45.09209752069959
 20
487.1440553931886
 30
0.0
 10
45.47159377166727
 20
487.5235516441564
 30
0.0
 10
45.62353884087722
 20
487.7509535103445
 30
0.0
 10
45.82892073192102
 20
488.2467892571684
 30
0.0
 10
45.88227674475098
 20
488.5150280476109
 30
0.0
 10
45.88227674475098
 20
488.7833724201049
 30
0.0
  0
LINE
  5
B2
330
1F
100
AcDbEntity
  8
0
  6
SLD-Solid
 62
   142
420
    32960
370
     0
100
AcDbLine
 10
43.8322767448
 20
486.7333724201
 30
0.0
 11
-16.8677232552
 21
486.7333724201
 31
0.0
  0
LINE
  5
B3
330
1F
100
AcDbEntity
  8
0
  6
SLD-Solid
 62
   142
420
    32960
370
     0
100
AcDbLine
 10
-16.8677232552
 20
486.7333724201
 30
0.0
 11
-16.8677232552
 21
487.5333724201
 31
0.0
  0
LINE
  5
B4
330
1F
100
AcDbEntity
  8
0
  6
SLD-Solid
 62
   142
420
    32960
370
     0
100
AcDbLine
 10
43.8322767448
 20
486.7333724201
 30
0.0
 11
43.8322767448
 21
487.5333724201
 31
0.0
  0
LINE
  5
B5
330
1F
100
AcDbEntity
  8
0
  6
SLD-Solid
 62
   142
420
    32960
370
     0
100
AcDbLine
 10
43.8322767448
 20
487.5333724201
 30
0.0
 11
-16.8677232552
 21
487.5333724201
 31
0.0
  0
LINE
  5
B6
330
1F
100
AcDbEntity
  8
0
  6
SLD-Solid
 62
     7
370
    15
100
AcDbLine
 10
767.6822767447
 20
-41.3666275791
 30
0.0
 11
811.1822767447
 21
-41.3666275791
 31
0.0
  0
LINE
  5
B7
330
1F
100
AcDbEntity
  8
0
  6
SLD-Solid
 62
   142
420
    32960
370
     0
100
AcDbLine
 10
811.1822767447
 20
-41.3666275791
 30
0.0
 11
819.1822767447
 21
-41.3666275791
 31
0.0
  0
ARC
  5
B8
330
1F
100
AcDbEntity
  8
0
  6
SLD-Solid
 62
   142
420
    32960
370
     0
100
AcDbCircle
 10
767.6822767447
 20
-35.8666275791
 30
0.0
 40
5.5
100
AcDbArc
 50
180.0
 51
270.0
  0
ARC
  5
B9
330
1F
100
AcDbEntity
  8
0
  6
SLD-Solid
 62
   142
420
    32960
370
     0
100
AcDbCircle
 10
767.6822767447
 20
-35.8666275791
 30
0.0
 40
3.0
100
AcDbArc
 50
180.0
 51
270.0
  0
LINE
  5
BA
330
1F
100
AcDbEntity
  8
0
  6
SLD-Solid
 62
   142
420
    32960
370
     0
100
AcDbLine
 10
764.6822767447
 20
-35.8666275791
 30
0.0
 11
762.1822767447
 21
-35.8666275791
 31
0.0
  0
LINE
  5
BB
330
1F
100
AcDbEntity
  8
0
  6
SLD-Solid
 62
   142
420
    32960
370
     0
100
AcDbLine
 10
767.6822767447
 20
-38.8666275791
 30
0.0
 11
811.1822767447
 21
-38.8666275791
 31
0.0
  0
LINE
  5
BC
330
1F
100
AcDbEntity
  8
0
  6
SLD-Solid
 62
   142
420
    32960
370
     0
100
AcDbLine
 10
811.1822767447
 20
-38.8666275791
 30
0.0
 11
819.1822767447
 21
-38.8666275791
 31
0.0
  0
LINE
  5
BD
330
1F
100
AcDbEntity
  8
0
  6
SLD-Solid
 62
     7
370
    15
100
AcDbLine
 10
769.3822767447
 20
-32.7166275791
 30
0.0
 11
769.3822767447
 21
483.9833724209
 31
0.0
  0
SPLINE
  5
BE
330
1F
100
AcDbEntity
  8
0
  6
SLD-Solid
 62
   142
420
    32960
370
     0
100
AcDbSpline
210
0.0
220
0.0
230
1.0
 70
     8
 71
     3
 72
    12
 73
     8
 74
     0
 42
0.00000001
 43
0.00000001
 40
0.0
 40
0.0
 40
0.0
 40
0.0
 40
0.1622307853855762
 40
0.4106775957255953
 40
0.6591247578677188
 40
0.9075717193364582
 40
0.9999999999999999
 40
0.9999999999999999
 40
0.9999999999999999
 40
0.9999999999999999
 10
771.182276744745
 20
-33.80236091741512
 30
0.0
 10
771.0226066172957
 20
-33.74362726957541
 30
0.0
 10
770.618411175017
 20
-33.59494652919892
 30
0.0
 10
770.0535693343726
 20
-33.35627527431018
 30
0.0
 10
769.5881848284633
 20
-33.08657780684593
 30
0.0
 10
769.3996881445897
 20
-32.87276955754365
 30
0.0
 10
769.3859907827525
 20
-32.74993433485568
 30
0.0
 10
769.3822767447476
 20
-32.716627579085
 30
0.0
  0
SPLINE
  5
BF
330
1F
100
AcDbEntity
  8
0
  6
SLD-Solid
 62
   142
420
    32960
370
     0
100
AcDbSpline
210
0.0
220
0.0
230
1.0
 70
     8
 71
     3
 72
    11
 73
     7
 74
     0
 42
0.00000001
 43
0.00000001
 40
0.0
 40
0.0
 40
0.0
 40
0.0
 40
0.2716412431751297
 40
0.5432824863502339
 40
0.8149237295253288
 40
1.0
 40
1.0
 40
1.0
 40
1.0
 10
769.3822767447477
 20
483.9833724209149
 30
0.0
 10
769.4129936760463
 20
484.0816465310717
 30
0.0
 10
769.4744275386432
 20
484.2781947513854
 30
0.0
 10
769.9499553192782
 20
484.5730170818557
 30
0.0
 10
770.5506107322313
 20
484.8365220189747
 30
0.0
 10
771.0001210544374
 20
485.0017528459375
 30
0.0
 10
771.1822767447434
 20
485.0687095627431
 30
0.0
  0
SPLINE
  5
C0
330
1F
100
AcDbEntity
  8
0
  6
SLD-Solid
 62
     7
370
    15
100
AcDbSpline
210
0.0
220
0.0
230
1.0
 70
     8
 71
     3
 72
    11
 73
     7
 74
     0
 42
0.00000001
 43
0.00000001
 40
0.0
 40
0.0
 40
0.0
 40
0.0
 40
0.2716412431750074
 40
0.5432824863500028
 40
0.8149237295250096
 40
1.0
 40
1.0
 40
1.0
 40
1.0
 10
769.3822767447479
 20
-32.71662757908494
 30
0.0
 10
769.4129936760463
 20
-32.98554448417651
 30
0.0
 10
769.4744275386431
 20
-33.52337829435964
 30
0.0
 10
769.9499553192782
 20
-34.19663093607761
 30
0.0
 10
770.5506107322319
 20
-34.63515816372542
 30
0.0
 10
771.0001210544384
 20
-34.69332746196624
 30
0.0
 10
771.182276744745
 20
-34.71689948723961
 30
0.0
  0
SPLINE
  5
C1
330
1F
100
AcDbEntity
  8
0
  6
SLD-Solid
 62
   142
420
    32960
370
     0
100
AcDbSpline
210
0.0
220
0.0
230
1.0
 70
     8
 71
     3
 72
    10
 73
     6
 74
     0
 42
0.00000001
 43
0.00000001
 40
0.0
 40
0.0
 40
0.0
 40
0.0
 40
0.0939234129709236
 40
0.7072251820390164
 40
1.0
 40
1.0
 40
1.0
 40
1.0
 10
770.5068964927981
 20
-33.53840674227271
 30
0.0
 10
770.5202920858254
 20
-33.55940637362742
 30
0.0
 10
770.6211583173398
 20
-33.71752954694291
 30
0.0
 10
770.8688027796887
 20
-33.86939381890269
 30
0.0
 10
771.1057224005846
 20
-33.90529799656144
 30
0.0
 10
771.182276744745
 20
-33.91689948723958
 30
0.0
  0
LINE
  5
C2
330
1F
100
AcDbEntity
  8
0
  6
SLD-Solid
 62
   142
420
    32960
370
     0
100
AcDbLine
 10
803.1822767447
 20
490.1333724209
 30
0.0
 11
805.6822767447
 21
490.1333724209
 31
0.0
  0
LINE
  5
C3
330
1F
100
AcDbEntity
  8
0
  6
SLD-Solid
 62
   142
420
    32960
370
     0
100
AcDbLine
 10
803.1822767447
 20
490.1333724209
 30
0.0
 11
819.135380402
 21
490.1333724209
 31
0.0
  0
LINE
  5
C4
330
1F
100
AcDbEntity
  8
0
  6
SLD-Solid
 62
   142
420
    32960
370
     0
100
AcDbLine
 10
805.6822767447
 20
490.1333724209
 30
0.0
 11
816.6822767447
 21
490.1333724209
 31
0.0
  0
LINE
  5
C5
330
1F
100
AcDbEntity
  8
0
  6
SLD-Solid
 62
   142
420
    32960
370
     0
100
AcDbLine
 10
795.5280142448
 20
612.0912373286
 30
0.0
 11
795.54795568
 21
612.090928211
 31
0.0
  0
SPLINE
  5
C6
330
1F
100
AcDbEntity
  8
0
  6
SLD-Solid
 62
   142
420
    32960
370
     0
100
AcDbSpline
210
0.0
220
0.0
230
1.0
 70
     8
 71
     3
 72
    18
 73
    14
 74
     0
 42
0.00000001
 43
0.00000001
 40
0.0
 40
0.0
 40
0.0
 40
0.0
 40
0.0312995111645917
 40
0.0625945874393746
 40
0.125161495875697
 40
0.1752170307478887
 40
0.2502176268373813
 40
0.3698155274565679
 40
0.4997006321671989
 40
0.6246497396546656
 40
0.7497209249591873
 40
0.874850320675307
 40
1.0
 40
1.0
 40
1.0
 40
1.0
 10
795.5479556800215
 20
612.0909282109992
 30
0.0
 10
795.547791589865
 20
612.0908892816541
 30
0.0
 10
795.5474634328024
 20
612.0908114284796
 30
0.0
 10
795.5376221821324
 20
612.0907437761463
 30
0.0
 10
795.5157530994358
 20
612.0906933286128
 30
0.0
 10
795.462518914793
 20
612.0912490397554
 30
0.0
 10
795.356847853581
 20
612.0931483024094
 30
0.0
 10
795.1399238950809
 20
612.0992461084434
 30
0.0
 10
794.8094396241503
 20
612.1124261350461
 30
0.0
 10
794.4352639312013
 20
612.1305951454576
 30
0.0
 10
794.0454339394629
 20
612.1528166256531
 30
0.0
 10
793.650299211583
 20
612.1773316974857
 30
0.0
 10
793.3858795893015
 20
612.1947656187741
 30
0.0
 10
793.2536590633532
 20
612.2034832858756
 30
0.0
  0
SPLINE
  5
C7
330
1F
100
AcDbEntity
  8
0
  6
SLD-Solid
 62
   142
420
    32960
370
     0
100
AcDbSpline
210
0.0
220
0.0
230
1.0
 70
     8
 71
     3
 72
    14
 73
    10
 74
     0
 42
0.00000001
 43
0.00000001
 40
0.0
 40
0.0
 40
0.0
 40
0.0
 40
0.1250553932925197
 40
0.2501032493440961
 40
0.5001236321706766
 40
0.7499715960342775
 40
0.8749544500388831
 40
0.9374688794932622
 40
0.9999999999999999
 40
0.9999999999999999
 40
0.9999999999999999
 40
0.9999999999999999
 10
793.2536590633532
 20
612.2034832858756
 30
0.0
 10
793.1767077487151
 20
612.2086566695981
 30
0.0
 10
793.0228097573881
 20
612.219003125237
 30
0.0
 10
792.7153067398498
 20
612.2401965034534
 30
0.0
 10
792.3323932712278
 20
612.267778354189
 30
0.0
 10
791.9565651563992
 20
612.2969322546481
 30
0.0
 10
791.7046314183132
 20
612.3178597572025
 30
0.0
 10
791.5688687277534
 20
612.3298411816464
 30
0.0
 10
791.5036705532137
 20
612.3357354356896
 30
0.0
 10
791.4710671146248
 20
612.3386829560928
 30
0.0
  0
SPLINE
  5
C8
330
1F
100
AcDbEntity
  8
0
  6
SLD-Solid
 62
   142
420
    32960
370
     0
100
AcDbSpline
210
0.0
220
0.0
230
1.0
 70
     8
 71
     3
 72
    13
 73
     9
 74
     0
 42
0.00000001
 43
0.00000001
 40
0.0
 40
0.0
 40
0.0
 40
0.0
 40
0.1251713704823992
 40
0.2502865226305527
 40
0.4999512569308115
 40
0.7496532036844568
 40
0.8747965534411185
 40
0.9999999999999999
 40
0.9999999999999999
 40
0.9999999999999999
 40
0.9999999999999999
 10
791.471063928217
 20
612.3386832556099
 30
0.0
 10
791.4246333724335
 20
612.343018220543
 30
0.0
 10
791.3317931142651
 20
612.3516862034421
 30
0.0
 10
791.166229554402
 20
612.3679030293114
 30
0.0
 10
790.9989977831331
 20
612.3854596128724
 30
0.0
 10
790.90124555043
 20
612.3967287503949
 30
0.0
 10
790.8657674148516
 20
612.4013656343002
 30
0.0
 10
790.861552514444
 20
612.4020500952543
 30
0.0
 10
790.8594445583378
 20
612.4023924078849
 30
0.0
  0
SPLINE
  5
C9
330
1F
100
AcDbEntity
  8
0
  6
SLD-Solid
 62
   142
420
    32960
370
     0
100
AcDbSpline
210
0.0
220
0.0
230
1.0
 70
     8
 71
     3
 72
    13
 73
     9
 74
     0
 42
0.00000001
 43
0.00000001
 40
0.0
 40
0.0
 40
0.0
 40
0.0
 40
0.0427271562437384
 40
0.2820231572482302
 40
0.5202885061822529
 40
0.7600182588244951
 40
0.8796329299928989
 40
1.0
 40
1.0
 40
1.0
 40
1.0
 10
794.7585959722853
 20
612.1433719393397
 30
0.0
 10
794.7582333379128
 20
612.1434008698911
 30
0.0
 10
794.7558397479881
 20
612.1435918277311
 30
0.0
 10
794.7396995770191
 20
612.1444058234582
 30
0.0
 10
794.6711054413182
 20
612.1480752567135
 30
0.0
 10
794.5885690832641
 20
612.1526018063159
 30
0.0
 10
794.5112703933693
 20
612.1569903838944
 30
0.0
 10
794.4698691439795
 20
612.1593800537528
 30
0.0
 10
794.4491036179888
 20
612.1605786347686
 30
0.0
  0
SPLINE
  5
CA
330
1F
100
AcDbEntity
  8
0
  6
SLD-Solid
 62
   142
420
    32960
370
     0
100
AcDbSpline
210
0.0
220
0.0
230
1.0
 70
     8
 71
     3
 72
    13
 73
     9
 74
     0
 42
0.00000001
 43
0.00000001
 40
0.0
 40
0.0
 40
0.0
 40
0.0
 40
0.0625234477983274
 40
0.1250288441722298
 40
0.2500295548749782
 40
0.4999123112426958
 40
0.7499314087066087
 40
1.0
 40
1.0
 40
1.0
 40
1.0
 10
794.4491036179888
 20
612.1605786347686
 30
0.0
 10
794.4258028534318
 20
612.1619405254872
 30
0.0
 10
794.3792080515858
 20
612.1646639137273
 30
0.0
 10
794.2822207711264
 20
612.1704142638042
 30
0.0
 10
794.105310548933
 20
612.1811871321598
 30
0.0
 10
793.8444938605361
 20
612.1975651724684
 30
0.0
 10
793.5276197794881
 20
612.2181083579754
 30
0.0
 10
793.3158645693067
 20
612.2321560877573
 30
0.0
 10
793.2099764854776
 20
612.2391806478021
 30
0.0
  0
SPLINE
  5
CB
330
1F
100
AcDbEntity
  8
0
  6
SLD-Solid
 62
   142
420
    32960
370
     0
100
AcDbSpline
210
0.0
220
0.0
230
1.0
 70
     8
 71
     3
 72
    16
 73
    12
 74
     0
 42
0.00000001
 43
0.00000001
 40
0.0
 40
0.0
 40
0.0
 40
0.0
 40
0.1252631461791198
 40
0.2505188863277698
 40
0.3757538585426574
 40
0.5009662291660116
 40
0.6260366187426499
 40
0.7509240976724929
 40
0.8647214306627815
 40
0.9776019377437227
 40
1.0
 40
1.0
 40
1.0
 40
1.0
 10
793.2099764854776
 20
612.2391806478021
 30
0.0
 10
793.1314051093348
 20
612.2444349665918
 30
0.0
 10
792.9742670024858
 20
612.2549432935162
 30
0.0
 10
792.7387813870077
 20
612.2708763253146
 30
0.0
 10
792.504701489114
 20
612.287017590805
 30
0.0
 10
792.2729623333835
 20
612.3032500458909
 30
0.0
 10
792.0488482918753
 20
612.3194861357191
 30
0.0
 10
791.8568004507281
 20
612.3340602721405
 30
0.0
 10
791.712230502024
 20
612.3452959564557
 30
0.0
 10
791.668916356576
 20
612.3487356848607
 30
0.0
 10
791.6670898999586
 20
612.3487820901372
 30
0.0
 10
791.666787493678
 20
612.3487897734557
 30
0.0
  0
SPLINE
  5
CC
330
1F
100
AcDbEntity
  8
0
  6
SLD-Solid
 62
   142
420
    32960
370
     0
100
AcDbSpline
210
0.0
220
0.0
230
1.0
 70
     8
 71
     3
 72
    18
 73
    14
 74
     0
 42
0.00000001
 43
0.00000001
 40
0.0
 40
0.0
 40
0.0
 40
0.0
 40
0.0625056993940019
 40
0.1249366024064276
 40
0.187395056947579
 40
0.2498256751883326
 40
0.3219622618204789
 40
0.3747766092284791
 40
0.4997092147424113
 40
0.6247460768752788
 40
0.7498233215064687
 40
0.8702808453861042
 40
1.0
 40
1.0
 40
1.0
 40
1.0
 10
791.666787493678
 20
612.3487897734557
 30
0.0
 10
791.6689387414899
 20
612.3485507823709
 30
0.0
 10
791.6732386628596
 20
612.3480730861866
 30
0.0
 10
791.7121791713774
 20
612.3446596651396
 30
0.0
 10
791.773251820989
 20
612.3395188647503
 30
0.0
 10
791.8586018353761
 20
612.3325475910589
 30
0.0
 10
791.9603596802463
 20
612.3246656873552
 30
0.0
 10
792.107300316974
 20
612.3136488794034
 30
0.0
 10
792.295887869423
 20
612.2998787265506
 30
0.0
 10
792.5370775277235
 20
612.2829369536491
 30
0.0
 10
792.7775705854052
 20
612.266452125765
 30
0.0
 10
793.0217676035251
 20
612.2499475581984
 30
0.0
 10
793.1847083966068
 20
612.2390852846884
 30
0.0
 10
793.2691948565677
 20
612.2334530852946
 30
0.0
  0
SPLINE
  5
CD
330
1F
100
AcDbEntity
  8
0
  6
SLD-Solid
 62
   142
420
    32960
370
     0
100
AcDbSpline
210
0.0
220
0.0
230
1.0
 70
     8
 71
     3
 72
    18
 73
    14
 74
     0
 42
0.00000001
 43
0.00000001
 40
0.0
 40
0.0
 40
0.0
 40
0.0
 40
0.1251150348332535
 40
0.2502142338132707
 40
0.3753103425832137
 40
0.5003678378249686
 40
0.630487566638754
 40
0.7500246333156967
 40
0.8126119443874716
 40
0.8749668753729751
 40
0.9374460115586882
 40
0.9687143461569477
 40
1.0
 40
1.0
 40
1.0
 40
1.0
 10
793.2691948565677
 20
612.2334530852946
 30
0.0
 10
793.3460458398151
 20
612.228366797604
 30
0.0
 10
793.4997380792546
 20
612.2181948659955
 30
0.0
 10
793.729945492164
 20
612.2032143361454
 30
0.0
 10
793.9589511384384
 20
612.1886116090453
 30
0.0
 10
794.1879994874769
 20
612.1744188175024
 30
0.0
 10
794.4045654152419
 20
612.161678882239
 30
0.0
 10
794.5619171137824
 20
612.1531130971609
 30
0.0
 10
794.6604140995466
 20
612.1480004013979
 30
0.0
 10
794.7186936584783
 20
612.1450941505631
 30
0.0
 10
794.7463948622991
 20
612.1438297215616
 30
0.0
 10
794.7572396492111
 20
612.143384722068
 30
0.0
 10
794.758143781152
 20
612.1433762010355
 30
0.0
 10
794.7585959722853
 20
612.1433719393397
 30
0.0
  0
LINE
  5
CE
330
1F
100
AcDbEntity
  8
0
  6
SLD-Solid
 62
     7
370
    15
100
AcDbLine
 10
210.7109842597
 20
690.1333724202
 30
0.0
 11
376.9822767448
 21
690.1333724202
 31
0.0
  0
LINE
  5
CF
330
1F
100
AcDbEntity
  8
0
  6
SLD-Solid
 62
     7
370
    15
100
AcDbLine
 10
193.9822767448
 20
690.1333724202
 30
0.0
 11
210.7109842597
 21
690.1333724202
 31
0.0
  0
LINE
  5
D0
330
1F
100
AcDbEntity
  8
0
  6
SLD-Solid
 62
     7
370
    15
100
AcDbLine
 10
209.0766390688
 20
688.1333724202
 30
0.0
 11
191.9822767448
 21
688.1333724202
 31
0.0
  0
LINE
  5
D1
330
1F
100
AcDbEntity
  8
0
  6
SLD-Solid
 62
     7
370
    15
100
AcDbLine
 10
378.9822767448
 20
688.1333724202
 30
0.0
 11
209.0766390688
 21
688.1333724202
 31
0.0
  0
LINE
  5
D2
330
1F
100
AcDbEntity
  8
0
  6
SLD-Solid
 62
   142
420
    32960
370
     0
100
AcDbLine
 10
209.0766390688
 20
686.6333724202
 30
0.0
 11
378.9822767448
 21
686.6333724202
 31
0.0
  0
LINE
  5
D3
330
1F
100
AcDbEntity
  8
0
  6
SLD-Solid
 62
   142
420
    32960
370
     0
100
AcDbLine
 10
191.9822767448
 20
686.6333724202
 30
0.0
 11
209.0766390688
 21
686.6333724202
 31
0.0
  0
SPLINE
  5
D4
330
1F
100
AcDbEntity
  8
0
  6
SLD-Solid
 62
   142
420
    32960
370
     0
100
AcDbSpline
210
0.0
220
0.0
230
1.0
 70
     8
 71
     3
 72
     9
 73
     5
 74
     0
 42
0.00000001
 43
0.00000001
 40
0.0
 40
0.0
 40
0.0
 40
0.0
 40
0.9346358844462863
 40
1.0
 40
1.0
 40
1.0
 40
1.0
 10
806.726107585901
 20
577.7118667900647
 30
0.0
 10
806.7809063801112
 20
577.5427575616767
 30
0.0
 10
806.8395375488071
 20
577.3618216151739
 30
0.0
 10
806.8085651551191
 20
577.1763168209898
 30
0.0
 10
806.8065406719991
 20
577.164191464187
 30
0.0
  0
SPLINE
  5
D5
330
1F
100
AcDbEntity
  8
0
  6
SLD-Solid
 62
   142
420
    32960
370
     0
100
AcDbSpline
210
0.0
220
0.0
230
1.0
 70
     8
 71
     3
 72
     9
 73
     5
 74
     0
 42
0.00000001
 43
0.00000001
 40
0.0
 40
0.0
 40
0.0
 40
0.0
 40
0.0163422756130941
 40
1.0
 40
1.0
 40
1.0
 40
1.0
 10
806.4446578257891
 20
578.2272604353693
 30
0.0
 10
806.4469380761366
 20
578.2251281216458
 30
0.0
 10
806.5864688490534
 20
578.0946497369919
 30
0.0
 10
806.6568634212272
 20
577.9016814934176
 30
0.0
 10
806.726107585901
 20
577.7118667900647
 30
0.0
  0
LINE
  5
D6
330
1F
100
AcDbEntity
  8
0
  6
SLD-Solid
 62
   142
420
    32960
370
     0
100
AcDbLine
 10
802.8663738098
 20
575.8152740718
 30
0.0
 11
802.5366592973
 21
576.8280046462
 31
0.0
  0
LINE
  5
D7
330
1F
100
AcDbEntity
  8
0
  6
SLD-Solid
 62
   142
420
    32960
370
     0
100
AcDbLine
 10
53.6822767447
 20
677.3333724201
 30
0.0
 11
53.6822767447
 21
726.1128275799
 31
0.0
  0
LINE
  5
D8
330
1F
100
AcDbEntity
  8
0
  6
SLD-Solid
 62
   142
420
    32960
370
     0
100
AcDbLine
 10
52.8822767447
 20
677.3333724201
 30
0.0
 11
52.8822767447
 21
726.1128275799
 31
0.0
  0
ARC
  5
D9
330
1F
100
AcDbEntity
  8
0
  6
SLD-Solid
 62
   142
420
    32960
370
     0
100
AcDbCircle
 10
155.8322767447
 20
656.0833724201
 30
0.0
 40
1.250000000000028
100
AcDbArc
 50
0.0
 51
90.0
  0
LINE
  5
DA
330
1F
100
AcDbEntity
  8
0
  6
SLD-Solid
 62
   142
420
    32960
370
     0
100
AcDbLine
 10
133.6322767447
 20
658.1333724201
 30
0.0
 11
155.8322767447
 21
658.1333724201
 31
0.0
  0
LINE
  5
DB
330
1F
100
AcDbEntity
  8
0
  6
SLD-Solid
 62
     7
370
    15
100
AcDbLine
 10
107.8822767447
 20
694.2501977206
 30
0.0
 11
107.8822767447
 21
679.3833724201
 31
0.0
  0
LINE
  5
DC
330
1F
100
AcDbEntity
  8
0
  6
SLD-Solid
 62
     7
370
    15
100
AcDbLine
 10
107.0822767447
 20
694.2501977206
 30
0.0
 11
107.0822767447
 21
679.3833724201
 31
0.0
  0
LINE
  5
DD
330
1F
100
AcDbEntity
  8
0
  6
SLD-Solid
 62
   142
420
    32960
370
     0
100
AcDbLine
 10
107.0822767447
 20
679.3833724201
 30
0.0
 11
107.8822767447
 21
679.3833724201
 31
0.0
  0
ARC
  5
DE
330
1F
100
AcDbEntity
  8
0
  6
SLD-Solid
 62
   142
420
    32960
370
     0
100
AcDbCircle
 10
133.6322767447
 20
659.3833724201
 30
0.0
 40
2.050000000000182
100
AcDbArc
 50
180.0
 51
270.0
  0
ARC
  5
DF
330
1F
100
AcDbEntity
  8
0
  6
SLD-Solid
 62
     7
370
    15
100
AcDbCircle
 10
130.3322767447
 20
676.0833724201
 30
0.0
 40
2.050000000000068
100
AcDbArc
 50
0.0
 51
90.0
  0
ARC
  5
E0
330
1F
100
AcDbEntity
  8
0
  6
SLD-Solid
 62
   142
420
    32960
370
     0
100
AcDbCircle
 10
109.1322767447
 20
679.3833724201
 30
0.0
 40
2.050000000000068
100
AcDbArc
 50
180.0
 51
270.0
  0
LINE
  5
E1
330
1F
100
AcDbEntity
  8
0
  6
SLD-Solid
 62
     7
370
    15
100
AcDbLine
 10
133.6322767447
 20
657.3333724201
 30
0.0
 11
155.8322767447
 21
657.3333724201
 31
0.0
  0
LINE
  5
E2
330
1F
100
AcDbEntity
  8
0
  6
SLD-Solid
 62
   142
420
    32960
370
     0
100
AcDbLine
 10
155.8322767447
 20
657.3333724201
 30
0.0
 11
155.8322767447
 21
658.1333724201
 31
0.0
  0
LINE
  5
E3
330
1F
100
AcDbEntity
  8
0
  6
SLD-Solid
 62
   142
420
    32960
370
     0
100
AcDbLine
 10
133.6322767447
 20
658.1333724201
 30
0.0
 11
133.6322767447
 21
657.3333724201
 31
0.0
  0
LINE
  5
E4
330
1F
100
AcDbEntity
  8
0
  6
SLD-Solid
 62
   142
420
    32960
370
     0
100
AcDbLine
 10
157.0822767447
 20
656.0833724201
 30
0.0
 11
157.0822767447
 21
647.3333724201
 31
0.0
  0
LINE
  5
E5
330
1F
100
AcDbEntity
  8
0
  6
SLD-Solid
 62
   142
420
    32960
370
     0
100
AcDbLine
 10
52.8822767447
 20
677.3333724201
 30
0.0
 11
53.6822767447
 21
677.3333724201
 31
0.0
  0
LINE
  5
E6
330
1F
100
AcDbEntity
  8
0
  6
SLD-Solid
 62
     7
370
    15
100
AcDbLine
 10
55.4628557872
 20
728.0929755238
 30
0.0
 11
88.7598081084
 21
719.1710840389
 31
0.0
  0
LINE
  5
E7
330
1F
100
AcDbEntity
  8
0
  6
SLD-Solid
 62
   142
420
    32960
370
     0
100
AcDbLine
 10
109.1322767447
 20
678.1333724201
 30
0.0
 11
130.3322767447
 21
678.1333724201
 31
0.0
  0
ARC
  5
E8
330
1F
100
AcDbEntity
  8
0
  6
SLD-Solid
 62
   142
420
    32960
370
     0
100
AcDbCircle
 10
109.1322767447
 20
679.3833724201
 30
0.0
 40
1.25
100
AcDbArc
 50
180.0
 51
270.0
  0
LINE
  5
E9
330
1F
100
AcDbEntity
  8
0
  6
SLD-Solid
 62
   142
420
    32960
370
     0
100
AcDbLine
 10
157.0822767447
 20
647.3333724201
 30
0.0
 11
157.8822767447
 21
647.3333724201
 31
0.0
  0
LINE
  5
EA
330
1F
100
AcDbEntity
  8
0
  6
SLD-Solid
 62
   142
420
    32960
370
     0
100
AcDbLine
 10
131.5822767447
 20
676.0833724201
 30
0.0
 11
131.5822767447
 21
659.3833724201
 31
0.0
  0
LINE
  5
EB
330
1F
100
AcDbEntity
  8
0
  6
SLD-Solid
 62
   142
420
    32960
370
     0
100
AcDbLine
 10
132.3822767447
 20
676.0833724201
 30
0.0
 11
132.3822767447
 21
659.3833724201
 31
0.0
  0
LINE
  5
EC
330
1F
100
AcDbEntity
  8
0
  6
SLD-Solid
 62
   142
420
    32960
370
     0
100
AcDbLine
 10
109.1322767447
 20
677.3333724201
 30
0.0
 11
130.3322767447
 21
677.3333724201
 31
0.0
  0
ARC
  5
ED
330
1F
100
AcDbEntity
  8
0
  6
SLD-Solid
 62
     7
370
    15
100
AcDbCircle
 10
54.9322767447
 20
726.1128275799
 30
0.0
 40
2.049999999999997
100
AcDbArc
 50
75.0
 51
180.0
  0
LINE
  5
EE
330
1F
100
AcDbEntity
  8
0
  6
SLD-Solid
 62
   142
420
    32960
370
     0
100
AcDbLine
 10
53.6822767447
 20
726.1128275799
 30
0.0
 11
52.8822767447
 21
726.1128275799
 31
0.0
  0
ARC
  5
EF
330
1F
100
AcDbEntity
  8
0
  6
SLD-Solid
 62
   142
420
    32960
370
     0
100
AcDbCircle
 10
54.9322767447
 20
726.1128275799
 30
0.0
 40
1.25000000000015
100
AcDbArc
 50
75.0
 51
180.0
  0
ARC
  5
F0
330
1F
100
AcDbEntity
  8
0
  6
SLD-Solid
 62
   142
420
    32960
370
     0
100
AcDbCircle
 10
155.8322767447
 20
656.0833724201
 30
0.0
 40
2.050000000000182
100
AcDbArc
 50
0.0
 51
90.0
  0
ARC
  5
F1
330
1F
100
AcDbEntity
  8
0
  6
SLD-Solid
 62
     7
370
    15
100
AcDbCircle
 10
82.0822767447
 20
694.2501977206
 30
0.0
 40
25.00000000000011
100
AcDbArc
 50
0.0
 51
75.0
  0
ARC
  5
F2
330
1F
100
AcDbEntity
  8
0
  6
SLD-Solid
 62
     7
370
    15
100
AcDbCircle
 10
82.0822767447
 20
694.2501977206
 30
0.0
 40
25.80000000000005
100
AcDbArc
 50
0.0
 51
75.0
  0
ARC
  5
F3
330
1F
100
AcDbEntity
  8
0
  6
SLD-Solid
 62
     7
370
    15
100
AcDbCircle
 10
130.3322767447
 20
676.0833724201
 30
0.0
 40
1.250000000000028
100
AcDbArc
 50
0.0
 51
90.0
  0
LINE
  5
F4
330
1F
100
AcDbEntity
  8
0
  6
SLD-Solid
 62
     7
370
    15
100
AcDbLine
 10
55.2558005511
 20
727.3202348627
 30
0.0
 11
88.5527528723
 21
718.3983433779
 31
0.0
  0
LINE
  5
F5
330
1F
100
AcDbEntity
  8
0
  6
SLD-Solid
 62
   142
420
    32960
370
     0
100
AcDbLine
 10
130.3322767447
 20
677.3333724201
 30
0.0
 11
130.3322767447
 21
678.1333724201
 31
0.0
  0
LINE
  5
F6
330
1F
100
AcDbEntity
  8
0
  6
SLD-Solid
 62
   142
420
    32960
370
     0
100
AcDbLine
 10
132.3822767447
 20
676.0833724201
 30
0.0
 11
131.5822767447
 21
676.0833724201
 31
0.0
  0
LINE
  5
F7
330
1F
100
AcDbEntity
  8
0
  6
SLD-Solid
 62
   142
420
    32960
370
     0
100
AcDbLine
 10
53.6822767447
 20
685.6833724201
 30
0.0
 11
52.8822767447
 21
685.6833724201
 31
0.0
  0
LINE
  5
F8
330
1F
100
AcDbEntity
  8
0
  6
SLD-Solid
 62
   142
420
    32960
370
     0
100
AcDbLine
 10
43.8322767448
 20
488.2404792013
 30
0.0
 11
-18.1177232552
 21
488.2404792013
 31
0.0
  0
LINE
  5
F9
330
1F
100
AcDbEntity
  8
0
  6
SLD-Solid
 62
   142
420
    32960
370
     0
100
AcDbLine
 10
-16.6606521874
 20
644.6833724201
 30
0.0
 11
-16.6747943231
 21
644.6833724201
 31
0.0
  0
LINE
  5
FA
330
1F
100
AcDbEntity
  8
0
  6
SLD-Solid
 62
   142
420
    32960
370
     0
100
AcDbLine
 10
-18.1177232552
 20
488.3333724201
 30
0.0
 11
-18.1177232552
 21
488.2404792013
 31
0.0
  0
LINE
  5
FB
330
1F
100
AcDbEntity
  8
0
  6
SLD-Solid
 62
   142
420
    32960
370
     0
100
AcDbLine
 10
43.8322767448
 20
635.5333724201
 30
0.0
 11
43.8322767448
 21
488.2404792013
 31
0.0
  0
SPLINE
  5
FC
330
1F
100
AcDbEntity
  8
0
  6
SLD-Solid
 62
   142
420
    32960
370
     0
100
AcDbSpline
210
0.0
220
0.0
230
1.0
 70
     8
 71
     3
 72
    14
 73
    10
 74
     0
 42
0.00000001
 43
0.00000001
 40
0.0
 40
0.0
 40
0.0
 40
0.0
 40
0.25
 40
0.25
 40
0.5
 40
0.5
 40
0.75
 40
0.75
 40
1.0
 40
1.0
 40
1.0
 40
1.0
 10
45.08227674475101
 20
488.783372420105
 30
0.0
 10
45.08227674475107
 20
488.7381313185372
 30
0.0
 10
45.04974259058636
 20
488.6928902169694
 30
0.0
 10
44.9245097301939
 20
488.6024080138338
 30
0.0
 10
44.83186029774877
 20
488.557166912266
 30
0.0
 10
44.60046014471958
 20
488.4666847091303
 30
0.0
 10
44.46180047021458
 20
488.4214436075626
 30
0.0
 10
44.15946160020007
 20
488.3309614044271
 30
0.0
 10
43.99590136212539
 20
488.2857203028593
 30
0.0
 10
43.83227674475098
 20
488.2404792012915
 30
0.0
  0
LINE
  5
FD
330
1F
100
AcDbEntity
  8
0
  6
SLD-Solid
 62
   142
420
    32960
370
     0
100
AcDbLine
 10
45.0822767448
 20
488.7833724201
 30
0.0
 11
45.8822767448
 21
488.7833724201
 31
0.0
  0
SPLINE
  5
FE
330
1F
100
AcDbEntity
  8
0
  6
SLD-Solid
 62
   142
420
    32960
370
     0
100
AcDbSpline
210
0.0
220
0.0
230
1.0
 70
     8
 71
     3
 72
    14
 73
    10
 74
     0
 42
0.00000001
 43
0.00000001
 40
0.0
 40
0.0
 40
0.0
 40
0.0
 40
0.25
 40
0.25
 40
0.5
 40
0.5
 40
0.75
 40
0.75
 40
1.0
 40
1.0
 40
1.0
 40
1.0
 10
45.88227674475104
 20
488.783372420105
 30
0.0
 10
45.88227674475098
 20
488.7381313185372
 30
0.0
 10
45.82892073192097
 20
488.6928902169694
 30
0.0
 10
45.62353884087733
 20
488.6024080138338
 30
0.0
 10
45.47159377166727
 20
488.557166912266
 30
0.0
 10
45.09209752069959
 20
488.4666847091303
 30
0.0
 10
44.86469565451129
 20
488.4214436075626
 30
0.0
 10
44.36885990768752
 20
488.3309614044271
 30
0.0
 10
44.10062111724505
 20
488.2857203028593
 30
0.0
 10
43.83227674475098
 20
488.2404792012915
 30
0.0
  0
SPLINE
  5
FF
330
1F
100
AcDbEntity
  8
0
  6
SLD-Solid
 62
     7
370
    15
100
AcDbSpline
210
0.0
220
0.0
230
1.0
 70
     8
 71
     3
 72
    27
 73
    23
 74
     0
 42
0.00000001
 43
0.00000001
 40
0.0
 40
0.0
 40
0.0
 40
0.0
 40
0.0429553442438639
 40
0.084724185032328
 40
0.1253154593338635
 40
0.1647389106646881
 40
0.2030051803196573
 40
0.2401259104775936
 40
0.2761138607699977
 40
0.3109830400692686
 40
0.3447488554066203
 40
0.3774282800564223
 40
0.4090400428910332
 40
0.439604841079793
 40
0.4691455780191728
 40
0.497687627958233
 40
0.5590715783691803
 40
0.6292936409266362
 40
0.7084438868552447
 40
0.7965843065510855
 40
0.893758972424822
 40
1.0
 40
1.0
 40
1.0
 40
1.0
 10
819.1322767447438
 20
-35.49591690096693
 30
0.0
 10
819.181806311758
 20
-35.49137796745428
 30
0.0
 10
819.2794973505372
 20
-35.48242547389263
 30
0.0
 10
819.4229894759673
 20
-35.46661414364971
 30
0.0
 10
819.560821721237
 20
-35.44927037667678
 30
0.0
 10
819.6924924765535
 20
-35.43022434682519
 30
0.0
 10
819.817636423162
 20
-35.40951960572703
 30
0.0
 10
819.9359915292041
 20
-35.38714492893236
 30
0.0
 10
820.0473955206531
 20
-35.36310311963098
 30
0.0
 10
820.1517744478708
 20
-35.33739326195062
 30
0.0
 10
820.2491333776618
 20
-35.31001562318598
 30
0.0
 10
820.3395461393944
 20
-35.28096906655392
 30
0.0
 10
820.423147605768
 20
-35.25025637836038
 30
0.0
 10
820.5001187945331
 20
-35.21786625368145
 30
0.0
 10
820.5706991891461
 20
-35.18383688856919
 30
0.0
 10
820.6605291381185
 20
-35.13389563566444
 30
0.0
 10
820.7699667066813
 20
-35.0591710520558
 30
0.0
 10
820.8936693495317
 20
-34.95227673051621
 30
0.0
 10
821.0075055126172
 20
-34.82408247369045
 30
0.0
 10
821.1014856399506
 20
-34.67459343868146
 30
0.0
 10
821.1688573818066
 20
-34.50407667990801
 30
0.0
 10
821.177672656374
 20
-34.38094003780945
 30
0.0
 10
821.1822767447436
 20
-34.31662757908565
 30
0.0
  0
SPLINE
  5
100
330
1F
100
AcDbEntity
  8
0
  6
SLD-Solid
 62
     7
370
    15
100
AcDbSpline
210
0.0
220
0.0
230
1.0
 70
     8
 71
     3
 72
    29
 73
    25
 74
     0
 42
0.00000001
 43
0.00000001
 40
0.0
 40
0.0
 40
0.0
 40
0.0
 40
0.0500934119596589
 40
0.0979510316422033
 40
0.143574139578605
 40
0.1869642294174186
 40
0.2281230533097319
 40
0.267052680201546
 40
0.3037555716772937
 40
0.3382346820586888
 40
0.3704935926294101
 40
0.4005366948407825
 40
0.4283694454006038
 40
0.4539987295328598
 40
0.4774333916779073
 40
0.4986850338261615
 40
0.5440434879115
 40
0.594187996840435
 40
0.6492240219550297
 40
0.7092308785169171
 40
0.7742693300887749
 40
0.8443866864020252
 40
0.9196202977430086
 40
1.0
 40
1.0
 40
1.0
 40
1.0
 10
821.1822767447436
 20
485.5833724209144
 30
0.0
 10
821.181240881384
 20
485.6133038340574
 30
0.0
 10
821.1792153877961
 20
485.6718307477007
 30
0.0
 10
821.1633269112422
 20
485.7567216728498
 30
0.0
 10
821.1396092526041
 20
485.8369331230704
 30
0.0
 10
821.108496339423
 20
485.9124093931753
 30
0.0
 10
821.0714892328449
 20
485.9831648396179
 30
0.0
 10
821.0297468123626
 20
486.049196496233
 30
0.0
 10
820.9844247086255
 20
486.1105058446119
 30
0.0
 10
820.9365834042563
 20
486.1670934547756
 30
0.0
 10
820.8872060833104
 20
486.2189604258509
 30
0.0
 10
820.8371921018769
 20
486.2661079597373
 30
0.0
 10
820.7873585525379
 20
486.3085381763332
 30
0.0
 10
820.7384418550163
 20
486.346252230665
 30
0.0
 10
820.6910998437048
 20
486.3792573182126
 30
0.0
 10
820.6273015865846
 20
486.4192000819475
 30
0.0
 10
820.5380652306162
 20
486.4649714987887
 30
0.0
 10
820.4123083365739
 20
486.5157185640106
 30
0.0
 10
820.2627505932005
 20
486.5637995472805
 30
0.0
 10
820.0876722793487
 20
486.6092120691578
 30
0.0
 10
819.8859930617608
 20
486.6519717796312
 30
0.0
 10
819.6575569217725
 20
486.6919899595262
 30
0.0
 10
819.4035077392991
 20
486.7296187531614
 30
0.0
 10
819.2246585743763
 20
486.7514072331703
 30
0.0
 10
819.1322767447433
 20
486.7626617427958
 30
0.0
  0
LINE
  5
101
330
1F
100
AcDbEntity
  8
0
  6
SLD-Solid
 62
     7
370
    15
100
AcDbLine
 10
821.1822767447
 20
485.5833724209
 30
0.0
 11
821.1822767447
 21
-34.3166275791
 31
0.0
  0
LINE
  5
102
330
1F
100
AcDbEntity
  8
0
  6
SLD-Solid
 62
     7
370
    15
100
AcDbLine
 10
819.1322767447
 20
-35.495916901
 30
0.0
 11
771.1822767447
 21
-35.495916901
 31
0.0
  0
LINE
  5
103
330
1F
100
AcDbEntity
  8
0
  6
SLD-Solid
 62
     7
370
    15
100
AcDbLine
 10
819.1322767447
 20
486.7626617428
 30
0.0
 11
771.1822767447
 21
486.7626617428
 31
0.0
  0
CIRCLE
  5
104
330
1F
100
AcDbEntity
  8
0
  6
SLD-Solid
 62
   142
420
    32960
370
     0
100
AcDbCircle
 10
791.1822767447
 20
457.6333724209
 30
0.0
 40
1.599999999999909
  0
CIRCLE
  5
105
330
1F
100
AcDbEntity
  8
0
  6
SLD-Solid
 62
   142
420
    32960
370
     0
100
AcDbCircle
 10
791.1822767447
 20
-6.3666275791
 30
0.0
 40
1.600000000000023
  0
CIRCLE
  5
106
330
1F
100
AcDbEntity
  8
0
  6
SLD-Solid
 62
   142
420
    32960
370
     0
100
AcDbCircle
 10
791.1822767447
 20
225.6333724209
 30
0.0
 40
1.600000000000023
  0
LINE
  5
107
330
1F
100
AcDbEntity
  8
0
  6
SLD-Solid
 62
   142
420
    32960
370
     0
100
AcDbLine
 10
771.1822767447
 20
486.7626617428
 30
0.0
 11
771.1822767447
 21
-35.495916901
 31
0.0
  0
SPLINE
  5
108
330
1F
100
AcDbEntity
  8
0
  6
SLD-Solid
 62
   142
420
    32960
370
     0
100
AcDbSpline
210
0.0
220
0.0
230
1.0
 70
     8
 71
     3
 72
    22
 73
    18
 74
     0
 42
0.00000001
 43
0.00000001
 40
0.0
 40
0.0
 40
0.0
 40
0.0
 40
0.125
 40
0.125
 40
0.25
 40
0.25
 40
0.375
 40
0.375
 40
0.5
 40
0.5
 40
0.625
 40
0.625
 40
0.75
 40
0.75
 40
0.875
 40
0.875
 40
1.0
 40
1.0
 40
1.0
 40
1.0
 10
821.1822767447435
 20
-34.31662757908565
 30
0.0
 10
821.1822767447434
 20
-34.45199233747409
 30
0.0
 10
821.1689810118426
 20
-34.58523088258963
 30
0.0
 10
821.1169627395789
 20
-34.84703639139569
 30
0.0
 10
821.0778069231583
 20
-34.9765972235922
 30
0.0
 10
820.9747113248725
 20
-35.22551834520521
 30
0.0
 10
820.9116497906377
 20
-35.34335894963808
 30
0.0
 10
820.7633538425454
 20
-35.56560045499501
 30
0.0
 10
820.6770397334703
 20
-35.67096041263984
 30
0.0
 10
820.4872916831256
 20
-35.86079228278277
 30
0.0
 10
820.3840986076061
 20
-35.9455401303892
 30
0.0
 10
820.1616726435375
 20
-36.09447969883034
 30
0.0
 10
820.0413611419895
 20
-36.15890182015657
 30
0.0
 10
819.7941395596627
 20
-36.26145313292245
 30
0.0
 10
819.6663993774051
 20
-36.3003691199707
 30
0.0
 10
819.4031664551668
 20
-36.35307945736344
 30
0.0
 10
819.2676415084811
 20
-36.36662757908559
 30
0.0
 10
819.1322767447435
 20
-36.36662757908559
 30
0.0
  0
SPLINE
  5
109
330
1F
100
AcDbEntity
  8
0
  6
SLD-Solid
 62
   142
420
    32960
370
     0
100
AcDbSpline
210
0.0
220
0.0
230
1.0
 70
     8
 71
     3
 72
    22
 73
    18
 74
     0
 42
0.00000001
 43
0.00000001
 40
0.0
 40
0.0
 40
0.0
 40
0.0
 40
0.125
 40
0.125
 40
0.25
 40
0.25
 40
0.375
 40
0.375
 40
0.5
 40
0.5
 40
0.625
 40
0.625
 40
0.75
 40
0.75
 40
0.875
 40
0.875
 40
1.0
 40
1.0
 40
1.0
 40
1.0
 10
819.1322767447433
 20
487.6333724209144
 30
0.0
 10
819.2676415013631
 20
487.6333724209145
 30
0.0
 10
819.4008800497361
 20
487.6200766883327
 30
0.0
 10
819.662685573736
 20
487.5680584118205
 30
0.0
 10
819.7922464330123
 20
487.5289025833446
 30
0.0
 10
820.041167522708
 20
487.4258069939972
 30
0.0
 10
820.1590081218042
 20
487.3627454632858
 30
0.0
 10
820.3812496315614
 20
487.2144495106167
 30
0.0
 10
820.4866095973035
 20
487.1281353918529
 30
0.0
 10
820.6764414479107
 20
486.9383873586173
 30
0.0
 10
820.7611892945199
 20
486.8351942864381
 30
0.0
 10
820.9101288696263
 20
486.6127683116541
 30
0.0
 10
820.9745509884935
 20
486.49245681132
 30
0.0
 10
821.0771022941851
 20
486.2452352468105
 30
0.0
 10
821.116018283134
 20
486.1174950652394
 30
0.0
 10
821.1687286245807
 20
485.8542621243444
 30
0.0
 10
821.1822767447435
 20
485.7187371828834
 30
0.0
 10
821.1822767447434
 20
485.5833724209144
 30
0.0
  0
LINE
  5
10A
330
1F
100
AcDbEntity
  8
0
  6
SLD-Solid
 62
   142
420
    32960
370
     0
100
AcDbLine
 10
771.1822767447
 20
487.6333724209
 30
0.0
 11
771.1822767447
 21
486.8333724209
 31
0.0
  0
LINE
  5
10B
330
1F
100
AcDbEntity
  8
0
  6
SLD-Solid
 62
     7
370
    15
100
AcDbLine
 10
819.1322767447
 20
487.6333724209
 30
0.0
 11
771.1822767447
 21
487.6333724209
 31
0.0
  0
LINE
  5
10C
330
1F
100
AcDbEntity
  8
0
  6
SLD-Solid
 62
   142
420
    32960
370
     0
100
AcDbLine
 10
819.1322767447
 20
486.8333724209
 30
0.0
 11
819.1322767447
 21
487.6333724209
 31
0.0
  0
LINE
  5
10D
330
1F
100
AcDbEntity
  8
0
  6
SLD-Solid
 62
   142
420
    32960
370
     0
100
AcDbLine
 10
819.1322767447
 20
486.8333724209
 30
0.0
 11
771.1822767447
 21
486.8333724209
 31
0.0
  0
LINE
  5
10E
330
1F
100
AcDbEntity
  8
0
  6
SLD-Solid
 62
     7
370
    15
100
AcDbLine
 10
819.1322767447
 20
-36.3666275791
 30
0.0
 11
771.1822767447
 21
-36.3666275791
 31
0.0
  0
LINE
  5
10F
330
1F
100
AcDbEntity
  8
0
  6
SLD-Solid
 62
   142
420
    32960
370
     0
100
AcDbLine
 10
771.1822767447
 20
-36.3666275791
 30
0.0
 11
771.1822767447
 21
-35.5666275791
 31
0.0
  0
LINE
  5
110
330
1F
100
AcDbEntity
  8
0
  6
SLD-Solid
 62
   142
420
    32960
370
     0
100
AcDbLine
 10
819.1322767447
 20
-35.5666275791
 30
0.0
 11
771.1822767447
 21
-35.5666275791
 31
0.0
  0
LINE
  5
111
330
1F
100
AcDbEntity
  8
0
  6
SLD-Solid
 62
   142
420
    32960
370
     0
100
AcDbLine
 10
819.1322767447
 20
-35.5666275791
 30
0.0
 11
819.1322767447
 21
-36.3666275791
 31
0.0
  0
LINE
  5
112
330
1F
100
AcDbEntity
  8
0
  6
SLD-Solid
 62
   142
420
    32960
370
     0
100
AcDbLine
 10
770.1322767447
 20
485.5833724209
 30
0.0
 11
770.1322767447
 21
484.6393204689
 31
0.0
  0
LINE
  5
113
330
1F
100
AcDbEntity
  8
0
  6
SLD-Solid
 62
   142
420
    32960
370
     0
100
AcDbLine
 10
770.1322767447
 20
486.7626617428
 30
0.0
 11
770.1322767447
 21
485.5833724209
 31
0.0
  0
LINE
  5
114
330
1F
100
AcDbEntity
  8
0
  6
SLD-Solid
 62
   142
420
    32960
370
     0
100
AcDbLine
 10
771.1822767447
 20
486.7626617428
 30
0.0
 11
770.1322767447
 21
486.7626617428
 31
0.0
  0
SPLINE
  5
115
330
1F
100
AcDbEntity
  8
0
  6
SLD-Solid
 62
   142
420
    32960
370
     0
100
AcDbSpline
210
0.0
220
0.0
230
1.0
 70
     8
 71
     3
 72
    13
 73
     9
 74
     0
 42
0.00000001
 43
0.00000001
 40
0.0
 40
0.0
 40
0.0
 40
0.0
 40
0.1254031087736009
 40
0.2506359213589081
 40
0.5000145471522103
 40
0.7494681278465235
 40
0.8746242136674479
 40
1.0
 40
1.0
 40
1.0
 40
1.0
 10
797.6818203992195
 20
601.3228117150667
 30
0.0
 10
797.718043158252
 20
601.3265478216637
 30
0.0
 10
797.7904394861663
 20
601.3340149612618
 30
0.0
 10
797.9250188878693
 20
601.370554994707
 30
0.0
 10
798.0580566014931
 20
601.4589307632465
 30
0.0
 10
798.1391574233281
 20
601.5795016189736
 30
0.0
 10
798.1538915677056
 20
601.690637934527
 30
0.0
 10
798.1400888231152
 20
601.7474171586192
 30
0.0
 10
798.1331813987556
 20
601.7758316665489
 30
0.0
  0
SPLINE
  5
116
330
1F
100
AcDbEntity
  8
0
  6
SLD-Solid
 62
   142
420
    32960
370
     0
100
AcDbSpline
210
0.0
220
0.0
230
1.0
 70
     8
 71
     3
 72
    13
 73
     9
 74
     0
 42
0.00000001
 43
0.00000001
 40
0.0
 40
0.0
 40
0.0
 40
0.0
 40
0.1254430846231271
 40
0.2506629620679143
 40
0.4999171420598831
 40
0.749284968447191
 40
0.8745639970614896
 40
1.0
 40
1.0
 40
1.0
 40
1.0
 10
796.9769754583609
 20
601.7009259530173
 30
0.0
 10
796.9879789151346
 20
601.6729410840229
 30
0.0
 10
797.0099662496788
 20
601.6170211409169
 30
0.0
 10
797.0881450425392
 20
601.51132713187
 30
0.0
 10
797.2380035151572
 20
601.4032016022859
 30
0.0
 10
797.4204786237585
 20
601.3383169610222
 30
0.0
 10
797.5712208233188
 20
601.3195343338398
 30
0.0
 10
797.6449384888813
 20
601.321718798755
 30
0.0
 10
797.6818203992195
 20
601.3228117150667
 30
0.0
  0
SPLINE
  5
117
330
1F
100
AcDbEntity
  8
0
  6
SLD-Solid
 62
   142
420
    32960
370
     0
100
AcDbSpline
210
0.0
220
0.0
230
1.0
 70
     8
 71
     3
 72
    13
 73
     9
 74
     0
 42
0.00000001
 43
0.00000001
 40
0.0
 40
0.0
 40
0.0
 40
0.0
 40
0.1254264937544136
 40
0.2506940358654
 40
0.4999552364688458
 40
0.7492722256129298
 40
0.8745345344691259
 40
0.9999999999999999
 40
0.9999999999999999
 40
0.9999999999999999
 40
0.9999999999999999
 10
797.413576258982
 20
602.1594382568247
 30
0.0
 10
797.376733774562
 20
602.156044281246
 30
0.0
 10
797.3030954958057
 20
602.1492606312369
 30
0.0
 10
797.1690294876005
 20
602.1105224336527
 30
0.0
 10
797.0328706256107
 20
602.0247828893704
 30
0.0
 10
796.9619922324899
 20
601.8992318924021
 30
0.0
 10
796.9558414189495
 20
601.7869142602235
 30
0.0
 10
796.9699269741992
 20
601.7296042009203
 30
0.0
 10
796.9769754583609
 20
601.7009259530173
 30
0.0
  0
SPLINE
  5
118
330
1F
100
AcDbEntity
  8
0
  6
SLD-Solid
 62
   142
420
    32960
370
     0
100
AcDbSpline
210
0.0
220
0.0
230
1.0
 70
     8
 71
     3
 72
    13
 73
     9
 74
     0
 42
0.00000001
 43
0.00000001
 40
0.0
 40
0.0
 40
0.0
 40
0.0
 40
0.1254186250859426
 40
0.2506548107814361
 40
0.4999888138655151
 40
0.7492939533272612
 40
0.8745662032988094
 40
1.0
 40
1.0
 40
1.0
 40
1.0
 10
798.1331813987556
 20
601.7758316665489
 30
0.0
 10
798.1222625755763
 20
601.8044263918363
 30
0.0
 10
798.1004408122133
 20
601.8615742472792
 30
0.0
 10
798.0179824939677
 20
601.9676456222671
 30
0.0
 10
797.8674249376675
 20
602.0773069120453
 30
0.0
 10
797.6808741075613
 20
602.1432821715827
 30
0.0
 10
797.526690466938
 20
602.1625473935969
 30
0.0
 10
797.451297188617
 20
602.1604750808591
 30
0.0
 10
797.413576258982
 20
602.1594382568247
 30
0.0
  0
SPLINE
  5
119
330
1F
100
AcDbEntity
  8
0
  6
SLD-Solid
 62
   142
420
    32960
370
     0
100
AcDbSpline
210
0.0
220
0.0
230
1.0
 70
     8
 71
     3
 72
     9
 73
     5
 74
     0
 42
0.00000001
 43
0.00000001
 40
0.0
 40
0.0
 40
0.0
 40
0.0
 40
0.4969069419345977
 40
0.9999999999999999
 40
0.9999999999999999
 40
0.9999999999999999
 40
0.9999999999999999
 10
796.8014669923651
 20
600.8985789794488
 30
0.0
 10
796.4024023012681
 20
601.0193071975427
 30
0.0
 10
795.5993048650695
 20
601.2622666088645
 30
0.0
 10
794.794415967708
 20
601.4984151103063
 30
0.0
 10
794.3894819509317
 20
601.617219782054
 30
0.0
  0
SPLINE
  5
11A
330
1F
100
AcDbEntity
  8
0
  6
SLD-Solid
 62
   142
420
    32960
370
     0
100
AcDbSpline
210
0.0
220
0.0
230
1.0
 70
     8
 71
     3
 72
    13
 73
     9
 74
     0
 42
0.00000001
 43
0.00000001
 40
0.0
 40
0.0
 40
0.0
 40
0.0
 40
0.1249899061224654
 40
0.2499644126772942
 40
0.3724809068367305
 40
0.4999240967755135
 40
0.7137358362877176
 40
1.0
 40
1.0
 40
1.0
 40
1.0
 10
797.8930377421176
 20
600.6963560419332
 30
0.0
 10
797.847837964564
 20
600.6946979636851
 30
0.0
 10
797.7574439783625
 20
600.691382011475
 30
0.0
 10
797.620087016002
 20
600.700371552678
 30
0.0
 10
797.4816816789421
 20
600.718538642431
 30
0.0
 10
797.311385024552
 20
600.7530136034977
 30
0.0
 10
797.0838251712339
 20
600.8137193525613
 30
0.0
 10
796.904260406212
 20
600.86768554912
 30
0.0
 10
796.8014700958616
 20
600.8985780356943
 30
0.0
  0
SPLINE
  5
11B
330
1F
100
AcDbEntity
  8
0
  6
SLD-Solid
 62
   142
420
    32960
370
     0
100
AcDbSpline
210
0.0
220
0.0
230
1.0
 70
     8
 71
     3
 72
    16
 73
    12
 74
     0
 42
0.00000001
 43
0.00000001
 40
0.0
 40
0.0
 40
0.0
 40
0.0
 40
0.0626507922522748
 40
0.1252806213229549
 40
0.2503657415437065
 40
0.3754569779320082
 40
0.5005519515655797
 40
0.7497120075897141
 40
0.8747729394597072
 40
0.9373750112929029
 40
1.0
 40
1.0
 40
1.0
 40
1.0
 10
798.889364898083
 20
601.8347845500645
 30
0.0
 10
798.8988208141051
 20
601.8010823016684
 30
0.0
 10
798.9177294821654
 20
601.7336890817704
 30
0.0
 10
798.9391945829672
 20
601.5980830756564
 30
0.0
 10
798.9300371978081
 20
601.4300060359594
 30
0.0
 10
798.8637748704513
 20
601.2392657282975
 30
0.0
 10
798.7006964195626
 20
601.015491862969
 30
0.0
 10
798.4604688663081
 20
600.8311775097997
 30
0.0
 10
798.1897253113308
 20
600.7395101850888
 30
0.0
 10
798.0233041064877
 20
600.7072004185769
 30
0.0
 10
797.9364651608242
 20
600.6999712751315
 30
0.0
 10
797.8930377421176
 20
600.6963560419332
 30
0.0
  0
SPLINE
  5
11C
330
1F
100
AcDbEntity
  8
0
  6
SLD-Solid
 62
   142
420
    32960
370
     0
100
AcDbSpline
210
0.0
220
0.0
230
1.0
 70
     8
 71
     3
 72
    17
 73
    13
 74
     0
 42
0.00000001
 43
0.00000001
 40
0.0
 40
0.0
 40
0.0
 40
0.0
 40
0.0625676359347579
 40
0.1251154344200412
 40
0.2500603063877403
 40
0.3723532437666309
 40
0.4999350074274349
 40
0.6249101580537725
 40
0.7498785838256072
 40
0.8748454675625204
 40
0.9374147209787922
 40
1.0
 40
1.0
 40
1.0
 40
1.0
 10
797.2263650803843
 20
602.7531314181824
 30
0.0
 10
797.2702545073178
 20
602.755188981728
 30
0.0
 10
797.358019445775
 20
602.7593034564558
 30
0.0
 10
797.5371870403906
 20
602.7520791805488
 30
0.0
 10
797.7615152442868
 20
602.7211085468651
 30
0.0
 10
798.0249509570543
 20
602.6431455687687
 30
0.0
 10
798.2688555442182
 20
602.5297663765446
 30
0.0
 10
798.4892987284825
 20
602.388325087561
 30
0.0
 10
798.674396004736
 20
602.2225861241599
 30
0.0
 10
798.7872102394515
 20
602.0659067253785
 30
0.0
 10
798.8533028947064
 20
601.9351019618429
 30
0.0
 10
798.8773416072936
 20
601.8682309871389
 30
0.0
 10
798.8893625026241
 20
601.8347912184882
 30
0.0
  0
SPLINE
  5
11D
330
1F
100
AcDbEntity
  8
0
  6
SLD-Solid
 62
   142
420
    32960
370
     0
100
AcDbSpline
210
0.0
220
0.0
230
1.0
 70
     8
 71
     3
 72
    17
 73
    13
 74
     0
 42
0.00000001
 43
0.00000001
 40
0.0
 40
0.0
 40
0.0
 40
0.0
 40
0.0625898720845
 40
0.1251584348692118
 40
0.2500880473126139
 40
0.3722058205422102
 40
0.5000142366038051
 40
0.6261797773091123
 40
0.7499077458238583
 40
0.874870708202907
 40
0.9374264529672262
 40
1.0
 40
1.0
 40
1.0
 40
1.0
 10
796.1971275990442
 20
601.6877513493084
 30
0.0
 10
796.1876744181009
 20
601.7213189373869
 30
0.0
 10
796.1687712746368
 20
601.7884426851483
 30
0.0
 10
796.1495549133206
 20
601.9221029676816
 30
0.0
 10
796.1625790978737
 20
602.0840284409039
 30
0.0
 10
796.2347705066992
 20
602.2649063675514
 30
0.0
 10
796.3589571587041
 20
602.4243572536084
 30
0.0
 10
796.5249383347102
 20
602.5600737528691
 30
0.0
 10
796.7311458102845
 20
602.6616496964385
 30
0.0
 10
796.9280714406916
 20
602.7164036321262
 30
0.0
 10
797.0963094110045
 20
602.7424331026467
 30
0.0
 10
797.1830090789754
 20
602.7495649747844
 30
0.0
 10
797.2263650803843
 20
602.7531314181824
 30
0.0
  0
SPLINE
  5
11E
330
1F
100
AcDbEntity
  8
0
  6
SLD-Solid
 62
   142
420
    32960
370
     0
100
AcDbSpline
210
0.0
220
0.0
230
1.0
 70
     8
 71
     3
 72
     9
 73
     5
 74
     0
 42
0.00000001
 43
0.00000001
 40
0.0
 40
0.0
 40
0.0
 40
0.0
 40
0.502106370010322
 40
1.0
 40
1.0
 40
1.0
 40
1.0
 10
794.5637491867592
 20
602.1624141428241
 30
0.0
 10
794.8373171296982
 20
602.083749515182
 30
0.0
 10
795.382157743717
 20
601.9270802667107
 30
0.0
 10
795.9262346531531
 20
601.7673032750439
 30
0.0
 10
796.1971270805859
 20
601.687751328674
 30
0.0
  0
SPLINE
  5
11F
330
1F
100
AcDbEntity
  8
0
  6
SLD-Solid
 62
   142
420
    32960
370
     0
100
AcDbSpline
210
0.0
220
0.0
230
1.0
 70
     8
 71
     3
 72
     9
 73
     5
 74
     0
 42
0.00000001
 43
0.00000001
 40
0.0
 40
0.0
 40
0.0
 40
0.0
 40
0.5002973359052314
 40
1.0
 40
1.0
 40
1.0
 40
1.0
 10
794.3894814895864
 20
601.6172199167264
 30
0.0
 10
794.4187061753311
 20
601.7088042889698
 30
0.0
 10
794.477120809284
 20
601.8918641729041
 30
0.0
 10
794.5348845110824
 20
602.0722665795928
 30
0.0
 10
794.5637491867592
 20
602.1624141428241
 30
0.0
  0
LINE
  5
120
330
1F
100
AcDbEntity
  8
0
  6
SLD-Solid
 62
   142
420
    32960
370
     0
100
AcDbLine
 10
383.5816887929
 20
678.4465073244
 30
0.0
 11
187.3828646968
 21
678.4465073244
 31
0.0
  0
LINE
  5
121
330
1F
100
AcDbEntity
  8
0
  6
SLD-Solid
 62
   142
420
    32960
370
     0
100
AcDbLine
 10
377.0801099194
 20
686.5399398723
 30
0.0
 11
193.8844435703
 21
686.5399398723
 31
0.0
  0
LINE
  5
122
330
1F
100
AcDbEntity
  8
0
  6
SLD-Solid
 62
   142
420
    32960
370
     0
100
AcDbLine
 10
-18.9177232552
 20
481.7333724201
 30
0.0
 11
-18.9177232552
 21
485.4833724201
 31
0.0
  0
LINE
  5
123
330
1F
100
AcDbEntity
  8
0
  6
SLD-Solid
 62
     7
370
    15
100
AcDbLine
 10
-18.9177232552
 20
476.7333724201
 30
0.0
 11
-18.9177232552
 21
481.7333724201
 31
0.0
  0
LINE
  5
124
330
1F
100
AcDbEntity
  8
0
  6
SLD-Solid
 62
     7
370
    15
100
AcDbLine
 10
-18.9177232552
 20
476.7333724201
 30
0.0
 11
-18.1177232552
 21
476.7333724201
 31
0.0
  0
LINE
  5
125
330
1F
100
AcDbEntity
  8
0
  6
SLD-Solid
 62
   142
420
    32960
370
     0
100
AcDbLine
 10
-18.1177232552
 20
476.7333724201
 30
0.0
 11
-18.1177232552
 21
481.7333724201
 31
0.0
  0
LINE
  5
126
330
1F
100
AcDbEntity
  8
0
  6
SLD-Solid
 62
   142
420
    32960
370
     0
100
AcDbLine
 10
-18.9177232552
 20
481.7333724201
 30
0.0
 11
-18.1177232552
 21
481.7333724201
 31
0.0
  0
ARC
  5
127
330
1F
100
AcDbEntity
  8
0
  6
SLD-Solid
 62
   142
420
    32960
370
     0
100
AcDbCircle
 10
-16.8677232552
 20
485.4833724201
 30
0.0
 40
2.050000000000182
100
AcDbArc
 50
90.0
 51
180.0
  0
LINE
  5
128
330
1F
100
AcDbEntity
  8
0
  6
SLD-Solid
 62
     7
370
    15
100
AcDbLine
 10
819.4121595768
 20
606.4162818358
 30
0.0
 11
819.7760205617
 21
605.2964328728
 31
0.0
  0
LINE
  5
129
330
1F
100
AcDbEntity
  8
0
  6
SLD-Solid
 62
   142
420
    32960
370
     0
100
AcDbLine
 10
830.5605385763
 20
575.3411673003
 30
0.0
 11
830.2729371443
 21
576.226313493
 31
0.0
  0
LINE
  5
12A
330
1F
100
AcDbEntity
  8
0
  6
SLD-Solid
 62
   142
420
    32960
370
     0
100
AcDbLine
 10
820.7848405324
 20
605.4276722345
 30
0.0
 11
820.4529835319
 21
606.4490230617
 31
0.0
  0
LINE
  5
12B
330
1F
100
AcDbEntity
  8
0
  6
SLD-Solid
 62
     7
370
    15
100
AcDbLine
 10
40.9356947574
 20
13.3409504635
 30
0.0
 11
36.6288587321
 21
13.3409504635
 31
0.0
  0
SPLINE
  5
12C
330
1F
100
AcDbEntity
  8
0
  6
SLD-Solid
 62
   142
420
    32960
370
     0
100
AcDbSpline
210
0.0
220
0.0
230
1.0
 70
     8
 71
     3
 72
     8
 73
     4
 74
     0
 42
0.00000001
 43
0.00000001
 40
0.0
 40
0.0
 40
0.0
 40
0.0
 40
1.0
 40
1.0
 40
1.0
 40
1.0
 10
36.62885873213051
 20
13.34095046349365
 30
0.0
 10
36.35621434277936
 20
12.47120843486357
 30
0.0
 10
36.182276744746
 20
11.58840826085514
 30
0.0
 10
36.182276744746
 20
10.68259748735739
 30
0.0
  0
SPLINE
  5
12D
330
1F
100
AcDbEntity
  8
0
  6
SLD-Solid
 62
   142
420
    32960
370
     0
100
AcDbSpline
210
0.0
220
0.0
230
1.0
 70
     8
 71
     3
 72
    12
 73
     8
 74
     0
 42
0.00000001
 43
0.00000001
 40
0.0
 40
0.0
 40
0.0
 40
0.0
 40
0.2500000000000088
 40
0.2500000000000088
 40
0.5000000000000175
 40
0.5000000000000175
 40
1.0
 40
1.0
 40
1.0
 40
1.0
 10
36.182276744746
 20
10.68259748735739
 30
0.0
 10
36.18227674474595
 20
10.45699121135874
 30
0.0
 10
36.19283230526948
 20
10.23037363881735
 30
0.0
 10
36.23368103182983
 20
9.78207669478362
 30
0.0
 10
36.26393494186958
 20
9.55942759829992
 30
0.0
 10
36.3806210671182
 20
8.8954347540246
 30
0.0
 10
36.49287680484503
 20
8.458030064542655
 30
0.0
 10
36.62885873213084
 20
8.024244511221134
 30
0.0
  0
LINE
  5
12E
330
1F
100
AcDbEntity
  8
0
  6
SLD-Solid
 62
   142
420
    32960
370
     0
100
AcDbLine
 10
40.9356947574
 20
8.0242445112
 30
0.0
 11
36.6288587321
 21
8.0242445112
 31
0.0
  0
SPLINE
  5
12F
330
1F
100
AcDbEntity
  8
0
  6
SLD-Solid
 62
   142
420
    32960
370
     0
100
AcDbSpline
210
0.0
220
0.0
230
1.0
 70
     8
 71
     3
 72
    12
 73
     8
 74
     0
 42
0.00000001
 43
0.00000001
 40
0.0
 40
0.0
 40
0.0
 40
0.0
 40
0.2500000000000088
 40
0.2500000000000088
 40
0.5000000000000175
 40
0.5000000000000175
 40
1.0
 40
1.0
 40
1.0
 40
1.0
 10
41.38227674474598
 20
10.68259748735739
 30
0.0
 10
41.38227674474604
 20
10.45699121135876
 30
0.0
 10
41.37172118422266
 20
10.23037363881737
 30
0.0
 10
41.33087245766215
 20
9.782076694783592
 30
0.0
 10
41.30061854762218
 20
9.55942759829989
 30
0.0
 10
41.18393242237373
 20
8.8954347540246
 30
0.0
 10
41.07167668464712
 20
8.458030064542655
 30
0.0
 10
40.93569475736114
 20
8.024244511221191
 30
0.0
  0
SPLINE
  5
130
330
1F
100
AcDbEntity
  8
0
  6
SLD-Solid
 62
   142
420
    32960
370
     0
100
AcDbSpline
210
0.0
220
0.0
230
1.0
 70
     8
 71
     3
 72
     8
 73
     4
 74
     0
 42
0.00000001
 43
0.00000001
 40
0.0
 40
0.0
 40
0.0
 40
0.0
 40
1.0
 40
1.0
 40
1.0
 40
1.0
 10
40.93569475736147
 20
13.34095046349365
 30
0.0
 10
41.20833914671262
 20
12.47120843486357
 30
0.0
 10
41.38227674474598
 20
11.58840826085511
 30
0.0
 10
41.38227674474598
 20
10.68259748735739
 30
0.0
  0
LINE
  5
131
330
1F
100
AcDbEntity
  8
0
  6
SLD-Solid
 62
     7
370
    15
100
AcDbLine
 10
36.1822767447
 20
5.7204554895
 30
0.0
 11
36.1822767447
 21
3.7335231264
 31
0.0
  0
LINE
  5
132
330
1F
100
AcDbEntity
  8
0
  6
SLD-Solid
 62
   142
420
    32960
370
     0
100
AcDbLine
 10
36.1822767447
 20
5.7204554895
 30
0.0
 11
36.1822767447
 21
10.6825974874
 31
0.0
  0
LINE
  5
133
330
1F
100
AcDbEntity
  8
0
  6
SLD-Solid
 62
   142
420
    32960
370
     0
100
AcDbLine
 10
36.1822767447
 20
10.6825974874
 30
0.0
 11
36.1822767447
 21
13.6955144179
 31
0.0
  0
SPLINE
  5
134
330
1F
100
AcDbEntity
  8
0
  6
SLD-Solid
 62
     7
370
    15
100
AcDbSpline
210
0.0
220
0.0
230
1.0
 70
     8
 71
     3
 72
     8
 73
     4
 74
     0
 42
0.00000001
 43
0.00000001
 40
0.0
 40
0.0
 40
0.0
 40
0.0
 40
1.0
 40
1.0
 40
1.0
 40
1.0
 10
36.62885873213051
 20
3.416666467832952
 30
0.0
 10
36.35621434277936
 20
3.532670315246733
 30
0.0
 10
36.182276744746
 20
3.65041582289316
 30
0.0
 10
36.182276744746
 20
3.771230422275007
 30
0.0
  0
SPLINE
  5
135
330
1F
100
AcDbEntity
  8
0
  6
SLD-Solid
 62
   142
420
    32960
370
     0
100
AcDbSpline
210
0.0
220
0.0
230
1.0
 70
     8
 71
     3
 72
    10
 73
     6
 74
     0
 42
0.00000001
 43
0.00000001
 40
0.0
 40
0.0
 40
0.0
 40
0.0
 40
0.5
 40
0.5
 40
1.0
 40
1.0
 40
1.0
 40
1.0
 10
36.62885873213118
 20
3.416666467832952
 30
0.0
 10
36.49332381682374
 20
3.791359087762458
 30
0.0
 10
36.37964591799086
 20
4.175117835886866
 30
0.0
 10
36.2242071835982
 20
4.944372780003703
 30
0.0
 10
36.182276744746
 20
5.331153032224368
 30
0.0
 10
36.182276744746
 20
5.720455489527043
 30
0.0
  0
SPLINE
  5
136
330
1F
100
AcDbEntity
  8
0
  6
SLD-Solid
 62
     7
370
    15
100
AcDbSpline
210
0.0
220
0.0
230
1.0
 70
     8
 71
     3
 72
     8
 73
     4
 74
     0
 42
0.00000001
 43
0.00000001
 40
0.0
 40
0.0
 40
0.0
 40
0.0
 40
1.0
 40
1.0
 40
1.0
 40
1.0
 10
36.62885873213051
 20
14.0500783723777
 30
0.0
 10
36.35621434277936
 20
13.93407452496398
 30
0.0
 10
36.182276744746
 20
13.81632901731752
 30
0.0
 10
36.182276744746
 20
13.69551441793562
 30
0.0
  0
LINE
  5
137
330
1F
100
AcDbEntity
  8
0
  6
SLD-Solid
 62
   142
420
    32960
370
     0
100
AcDbLine
 10
40.9356947574
 20
14.0500783724
 30
0.0
 11
36.6288587321
 21
14.0500783724
 31
0.0
  0
SPLINE
  5
138
330
1F
100
AcDbEntity
  8
0
  6
SLD-Solid
 62
   142
420
    32960
370
     0
100
AcDbSpline
210
0.0
220
0.0
230
1.0
 70
     8
 71
     3
 72
    12
 73
     8
 74
     0
 42
0.00000001
 43
0.00000001
 40
0.0
 40
0.0
 40
0.0
 40
0.0
 40
0.2500000000000148
 40
0.2500000000000148
 40
0.5000000000000296
 40
0.5000000000000296
 40
1.0
 40
1.0
 40
1.0
 40
1.0
 10
36.182276744746
 20
13.69551441793562
 30
0.0
 10
36.18227674474595
 20
13.66542366095824
 30
0.0
 10
36.19283230526943
 20
13.6351980199739
 30
0.0
 10
36.23368103182989
 20
13.57540538195032
 30
0.0
 10
36.26393494186975
 20
13.54570904560573
 30
0.0
 10
36.38062106711815
 20
13.45714746981011
 30
0.0
 10
36.49287680484492
 20
13.39880761133894
 30
0.0
 10
36.62885873213084
 20
13.34095046349357
 30
0.0
  0
SPLINE
  5
139
330
1F
100
AcDbEntity
  8
0
  6
SLD-Solid
 62
   142
420
    32960
370
     0
100
AcDbSpline
210
0.0
220
0.0
230
1.0
 70
     8
 71
     3
 72
    12
 73
     8
 74
     0
 42
0.00000001
 43
0.00000001
 40
0.0
 40
0.0
 40
0.0
 40
0.0
 40
0.2500000000000148
 40
0.2500000000000148
 40
0.5000000000000296
 40
0.5000000000000296
 40
1.0
 40
1.0
 40
1.0
 40
1.0
 10
41.38227674474598
 20
13.69551441793562
 30
0.0
 10
41.38227674474604
 20
13.66542366095824
 30
0.0
 10
41.37172118422266
 20
13.6351980199739
 30
0.0
 10
41.33087245766215
 20
13.57540538195032
 30
0.0
 10
41.30061854762207
 20
13.54570904560573
 30
0.0
 10
41.18393242237378
 20
13.45714746981011
 30
0.0
 10
41.07167668464701
 20
13.39880761133894
 30
0.0
 10
40.93569475736114
 20
13.34095046349357
 30
0.0
  0
SPLINE
  5
13A
330
1F
100
AcDbEntity
  8
0
  6
SLD-Solid
 62
   142
420
    32960
370
     0
100
AcDbSpline
210
0.0
220
0.0
230
1.0
 70
     8
 71
     3
 72
     8
 73
     4
 74
     0
 42
0.00000001
 43
0.00000001
 40
0.0
 40
0.0
 40
0.0
 40
0.0
 40
1.0
 40
1.0
 40
1.0
 40
1.0
 10
40.93569475736147
 20
14.0500783723777
 30
0.0
 10
41.20833914671262
 20
13.93407452496398
 30
0.0
 10
41.38227674474598
 20
13.81632901731752
 30
0.0
 10
41.38227674474598
 20
13.69551441793562
 30
0.0
  0
LINE
  5
13B
330
1F
100
AcDbEntity
  8
0
  6
SLD-Solid
 62
     7
370
    15
100
AcDbLine
 10
37.2322767447
 20
4.1257943767
 30
0.0
 11
36.6288587321
 21
4.1257943767
 31
0.0
  0
LINE
  5
13C
330
1F
100
AcDbEntity
  8
0
  6
SLD-Solid
 62
   142
420
    32960
370
     0
100
AcDbLine
 10
40.9356947574
 20
3.4166664678
 30
0.0
 11
36.9832008309
 21
3.4166664678
 31
0.0
  0
LINE
  5
13D
330
1F
100
AcDbEntity
  8
0
  6
SLD-Solid
 62
   142
420
    32960
370
     0
100
AcDbLine
 10
36.9822767447
 20
3.4166664678
 30
0.0
 11
36.6288587321
 21
3.4166664678
 31
0.0
  0
LINE
  5
13E
330
1F
100
AcDbEntity
  8
0
  6
SLD-Solid
 62
   142
420
    32960
370
     0
100
AcDbLine
 10
40.9356947574
 20
3.4166664678
 30
0.0
 11
41.1534872489
 21
3.589582907
 31
0.0
  0
SPLINE
  5
13F
330
1F
100
AcDbEntity
  8
0
  6
SLD-Solid
 62
   142
420
    32960
370
     0
100
AcDbSpline
210
0.0
220
0.0
230
1.0
 70
     8
 71
     3
 72
     9
 73
     5
 74
     0
 42
0.00000001
 43
0.00000001
 40
0.0
 40
0.0
 40
0.0
 40
0.0
 40
0.3638572527450221
 40
1.0
 40
1.0
 40
1.0
 40
1.0
 10
36.182276744746
 20
11.74628935068359
 30
0.0
 10
36.1870709249999
 20
11.95594352856952
 30
0.0
 10
36.20024691700701
 20
12.53214250853832
 30
0.0
 10
36.37228767483946
 20
13.09316377297065
 30
0.0
 10
36.48173015516687
 20
13.45005338139504
 30
0.0
  0
LINE
  5
140
330
1F
100
AcDbEntity
  8
0
  6
SLD-Solid
 62
   142
420
    32960
370
     0
100
AcDbLine
 10
36.6288587321
 20
4.1257943767
 30
0.0
 11
36.324642488
 21
5.9366917726
 31
0.0
  0
SPLINE
  5
141
330
1F
100
AcDbEntity
  8
0
  6
SLD-Solid
 62
   142
420
    32960
370
     0
100
AcDbSpline
210
0.0
220
0.0
230
1.0
 70
     8
 71
     3
 72
     9
 73
     5
 74
     0
 42
0.00000001
 43
0.00000001
 40
0.0
 40
0.0
 40
0.0
 40
0.0
 40
0.0957726906216451
 40
1.0
 40
1.0
 40
1.0
 40
1.0
 10
41.38227674474598
 20
6.784147352853265
 30
0.0
 10
41.38196319309628
 20
6.847176817249334
 30
0.0
 10
41.3786892780818
 20
7.505292027200738
 30
0.0
 10
41.21303236343388
 20
8.150215239285941
 30
0.0
 10
41.06324085722179
 20
8.733372420105356
 30
0.0
  0
SPLINE
  5
142
330
1F
100
AcDbEntity
  8
0
  6
SLD-Solid
 62
   142
420
    32960
370
     0
100
AcDbSpline
210
0.0
220
0.0
230
1.0
 70
     8
 71
     3
 72
     8
 73
     4
 74
     0
 42
0.00000001
 43
0.00000001
 40
0.0
 40
0.0
 40
0.0
 40
0.0
 40
1.0
 40
1.0
 40
1.0
 40
1.0
 10
40.93569475736147
 20
4.125794376717007
 30
0.0
 10
41.20833914671262
 20
4.995536405347112
 30
0.0
 10
41.38227674474598
 20
5.878336579355548
 30
0.0
 10
41.38227674474598
 20
6.784147352853265
 30
0.0
  0
LINE
  5
143
330
1F
100
AcDbEntity
  8
0
  6
SLD-Solid
 62
   142
420
    32960
370
     0
100
AcDbLine
 10
790.0649637582
 20
612.4452271291
 30
0.0
 11
789.925167807
 21
612.4645189366
 31
0.0
  0
LINE
  5
144
330
1F
100
AcDbEntity
  8
0
  6
SLD-Solid
 62
   142
420
    32960
370
     0
100
AcDbLine
 10
791.6842361811
 20
612.2641154656
 30
0.0
 11
792.4149352817
 21
612.2042570991
 31
0.0
  0
LINE
  5
145
330
1F
100
AcDbEntity
  8
0
  6
SLD-Solid
 62
     7
370
    15
100
AcDbLine
 10
820.7726067248
 20
503.5291827315
 30
0.0
 11
782.371103419
 21
621.7168572586
 31
0.0
  0
LINE
  5
146
330
1F
100
AcDbEntity
  8
0
  6
SLD-Solid
 62
   142
420
    32960
370
     0
100
AcDbLine
 10
781.9747356314
 20
622.936751873
 30
0.0
 11
782.371103419
 21
621.7168572586
 31
0.0
  0
LINE
  5
147
330
1F
100
AcDbEntity
  8
0
  6
SLD-Solid
 62
   142
420
    32960
370
     0
100
AcDbLine
 10
781.2138904184
 20
622.6895382775
 30
0.0
 11
781.610258206
 21
621.4696436631
 31
0.0
  0
LINE
  5
148
330
1F
100
AcDbEntity
  8
0
  6
SLD-Solid
 62
     7
370
    15
100
AcDbLine
 10
820.0117615118
 20
503.281969136
 30
0.0
 11
781.610258206
 21
621.4696436631
 31
0.0
  0
LINE
  5
149
330
1F
100
AcDbEntity
  8
0
  6
SLD-Solid
 62
   142
420
    32960
370
     0
100
AcDbLine
 10
820.0117615118
 20
503.281969136
 30
0.0
 11
820.7726067248
 21
503.5291827315
 31
0.0
  0
LINE
  5
14A
330
1F
100
AcDbEntity
  8
0
  6
SLD-Solid
 62
   142
420
    32960
370
     0
100
AcDbLine
 10
781.610258206
 20
621.4696436631
 30
0.0
 11
782.371103419
 21
621.7168572586
 31
0.0
  0
ARC
  5
14B
330
1F
100
AcDbEntity
  8
0
  6
SLD-Solid
 62
   142
420
    32960
370
     0
100
AcDbCircle
 10
818.8229408664
 20
502.895697893
 30
0.0
 40
2.050000000000054
100
AcDbArc
 50
270.0
 51
18.0
  0
LINE
  5
14C
330
1F
100
AcDbEntity
  8
0
  6
SLD-Solid
 62
     7
370
    15
100
AcDbLine
 10
764.1822767447
 20
500.845697893
 30
0.0
 11
818.8229408664
 21
500.845697893
 31
0.0
  0
LINE
  5
14D
330
1F
100
AcDbEntity
  8
0
  6
SLD-Solid
 62
   142
420
    32960
370
     0
100
AcDbLine
 10
764.1822767447
 20
501.645697893
 30
0.0
 11
818.8229408664
 21
501.645697893
 31
0.0
  0
LINE
  5
14E
330
1F
100
AcDbEntity
  8
0
  6
SLD-Solid
 62
   142
420
    32960
370
     0
100
AcDbLine
 10
764.1822767447
 20
501.645697893
 30
0.0
 11
764.1822767447
 21
500.845697893
 31
0.0
  0
LINE
  5
14F
330
1F
100
AcDbEntity
  8
0
  6
SLD-Solid
 62
   142
420
    32960
370
     0
100
AcDbLine
 10
818.8229408664
 20
500.845697893
 30
0.0
 11
818.8229408664
 21
501.645697893
 31
0.0
  0
LINE
  5
150
330
1F
100
AcDbEntity
  8
0
  6
SLD-Solid
 62
   142
420
    32960
370
     0
100
AcDbLine
 10
764.1822767447
 20
500.845697893
 30
0.0
 11
762.1822767447
 21
500.845697893
 31
0.0
  0
LWPOLYLINE
  5
151
330
1F
100
AcDbEntity
  8
0
  6
SLD-Solid
 62
   142
420
    32960
370
     0
100
AcDbPolyline
 90
        3
 70
   128
 43
0.0
 10
782.6264301726
 20
624.4517372287
 10
782.4555484807
 20
624.3531808518
 10
782.3764301726
 20
624.2940702292
  0
LINE
  5
152
330
1F
100
AcDbEntity
  8
0
  6
SLD-Solid
 62
   142
420
    32960
370
     0
100
AcDbLine
 10
781.928026992
 20
623.1333724201
 30
0.0
 11
781.9747356314
 21
622.936751873
 31
0.0
  0
LINE
  5
153
330
1F
100
AcDbEntity
  8
0
  6
SLD-Solid
 62
   142
420
    32960
370
     0
100
AcDbLine
 10
783.1563369862
 20
624.672485554
 30
0.0
 11
782.3764301726
 21
623.1418322482
 31
0.0
  0
LINE
  5
154
330
1F
100
AcDbEntity
  8
0
  6
SLD-Solid
 62
   142
420
    32960
370
     0
100
AcDbLine
 10
782.3721196749
 20
623.1333724201
 30
0.0
 11
782.3255222114
 21
623.0419197487
 31
0.0
  0
ARC
  5
155
330
1F
100
AcDbEntity
  8
0
  6
SLD-Solid
 62
   142
420
    32960
370
     0
100
AcDbCircle
 10
783.4392803666
 20
622.4744316241
 30
0.0
 40
1.249999999999823
100
AcDbArc
 50
153.0
 51
198.0
  0
LINE
  5
156
330
1F
100
AcDbEntity
  8
0
  6
SLD-Solid
 62
   142
420
    32960
370
     0
100
AcDbLine
 10
821.1822767447
 20
53.6333724209
 30
0.0
 11
822.7822767447
 21
53.6333724209
 31
0.0
  0
LINE
  5
157
330
1F
100
AcDbEntity
  8
0
  6
SLD-Solid
 62
     7
370
    15
100
AcDbLine
 10
799.6596525085
 20
607.3409900743
 30
0.0
 11
798.1763024309
 21
611.9062721879
 31
0.0
  0
LINE
  5
158
330
1F
100
AcDbEntity
  8
0
  6
SLD-Solid
 62
     7
370
    15
100
AcDbLine
 10
815.7902711103
 20
557.696050759
 30
0.0
 11
814.3069210327
 21
562.2613328726
 31
0.0
  0
SPLINE
  5
159
330
1F
100
AcDbEntity
  8
0
  6
SLD-Solid
 62
   142
420
    32960
370
     0
100
AcDbSpline
210
0.0
220
0.0
230
1.0
 70
     8
 71
     3
 72
     8
 73
     4
 74
     0
 42
0.00000001
 43
0.00000001
 40
0.0
 40
0.0
 40
0.0
 40
0.0
 40
1.0
 40
1.0
 40
1.0
 40
1.0
 10
812.5997726909006
 20
559.234358249933
 30
0.0
 10
812.3607102813394
 20
559.048801860381
 30
0.0
 10
812.1216551516055
 20
558.8632230658244
 30
0.0
 10
811.8826072919217
 20
558.677621896354
 30
0.0
  0
SPLINE
  5
15A
330
1F
100
AcDbEntity
  8
0
  6
SLD-Solid
 62
   142
420
    32960
370
     0
100
AcDbSpline
210
0.0
220
0.0
230
1.0
 70
     8
 71
     3
 72
     9
 73
     5
 74
     0
 42
0.00000001
 43
0.00000001
 40
0.0
 40
0.0
 40
0.0
 40
0.0
 40
0.4999955739392669
 40
1.0
 40
1.0
 40
1.0
 40
1.0
 10
812.7244060009549
 20
558.8761466721453
 30
0.0
 10
812.7044667220574
 20
558.9349326749929
 30
0.0
 10
812.6645878112498
 20
559.0525057214588
 30
0.0
 10
812.621383073531
 20
559.1737444311589
 30
0.0
 10
812.5997805134448
 20
559.234364322619
 30
0.0
  0
LINE
  5
15B
330
1F
100
AcDbEntity
  8
0
  6
SLD-Solid
 62
   142
420
    32960
370
     0
100
AcDbLine
 10
812.724406001
 20
558.8761466721
 30
0.0
 11
812.0071017513
 21
558.3195631601
 31
0.0
  0
SPLINE
  5
15C
330
1F
100
AcDbEntity
  8
0
  6
SLD-Solid
 62
   142
420
    32960
370
     0
100
AcDbSpline
210
0.0
220
0.0
230
1.0
 70
     8
 71
     3
 72
    11
 73
     7
 74
     0
 42
0.00000001
 43
0.00000001
 40
0.0
 40
0.0
 40
0.0
 40
0.0
 40
0.2500151131446705
 40
0.5000078356072698
 40
0.7499966392901822
 40
1.0
 40
1.0
 40
1.0
 40
1.0
 10
812.2465189492673
 20
557.5372963332021
 30
0.0
 10
812.2291764214115
 20
557.5995553375363
 30
0.0
 10
812.1944929188503
 20
557.7240677704549
 30
0.0
 10
812.1365822322355
 20
557.9174729326961
 30
0.0
 10
812.0747608587415
 20
558.1152594772702
 30
0.0
 10
812.029650008901
 20
558.2514565631427
 30
0.0
 10
812.0070939272905
 20
558.3195570887345
 30
0.0
  0
SPLINE
  5
15D
330
1F
100
AcDbEntity
  8
0
  6
SLD-Solid
 62
   142
420
    32960
370
     0
100
AcDbSpline
210
0.0
220
0.0
230
1.0
 70
     8
 71
     3
 72
     8
 73
     4
 74
     0
 42
0.00000001
 43
0.00000001
 40
0.0
 40
0.0
 40
0.0
 40
0.0
 40
1.0
 40
1.0
 40
1.0
 40
1.0
 10
811.6325884938378
 20
557.0601522512691
 30
0.0
 10
811.8372381433547
 20
557.2191813065886
 30
0.0
 10
812.0418816250578
 20
557.3782293444866
 30
0.0
 10
812.2465189492673
 20
557.5372963332021
 30
0.0
  0
SPLINE
  5
15E
330
1F
100
AcDbEntity
  8
0
  6
SLD-Solid
 62
   142
420
    32960
370
     0
100
AcDbSpline
210
0.0
220
0.0
230
1.0
 70
     8
 71
     3
 72
    11
 73
     7
 74
     0
 42
0.00000001
 43
0.00000001
 40
0.0
 40
0.0
 40
0.0
 40
0.0
 40
0.2528456380631587
 40
0.5037920205482155
 40
0.7528423195117129
 40
1.0
 40
1.0
 40
1.0
 40
1.0
 10
809.1469367304645
 20
556.0899966804423
 30
0.0
 10
809.3589716919065
 20
556.1689227736613
 30
0.0
 10
809.7814489095085
 20
556.3261821050119
 30
0.0
 10
810.4071708327223
 20
556.5674283155457
 30
0.0
 10
811.0243593839522
 20
556.8111203324711
 30
0.0
 10
811.4303616435728
 20
556.9773529578194
 30
0.0
 10
811.6325884938378
 20
557.0601522512691
 30
0.0
  0
SPLINE
  5
15F
330
1F
100
AcDbEntity
  8
0
  6
SLD-Solid
 62
   142
420
    32960
370
     0
100
AcDbSpline
210
0.0
220
0.0
230
1.0
 70
     8
 71
     3
 72
     9
 73
     5
 74
     0
 42
0.00000001
 43
0.00000001
 40
0.0
 40
0.0
 40
0.0
 40
0.0
 40
0.5000039696612131
 40
1.0
 40
1.0
 40
1.0
 40
1.0
 10
809.0204731607092
 20
556.4551702209591
 30
0.0
 10
809.0423717305664
 20
556.3934018263379
 30
0.0
 10
809.0861685225635
 20
556.2698660178862
 30
0.0
 10
809.1266807683775
 20
556.1499528089138
 30
0.0
 10
809.1469367304644
 20
556.0899966804423
 30
0.0
  0
SPLINE
  5
160
330
1F
100
AcDbEntity
  8
0
  6
SLD-Solid
 62
   142
420
    32960
370
     0
100
AcDbSpline
210
0.0
220
0.0
230
1.0
 70
     8
 71
     3
 72
     8
 73
     4
 74
     0
 42
0.00000001
 43
0.00000001
 40
0.0
 40
0.0
 40
0.0
 40
0.0
 40
1.0
 40
1.0
 40
1.0
 40
1.0
 10
811.2686012304073
 20
558.20056650517
 30
0.0
 10
810.5191577281204
 20
557.618975422941
 30
0.0
 10
809.7697817945619
 20
557.0371763855482
 30
0.0
 10
809.0204731607092
 20
556.4551702209591
 30
0.0
  0
SPLINE
  5
161
330
1F
100
AcDbEntity
  8
0
  6
SLD-Solid
 62
   142
420
    32960
370
     0
100
AcDbSpline
210
0.0
220
0.0
230
1.0
 70
     8
 71
     3
 72
     8
 73
     4
 74
     0
 42
0.00000001
 43
0.00000001
 40
0.0
 40
0.0
 40
0.0
 40
0.0
 40
1.0
 40
1.0
 40
1.0
 40
1.0
 10
811.2047548328884
 20
558.3774011028208
 30
0.0
 10
811.226278122156
 20
558.3177140327431
 30
0.0
 10
811.247560808082
 20
558.2587674636088
 30
0.0
 10
811.2686012304073
 20
558.20056650517
 30
0.0
  0
SPLINE
  5
162
330
1F
100
AcDbEntity
  8
0
  6
SLD-Solid
 62
   142
420
    32960
370
     0
100
AcDbSpline
210
0.0
220
0.0
230
1.0
 70
     8
 71
     3
 72
     8
 73
     4
 74
     0
 42
0.00000001
 43
0.00000001
 40
0.0
 40
0.0
 40
0.0
 40
0.0
 40
1.0
 40
1.0
 40
1.0
 40
1.0
 10
811.8186549275257
 20
558.8545723033034
 30
0.0
 10
811.6140141635957
 20
558.6955380084136
 30
0.0
 10
811.409380802556
 20
558.5364809297697
 30
0.0
 10
811.2047548328884
 20
558.3774011028208
 30
0.0
  0
SPLINE
  5
163
330
1F
100
AcDbEntity
  8
0
  6
SLD-Solid
 62
   142
420
    32960
370
     0
100
AcDbSpline
210
0.0
220
0.0
230
1.0
 70
     8
 71
     3
 72
     8
 73
     4
 74
     0
 42
0.00000001
 43
0.00000001
 40
0.0
 40
0.0
 40
0.0
 40
0.0
 40
1.0
 40
1.0
 40
1.0
 40
1.0
 10
811.8826072919215
 20
558.677621896354
 30
0.0
 10
811.861533872914
 20
558.7358543004007
 30
0.0
 10
811.8402158535027
 20
558.794839507083
 30
0.0
 10
811.8186549275257
 20
558.8545723033034
 30
0.0
  0
SPLINE
  5
164
330
1F
100
AcDbEntity
  8
0
  6
SLD-Solid
 62
   142
420
    32960
370
     0
100
AcDbSpline
210
0.0
220
0.0
230
1.0
 70
     8
 71
     3
 72
     9
 73
     5
 74
     0
 42
0.00000001
 43
0.00000001
 40
0.0
 40
0.0
 40
0.0
 40
0.0
 40
0.7172292863117609
 40
1.0
 40
1.0
 40
1.0
 40
1.0
 10
809.3315814681338
 20
556.7277103724473
 30
0.0
 10
809.2493816163246
 20
556.5836524176156
 30
0.0
 10
809.1347741213746
 20
556.3827989979612
 30
0.0
 10
809.1427544581303
 20
556.2483649921453
 30
0.0
 10
809.1450110636501
 20
556.2103509923766
 30
0.0
  0
SPLINE
  5
165
330
1F
100
AcDbEntity
  8
0
  6
SLD-Solid
 62
   142
420
    32960
370
     0
100
AcDbSpline
210
0.0
220
0.0
230
1.0
 70
     8
 71
     3
 72
    18
 73
    14
 74
     0
 42
0.00000001
 43
0.00000001
 40
0.0
 40
0.0
 40
0.0
 40
0.0
 40
0.062545769208746
 40
0.1250799684438639
 40
0.2500402054669615
 40
0.3749579694246996
 40
0.4999189686768878
 40
0.562451670392224
 40
0.6249777403764821
 40
0.7499527049293766
 40
0.874921648455097
 40
0.9374548383199934
 40
1.0
 40
1.0
 40
1.0
 40
1.0
 10
811.8611620770506
 20
557.3497319803666
 30
0.0
 10
811.8359426797399
 20
557.330785789177
 30
0.0
 10
811.7855085503061
 20
557.2928969115411
 30
0.0
 10
811.6842077870702
 20
557.2214624596063
 30
0.0
 10
811.5574796772165
 20
557.1402489803722
 30
0.0
 10
811.4109491588797
 20
557.0640447550503
 30
0.0
 10
811.295483607188
 20
557.0163119953497
 30
0.0
 10
811.2105080346497
 20
556.9911621787713
 30
0.0
 10
811.1294172420279
 20
556.9723465709595
 30
0.0
 10
811.040212223259
 20
556.9666751273936
 30
0.0
 10
810.964737265825
 20
556.978312171482
 30
0.0
 10
810.9138751169842
 20
556.9984365951373
 30
0.0
 10
810.8920500336438
 20
557.0123881577764
 30
0.0
 10
810.8811364474849
 20
557.0193646067796
 30
0.0
  0
SPLINE
  5
166
330
1F
100
AcDbEntity
  8
0
  6
SLD-Solid
 62
   142
420
    32960
370
     0
100
AcDbSpline
210
0.0
220
0.0
230
1.0
 70
     8
 71
     3
 72
    15
 73
    11
 74
     0
 42
0.00000001
 43
0.00000001
 40
0.0
 40
0.0
 40
0.0
 40
0.0
 40
0.0835339649062859
 40
0.1662993711381191
 40
0.2492890870933421
 40
0.3334868898303295
 40
0.4999394943540584
 40
0.666555028874668
 40
0.8332170716211161
 40
0.9999999999999999
 40
0.9999999999999999
 40
0.9999999999999999
 40
0.9999999999999999
 10
812.1385579436529
 20
558.4615275429715
 30
0.0
 10
812.1290577556858
 20
558.4655476027181
 30
0.0
 10
812.1101447867347
 20
558.4735507354386
 30
0.0
 10
812.0756267565689
 20
558.4788905562215
 30
0.0
 10
812.0368840795045
 20
558.4790964246317
 30
0.0
 10
811.979962093127
 20
558.4722343812372
 30
0.0
 10
811.8997755008511
 20
558.4498609621951
 30
0.0
 10
811.7950539128387
 20
558.4029405957253
 30
0.0
 10
811.6871130831794
 20
558.3437735237069
 30
0.0
 10
811.6145621090411
 20
558.2975241106909
 30
0.0
 10
811.5782734708209
 20
558.2743910206567
 30
0.0
  0
SPLINE
  5
167
330
1F
100
AcDbEntity
  8
0
  6
SLD-Solid
 62
   142
420
    32960
370
     0
100
AcDbSpline
210
0.0
220
0.0
230
1.0
 70
     8
 71
     3
 72
    16
 73
    12
 74
     0
 42
0.00000001
 43
0.00000001
 40
0.0
 40
0.0
 40
0.0
 40
0.0
 40
0.1251550241341826
 40
0.2502776384447682
 40
0.3753266900138069
 40
0.5003123172052001
 40
0.6252569473066901
 40
0.7501103526638342
 40
0.8749032999777823
 40
0.9374290942461785
 40
1.0
 40
1.0
 40
1.0
 40
1.0
 10
811.0760664078755
 20
557.6865515082563
 30
0.0
 10
811.085313402142
 20
557.6623486409213
 30
0.0
 10
811.1038049960972
 20
557.6139491737641
 30
0.0
 10
811.1453110617937
 20
557.5539150930578
 30
0.0
 10
811.2035025115978
 20
557.5102349776832
 30
0.0
 10
811.2789929503986
 20
557.4848535667198
 30
0.0
 10
811.3800842124299
 20
557.4909982392768
 30
0.0
 10
811.497451072466
 20
557.5218931151813
 30
0.0
 10
811.6101605735921
 20
557.5768647298511
 30
0.0
 10
811.7029654073389
 20
557.6362327050049
 30
0.0
 10
811.7491358862177
 20
557.6703407213557
 30
0.0
 10
811.7722294504923
 20
557.6874008794266
 30
0.0
  0
LINE
  5
168
330
1F
100
AcDbEntity
  8
0
  6
SLD-Solid
 62
   142
420
    32960
370
     0
100
AcDbLine
 10
811.0760664079
 20
557.6865515083
 30
0.0
 11
810.5039863856
 21
557.249636946
 31
0.0
  0
SPLINE
  5
169
330
1F
100
AcDbEntity
  8
0
  6
SLD-Solid
 62
   142
420
    32960
370
     0
100
AcDbSpline
210
0.0
220
0.0
230
1.0
 70
     8
 71
     3
 72
    16
 73
    12
 74
     0
 42
0.00000001
 43
0.00000001
 40
0.0
 40
0.0
 40
0.0
 40
0.0
 40
0.0625673302419067
 40
0.1250855726671693
 40
0.2498929634954864
 40
0.3725235571271989
 40
0.4996061982594838
 40
0.6245918599936661
 40
0.7496747919364034
 40
0.8748253249824558
 40
1.0
 40
1.0
 40
1.0
 40
1.0
 10
810.1642327778134
 20
556.5842184080032
 30
0.0
 10
810.1814750291925
 20
556.5978363373623
 30
0.0
 10
810.215946004372
 20
556.6250615119992
 30
0.0
 10
810.2813964657445
 20
556.68524924846
 30
0.0
 10
810.3544406629559
 20
556.7651898169559
 30
0.0
 10
810.425337470846
 20
556.8628569039442
 30
0.0
 10
810.4744908135452
 20
556.9559391517475
 30
0.0
 10
810.5030709148998
 20
557.0412758368088
 30
0.0
 10
810.5118959532651
 20
557.1157504299226
 30
0.0
 10
810.5117147535707
 20
557.1848988520746
 30
0.0
 10
810.5065626738876
 20
557.2280561939453
 30
0.0
 10
810.5039863856065
 20
557.2496369459805
 30
0.0
  0
SPLINE
  5
16A
330
1F
100
AcDbEntity
  8
0
  6
SLD-Solid
 62
   142
420
    32960
370
     0
100
AcDbSpline
210
0.0
220
0.0
230
1.0
 70
     8
 71
     3
 72
    13
 73
     9
 74
     0
 42
0.00000001
 43
0.00000001
 40
0.0
 40
0.0
 40
0.0
 40
0.0
 40
0.1252599288359846
 40
0.2504264951968442
 40
0.4999423658796225
 40
0.7495827737088324
 40
0.8747276607281205
 40
1.0
 40
1.0
 40
1.0
 40
1.0
 10
810.019869171527
 20
556.9992533175956
 30
0.0
 10
809.9992270961027
 20
556.9780318538959
 30
0.0
 10
809.9579583308227
 20
556.9356047439122
 30
0.0
 10
809.8861808282458
 20
556.8472666233592
 30
0.0
 10
809.815957385222
 20
556.7368238803152
 30
0.0
 10
809.7766933380251
 20
556.6359446310962
 30
0.0
 10
809.7696842228492
 20
556.5690148487355
 30
0.0
 10
809.7747273211338
 20
556.5415703541601
 30
0.0
 10
809.7772501536429
 20
556.527841122803
 30
0.0
  0
SPLINE
  5
16B
330
1F
100
AcDbEntity
  8
0
  6
SLD-Solid
 62
   142
420
    32960
370
     0
100
AcDbSpline
210
0.0
220
0.0
230
1.0
 70
     8
 71
     3
 72
    10
 73
     6
 74
     0
 42
0.00000001
 43
0.00000001
 40
0.0
 40
0.0
 40
0.0
 40
0.0
 40
0.0122979722385765
 40
0.5729859233278526
 40
1.0
 40
1.0
 40
1.0
 40
1.0
 10
804.6145867644476
 20
575.757679539302
 30
0.0
 10
804.6178868873834
 20
575.7598813032305
 30
0.0
 10
804.7716458933953
 20
575.8624656734792
 30
0.0
 10
804.9830487006036
 20
576.1385411261595
 30
0.0
 10
805.1325590692009
 20
576.4341969416571
 30
0.0
 10
805.1971970168865
 20
576.5620180775044
 30
0.0
  0
LINE
  5
16C
330
1F
100
AcDbEntity
  8
0
  6
SLD-Solid
 62
   142
420
    32960
370
     0
100
AcDbLine
 10
806.0586467082
 20
577.1037228025
 30
0.0
 11
806.3035833043
 21
576.361776206
 31
0.0
  0
LINE
  5
16D
330
1F
100
AcDbEntity
  8
0
  6
SLD-Solid
 62
   142
420
    32960
370
     0
100
AcDbLine
 10
805.2636666174
 20
578.4206552316
 30
0.0
 11
804.9021368383
 21
577.55422832
 31
0.0
  0
SPLINE
  5
16E
330
1F
100
AcDbEntity
  8
0
  6
SLD-Solid
 62
   142
420
    32960
370
     0
100
AcDbSpline
210
0.0
220
0.0
230
1.0
 70
     8
 71
     3
 72
    10
 73
     6
 74
     0
 42
0.00000001
 43
0.00000001
 40
0.0
 40
0.0
 40
0.0
 40
0.0
 40
0.1737946424902186
 40
0.5877187753605838
 40
1.0
 40
1.0
 40
1.0
 40
1.0
 10
804.6187862695978
 20
576.9769396702055
 30
0.0
 10
804.5947492727793
 20
576.9253845254781
 30
0.0
 10
804.5134637156925
 20
576.751041254082
 30
0.0
 10
804.3157655388046
 20
576.4841749407685
 30
0.0
 10
804.0978170262277
 20
576.3424828449478
 30
0.0
 10
803.9890594651
 20
576.2717776743074
 30
0.0
  0
LINE
  5
16F
330
1F
100
AcDbEntity
  8
0
  6
SLD-Solid
 62
   142
420
    32960
370
     0
100
AcDbLine
 10
802.3406813696
 20
577.4179646636
 30
0.0
 11
803.0130194301
 21
577.7015619836
 31
0.0
  0
SPLINE
  5
170
330
1F
100
AcDbEntity
  8
0
  6
SLD-Solid
 62
   142
420
    32960
370
     0
100
AcDbSpline
210
0.0
220
0.0
230
1.0
 70
     8
 71
     3
 72
     9
 73
     5
 74
     0
 42
0.00000001
 43
0.00000001
 40
0.0
 40
0.0
 40
0.0
 40
0.0
 40
0.4999969146686625
 40
1.0
 40
1.0
 40
1.0
 40
1.0
 10
803.4594578993364
 20
576.3460497371666
 30
0.0
 10
803.3866933139929
 20
576.5717128220689
 30
0.0
 10
803.2411632452884
 20
577.0230417768724
 30
0.0
 10
803.0890676813323
 20
577.4753876509016
 30
0.0
 10
803.0130194300889
 20
577.701561983553
 30
0.0
  0
LINE
  5
171
330
1F
100
AcDbEntity
  8
0
  6
SLD-Solid
 62
   142
420
    32960
370
     0
100
AcDbLine
 10
803.4594578993
 20
576.3460497372
 30
0.0
 11
804.2124869917
 21
576.470964056
 31
0.0
  0
SPLINE
  5
172
330
1F
100
AcDbEntity
  8
0
  6
SLD-Solid
 62
   142
420
    32960
370
     0
100
AcDbSpline
210
0.0
220
0.0
230
1.0
 70
     8
 71
     3
 72
     9
 73
     5
 74
     0
 42
0.00000001
 43
0.00000001
 40
0.0
 40
0.0
 40
0.0
 40
0.0
 40
0.499905991303784
 40
1.0
 40
1.0
 40
1.0
 40
1.0
 10
804.0908226762529
 20
576.7238912973445
 30
0.0
 10
804.1071168280969
 20
576.679266352645
 30
0.0
 10
804.1397112601052
 20
576.5899996795589
 30
0.0
 10
804.188225374007
 20
576.5106475703539
 30
0.0
 10
804.2124869917064
 20
576.4709640559633
 30
0.0
  0
SPLINE
  5
173
330
1F
100
AcDbEntity
  8
0
  6
SLD-Solid
 62
   142
420
    32960
370
     0
100
AcDbSpline
210
0.0
220
0.0
230
1.0
 70
     8
 71
     3
 72
    19
 73
    15
 74
     0
 42
0.00000001
 43
0.00000001
 40
0.0
 40
0.0
 40
0.0
 40
0.0
 40
0.0625583465051329
 40
0.1251001633860277
 40
0.2500501157123634
 40
0.3749255740713178
 40
0.4998063905395607
 40
0.5999962464121493
 40
0.6748725249125249
 40
0.7498430831687717
 40
0.8123758319883255
 40
0.8749111362464429
 40
0.9374468170257453
 40
1.0
 40
1.0
 40
1.0
 40
1.0
 10
804.9239704683459
 20
578.5722708206557
 30
0.0
 10
804.883400037999
 20
578.5538976527673
 30
0.0
 10
804.8022698971207
 20
578.5171561716828
 30
0.0
 10
804.6459559331769
 20
578.4291433035589
 30
0.0
 10
804.4645207640968
 20
578.2911433008846
 30
0.0
 10
804.280128590789
 20
578.0822252427284
 30
0.0
 10
804.1483994076328
 20
577.8525370217094
 30
0.0
 10
804.0693473139744
 20
577.6382424109083
 30
0.0
 10
804.0257753480884
 20
577.4522179425412
 30
0.0
 10
804.0103009797664
 20
577.2906378193712
 30
0.0
 10
804.0094371779543
 20
577.1382252600372
 30
0.0
 10
804.0249437933078
 20
576.996952380562
 30
0.0
 10
804.0504657049356
 20
576.857848545655
 30
0.0
 10
804.0773690977234
 20
576.7685478783742
 30
0.0
 10
804.0908226762529
 20
576.7238912973445
 30
0.0
  0
SPLINE
  5
174
330
1F
100
AcDbEntity
  8
0
  6
SLD-Solid
 62
   142
420
    32960
370
     0
100
AcDbSpline
210
0.0
220
0.0
230
1.0
 70
     8
 71
     3
 72
    17
 73
    13
 74
     0
 42
0.00000001
 43
0.00000001
 40
0.0
 40
0.0
 40
0.0
 40
0.0
 40
0.0625713784685257
 40
0.1251215088470982
 40
0.2500656599897266
 40
0.3750200963255904
 40
0.4999716825898419
 40
0.627720847048884
 40
0.7499098671822496
 40
0.8748726880329638
 40
0.9374260668416067
 40
1.0
 40
1.0
 40
1.0
 40
1.0
 10
806.7219270944578
 20
577.7127145650078
 30
0.0
 10
806.7058327631545
 20
577.7591683055958
 30
0.0
 10
806.6736495658872
 20
577.8520600119357
 30
0.0
 10
806.5896277124156
 20
578.0279250068394
 30
0.0
 10
806.45531500616
 20
578.2294624663216
 30
0.0
 10
806.2463918304161
 20
578.4236410052029
 30
0.0
 10
806.0038691554629
 20
578.5693169647068
 30
0.0
 10
805.7413480093346
 20
578.6635909749987
 30
0.0
 10
805.4651291434456
 20
578.6975403963717
 30
0.0
 10
805.2354877544849
 20
578.6725427686148
 30
0.0
 10
805.055356071704
 20
578.623270319857
 30
0.0
 10
804.967770465288
 20
578.589272515301
 30
0.0
 10
804.9239704683459
 20
578.5722708206557
 30
0.0
  0
SPLINE
  5
175
330
1F
100
AcDbEntity
  8
0
  6
SLD-Solid
 62
   142
420
    32960
370
     0
100
AcDbSpline
210
0.0
220
0.0
230
1.0
 70
     8
 71
     3
 72
    17
 73
    13
 74
     0
 42
0.00000001
 43
0.00000001
 40
0.0
 40
0.0
 40
0.0
 40
0.0
 40
0.062562777686837
 40
0.1251141196029125
 40
0.2500805960564396
 40
0.3750527100507552
 40
0.5000013317453773
 40
0.6249551927360136
 40
0.7498969439063341
 40
0.8748889489927867
 40
0.9374383434517006
 40
1.0
 40
1.0
 40
1.0
 40
1.0
 10
806.1147276955317
 20
575.866783600365
 30
0.0
 10
806.1484242667784
 20
575.892188884574
 30
0.0
 10
806.2158112499187
 20
575.9429948091928
 30
0.0
 10
806.3435241123095
 20
576.0554748229434
 30
0.0
 10
806.4887498275212
 20
576.2152069939852
 30
0.0
 10
806.6307818009232
 20
576.4362031267718
 30
0.0
 10
806.7335126005632
 20
576.6803655370483
 30
0.0
 10
806.795471905704
 20
576.9381927398638
 30
0.0
 10
806.8158777142773
 20
577.2020980258897
 30
0.0
 10
806.7934957469895
 20
577.419494245586
 30
0.0
 10
806.7587219072716
 20
577.5890455897207
 30
0.0
 10
806.7341928334243
 20
577.6714888798331
 30
0.0
 10
806.7219270944578
 20
577.7127145650078
 30
0.0
  0
SPLINE
  5
176
330
1F
100
AcDbEntity
  8
0
  6
SLD-Solid
 62
   142
420
    32960
370
     0
100
AcDbSpline
210
0.0
220
0.0
230
1.0
 70
     8
 71
     3
 72
     9
 73
     5
 74
     0
 42
0.00000001
 43
0.00000001
 40
0.0
 40
0.0
 40
0.0
 40
0.0
 40
0.499991515578278
 40
1.0
 40
1.0
 40
1.0
 40
1.0
 10
805.862734927329
 20
576.691539229626
 30
0.0
 10
805.9053922216849
 20
576.5539045547246
 30
0.0
 10
805.9907082581112
 20
576.2786305338401
 30
0.0
 10
806.0733874154016
 20
576.0040674645293
 30
0.0
 10
806.1147276955317
 20
575.866783600365
 30
0.0
  0
SPLINE
  5
177
330
1F
100
AcDbEntity
  8
0
  6
SLD-Solid
 62
   142
420
    32960
370
     0
100
AcDbSpline
210
0.0
220
0.0
230
1.0
 70
     8
 71
     3
 72
    13
 73
     9
 74
     0
 42
0.00000001
 43
0.00000001
 40
0.0
 40
0.0
 40
0.0
 40
0.0
 40
0.1252132507906244
 40
0.2503205428081619
 40
0.4999327495225188
 40
0.7496225238635162
 40
0.8747717100022386
 40
0.9999999999999999
 40
0.9999999999999999
 40
0.9999999999999999
 40
0.9999999999999999
 10
806.0387786444701
 20
577.4440829004396
 30
0.0
 10
806.0476223773329
 20
577.4119470679129
 30
0.0
 10
806.0653023592577
 20
577.3477025970524
 30
0.0
 10
806.0799646468816
 20
577.2134471526202
 30
0.0
 10
806.0612161576848
 20
577.0421811689749
 30
0.0
 10
805.998126538111
 20
576.8826070693116
 30
0.0
 10
805.9264423916172
 20
576.7685593839598
 30
0.0
 10
805.8839752210952
 20
576.7172180213063
 30
0.0
 10
805.862734927329
 20
576.691539229626
 30
0.0
  0
SPLINE
  5
178
330
1F
100
AcDbEntity
  8
0
  6
SLD-Solid
 62
   142
420
    32960
370
     0
100
AcDbSpline
210
0.0
220
0.0
230
1.0
 70
     8
 71
     3
 72
    17
 73
    13
 74
     0
 42
0.00000001
 43
0.00000001
 40
0.0
 40
0.0
 40
0.0
 40
0.0
 40
0.062582008841456
 40
0.1251506259510621
 40
0.2501000092854991
 40
0.375044609703897
 40
0.5000411091552618
 40
0.6250436569435811
 40
0.7499362197476109
 40
0.8748672129465219
 40
0.9374220428778476
 40
1.0
 40
1.0
 40
1.0
 40
1.0
 10
805.2117143519359
 20
577.8099163270533
 30
0.0
 10
805.2317173433368
 20
577.8177475149453
 30
0.0
 10
805.2717190457595
 20
577.8334082149581
 30
0.0
 10
805.353706184301
 20
577.8570825525225
 30
0.0
 10
805.4587703789005
 20
577.8723163948736
 30
0.0
 10
805.5853208312883
 20
577.8647113628394
 30
0.0
 10
805.7061298788119
 20
577.8262180394624
 30
0.0
 10
805.817601300521
 20
577.7643176811708
 30
0.0
 10
805.9144062104817
 20
577.6781106835836
 30
0.0
 10
805.9777319220274
 20
577.5878311890541
 30
0.0
 10
806.016427140218
 20
577.5076619811388
 30
0.0
 10
806.0313272251022
 20
577.4652785384586
 30
0.0
 10
806.0387786444701
 20
577.4440829004396
 30
0.0
  0
SPLINE
  5
179
330
1F
100
AcDbEntity
  8
0
  6
SLD-Solid
 62
   142
420
    32960
370
     0
100
AcDbSpline
210
0.0
220
0.0
230
1.0
 70
     8
 71
     3
 72
    16
 73
    12
 74
     0
 42
0.00000001
 43
0.00000001
 40
0.0
 40
0.0
 40
0.0
 40
0.0
 40
0.0625768915255282
 40
0.1251365117523745
 40
0.2500258664707137
 40
0.3749336302796952
 40
0.4998800117691473
 40
0.6248549835766155
 40
0.7498694666725072
 40
0.874897201854208
 40
1.0
 40
1.0
 40
1.0
 40
1.0
 10
804.7932606305849
 20
576.9690417008088
 30
0.0
 10
804.7871758507847
 20
576.9897195868685
 30
0.0
 10
804.7750079705909
 20
577.0310696518657
 30
0.0
 10
804.7616281123611
 20
577.1171811145581
 30
0.0
 10
804.759653243623
 20
577.2276897484074
 30
0.0
 10
804.7878940748869
 20
577.3578519270615
 30
0.0
 10
804.838811797593
 20
577.4794689074292
 30
0.0
 10
804.9081946384672
 20
577.5905622130119
 30
0.0
 10
804.9981564193308
 20
577.6820840223075
 30
0.0
 10
805.0993165832617
 20
577.7582135403405
 30
0.0
 10
805.1742409342329
 20
577.7926786172147
 30
0.0
 10
805.2117143519359
 20
577.8099163270533
 30
0.0
  0
SPLINE
  5
17A
330
1F
100
AcDbEntity
  8
0
  6
SLD-Solid
 62
   142
420
    32960
370
     0
100
AcDbSpline
210
0.0
220
0.0
230
1.0
 70
     8
 71
     3
 72
    12
 73
     8
 74
     0
 42
0.00000001
 43
0.00000001
 40
0.0
 40
0.0
 40
0.0
 40
0.0
 40
0.2501215802572913
 40
0.500138501349395
 40
0.749860598454181
 40
0.8748990456783214
 40
1.0
 40
1.0
 40
1.0
 40
1.0
 10
805.192451758457
 20
576.5685914185685
 30
0.0
 10
805.149764657154
 20
576.5890285025768
 30
0.0
 10
805.0644083162473
 20
576.6298941190395
 30
0.0
 10
804.9494878712337
 20
576.7176035764538
 30
0.0
 10
804.8692949891332
 20
576.8108222997448
 30
0.0
 10
804.8196036810816
 20
576.8975957123492
 30
0.0
 10
804.8020431101486
 20
576.9452224041929
 30
0.0
 10
804.7932606305849
 20
576.9690417008088
 30
0.0
  0
SPLINE
  5
17B
330
1F
100
AcDbEntity
  8
0
  6
SLD-Solid
 62
   142
420
    32960
370
     0
100
AcDbSpline
210
0.0
220
0.0
230
1.0
 70
     8
 71
     3
 72
     9
 73
     5
 74
     0
 42
0.00000001
 43
0.00000001
 40
0.0
 40
0.0
 40
0.0
 40
0.0
 40
0.5001021414443555
 40
1.0
 40
1.0
 40
1.0
 40
1.0
 10
805.2573974044752
 20
575.8719534917547
 30
0.0
 10
805.2469590509647
 20
575.9879851825311
 30
0.0
 10
805.2260866078269
 20
576.2200011671886
 30
0.0
 10
805.2036618479153
 20
576.4524104938582
 30
0.0
 10
805.192451758457
 20
576.5685914185685
 30
0.0
  0
SPLINE
  5
17C
330
1F
100
AcDbEntity
  8
0
  6
SLD-Solid
 62
   142
420
    32960
370
     0
100
AcDbSpline
210
0.0
220
0.0
230
1.0
 70
     8
 71
     3
 72
     9
 73
     5
 74
     0
 42
0.00000001
 43
0.00000001
 40
0.0
 40
0.0
 40
0.0
 40
0.0
 40
0.5036675688378676
 40
1.0
 40
1.0
 40
1.0
 40
1.0
 10
802.9740031574842
 20
575.4726940364448
 30
0.0
 10
803.3576305468581
 20
575.5396552145334
 30
0.0
 10
804.1192983871344
 20
575.6726023849117
 30
0.0
 10
804.8798907485904
 20
575.8058288676715
 30
0.0
 10
805.2573974044751
 20
575.8719534917547
 30
0.0
  0
SPLINE
  5
17D
330
1F
100
AcDbEntity
  8
0
  6
SLD-Solid
 62
   142
420
    32960
370
     0
100
AcDbSpline
210
0.0
220
0.0
230
1.0
 70
     8
 71
     3
 72
    11
 73
     7
 74
     0
 42
0.00000001
 43
0.00000001
 40
0.0
 40
0.0
 40
0.0
 40
0.0
 40
0.2500102014516369
 40
0.5000006436975332
 40
0.7499907640102914
 40
1.0
 40
1.0
 40
1.0
 40
1.0
 10
802.3406813695958
 20
577.4179646635808
 30
0.0
 10
802.3953813330762
 20
577.2555434247122
 30
0.0
 10
802.5047769369021
 20
576.9307137837096
 30
0.0
 10
802.6645824909237
 20
576.4440596496452
 30
0.0
 10
802.8214913895872
 20
575.9579137382544
 30
0.0
 10
802.9231646058153
 20
575.6344380593576
 30
0.0
 10
802.9740031574842
 20
575.4726940364448
 30
0.0
  0
SPLINE
  5
17E
330
1F
100
AcDbEntity
  8
0
  6
SLD-Solid
 62
   142
420
    32960
370
     0
100
AcDbSpline
210
0.0
220
0.0
230
1.0
 70
     8
 71
     3
 72
    10
 73
     6
 74
     0
 42
0.00000001
 43
0.00000001
 40
0.0
 40
0.0
 40
0.0
 40
0.0
 40
0.5009735890772519
 40
0.9997004064973875
 40
1.0
 40
1.0
 40
1.0
 40
1.0
 10
793.19392366727
 20
612.2014911797679
 30
0.0
 10
793.4581144092172
 20
612.1841212404904
 30
0.0
 10
793.9853110476743
 20
612.1494592628222
 30
0.0
 10
794.5325529511126
 20
612.1183836801425
 30
0.0
 10
794.7563394385218
 20
612.1086252356279
 30
0.0
 10
794.7564737900834
 20
612.108619377087
 30
0.0
  0
SPLINE
  5
17F
330
1F
100
AcDbEntity
  8
0
  6
SLD-Solid
 62
   142
420
    32960
370
     0
100
AcDbSpline
210
0.0
220
0.0
230
1.0
 70
     8
 71
     3
 72
    18
 73
    14
 74
     0
 42
0.00000001
 43
0.00000001
 40
0.0
 40
0.0
 40
0.0
 40
0.0
 40
0.1251615752902261
 40
0.2503026028558609
 40
0.3753841869036799
 40
0.5003399629435603
 40
0.6302195788122421
 40
0.7498108645913382
 40
0.8125874632032485
 40
0.8748654797413269
 40
0.9374191148115159
 40
0.968707365034376
 40
1.0
 40
1.0
 40
1.0
 40
1.0
 10
793.2529920254481
 20
612.1935177627058
 30
0.0
 10
793.3852125384885
 20
612.1848000948171
 30
0.0
 10
793.6496318579817
 20
612.1673661902156
 30
0.0
 10
794.0447650991617
 20
612.1428507431317
 30
0.0
 10
794.4345924447607
 20
612.1206282570811
 30
0.0
 10
794.8087556880994
 20
612.1024579363758
 30
0.0
 10
795.1392512523523
 20
612.0892736747822
 30
0.0
 10
795.3479827248962
 20
612.0834064475594
 30
0.0
 10
795.4573842862749
 20
612.0813273442869
 30
0.0
 10
795.5132081577672
 20
612.0807142643505
 30
0.0
 10
795.5369618206469
 20
612.0807657612812
 30
0.0
 10
795.546799944074
 20
612.0808335326053
 30
0.0
 10
795.5471284370024
 20
612.0809113186616
 30
0.0
 10
795.5472926949744
 20
612.0809502144149
 30
0.0
  0
SPLINE
  5
180
330
1F
100
AcDbEntity
  8
0
  6
SLD-Solid
 62
   142
420
    32960
370
     0
100
AcDbSpline
210
0.0
220
0.0
230
1.0
 70
     8
 71
     3
 72
    14
 73
    10
 74
     0
 42
0.00000001
 43
0.00000001
 40
0.0
 40
0.0
 40
0.0
 40
0.0
 40
0.0625271511718598
 40
0.1250385665834229
 40
0.2500185759795783
 40
0.4998671003519169
 40
0.7498915699466281
 40
0.8749419633117549
 40
1.0
 40
1.0
 40
1.0
 40
1.0
 10
791.4704018293564
 20
612.3287120388619
 30
0.0
 10
791.5030052894723
 20
612.3257647514573
 30
0.0
 10
791.5682040046246
 20
612.3198709183711
 30
0.0
 10
791.7039677167021
 20
612.307890303563
 30
0.0
 10
791.9559029374876
 20
612.2869639757149
 30
0.0
 10
792.3317296665913
 20
612.2578115107666
 30
0.0
 10
792.7146405119682
 20
612.2302305576472
 30
0.0
 10
793.0221428460509
 20
612.2090375036511
 30
0.0
 10
793.176040731274
 20
612.198691115083
 30
0.0
 10
793.2529920254481
 20
612.1935177627058
 30
0.0
  0
SPLINE
  5
181
330
1F
100
AcDbEntity
  8
0
  6
SLD-Solid
 62
   142
420
    32960
370
     0
100
AcDbSpline
210
0.0
220
0.0
230
1.0
 70
     8
 71
     3
 72
    13
 73
     9
 74
     0
 42
0.00000001
 43
0.00000001
 40
0.0
 40
0.0
 40
0.0
 40
0.0
 40
0.1251938662589791
 40
0.2503283849861332
 40
0.500019236971005
 40
0.7496882904451351
 40
0.8748125585586466
 40
0.9999999999999999
 40
0.9999999999999999
 40
0.9999999999999999
 40
0.9999999999999999
 10
790.8587815671813
 20
612.3924144301038
 30
0.0
 10
790.8608895112588
 20
612.3920721779186
 30
0.0
 10
790.8651044001534
 20
612.3913878357912
 30
0.0
 10
790.9005828539534
 20
612.3867515738699
 30
0.0
 10
790.9983389191627
 20
612.3754834247785
 30
0.0
 10
791.165570293015
 20
612.3579288374275
 30
0.0
 10
791.3311315147996
 20
612.3417138129432
 30
0.0
 10
791.4239705809721
 20
612.3330466926877
 30
0.0
 10
791.4704018293564
 20
612.3287120388619
 30
0.0
  0
SPLINE
  5
182
330
1F
100
AcDbEntity
  8
0
  6
SLD-Solid
 62
   142
420
    32960
370
     0
100
AcDbSpline
210
0.0
220
0.0
230
1.0
 70
     8
 71
     3
 72
    19
 73
    15
 74
     0
 42
0.00000001
 43
0.00000001
 40
0.0
 40
0.0
 40
0.0
 40
0.0
 40
0.125263656932249
 40
0.2504606304605591
 40
0.3754117004534032
 40
0.5012496476206928
 40
0.5377354893582916
 40
0.572733322985699
 40
0.627109413691878
 40
0.7507320422279231
 40
0.8205725051889277
 40
0.8746429677350767
 40
0.979019314736086
 40
1.0
 40
1.0
 40
1.0
 40
1.0
 10
793.19392366727
 20
612.2014911797679
 30
0.0
 10
793.0599992775815
 20
612.2105753063596
 30
0.0
 10
792.7922217921006
 20
612.2287387236587
 30
0.0
 10
792.3925797055845
 20
612.2573204148467
 30
0.0
 10
791.9974046997996
 20
612.2872210057684
 30
0.0
 10
791.7102207203184
 20
612.3110619144512
 30
0.0
 10
791.5259318711825
 20
612.3271048803975
 30
0.0
 10
791.4138981392739
 20
612.3371620734928
 30
0.0
 10
791.2349866500366
 20
612.353640076055
 30
0.0
 10
791.0654293884891
 20
612.3705603574283
 30
0.0
 10
790.9532480307212
 20
612.3824014637509
 30
0.0
 10
790.8828023303836
 20
612.3900117267438
 30
0.0
 10
790.8596202321488
 20
612.3925748503458
 30
0.0
 10
790.8589018079915
 20
612.3924374298242
 30
0.0
 10
790.8587815671813
 20
612.3924144301038
 30
0.0
  0
LINE
  5
183
330
1F
100
AcDbEntity
  8
0
  6
SLD-Solid
 62
   142
420
    32960
370
     0
100
AcDbLine
 10
797.990452067
 20
601.6797799717
 30
0.0
 11
797.0237888154
 21
601.6189113361
 31
0.0
  0
SPLINE
  5
184
330
1F
100
AcDbEntity
  8
0
  6
SLD-Solid
 62
   142
420
    32960
370
     0
100
AcDbSpline
210
0.0
220
0.0
230
1.0
 70
     8
 71
     3
 72
     9
 73
     5
 74
     0
 42
0.00000001
 43
0.00000001
 40
0.0
 40
0.0
 40
0.0
 40
0.0
 40
0.5000002533571682
 40
1.0
 40
1.0
 40
1.0
 40
1.0
 10
795.0642122698164
 20
602.1780744405864
 30
0.0
 10
795.1007813709516
 20
602.0676828335023
 30
0.0
 10
795.1739195361624
 20
601.8468997312078
 30
0.0
 10
795.2459892550612
 20
601.6217907286423
 30
0.0
 10
795.2820240962511
 20
601.5092362843928
 30
0.0
  0
SPLINE
  5
185
330
1F
100
AcDbEntity
  8
0
  6
SLD-Solid
 62
   142
420
    32960
370
     0
100
AcDbSpline
210
0.0
220
0.0
230
1.0
 70
     8
 71
     3
 72
     9
 73
     5
 74
     0
 42
0.00000001
 43
0.00000001
 40
0.0
 40
0.0
 40
0.0
 40
0.0
 40
0.4978933901262765
 40
1.0
 40
1.0
 40
1.0
 40
1.0
 10
796.195418246151
 20
601.6809937164373
 30
0.0
 10
795.9245348269342
 20
601.7605167805584
 30
0.0
 10
795.3804757480456
 20
601.9202358402969
 30
0.0
 10
794.8356537559383
 20
602.0768497647501
 30
0.0
 10
794.5620950324967
 20
602.1554866514167
 30
0.0
  0
SPLINE
  5
186
330
1F
100
AcDbEntity
  8
0
  6
SLD-Solid
 62
   142
420
    32960
370
     0
100
AcDbSpline
210
0.0
220
0.0
230
1.0
 70
     8
 71
     3
 72
    17
 73
    13
 74
     0
 42
0.00000001
 43
0.00000001
 40
0.0
 40
0.0
 40
0.0
 40
0.0
 40
0.06258283278802
 40
0.1251475851228482
 40
0.250126368471055
 40
0.3738523636076381
 40
0.5000343517336159
 40
0.6278306699013512
 40
0.7499469008274675
 40
0.8748604327670331
 40
0.9374196577040582
 40
1.0
 40
1.0
 40
1.0
 40
1.0
 10
797.2247539394816
 20
602.746071545266
 30
0.0
 10
797.1813978443873
 20
602.7425054939854
 30
0.0
 10
797.0946981799635
 20
602.7353744216717
 30
0.0
 10
796.9264598494068
 20
602.7093504976552
 30
0.0
 10
796.7295414492523
 20
602.6546129305015
 30
0.0
 10
796.5233213890168
 20
602.5530703319153
 30
0.0
 10
796.3573311042633
 20
602.4173947177702
 30
0.0
 10
796.2331218162155
 20
602.2579864182021
 30
0.0
 10
796.1609096184374
 20
602.0771610005824
 30
0.0
 10
796.1478682905772
 20
601.915276403574
 30
0.0
 10
796.1670717439321
 20
601.7816548731847
 30
0.0
 10
796.1859683491413
 20
601.7145512099445
 30
0.0
 10
796.195418246151
 20
601.6809937164373
 30
0.0
  0
SPLINE
  5
187
330
1F
100
AcDbEntity
  8
0
  6
SLD-Solid
 62
   142
420
    32960
370
     0
100
AcDbSpline
210
0.0
220
0.0
230
1.0
 70
     8
 71
     3
 72
    17
 73
    13
 74
     0
 42
0.00000001
 43
0.00000001
 40
0.0
 40
0.0
 40
0.0
 40
0.0
 40
0.0625792467947736
 40
0.1251386172827273
 40
0.2500882291406181
 40
0.3750454651190114
 40
0.5000166197721985
 40
0.6275888092705212
 40
0.7499048935735837
 40
0.8748659115759263
 40
0.9374228974929716
 40
1.0
 40
1.0
 40
1.0
 40
1.0
 10
798.8876525811693
 20
601.8280360648915
 30
0.0
 10
798.875634390086
 20
601.8614675415234
 30
0.0
 10
798.8516018251155
 20
601.9283198763421
 30
0.0
 10
798.7855210013761
 20
602.0590864179536
 30
0.0
 10
798.6727199846495
 20
602.2157183862953
 30
0.0
 10
798.4876383323138
 20
602.381402588003
 30
0.0
 10
798.2672176349184
 20
602.5227916109386
 30
0.0
 10
798.0233249168256
 20
602.6361296083928
 30
0.0
 10
797.7599015615045
 20
602.7140676114198
 30
0.0
 10
797.5355723197428
 20
602.7450246151831
 30
0.0
 10
797.3564079461012
 20
602.752243819423
 30
0.0
 10
797.2686433113771
 20
602.7481291904749
 30
0.0
 10
797.2247539394816
 20
602.746071545266
 30
0.0
  0
SPLINE
  5
188
330
1F
100
AcDbEntity
  8
0
  6
SLD-Solid
 62
   142
420
    32960
370
     0
100
AcDbSpline
210
0.0
220
0.0
230
1.0
 70
     8
 71
     3
 72
    16
 73
    12
 74
     0
 42
0.00000001
 43
0.00000001
 40
0.0
 40
0.0
 40
0.0
 40
0.0
 40
0.0626347164105406
 40
0.1252462045551398
 40
0.2503234762037612
 40
0.4994982808584861
 40
0.624590216836552
 40
0.749670597936493
 40
0.8747389694974413
 40
0.9373591468078432
 40
1.0
 40
1.0
 40
1.0
 40
1.0
 10
797.8912198086407
 20
600.6899326111172
 30
0.0
 10
797.9346472102176
 20
600.6935477913609
 30
0.0
 10
798.0214859081938
 20
600.7007768111481
 30
0.0
 10
798.1879073838884
 20
600.7330804827016
 30
0.0
 10
798.4586469440247
 20
600.8247215688674
 30
0.0
 10
798.6988946887755
 20
601.0089803720186
 30
0.0
 10
798.8620001555927
 20
601.2326940926713
 30
0.0
 10
798.9282833566378
 20
601.4233783090485
 30
0.0
 10
798.937458447661
 20
601.5914069509545
 30
0.0
 10
798.9160069078887
 20
601.7269721215896
 30
0.0
 10
798.8971050634034
 20
601.7943443769162
 30
0.0
 10
798.8876525811693
 20
601.8280360648915
 30
0.0
  0
SPLINE
  5
189
330
1F
100
AcDbEntity
  8
0
  6
SLD-Solid
 62
   142
420
    32960
370
     0
100
AcDbSpline
210
0.0
220
0.0
230
1.0
 70
     8
 71
     3
 72
    13
 73
     9
 74
     0
 42
0.00000001
 43
0.00000001
 40
0.0
 40
0.0
 40
0.0
 40
0.0
 40
0.2862474508623412
 40
0.5000653653800735
 40
0.627483543065194
 40
0.7500272884545333
 40
0.8750054630897572
 40
1.0
 40
1.0
 40
1.0
 40
1.0
 10
796.7996801485723
 20
600.8920684722506
 30
0.0
 10
796.9024637283637
 20
600.8611892455249
 30
0.0
 10
797.0820234352838
 20
600.8072441999058
 30
0.0
 10
797.3095660482999
 20
600.7465614267642
 30
0.0
 10
797.4798609328614
 20
600.7121010726262
 30
0.0
 10
797.6182631657805
 20
600.6939406201967
 30
0.0
 10
797.7556271599524
 20
600.6849568913459
 30
0.0
 10
797.8460202868132
 20
600.688273965486
 30
0.0
 10
797.8912198086408
 20
600.6899326111175
 30
0.0
  0
SPLINE
  5
18A
330
1F
100
AcDbEntity
  8
0
  6
SLD-Solid
 62
   142
420
    32960
370
     0
100
AcDbSpline
210
0.0
220
0.0
230
1.0
 70
     8
 71
     3
 72
     9
 73
     5
 74
     0
 42
0.00000001
 43
0.00000001
 40
0.0
 40
0.0
 40
0.0
 40
0.0
 40
0.5030935291777824
 40
1.0
 40
1.0
 40
1.0
 40
1.0
 10
794.3877765962463
 20
601.6104485841431
 30
0.0
 10
794.792696914621
 20
601.4916861649884
 30
0.0
 10
795.5975578299193
 20
601.255621870246
 30
0.0
 10
796.4006289249307
 20
601.0127520550093
 30
0.0
 10
796.7996801485724
 20
600.8920684722506
 30
0.0
  0
SPLINE
  5
18B
330
1F
100
AcDbEntity
  8
0
  6
SLD-Solid
 62
   142
420
    32960
370
     0
100
AcDbSpline
210
0.0
220
0.0
230
1.0
 70
     8
 71
     3
 72
     9
 73
     5
 74
     0
 42
0.00000001
 43
0.00000001
 40
0.0
 40
0.0
 40
0.0
 40
0.0
 40
0.4997022537552119
 40
0.9999999999999999
 40
0.9999999999999999
 40
0.9999999999999999
 40
0.9999999999999999
 10
794.5620950324967
 20
602.1554866514167
 30
0.0
 10
794.5332218305928
 20
602.0653649895967
 30
0.0
 10
794.4754410187451
 20
601.8850142684564
 30
0.0
 10
794.4170096688894
 20
601.7020068054375
 30
0.0
 10
794.3877765962463
 20
601.6104485841431
 30
0.0
  0
SPLINE
  5
18C
330
1F
100
AcDbEntity
  8
0
  6
SLD-Solid
 62
   142
420
    32960
370
     0
100
AcDbSpline
210
0.0
220
0.0
230
1.0
 70
     8
 71
     3
 72
    10
 73
     6
 74
     0
 42
0.00000001
 43
0.00000001
 40
0.0
 40
0.0
 40
0.0
 40
0.0
 40
0.5
 40
0.5
 40
1.0
 40
1.0
 40
1.0
 40
1.0
 10
814.3069210327217
 20
562.261332872611
 30
0.0
 10
814.0731071879028
 20
562.3037999283296
 30
0.0
 10
813.8767735778981
 20
562.3987512470729
 30
0.0
 10
813.5588327100328
 20
562.6920739698664
 30
0.0
 10
813.4436990074707
 20
562.8838345860443
 30
0.0
 10
813.3677033785372
 20
563.1177250821106
 30
0.0
  0
SPLINE
  5
18D
330
1F
100
AcDbEntity
  8
0
  6
SLD-Solid
 62
   142
420
    32960
370
     0
100
AcDbSpline
210
0.0
220
0.0
230
1.0
 70
     8
 71
     3
 72
    10
 73
     6
 74
     0
 42
0.00000001
 43
0.00000001
 40
0.0
 40
0.0
 40
0.0
 40
0.0
 40
0.5
 40
0.5
 40
1.0
 40
1.0
 40
1.0
 40
1.0
 10
799.4031841757319
 20
606.0960959371508
 30
0.0
 10
799.3271885467981
 20
606.3299864332172
 30
0.0
 10
799.3076196066362
 20
606.5527979229646
 30
0.0
 10
799.3924284013252
 20
606.9769819437731
 30
0.0
 10
799.4954546435431
 20
607.1692011747649
 30
0.0
 10
799.6596525084618
 20
607.3409900743089
 30
0.0
  0
LINE
  5
18E
330
1F
100
AcDbEntity
  8
0
  6
SLD-Solid
 62
   142
420
    32960
370
     0
100
AcDbLine
 10
807.5157739248
 20
550.8016547501
 30
0.0
 11
787.4296692905
 21
612.6203283093
 31
0.0
  0
LINE
  5
18F
330
1F
100
AcDbEntity
  8
0
  6
SLD-Solid
 62
     7
370
    15
100
AcDbLine
 10
800.2265068129
 20
605.5963919134
 30
0.0
 11
813.7400667282
 21
564.0059310335
 31
0.0
  0
ARC
  5
190
330
1F
100
AcDbEntity
  8
0
  6
SLD-Solid
 62
   142
420
    32960
370
     0
100
AcDbCircle
 10
799.4741298725
 20
605.2848738522
 30
0.0
 40
0.8143184653806931
100
AcDbArc
 50
22.491765777
 51
94.998104743
  0
ARC
  5
191
330
1F
100
AcDbEntity
  8
0
  6
SLD-Solid
 62
   142
420
    32960
370
     0
100
AcDbCircle
 10
812.948275275
 20
563.8157183693
 30
0.0
 40
0.8143184653811844
100
AcDbArc
 50
301.0018952571
 51
13.508234223
  0
SPLINE
  5
192
330
1F
100
AcDbEntity
  8
0
  6
SLD-Solid
 62
   142
420
    32960
370
     0
100
AcDbSpline
210
0.0
220
0.0
230
1.0
 70
     8
 71
     3
 72
    10
 73
     6
 74
     0
 42
0.00000001
 43
0.00000001
 40
0.0
 40
0.0
 40
0.0
 40
0.0
 40
0.5
 40
0.5
 40
1.0
 40
1.0
 40
1.0
 40
1.0
 10
813.7400667282376
 20
564.0059310334984
 30
0.0
 10
813.8009181722394
 20
563.8186495460807
 30
0.0
 10
813.8878819135058
 20
563.6653364521944
 30
0.0
 10
814.1241284539404
 20
563.4350676728058
 30
0.0
 10
814.2683176002047
 20
563.3641160047277
 30
0.0
 10
814.4373159919668
 20
563.3379639388032
 30
0.0
  0
SPLINE
  5
193
330
1F
100
AcDbEntity
  8
0
  6
SLD-Solid
 62
   142
420
    32960
370
     0
100
AcDbSpline
210
0.0
220
0.0
230
1.0
 70
     8
 71
     3
 72
    14
 73
    10
 74
     0
 42
0.00000001
 43
0.00000001
 40
0.0
 40
0.0
 40
0.0
 40
0.0
 40
0.25
 40
0.25
 40
0.5
 40
0.5
 40
0.75
 40
0.75
 40
1.0
 40
1.0
 40
1.0
 40
1.0
 10
814.4373159919668
 20
563.3379639388028
 30
0.0
 10
814.5924573326492
 20
563.3219923511604
 30
0.0
 10
814.7619365553888
 20
563.3472328923488
 30
0.0
 10
815.1264795408704
 20
563.4687969979608
 30
0.0
 10
815.3135536801913
 20
563.5624340305709
 30
0.0
 10
815.692298886858
 20
563.7987282346488
 30
0.0
 10
815.8871234017581
 20
563.9441706514688
 30
0.0
 10
816.2658995580765
 20
564.2666490958554
 30
0.0
 10
816.4516562073137
 20
564.4444682265786
 30
0.0
 10
816.6340180273505
 20
564.6380371745252
 30
0.0
  0
SPLINE
  5
194
330
1F
100
AcDbEntity
  8
0
  6
SLD-Solid
 62
   142
420
    32960
370
     0
100
AcDbSpline
210
0.0
220
0.0
230
1.0
 70
     8
 71
     3
 72
    14
 73
    10
 74
     0
 42
0.00000001
 43
0.00000001
 40
0.0
 40
0.0
 40
0.0
 40
0.0
 40
0.25
 40
0.25
 40
0.5
 40
0.5
 40
0.75
 40
0.75
 40
1.0
 40
1.0
 40
1.0
 40
1.0
 10
802.9393052624008
 20
606.7860291975533
 30
0.0
 10
802.6781776375718
 20
606.8354055441691
 30
0.0
 10
802.4235520412406
 20
606.8700648334293
 30
0.0
 10
801.9278959619744
 20
606.9083339033837
 30
0.0
 10
801.68493495691
 20
606.9115183066244
 30
0.0
 10
801.2398465494786
 20
606.8801904792444
 30
0.0
 10
801.032978652666
 20
606.8458886877381
 30
0.0
 10
800.6679910372163
 20
606.7306889711275
 30
0.0
 10
800.5150543553115
 20
606.6515915671202
 30
0.0
 10
800.3979721093397
 20
606.5466214791048
 30
0.0
  0
SPLINE
  5
195
330
1F
100
AcDbEntity
  8
0
  6
SLD-Solid
 62
   142
420
    32960
370
     0
100
AcDbSpline
210
0.0
220
0.0
230
1.0
 70
     8
 71
     3
 72
    10
 73
     6
 74
     0
 42
0.00000001
 43
0.00000001
 40
0.0
 40
0.0
 40
0.0
 40
0.0
 40
0.5
 40
0.5
 40
1.0
 40
1.0
 40
1.0
 40
1.0
 10
800.3979721093397
 20
606.5466214791048
 30
0.0
 10
800.2766213370494
 20
606.4261292509954
 30
0.0
 10
800.2016742114392
 20
606.283975892026
 30
0.0
 10
800.1458953379534
 20
605.9588223038537
 30
0.0
 10
800.1656553689443
 20
605.783673400839
 30
0.0
 10
800.2265068129459
 20
605.5963919134215
 30
0.0
  0
SPLINE
  5
196
330
1F
100
AcDbEntity
  8
0
  6
SLD-Solid
 62
   142
420
    32960
370
     0
100
AcDbSpline
210
0.0
220
0.0
230
1.0
 70
     8
 71
     3
 72
    16
 73
    12
 74
     0
 42
0.00000001
 43
0.00000001
 40
0.0
 40
0.0
 40
0.0
 40
0.0
 40
0.2499999999999849
 40
0.2499999999999849
 40
0.4999999999999698
 40
0.4999999999999698
 40
0.6249999999999774
 40
0.6249999999999774
 40
0.7499999999999849
 40
0.7499999999999849
 40
1.0
 40
1.0
 40
1.0
 40
1.0
 10
817.3627638003006
 20
563.6666791241291
 30
0.0
 10
817.097240045666
 20
563.4388445235128
 30
0.0
 10
816.8290168609069
 20
563.233736789051
 30
0.0
 10
816.2867326528471
 20
562.8699558637425
 30
0.0
 10
816.0106760706262
 20
562.7110516066307
 30
0.0
 10
815.6149764676344
 20
562.5259362468087
 30
0.0
 10
815.4851775187673
 20
562.4724453281509
 30
0.0
 10
815.229689141783
 20
562.3829666067796
 30
0.0
 10
815.1029932834832
 20
562.3467897089829
 30
0.0
 10
814.7374359392725
 20
562.2693795886154
 30
0.0
 10
814.5140096604543
 20
562.2582365683409
 30
0.0
 10
814.3107625648605
 20
562.2917670392529
 30
0.0
  0
SPLINE
  5
197
330
1F
100
AcDbEntity
  8
0
  6
SLD-Solid
 62
   142
420
    32960
370
     0
100
AcDbSpline
210
0.0
220
0.0
230
1.0
 70
     8
 71
     3
 72
    14
 73
    10
 74
     0
 42
0.00000001
 43
0.00000001
 40
0.0
 40
0.0
 40
0.0
 40
0.0
 40
0.0000095361705259
 40
0.0000095361705259
 40
0.0000095361705259
 40
0.0000219642949668
 40
0.0000219642949668
 40
0.0000219642949668
 40
0.000045054438413
 40
0.000045054438413
 40
0.000045054438413
 40
0.000045054438413
 10
814.3107625648606
 20
562.291767039253
 30
0.0
 10
814.3090961623795
 20
562.2892232555032
 30
0.0
 10
814.3077962476334
 20
562.2865918165326
 30
0.0
 10
814.3069039345143
 20
562.2841224824689
 30
0.0
 10
814.3057402353679
 20
562.280902130913
 30
0.0
 10
814.3051946411774
 20
562.2778467619021
 30
0.0
 10
814.3050261379549
 20
562.2750563646466
 30
0.0
 10
814.3047137952797
 20
562.269883999809
 30
0.0
 10
814.3056021633379
 20
562.2653919351992
 30
0.0
 10
814.3069210327212
 20
562.2613328726105
 30
0.0
  0
SPLINE
  5
198
330
1F
100
AcDbEntity
  8
0
  6
SLD-Solid
 62
     7
370
    15
100
AcDbSpline
210
0.0
220
0.0
230
1.0
 70
     8
 71
     3
 72
     8
 73
     4
 74
     0
 42
0.00000001
 43
0.00000001
 40
0.0
 40
0.0
 40
0.0
 40
0.0
 40
1.0
 40
1.0
 40
1.0
 40
1.0
 10
798.905715177432
 20
611.8255318782799
 30
0.0
 10
805.2331552659784
 20
611.1313953212956
 30
0.0
 10
811.5596843460532
 20
610.429470984285
 30
0.0
 10
817.8835752242119
 20
609.7049939083761
 30
0.0
  0
SPLINE
  5
199
330
1F
100
AcDbEntity
  8
0
  6
SLD-Solid
 62
   142
420
    32960
370
     0
100
AcDbSpline
210
0.0
220
0.0
230
1.0
 70
     8
 71
     3
 72
    17
 73
    13
 74
     0
 42
0.00000001
 43
0.00000001
 40
0.0
 40
0.0
 40
0.0
 40
0.0
 40
0.0000166887075714
 40
0.0000166887075714
 40
0.0000166887075714
 40
0.0000336582619935
 40
0.0000336582619935
 40
0.0000336582619935
 40
0.000042662138224
 40
0.000042662138224
 40
0.000042662138224
 40
0.0000451385286555
 40
0.0000451385286555
 40
0.0000451385286555
 40
0.0000451385286555
 10
799.6596525084618
 20
607.3409900743089
 30
0.0
 10
799.6606072898196
 20
607.3380515594426
 30
0.0
 10
799.6618902071284
 20
607.3350806462726
 30
0.0
 10
799.6637510430426
 20
607.3321420298574
 30
0.0
 10
799.6656288865449
 20
607.3291765552023
 30
0.0
 10
799.6681508271043
 20
607.3261603430211
 30
0.0
 10
799.671730771873
 20
607.323472796977
 30
0.0
 10
799.6736460969967
 20
607.3220349187995
 30
0.0
 10
799.6759185630691
 20
607.3206713873877
 30
0.0
 10
799.6784602459418
 20
607.3195307569839
 30
0.0
 10
799.6791687711285
 20
607.3192127923081
 30
0.0
 10
799.6799002170811
 20
607.3189103729566
 30
0.0
 10
799.6806491275647
 20
607.3186263122233
 30
0.0
  0
SPLINE
  5
19A
330
1F
100
AcDbEntity
  8
0
  6
SLD-Solid
 62
   142
420
    32960
370
     0
100
AcDbSpline
210
0.0
220
0.0
230
1.0
 70
     8
 71
     3
 72
    16
 73
    12
 74
     0
 42
0.00000001
 43
0.00000001
 40
0.0
 40
0.0
 40
0.0
 40
0.0
 40
0.2500000000000163
 40
0.2500000000000163
 40
0.3750000000000245
 40
0.3750000000000245
 40
0.5000000000000326
 40
0.5000000000000326
 40
0.7500000000000163
 40
0.7500000000000163
 40
1.0
 40
1.0
 40
1.0
 40
1.0
 10
799.6806491275647
 20
607.3186263122233
 30
0.0
 10
799.8253707656531
 20
607.4652186783818
 30
0.0
 10
800.01267612519
 20
607.5875304572753
 30
0.0
 10
800.3539187562052
 20
607.7397735701555
 30
0.0
 10
800.4776821056854
 20
607.7849758020691
 30
0.0
 10
800.7369708173469
 20
607.8627582959688
 30
0.0
 10
800.873421545951
 20
607.8957771416369
 30
0.0
 10
801.3023573279152
 20
607.9786020605973
 30
0.0
 10
801.6190933731978
 20
608.0123078039433
 30
0.0
 10
802.2716355762609
 20
608.0367495131877
 30
0.0
 10
802.6091919924638
 20
608.0284715026552
 30
0.0
 10
802.957923040578
 20
608.0002203859572
 30
0.0
  0
SPLINE
  5
19B
330
1F
100
AcDbEntity
  8
0
  6
SLD-Solid
 62
   142
420
    32960
370
     0
100
AcDbSpline
210
0.0
220
0.0
230
1.0
 70
     8
 71
     3
 72
    10
 73
     6
 74
     0
 42
0.00000001
 43
0.00000001
 40
0.0
 40
0.0
 40
0.0
 40
0.0
 40
0.5
 40
0.5
 40
1.0
 40
1.0
 40
1.0
 40
1.0
 10
802.9579230405778
 20
608.0002203859572
 30
0.0
 10
805.859741801669
 20
607.7651405991152
 30
0.0
 10
808.764423531984
 20
607.5112241239901
 30
0.0
 10
814.5788917145512
 20
606.9564881115921
 30
0.0
 10
817.4887143840027
 20
606.6561135158628
 30
0.0
 10
820.4002799061664
 20
606.3211621456048
 30
0.0
  0
LINE
  5
19C
330
1F
100
AcDbEntity
  8
0
  6
SLD-Solid
 62
   142
420
    32960
370
     0
100
AcDbLine
 10
820.4002799062
 20
606.3211621456
 30
0.0
 11
819.3534298637
 21
609.5430352872
 31
0.0
  0
LINE
  5
19D
330
1F
100
AcDbEntity
  8
0
  6
SLD-Solid
 62
   142
420
    32960
370
     0
100
AcDbLine
 10
817.8835752242
 20
609.7049939084
 30
0.0
 11
819.3534298637
 21
609.5430352872
 31
0.0
  0
SPLINE
  5
19E
330
1F
100
AcDbEntity
  8
0
  6
SLD-Solid
 62
   142
420
    32960
370
     0
100
AcDbSpline
210
0.0
220
0.0
230
1.0
 70
     8
 71
     3
 72
    10
 73
     6
 74
     0
 42
0.00000001
 43
0.00000001
 40
0.0
 40
0.0
 40
0.0
 40
0.0
 40
0.5
 40
0.5
 40
1.0
 40
1.0
 40
1.0
 40
1.0
 10
798.905715177432
 20
611.8255318782799
 30
0.0
 10
798.8429115836648
 20
611.8324215950901
 30
0.0
 10
798.7831382181682
 20
611.839208679374
 30
0.0
 10
798.6979571912535
 20
611.8490585712098
 30
0.0
 10
798.6733478145353
 20
611.8519961535765
 30
0.0
 10
798.6733512775616
 20
611.8520278881399
 30
0.0
  0
ARC
  5
19F
330
1F
100
AcDbEntity
  8
0
  6
SLD-Solid
 62
   142
420
    32960
370
     0
100
AcDbCircle
 10
825.7989352312
 20
572.1212781859
 30
0.0
 40
5.651480467574427
100
AcDbArc
 50
33.9496313683
 51
44.8769008127
  0
ARC
  5
1A0
330
1F
100
AcDbEntity
  8
0
  6
SLD-Solid
 62
   142
420
    32960
370
     0
100
AcDbCircle
 10
813.6802904253
 20
561.6630065613
 30
0.0
 40
4.192292200785579
100
AcDbArc
 50
28.5510775205
 51
45.205872348
  0
SPLINE
  5
1A1
330
1F
100
AcDbEntity
  8
0
  6
SLD-Solid
 62
   142
420
    32960
370
     0
100
AcDbSpline
210
0.0
220
0.0
230
1.0
 70
     8
 71
     3
 72
    10
 73
     6
 74
     0
 42
0.00000001
 43
0.00000001
 40
0.0
 40
0.0
 40
0.0
 40
0.0
 40
0.5
 40
0.5
 40
1.0
 40
1.0
 40
1.0
 40
1.0
 10
820.3362056658257
 20
605.2468715624597
 30
0.0
 10
817.432326810748
 20
605.5534509906015
 30
0.0
 10
814.5301312714788
 20
605.8290488992648
 30
0.0
 10
808.7308016020366
 20
606.3379192171099
 30
0.0
 10
805.8336347515414
 20
606.5708125080027
 30
0.0
 10
802.9393052624008
 20
606.7860291975533
 30
0.0
  0
LINE
  5
1A2
330
1F
100
AcDbEntity
  8
0
  6
SLD-Solid
 62
     7
370
    15
100
AcDbLine
 10
821.1937440466
 20
605.7872306095
 30
0.0
 11
830.8150901464
 21
576.1757721124
 31
0.0
  0
ARC
  5
1A3
330
1F
100
AcDbEntity
  8
0
  6
SLD-Solid
 62
   142
420
    32960
370
     0
100
AcDbCircle
 10
820.1906166297
 20
606.4285454456
 30
0.0
 40
1.190608807908249
100
AcDbArc
 50
277.0237736414
 51
327.4085911735
  0
ARC
  5
1A4
330
1F
100
AcDbEntity
  8
0
  6
SLD-Solid
 62
   142
420
    32960
370
     0
100
AcDbCircle
 10
830.3804984214
 20
575.0673140095
 30
0.0
 40
1.190608807907427
100
AcDbArc
 50
68.5914088265
 51
118.9762263586
  0
LINE
  5
1A5
330
1F
100
AcDbEntity
  8
0
  6
SLD-Solid
 62
     7
370
    15
100
AcDbLine
 10
830.8150901464
 20
576.1757721124
 30
0.0
 11
831.830442545
 21
573.0508387509
 31
0.0
  0
ARC
  5
1A6
330
1F
100
AcDbEntity
  8
0
  6
SLD-Solid
 62
   142
420
    32960
370
     0
100
AcDbCircle
 10
830.0072078739
 20
575.9617377979
 30
0.0
 40
0.8357538238404867
100
AcDbArc
 50
305.0355498025
 51
14.8386162463
  0
LINE
  5
1A7
330
1F
100
AcDbEntity
  8
0
  6
SLD-Solid
 62
   142
420
    32960
370
     0
100
AcDbLine
 10
820.1968602397
 20
608.8553234905
 30
0.0
 11
821.1937440466
 21
605.7872306095
 31
0.0
  0
SPLINE
  5
1A8
330
1F
100
AcDbEntity
  8
0
  6
SLD-Solid
 62
   142
420
    32960
370
     0
100
AcDbSpline
210
0.0
220
0.0
230
1.0
 70
     8
 71
     3
 72
    12
 73
     8
 74
     0
 42
0.00000001
 43
0.00000001
 40
0.0
 40
0.0
 40
0.0
 40
0.0
 40
0.250000000000046
 40
0.250000000000046
 40
0.5000000000000919
 40
0.5000000000000919
 40
1.0
 40
1.0
 40
1.0
 40
1.0
 10
820.1968602396593
 20
608.8553234904506
 30
0.0
 10
820.1669832519809
 20
608.9472754035683
 30
0.0
 10
820.1248431536899
 20
609.032800547912
 30
0.0
 10
820.0165542661298
 20
609.1912685228295
 30
0.0
 10
819.9510572323194
 20
609.2625666425257
 30
0.0
 10
819.7292036990821
 20
609.4439109200438
 30
0.0
 10
819.5456469536799
 20
609.5218492062562
 30
0.0
 10
819.3534298637132
 20
609.5430352871538
 30
0.0
  0
SPLINE
  5
1A9
330
1F
100
AcDbEntity
  8
0
  6
SLD-Solid
 62
     7
370
    15
100
AcDbSpline
210
0.0
220
0.0
230
1.0
 70
     8
 71
     3
 72
    12
 73
     8
 74
     0
 42
0.00000001
 43
0.00000001
 40
0.0
 40
0.0
 40
0.0
 40
0.0
 40
0.25
 40
0.25
 40
0.5
 40
0.5
 40
1.0
 40
1.0
 40
1.0
 40
1.0
 10
814.3107625648606
 20
562.291767039253
 30
0.0
 10
814.3597142087784
 20
562.3664923218607
 30
0.0
 10
814.3995988985935
 20
562.4470724422907
 30
0.0
 10
814.4616862254225
 20
562.6196504636237
 30
0.0
 10
814.4831907375949
 20
562.7106813406999
 30
0.0
 10
814.5164752901952
 20
562.9850669926025
 30
0.0
 10
814.4962659487203
 20
563.174716011053
 30
0.0
 10
814.4373159919643
 20
563.3379639388094
 30
0.0
  0
SPLINE
  5
1AA
330
1F
100
AcDbEntity
  8
0
  6
SLD-Solid
 62
   142
420
    32960
370
     0
100
AcDbSpline
210
0.0
220
0.0
230
1.0
 70
     8
 71
     3
 72
    12
 73
     8
 74
     0
 42
0.00000001
 43
0.00000001
 40
0.0
 40
0.0
 40
0.0
 40
0.0
 40
0.25
 40
0.25
 40
0.5
 40
0.5
 40
1.0
 40
1.0
 40
1.0
 40
1.0
 10
799.6806491275647
 20
607.3186263122233
 30
0.0
 10
799.7641742584868
 20
607.2869453430548
 30
0.0
 10
799.8438054567798
 20
607.2451982886842
 30
0.0
 10
799.9954739751287
 20
607.1420737516348
 30
0.0
 10
800.0663780979783
 20
607.0810682601782
 30
0.0
 10
800.2545857063097
 20
606.8786497739238
 30
0.0
 10
800.3497089017595
 20
606.7133417421451
 30
0.0
 10
800.3979721093408
 20
606.5466214791013
 30
0.0
  0
ARC
  5
1AB
330
1F
100
AcDbEntity
  8
0
  6
SLD-Solid
 62
   142
420
    32960
370
     0
100
AcDbCircle
 10
798.801010316
 20
607.4567219986
 30
0.0
 40
4.192292200799396
100
AcDbArc
 50
350.7941276521
 51
7.4489224795
  0
SPLINE
  5
1AC
330
1F
100
AcDbEntity
  8
0
  6
SLD-Solid
 62
   142
420
    32960
370
     0
100
AcDbSpline
210
0.0
220
0.0
230
1.0
 70
     8
 71
     3
 72
     9
 73
     5
 74
     0
 42
0.00000001
 43
0.00000001
 40
0.0
 40
0.0
 40
0.0
 40
0.0
 40
0.0997528039123809
 40
1.0
 40
1.0
 40
1.0
 40
1.0
 10
805.4750953402774
 20
578.9173386882818
 30
0.0
 10
805.4623663761254
 20
578.9067876662086
 30
0.0
 10
805.3347612998474
 20
578.8010159820132
 30
0.0
 10
805.1798151486191
 20
578.7480714679057
 30
0.0
 10
805.0403253104315
 20
578.700408317532
 30
0.0
  0
LINE
  5
1AD
330
1F
100
AcDbEntity
  8
0
  6
SLD-Solid
 62
   142
420
    32960
370
     0
100
AcDbLine
 10
157.0822767447
 20
647.3333724201
 30
0.0
 11
157.0822767447
 21
641.9333724201
 31
0.0
  0
ARC
  5
1AE
330
1F
100
AcDbEntity
  8
0
  6
SLD-Solid
 62
   142
420
    32960
370
     0
100
AcDbCircle
 10
680.5322767447
 20
655.6833724201
 30
0.0
 40
1.250000000000114
100
AcDbArc
 50
90.0
 51
180.0
  0
LINE
  5
1AF
330
1F
100
AcDbEntity
  8
0
  6
SLD-Solid
 62
   142
420
    32960
370
     0
100
AcDbLine
 10
679.2822767447
 20
655.6833724201
 30
0.0
 11
678.0822767447
 21
655.6833724201
 31
0.0
  0
ARC
  5
1B0
330
1F
100
AcDbEntity
  8
0
  6
SLD-Solid
 62
   142
420
    32960
370
     0
100
AcDbCircle
 10
680.5322767447
 20
655.6833724201
 30
0.0
 40
2.450000000000045
100
AcDbArc
 50
90.0
 51
180.0
  0
LINE
  5
1B1
330
1F
100
AcDbEntity
  8
0
  6
SLD-Solid
 62
     7
370
    15
100
AcDbLine
 10
702.3322767447
 20
658.1333724201
 30
0.0
 11
680.5322767447
 21
658.1333724201
 31
0.0
  0
LINE
  5
1B2
330
1F
100
AcDbEntity
  8
0
  6
SLD-Solid
 62
   142
420
    32960
370
     0
100
AcDbLine
 10
702.3322767447
 20
656.9333724201
 30
0.0
 11
680.5322767447
 21
656.9333724201
 31
0.0
  0
LINE
  5
1B3
330
1F
100
AcDbEntity
  8
0
  6
SLD-Solid
 62
   142
420
    32960
370
     0
100
AcDbLine
 10
703.5822767447
 20
659.3833724201
 30
0.0
 11
704.7822767447
 21
659.3833724201
 31
0.0
  0
ARC
  5
1B4
330
1F
100
AcDbEntity
  8
0
  6
SLD-Solid
 62
   142
420
    32960
370
     0
100
AcDbCircle
 10
702.3322767447
 20
659.3833724201
 30
0.0
 40
1.25
100
AcDbArc
 50
270.0
 51
0.0
  0
ARC
  5
1B5
330
1F
100
AcDbEntity
  8
0
  6
SLD-Solid
 62
   142
420
    32960
370
     0
100
AcDbCircle
 10
702.3322767447
 20
659.3833724201
 30
0.0
 40
2.450000000000045
100
AcDbArc
 50
270.0
 51
0.0
  0
LINE
  5
1B6
330
1F
100
AcDbEntity
  8
0
  6
SLD-Solid
 62
   142
420
    32960
370
     0
100
AcDbLine
 10
55.3822767447
 20
640.9333724201
 30
0.0
 11
55.3822767447
 21
639.3845488634
 31
0.0
  0
LINE
  5
1B7
330
1F
100
AcDbEntity
  8
0
  6
SLD-Solid
 62
   142
420
    32960
370
     0
100
AcDbLine
 10
55.3822767447
 20
-40.6196050792
 30
0.0
 11
55.3822767447
 21
-41.2666275799
 31
0.0
  0
LINE
  5
1B8
330
1F
100
AcDbEntity
  8
0
  6
SLD-Solid
 62
   142
420
    32960
370
     0
100
AcDbLine
 10
56.1822767447
 20
640.0232149449
 30
0.0
 11
56.1822767447
 21
639.0524863442
 31
0.0
  0
LINE
  5
1B9
330
1F
100
AcDbEntity
  8
0
  6
SLD-Solid
 62
   142
420
    32960
370
     0
100
AcDbLine
 10
56.1822767447
 20
-40.2666275799
 30
0.0
 11
56.1822767447
 21
-40.8194673106
 31
0.0
  0
LINE
  5
1BA
330
1F
100
AcDbEntity
  8
0
  6
SLD-Solid
 62
   142
420
    32960
370
     0
100
AcDbLine
 10
55.7522695375
 20
-41.2666275799
 30
0.0
 11
55.3822767447
 21
-41.2666275799
 31
0.0
  0
LINE
  5
1BB
330
1F
100
AcDbEntity
  8
0
  6
SLD-Solid
 62
   142
420
    32960
370
     0
100
AcDbLine
 10
821.1822767447
 20
-6.3666275791
 30
0.0
 11
822.7822767447
 21
-6.3666275791
 31
0.0
  0
LINE
  5
1BC
330
1F
100
AcDbEntity
  8
0
  6
SLD-Solid
 62
   142
420
    32960
370
     0
100
AcDbLine
 10
830.5265410108
 20
509.7323390021
 30
0.0
 11
829.2446290155
 21
508.1971837538
 31
0.0
  0
LINE
  5
1BD
330
1F
100
AcDbEntity
  8
0
  6
SLD-Solid
 62
     7
370
    15
100
AcDbLine
 10
830.5265410108
 20
509.7323390021
 30
0.0
 11
836.2797630245
 21
516.6221169286
 31
0.0
  0
ARC
  5
1BE
330
1F
100
AcDbEntity
  8
0
  6
SLD-Solid
 62
     7
370
    15
100
AcDbCircle
 10
827.9899246837
 20
523.5444417032
 30
0.0
 40
10.79999999999998
100
AcDbArc
 50
320.1368571726
 51
70.1368571726
  0
ARC
  5
1BF
330
1F
100
AcDbEntity
  8
0
  6
SLD-Solid
 62
     7
370
    15
100
AcDbCircle
 10
827.9899246837
 20
523.5444417032
 30
0.0
 40
9.999999999999865
100
AcDbArc
 50
320.1368571726
 51
70.1368571726
  0
LINE
  5
1C0
330
1F
100
AcDbEntity
  8
0
  6
SLD-Solid
 62
   142
420
    32960
370
     0
100
AcDbLine
 10
829.9124789115
 20
510.2451038002
 30
0.0
 11
830.5265410108
 21
509.7323390021
 31
0.0
  0
LINE
  5
1C1
330
1F
100
AcDbEntity
  8
0
  6
SLD-Solid
 62
     7
370
    15
100
AcDbLine
 10
829.9124789115
 20
510.2451038002
 30
0.0
 11
835.6657009252
 21
517.1348817267
 31
0.0
  0
LINE
  5
1C2
330
1F
100
AcDbEntity
  8
0
  6
SLD-Solid
 62
   142
420
    32960
370
     0
100
AcDbLine
 10
809.2071667757
 20
541.8132119166
 30
0.0
 11
808.935347086
 21
541.9114115476
 31
0.0
  0
LINE
  5
1C3
330
1F
100
AcDbEntity
  8
0
  6
SLD-Solid
 62
     7
370
    15
100
AcDbLine
 10
831.6594904956
 20
533.701916131
 30
0.0
 11
813.9097012331
 21
540.1143388556
 31
0.0
  0
LINE
  5
1C4
330
1F
100
AcDbEntity
  8
0
  6
SLD-Solid
 62
   142
420
    32960
370
     0
100
AcDbLine
 10
809.2071667757
 20
541.8132119166
 30
0.0
 11
813.9097012331
 21
540.1143388556
 31
0.0
  0
LINE
  5
1C5
330
1F
100
AcDbEntity
  8
0
  6
SLD-Solid
 62
     7
370
    15
100
AcDbLine
 10
831.3876708058
 20
532.9495106178
 30
0.0
 11
813.6378815433
 21
539.3619333424
 31
0.0
  0
LINE
  5
1C6
330
1F
100
AcDbEntity
  8
0
  6
SLD-Solid
 62
   142
420
    32960
370
     0
100
AcDbLine
 10
813.9097012331
 20
540.1143388556
 30
0.0
 11
813.6378815433
 21
539.3619333424
 31
0.0
  0
LINE
  5
1C7
330
1F
100
AcDbEntity
  8
0
  6
SLD-Solid
 62
   142
420
    32960
370
     0
100
AcDbLine
 10
808.935347086
 20
541.0608064035
 30
0.0
 11
808.6635273962
 21
541.1590060344
 31
0.0
  0
LINE
  5
1C8
330
1F
100
AcDbEntity
  8
0
  6
SLD-Solid
 62
   142
420
    32960
370
     0
100
AcDbLine
 10
813.6378815433
 20
539.3619333424
 30
0.0
 11
808.935347086
 21
541.0608064035
 31
0.0
  0
LINE
  5
1C9
330
1F
100
AcDbEntity
  8
0
  6
SLD-Solid
 62
   142
420
    32960
370
     0
100
AcDbLine
 10
828.6305669162
 20
508.7099485519
 30
0.0
 11
829.9124789115
 21
510.2451038002
 31
0.0
  0
LINE
  5
1CA
330
1F
100
AcDbEntity
  8
0
  6
SLD-Solid
 62
   142
420
    32960
370
     0
100
AcDbLine
 10
829.2446290155
 20
508.1971837538
 30
0.0
 11
828.6305669162
 21
508.7099485519
 31
0.0
  0
ARC
  5
1CB
330
1F
100
AcDbEntity
  8
0
  6
SLD-Solid
 62
   142
420
    32960
370
     0
100
AcDbCircle
 10
808.2388091309
 20
539.9833724201
 30
0.0
 40
2.050000000000117
100
AcDbArc
 50
70.1368571726
 51
90.0
  0
LINE
  5
1CC
330
1F
100
AcDbEntity
  8
0
  6
SLD-Solid
 62
   142
420
    32960
370
     0
100
AcDbLine
 10
761.9322767447
 20
642.9833724201
 30
0.0
 11
761.9322767447
 21
640.5333724201
 31
0.0
  0
LINE
  5
1CD
330
1F
100
AcDbEntity
  8
0
  6
SLD-Solid
 62
   142
420
    32960
370
     0
100
AcDbLine
 10
761.9322767447
 20
640.5333724201
 30
0.0
 11
760.8548954663
 21
640.5333724201
 31
0.0
  0
LINE
  5
1CE
330
1F
100
AcDbEntity
  8
0
  6
SLD-Solid
 62
   142
420
    32960
370
     0
100
AcDbLine
 10
679.2922767447
 20
640.803442141
 30
0.0
 11
679.2922767447
 21
642.9833724201
 31
0.0
  0
LINE
  5
1CF
330
1F
100
AcDbEntity
  8
0
  6
SLD-Solid
 62
     7
370
    15
100
AcDbLine
 10
782.3764301726
 20
625.5833724201
 30
0.0
 11
782.3764301726
 21
623.1333724201
 31
0.0
  0
LINE
  5
1D0
330
1F
100
AcDbEntity
  8
0
  6
SLD-Solid
 62
   142
420
    32960
370
     0
100
AcDbLine
 10
762.1822767447
 20
623.1333724201
 30
0.0
 11
764.1822767447
 21
623.1333724201
 31
0.0
  0
LINE
  5
1D1
330
1F
100
AcDbEntity
  8
0
  6
SLD-Solid
 62
   142
420
    32960
370
     0
100
AcDbLine
 10
780.4214375606
 20
623.1333724201
 30
0.0
 11
782.3764301726
 21
623.1333724201
 31
0.0
  0
LINE
  5
1D2
330
1F
100
AcDbEntity
  8
0
  6
SLD-Solid
 62
   142
420
    32960
370
     0
100
AcDbLine
 10
762.1822767447
 20
623.1333724201
 30
0.0
 11
762.1822767447
 21
625.5833724201
 31
0.0
  0
LINE
  5
1D3
330
1F
100
AcDbEntity
  8
0
  6
SLD-Solid
 62
     7
370
    15
100
AcDbLine
 10
782.6264301726
 20
624.4420755139
 30
0.0
 11
806.1215647596
 21
634.6580507837
 31
0.0
  0
LINE
  5
1D4
330
1F
100
AcDbEntity
  8
0
  6
SLD-Solid
 62
   142
420
    32960
370
     0
100
AcDbLine
 10
679.2922767447
 20
655.6833724201
 30
0.0
 11
679.2922767447
 21
642.9833724201
 31
0.0
  0
ARC
  5
1D5
330
1F
100
AcDbEntity
  8
0
  6
SLD-Solid
 62
   142
420
    32960
370
     0
100
AcDbCircle
 10
680.5322767447
 20
655.6833724201
 30
0.0
 40
1.240000000000123
100
AcDbArc
 50
90.0
 51
180.0
  0
LINE
  5
1D6
330
1F
100
AcDbEntity
  8
0
  6
SLD-Solid
 62
     7
370
    15
100
AcDbLine
 10
702.3322767447
 20
656.9233724201
 30
0.0
 11
680.5322767447
 21
656.9233724201
 31
0.0
  0
ARC
  5
1D7
330
1F
100
AcDbEntity
  8
0
  6
SLD-Solid
 62
     7
370
    15
100
AcDbCircle
 10
702.3322767447
 20
659.3833724201
 30
0.0
 40
2.460000000000036
100
AcDbArc
 50
270.0
 51
0.0
  0
LINE
  5
1D8
330
1F
100
AcDbEntity
  8
0
  6
SLD-Solid
 62
     7
370
    15
100
AcDbLine
 10
704.7922767447
 20
675.6333724201
 30
0.0
 11
704.7922767447
 21
659.3833724201
 31
0.0
  0
LINE
  5
1D9
330
1F
100
AcDbEntity
  8
0
  6
SLD-Solid
 62
   142
420
    32960
370
     0
100
AcDbLine
 10
706.0322767447
 20
675.6333724201
 30
0.0
 11
704.7922767447
 21
675.6333724201
 31
0.0
  0
LINE
  5
1DA
330
1F
100
AcDbEntity
  8
0
  6
SLD-Solid
 62
   142
420
    32960
370
     0
100
AcDbLine
 10
706.0322767447
 20
675.6833724201
 30
0.0
 11
706.0322767447
 21
675.6333724201
 31
0.0
  0
LINE
  5
1DB
330
1F
100
AcDbEntity
  8
0
  6
SLD-Solid
 62
   142
420
    32960
370
     0
100
AcDbLine
 10
797.3490852432
 20
675.6333724201
 30
0.0
 11
797.3490852432
 21
675.6833724201
 31
0.0
  0
LINE
  5
1DC
330
1F
100
AcDbEntity
  8
0
  6
SLD-Solid
 62
   142
420
    32960
370
     0
100
AcDbLine
 10
797.8490852432
 20
675.6333724201
 30
0.0
 11
797.3490852432
 21
675.6333724201
 31
0.0
  0
LINE
  5
1DD
330
1F
100
AcDbEntity
  8
0
  6
SLD-Solid
 62
   142
420
    32960
370
     0
100
AcDbLine
 10
797.8490852432
 20
676.8276898681
 30
0.0
 11
797.8490852432
 21
675.6333724201
 31
0.0
  0
ARC
  5
1DE
330
1F
100
AcDbEntity
  8
0
  6
SLD-Solid
 62
     7
370
    15
100
AcDbCircle
 10
797.3490852432
 20
654.8333724201
 30
0.0
 40
22.0000000000001
100
AcDbArc
 50
293.5
 51
88.6977110648
  0
LINE
  5
1DF
330
1F
100
AcDbEntity
  8
0
  6
SLD-Solid
 62
   142
420
    32960
370
     0
100
AcDbLine
 10
782.6264301726
 20
624.4420755139
 30
0.0
 11
782.6264301726
 21
625.5833724201
 31
0.0
  0
ARC
  5
1E0
330
1F
100
AcDbEntity
  8
0
  6
SLD-Solid
 62
   142
420
    32960
370
     0
100
AcDbCircle
 10
782.5014301726
 20
625.5833724201
 30
0.0
 40
0.125
100
AcDbArc
 50
0.0
 51
180.0
  0
LINE
  5
1E1
330
1F
100
AcDbEntity
  8
0
  6
SLD-Solid
 62
   142
420
    32960
370
     0
100
AcDbLine
 10
762.1822767447
 20
643.0333724201
 30
0.0
 11
762.1822767447
 21
625.5833724201
 31
0.0
  0
LINE
  5
1E2
330
1F
100
AcDbEntity
  8
0
  6
SLD-Solid
 62
   142
420
    32960
370
     0
100
AcDbLine
 10
762.1718411371
 20
643.0333724201
 30
0.0
 11
762.1822767447
 21
643.0333724201
 31
0.0
  0
ARC
  5
1E3
330
1F
100
AcDbEntity
  8
0
  6
SLD-Solid
 62
   142
420
    32960
370
     0
100
AcDbCircle
 10
762.0572767447
 20
642.9833724201
 30
0.0
 40
0.1249999999999857
100
AcDbArc
 50
23.5781784781
 51
156.4218215219
  0
LINE
  5
1E4
330
1F
100
AcDbEntity
  8
0
  6
SLD-Solid
 62
   142
420
    32960
370
     0
100
AcDbLine
 10
761.9322767447
 20
643.0333724201
 30
0.0
 11
761.9427123524
 21
643.0333724201
 31
0.0
  0
LINE
  5
1E5
330
1F
100
AcDbEntity
  8
0
  6
SLD-Solid
 62
   142
420
    32960
370
     0
100
AcDbLine
 10
761.9322767447
 20
642.9833724201
 30
0.0
 11
761.9322767447
 21
643.0333724201
 31
0.0
  0
ARC
  5
1E6
330
1F
100
AcDbEntity
  8
0
  6
SLD-Solid
 62
   142
420
    32960
370
     0
100
AcDbCircle
 10
785.341148381
 20
639.5261720588
 30
0.0
 40
0.2500000000000596
100
AcDbArc
 50
99.9421486626
 51
279.9421486627
  0
ARC
  5
1E7
330
1F
100
AcDbEntity
  8
0
  6
SLD-Solid
 62
     7
370
    15
100
AcDbCircle
 10
784.8490852432
 20
642.3333724201
 30
0.0
 40
3.100000000000181
100
AcDbArc
 50
279.9421486627
 51
80.0578513373
  0
ARC
  5
1E8
330
1F
100
AcDbEntity
  8
0
  6
SLD-Solid
 62
   142
420
    32960
370
     0
100
AcDbCircle
 10
785.341148381
 20
645.1405727814
 30
0.0
 40
0.2500000000000596
100
AcDbArc
 50
80.0578513373
 51
260.0578513374
  0
ARC
  5
1E9
330
1F
100
AcDbEntity
  8
0
  6
SLD-Solid
 62
     7
370
    15
100
AcDbCircle
 10
784.8490852432
 20
642.3333724201
 30
0.0
 40
2.600000000000082
100
AcDbArc
 50
279.9421486627
 51
80.0578513373
  0
ARC
  5
1EA
330
1F
100
AcDbEntity
  8
0
  6
SLD-Solid
 62
   142
420
    32960
370
     0
100
AcDbCircle
 10
784.3570221054
 20
645.1405727814
 30
0.0
 40
0.2500000000000596
100
AcDbArc
 50
279.9421486627
 51
99.9421486627
  0
ARC
  5
1EB
330
1F
100
AcDbEntity
  8
0
  6
SLD-Solid
 62
   142
420
    32960
370
     0
100
AcDbCircle
 10
784.8490852432
 20
642.3333724201
 30
0.0
 40
3.100000000000161
100
AcDbArc
 50
99.9421486627
 51
260.0578513373
  0
ARC
  5
1EC
330
1F
100
AcDbEntity
  8
0
  6
SLD-Solid
 62
   142
420
    32960
370
     0
100
AcDbCircle
 10
784.3570221054
 20
639.5261720588
 30
0.0
 40
0.2500000000000793
100
AcDbArc
 50
260.0578513374
 51
80.0578513373
  0
ARC
  5
1ED
330
1F
100
AcDbEntity
  8
0
  6
SLD-Solid
 62
   142
420
    32960
370
     0
100
AcDbCircle
 10
784.8490852432
 20
642.3333724201
 30
0.0
 40
2.600000000000042
100
AcDbArc
 50
99.9421486627
 51
260.0578513373
  0
LINE
  5
1EE
330
1F
100
AcDbEntity
  8
0
  6
SLD-Solid
 62
     7
370
    15
100
AcDbLine
 10
706.0322767447
 20
675.6833724201
 30
0.0
 11
706.0322767447
 21
678.1333724201
 31
0.0
  0
LINE
  5
1EF
330
1F
100
AcDbEntity
  8
0
  6
SLD-Solid
 62
     7
370
    15
100
AcDbLine
 10
706.0322767447
 20
678.1333724201
 30
0.0
 11
797.3490852432
 21
678.1333724201
 31
0.0
  0
LINE
  5
1F0
330
1F
100
AcDbEntity
  8
0
  6
SLD-Solid
 62
   142
420
    32960
370
     0
100
AcDbLine
 10
797.3490852432
 20
678.1333724201
 30
0.0
 11
797.3490852432
 21
675.6833724201
 31
0.0
  0
LINE
  5
1F1
330
1F
100
AcDbEntity
  8
0
  6
SLD-Solid
 62
   142
420
    32960
370
     0
100
AcDbLine
 10
703.5822767447
 20
675.6833724201
 30
0.0
 11
703.5822767447
 21
659.3833724201
 31
0.0
  0
LINE
  5
1F2
330
1F
100
AcDbEntity
  8
0
  6
SLD-Solid
 62
   142
420
    32960
370
     0
100
AcDbLine
 10
784.3858958706
 20
623.7895395374
 30
0.0
 11
806.6399385492
 21
633.465872687
 31
0.0
  0
LINE
  5
1F3
330
1F
100
AcDbEntity
  8
0
  6
SLD-Solid
 62
   142
420
    32960
370
     0
100
AcDbLine
 10
784.3858958706
 20
623.7895395374
 30
0.0
 11
783.4688357962
 21
623.3907904685
 31
0.0
  0
ARC
  5
1F4
330
1F
100
AcDbEntity
  8
0
  6
SLD-Solid
 62
     7
370
    15
100
AcDbCircle
 10
797.3490852432
 20
654.8333724201
 30
0.0
 40
23.30000000000002
100
AcDbArc
 50
293.5
 51
88.7703824493
  0
ARC
  5
1F5
330
1F
100
AcDbEntity
  8
0
  6
SLD-Solid
 62
   142
420
    32960
370
     0
100
AcDbCircle
 10
797.3490852432
 20
654.8333724201
 30
0.0
 40
23.30000000000002
100
AcDbArc
 50
88.7703824493
 51
90.0
  0
ARC
  5
1F6
330
1F
100
AcDbEntity
  8
0
  6
SLD-Solid
 62
     7
370
    15
100
AcDbCircle
 10
797.3490852432
 20
654.8333724201
 30
0.0
 40
22.09999999999997
100
AcDbArc
 50
293.5
 51
88.703604783
  0
ARC
  5
1F7
330
1F
100
AcDbEntity
  8
0
  6
SLD-Solid
 62
   142
420
    32960
370
     0
100
AcDbCircle
 10
797.3490852432
 20
654.8333724201
 30
0.0
 40
22.10000000000002
100
AcDbArc
 50
88.703604783
 51
90.0
  0
LINE
  5
1F8
330
1F
100
AcDbEntity
  8
0
  6
SLD-Solid
 62
   142
420
    32960
370
     0
100
AcDbLine
 10
797.8490852432
 20
676.9277155876
 30
0.0
 11
797.8490852432
 21
678.1280069955
 31
0.0
  0
LINE
  5
1F9
330
1F
100
AcDbEntity
  8
0
  6
SLD-Solid
 62
   142
420
    32960
370
     0
100
AcDbLine
 10
806.6399385492
 20
633.465872687
 30
0.0
 11
806.1614396665
 21
634.5663447762
 31
0.0
  0
ARC
  5
1FA
330
1F
100
AcDbEntity
  8
0
  6
SLD-Solid
 62
   142
420
    32960
370
     0
100
AcDbCircle
 10
706.0322767447
 20
675.6833724201
 30
0.0
 40
2.450000000000045
100
AcDbArc
 50
90.0
 51
180.0
  0
LINE
  5
1FB
330
1F
100
AcDbEntity
  8
0
  6
SLD-Solid
 62
   142
420
    32960
370
     0
100
AcDbLine
 10
792.3443496722
 20
628.5585030608
 30
0.0
 11
786.4751651962
 21
626.0065090196
 31
0.0
  0
LINE
  5
1FC
330
1F
100
AcDbEntity
  8
0
  6
SLD-Solid
 62
   142
420
    32960
370
     0
100
AcDbLine
 10
796.7462380293
 20
630.4724985916
 30
0.0
 11
792.3443496722
 21
628.5585030608
 31
0.0
  0
LINE
  5
1FD
330
1F
100
AcDbEntity
  8
0
  6
SLD-Solid
 62
   142
420
    32960
370
     0
100
AcDbLine
 10
796.7462380293
 20
630.4724985916
 30
0.0
 11
797.224736912
 21
629.3720265023
 31
0.0
  0
LINE
  5
1FE
330
1F
100
AcDbEntity
  8
0
  6
SLD-Solid
 62
   142
420
    32960
370
     0
100
AcDbLine
 10
822.7822767447
 20
51.6389945412
 30
0.0
 11
822.7822767447
 21
-4.3726442492
 31
0.0
  0
SPLINE
  5
1FF
330
1F
100
AcDbEntity
  8
0
  6
SLD-Solid
 62
   142
420
    32960
370
     0
100
AcDbSpline
210
0.0
220
0.0
230
1.0
 70
     8
 71
     3
 72
    19
 73
    15
 74
     0
 42
0.00000001
 43
0.00000001
 40
0.0
 40
0.0
 40
0.0
 40
0.0
 40
0.0570993991126189
 40
0.1156579135416848
 40
0.175681405434306
 40
0.2371753153706688
 40
0.3001447001954016
 40
0.3645942668468676
 40
0.4305284026613339
 40
0.497951202566802
 40
0.616222681230533
 40
0.7486233071240641
 40
0.8538653653140834
 40
0.9999999999999999
 40
0.9999999999999999
 40
0.9999999999999999
 40
0.9999999999999999
 10
822.7822767447435
 20
51.63899454118792
 30
0.0
 10
822.830904611088
 20
51.63217322441824
 30
0.0
 10
822.9294029779501
 20
51.61835627927608
 30
0.0
 10
823.0711884577529
 20
51.59500937472078
 30
0.0
 10
823.2098363761378
 20
51.56943768507652
 30
0.0
 10
823.3437935023566
 20
51.54145825427503
 30
0.0
 10
823.4721382938859
 20
51.51112188997653
 30
0.0
 10
823.593706592527
 20
51.47841435005915
 30
0.0
 10
823.7073593033657
 20
51.44333978552698
 30
0.0
 10
823.8373496269274
 20
51.39675938131083
 30
0.0
 10
823.9754345658255
 20
51.33465618964603
 30
0.0
 10
824.0868912489293
 20
51.26189581354809
 30
0.0
 10
824.1657477210689
 20
51.18084929278429
 30
0.0
 10
824.1762002818381
 20
51.12697566139907
 30
0.0
 10
824.1822767447435
 20
51.09565691282453
 30
0.0
  0
LINE
  5
200
330
1F
100
AcDbEntity
  8
0
  6
SLD-Solid
 62
     7
370
    15
100
AcDbLine
 10
824.1822767447
 20
51.0956569128
 30
0.0
 11
824.1822767447
 21
-3.828912071
 31
0.0
  0
SPLINE
  5
201
330
1F
100
AcDbEntity
  8
0
  6
SLD-Solid
 62
   142
420
    32960
370
     0
100
AcDbSpline
210
0.0
220
0.0
230
1.0
 70
     8
 71
     3
 72
    19
 73
    15
 74
     0
 42
0.00000001
 43
0.00000001
 40
0.0
 40
0.0
 40
0.0
 40
0.0
 40
0.0570959080926614
 40
0.1156518052371123
 40
0.1756735616979766
 40
0.2371666253302746
 40
0.3001360595090985
 40
0.3645865770444561
 40
0.4305225705602972
 40
0.4979481397533487
 40
0.6162043907298319
 40
0.7486213188526912
 40
0.8538534972356919
 40
1.0
 40
1.0
 40
1.0
 40
1.0
 10
822.7822767447436
 20
-4.372644249178603
 30
0.0
 10
822.8309023117251
 20
-4.365818293016077
 30
0.0
 10
822.9293968411923
 20
-4.351991835411074
 30
0.0
 10
823.0711779604527
 20
-4.328628645134003
 30
0.0
 10
823.2098237895556
 20
-4.303038784855051
 30
0.0
 10
823.3437808586878
 20
-4.275039161420969
 30
0.0
 10
823.4721273279155
 20
-4.244680616454777
 30
0.0
 10
823.5936986860708
 20
-4.211948917829444
 30
0.0
 10
823.7073554230607
 20
-4.176848136808187
 30
0.0
 10
823.8373406027513
 20
-4.130236834984147
 30
0.0
 10
823.9754288721664
 20
-4.068087954660182
 30
0.0
 10
824.0868848250012
 20
-3.995277048959689
 30
0.0
 10
824.1657462608376
 20
-3.914168696276532
 30
0.0
 10
824.1761994633293
 20
-3.860255890523467
 30
0.0
 10
824.1822767447435
 20
-3.828912070995671
 30
0.0
  0
SPLINE
  5
202
330
1F
100
AcDbEntity
  8
0
  6
SLD-Solid
 62
   142
420
    32960
370
     0
100
AcDbSpline
210
0.0
220
0.0
230
1.0
 70
     8
 71
     3
 72
    19
 73
    15
 74
     0
 42
0.00000001
 43
0.00000001
 40
0.0
 40
0.0
 40
0.0
 40
0.0
 40
0.0571115640935923
 40
0.115681259286636
 40
0.1757147833893904
 40
0.2372174247608635
 40
0.3001940990521364
 40
0.364649382058448
 40
0.4305875391447074
 40
0.498012551648669
 40
0.616261616538448
 40
0.7486631924159509
 40
0.8538790033185847
 40
1.0
 40
1.0
 40
1.0
 40
1.0
 10
822.7822767447435
 20
53.63337242091445
 30
0.0
 10
822.8309019408044
 20
53.60155948551912
 30
0.0
 10
822.9293937962221
 20
53.53712138989797
 30
0.0
 10
823.0711752614939
 20
53.42850243357925
 30
0.0
 10
823.2098210176322
 20
53.30940303586962
 30
0.0
 10
823.3437781894369
 20
53.17886951873271
 30
0.0
 10
823.472124759575
 20
53.03706730709892
 30
0.0
 10
823.5936962655887
 20
52.88396903478743
 30
0.0
 10
823.7073531787189
 20
52.71972113191875
 30
0.0
 10
823.8373368864728
 20
52.50187904458142
 30
0.0
 10
823.9754250620101
 20
52.21237076733848
 30
0.0
 10
824.0868830549833
 20
51.87201769299627
 30
0.0
 10
824.1657459044757
 20
51.49428727138128
 30
0.0
 10
824.176199362868
 20
51.24220898621365
 30
0.0
 10
824.1822767447435
 20
51.09565691282455
 30
0.0
  0
SPLINE
  5
203
330
1F
100
AcDbEntity
  8
0
  6
SLD-Solid
 62
   142
420
    32960
370
     0
100
AcDbSpline
210
0.0
220
0.0
230
1.0
 70
     8
 71
     3
 72
    19
 73
    15
 74
     0
 42
0.00000001
 43
0.00000001
 40
0.0
 40
0.0
 40
0.0
 40
0.0
 40
0.0571143122037904
 40
0.1156859695386078
 40
0.1757206699038213
 40
0.2372237019665071
 40
0.3001999818643121
 40
0.364654086023463
 40
0.4305902805559935
 40
0.4980125476391917
 40
0.6162771910106102
 40
0.7486631870564205
 40
0.8538896613728936
 40
0.9999999999999999
 40
0.9999999999999999
 40
0.9999999999999999
 40
0.9999999999999999
 10
822.7822767447435
 20
-6.366627579085571
 30
0.0
 10
822.8309042593057
 20
-6.334813071859013
 30
0.0
 10
822.9294000820042
 20
-6.270372269337243
 30
0.0
 10
823.0711858940514
 20
-6.161749096705027
 30
0.0
 10
823.2098337442411
 20
-6.042646606394086
 30
0.0
 10
823.3437909682318
 20
-5.912111417527455
 30
0.0
 10
823.4721358547444
 20
-5.770309298547993
 30
0.0
 10
823.593704292243
 20
-5.617213193590764
 30
0.0
 10
823.7073571681084
 20
-5.452969785306405
 30
0.0
 10
823.8373460941307
 20
-5.235118274358019
 30
0.0
 10
823.975430940957
 20
-4.9456111531615
 30
0.0
 10
824.0868895671593
 20
-4.605247347855612
 30
0.0
 10
824.1657473826784
 20
-4.227531694110276
 30
0.0
 10
824.1762001866928
 20
-3.975453436021181
 30
0.0
 10
824.1822767447435
 20
-3.828912070995671
 30
0.0
  0
SPLINE
  5
204
330
1F
100
AcDbEntity
  8
0
  6
SLD-Solid
 62
   142
420
    32960
370
     0
100
AcDbSpline
210
0.0
220
0.0
230
1.0
 70
    24
 71
     3
 72
     8
 73
     4
 74
     0
 42
0.00000001
 43
0.00000001
 40
0.0
 40
0.0
 40
0.0
 40
0.0
 40
1.0
 40
1.0
 40
1.0
 40
1.0
 10
822.7822767447435
 20
51.63462398576362
 30
0.0
 10
822.7822767447435
 20
52.73379783467855
 30
0.0
 10
822.7822767447435
 20
53.63337242091445
 30
0.0
 10
822.7822767447435
 20
53.63337242091445
 30
0.0
  0
SPLINE
  5
205
330
1F
100
AcDbEntity
  8
0
  6
SLD-Solid
 62
   142
420
    32960
370
     0
100
AcDbSpline
210
0.0
220
0.0
230
1.0
 70
    24
 71
     3
 72
     8
 73
     4
 74
     0
 42
0.00000001
 43
0.00000001
 40
0.0
 40
0.0
 40
0.0
 40
0.0
 40
1.0
 40
1.0
 40
1.0
 40
1.0
 10
822.7822767447435
 20
-6.366627579085571
 30
0.0
 10
822.7822767447435
 20
-6.366627579085571
 30
0.0
 10
822.7822767447435
 20
-5.467446679758292
 30
0.0
 10
822.7822767447435
 20
-4.368272830843345
 30
0.0
  0
LINE
  5
206
330
1F
100
AcDbEntity
  8
0
  6
SLD-Solid
 62
     7
370
    15
100
AcDbLine
 10
802.6822767447
 20
-38.3666275791
 30
0.0
 11
819.6822767447
 21
-38.3666275791
 31
0.0
  0
LINE
  5
207
330
1F
100
AcDbEntity
  8
0
  6
SLD-Solid
 62
   142
420
    32960
370
     0
100
AcDbLine
 10
802.6822767447
 20
-36.8666275791
 30
0.0
 11
819.6822767447
 21
-36.8666275791
 31
0.0
  0
LINE
  5
208
330
1F
100
AcDbEntity
  8
0
  6
SLD-Solid
 62
     7
370
    15
100
AcDbLine
 10
744.3822767447
 20
-205.3666275799
 30
0.0
 11
687.3822767447
 21
-205.3666275799
 31
0.0
  0
LINE
  5
209
330
1F
100
AcDbEntity
  8
0
  6
SLD-Solid
 62
     7
370
    15
100
AcDbLine
 10
742.3822766739
 20
-211.3666275799
 30
0.0
 11
689.3822767447
 21
-211.3666275799
 31
0.0
  0
LINE
  5
20A
330
1F
100
AcDbEntity
  8
0
  6
SLD-Solid
 62
     7
370
    15
100
AcDbLine
 10
458.9822767448
 20
690.1333724202
 30
0.0
 11
641.9822767448
 21
690.1333724201
 31
0.0
  0
LINE
  5
20B
330
1F
100
AcDbEntity
  8
0
  6
SLD-Solid
 62
     7
370
    15
100
AcDbLine
 10
643.9822767448
 20
688.1333724201
 30
0.0
 11
456.9822767448
 21
688.1333724202
 31
0.0
  0
LINE
  5
20C
330
1F
100
AcDbEntity
  8
0
  6
SLD-Solid
 62
   142
420
    32960
370
     0
100
AcDbLine
 10
456.9822767448
 20
686.6333724202
 30
0.0
 11
643.9822767448
 21
686.6333724201
 31
0.0
  0
LINE
  5
20D
330
1F
100
AcDbEntity
  8
0
  6
SLD-Solid
 62
   142
420
    32960
370
     0
100
AcDbLine
 10
131.5822767447
 20
676.0833724201
 30
0.0
 11
131.0822767447
 21
676.0833724201
 31
0.0
  0
LINE
  5
20E
330
1F
100
AcDbEntity
  8
0
  6
SLD-Solid
 62
   142
420
    32960
370
     0
100
AcDbLine
 10
131.5822767447
 20
659.3833724201
 30
0.0
 11
131.0822767447
 21
659.3833724201
 31
0.0
  0
LINE
  5
20F
330
1F
100
AcDbEntity
  8
0
  6
SLD-Solid
 62
   142
420
    32960
370
     0
100
AcDbLine
 10
106.5822767447
 20
694.2675118185
 30
0.0
 11
107.0822767447
 21
694.2675118185
 31
0.0
  0
LINE
  5
210
330
1F
100
AcDbEntity
  8
0
  6
SLD-Solid
 62
   142
420
    32960
370
     0
100
AcDbLine
 10
88.4233433498
 20
717.9326945625
 30
0.0
 11
88.5484243479
 21
718.3995032025
 31
0.0
  0
LINE
  5
211
330
1F
100
AcDbEntity
  8
0
  6
SLD-Solid
 62
   142
420
    32960
370
     0
100
AcDbLine
 10
130.3322767447
 20
677.3333724201
 30
0.0
 11
130.3322767447
 21
676.8333724201
 31
0.0
  0
LINE
  5
212
330
1F
100
AcDbEntity
  8
0
  6
SLD-Solid
 62
   142
420
    32960
370
     0
100
AcDbLine
 10
106.5822767447
 20
679.3833724201
 30
0.0
 11
107.0822767447
 21
679.3833724201
 31
0.0
  0
LINE
  5
213
330
1F
100
AcDbEntity
  8
0
  6
SLD-Solid
 62
     7
370
    15
100
AcDbLine
 10
53.6822767447
 20
641.9333724201
 30
0.0
 11
53.6822767447
 21
677.3333724201
 31
0.0
  0
LINE
  5
214
330
1F
100
AcDbEntity
  8
0
  6
SLD-Solid
 62
   142
420
    32960
370
     0
100
AcDbLine
 10
54.1822767447
 20
726.1301416777
 30
0.0
 11
53.6823966617
 21
726.1301416777
 31
0.0
  0
LINE
  5
215
330
1F
100
AcDbEntity
  8
0
  6
SLD-Solid
 62
   142
420
    32960
370
     0
100
AcDbLine
 10
54.1822767447
 20
641.9333724201
 30
0.0
 11
53.6822767447
 21
641.9333724201
 31
0.0
  0
LINE
  5
216
330
1F
100
AcDbEntity
  8
0
  6
SLD-Solid
 62
   142
420
    32960
370
     0
100
AcDbLine
 10
133.6322767447
 20
657.3333724201
 30
0.0
 11
133.6322767447
 21
656.8333724201
 31
0.0
  0
LINE
  5
217
330
1F
100
AcDbEntity
  8
0
  6
SLD-Solid
 62
   142
420
    32960
370
     0
100
AcDbLine
 10
155.8322767447
 20
657.3333724201
 30
0.0
 11
155.8322767447
 21
656.8333724201
 31
0.0
  0
LINE
  5
218
330
1F
100
AcDbEntity
  8
0
  6
SLD-Solid
 62
     7
370
    15
100
AcDbLine
 10
156.0822767447
 20
640.9333724201
 30
0.0
 11
54.6822767447
 21
640.9333724201
 31
0.0
  0
LINE
  5
219
330
1F
100
AcDbEntity
  8
0
  6
SLD-Solid
 62
   142
420
    32960
370
     0
100
AcDbLine
 10
156.0822767447
 20
640.9333724201
 30
0.0
 11
156.0822767447
 21
641.4333724201
 31
0.0
  0
LINE
  5
21A
330
1F
100
AcDbEntity
  8
0
  6
SLD-Solid
 62
   142
420
    32960
370
     0
100
AcDbLine
 10
54.6822767447
 20
641.4333724201
 30
0.0
 11
54.6822767447
 21
640.9333724201
 31
0.0
  0
ARC
  5
21B
330
1F
100
AcDbEntity
  8
0
  6
SLD-Solid
 62
   142
420
    32960
370
     0
100
AcDbCircle
 10
54.6822767447
 20
641.9333724201
 30
0.0
 40
0.5
100
AcDbArc
 50
180.0
 51
270.0
  0
ARC
  5
21C
330
1F
100
AcDbEntity
  8
0
  6
SLD-Solid
 62
   142
420
    32960
370
     0
100
AcDbCircle
 10
156.0822767447
 20
641.9333724201
 30
0.0
 40
0.5000000000000568
100
AcDbArc
 50
270.0
 51
0.0
  0
LINE
  5
21D
330
1F
100
AcDbEntity
  8
0
  6
SLD-Solid
 62
   142
420
    32960
370
     0
100
AcDbLine
 10
156.5822767447
 20
641.9333724201
 30
0.0
 11
156.5822767447
 21
656.0833724201
 31
0.0
  0
ARC
  5
21E
330
1F
100
AcDbEntity
  8
0
  6
SLD-Solid
 62
   142
420
    32960
370
     0
100
AcDbCircle
 10
155.8322767447
 20
656.0833724201
 30
0.0
 40
0.75
100
AcDbArc
 50
0.0
 51
90.0
  0
ARC
  5
21F
330
1F
100
AcDbEntity
  8
0
  6
SLD-Solid
 62
   142
420
    32960
370
     0
100
AcDbCircle
 10
133.6322767447
 20
659.3833724201
 30
0.0
 40
2.550000000000011
100
AcDbArc
 50
180.0
 51
270.0
  0
ARC
  5
220
330
1F
100
AcDbEntity
  8
0
  6
SLD-Solid
 62
   142
420
    32960
370
     0
100
AcDbCircle
 10
130.3322767447
 20
676.0833724201
 30
0.0
 40
0.75
100
AcDbArc
 50
0.0
 51
90.0
  0
LINE
  5
221
330
1F
100
AcDbEntity
  8
0
  6
SLD-Solid
 62
   142
420
    32960
370
     0
100
AcDbLine
 10
106.5822767447
 20
679.3833724201
 30
0.0
 11
106.5822767447
 21
694.2675118185
 31
0.0
  0
LINE
  5
222
330
1F
100
AcDbEntity
  8
0
  6
SLD-Solid
 62
   142
420
    32960
370
     0
100
AcDbLine
 10
88.4233433498
 20
717.9326945625
 30
0.0
 11
55.1263910286
 21
726.8545860474
 31
0.0
  0
ARC
  5
223
330
1F
100
AcDbEntity
  8
0
  6
SLD-Solid
 62
   142
420
    32960
370
     0
100
AcDbCircle
 10
54.9322767447
 20
726.1301416777
 30
0.0
 40
0.7499999999996376
100
AcDbArc
 50
75.0
 51
180.0000000001
  0
LINE
  5
224
330
1F
100
AcDbEntity
  8
0
  6
SLD-Solid
 62
     7
370
    15
100
AcDbLine
 10
855.7668094215
 20
422.983615463
 30
0.0
 11
855.6626163056
 21
422.9427863047
 31
0.0
  0
LINE
  5
225
330
1F
100
AcDbEntity
  8
0
  6
SLD-Solid
 62
     7
370
    15
100
AcDbLine
 10
869.1148722601
 20
452.1858029437
 30
0.0
 11
869.4348582898
 21
452.1855000899
 31
0.0
  0
SPLINE
  5
226
330
1F
100
AcDbEntity
  8
0
  6
SLD-Solid
 62
     7
370
    15
100
AcDbSpline
210
0.0
220
0.0
230
1.0
 70
     8
 71
     3
 72
    12
 73
     8
 74
     0
 42
0.00000001
 43
0.00000001
 40
0.75
 40
0.75
 40
0.75
 40
0.75
 40
0.8125
 40
0.8125
 40
0.875
 40
0.875
 40
1.0
 40
1.0
 40
1.0
 40
1.0
 10
858.0827725751495
 20
423.2331730610296
 30
0.0
 10
857.8865270685704
 20
423.1721213676686
 30
0.0
 10
857.6870640052912
 20
423.120011176516
 30
0.0
 10
857.287779090487
 20
423.0348789240034
 30
0.0
 10
857.0870917364387
 20
423.0015762308768
 30
0.0
 10
856.4819407231578
 20
422.9290529579295
 30
0.0
 10
856.0743947017003
 20
422.916992225441
 30
0.0
 10
855.6626163055931
 20
422.9427863047126
 30
0.0
  0
SPLINE
  5
227
330
1F
100
AcDbEntity
  8
0
  6
SLD-Solid
 62
     7
370
    15
100
AcDbSpline
210
0.0
220
0.0
230
1.0
 70
     8
 71
     3
 72
    12
 73
     8
 74
     0
 42
0.00000001
 43
0.00000001
 40
0.75
 40
0.75
 40
0.75
 40
0.75
 40
0.8125
 40
0.8125
 40
0.875
 40
0.875
 40
1.0
 40
1.0
 40
1.0
 40
1.0
 10
858.0827725751575
 20
452.0495220505874
 30
0.0
 10
857.8865270685787
 20
452.1105697014323
 30
0.0
 10
857.6870640052952
 20
452.1626758166161
 30
0.0
 10
857.2877790904871
 20
452.2477999731886
 30
0.0
 10
857.0870917364388
 20
452.2810986284777
 30
0.0
 10
856.4819407231579
 20
452.3536098178683
 30
0.0
 10
856.0743947017004
 20
452.3656625339797
 30
0.0
 10
855.6626163055932
 20
452.3398604804748
 30
0.0
  0
SPLINE
  5
228
330
1F
100
AcDbEntity
  8
0
  6
SLD-Solid
 62
     7
370
    15
100
AcDbSpline
210
0.0
220
0.0
230
1.0
 70
     8
 71
     3
 72
    26
 73
    22
 74
     0
 42
0.00000001
 43
0.00000001
 40
0.0
 40
0.0
 40
0.0
 40
0.0
 40
0.027363336839304
 40
0.0548360898639418
 40
0.0824191384445405
 40
0.1101133609737135
 40
0.1379196348979123
 40
0.1658388367488584
 40
0.1938718421752416
 40
0.2220195259748599
 40
0.2502827621273242
 40
0.3723728258291491
 40
0.500067271455187
 40
0.6191344571856527
 40
0.7498737078547256
 40
0.781526186426203
 40
0.8171857489094707
 40
0.8568572283824646
 40
0.9005460197819349
 40
0.9482580922302781
 40
1.0
 40
1.0
 40
1.0
 40
1.0
 10
877.4473908576515
 20
428.4645242438259
 30
0.0
 10
877.4282340226397
 20
428.3760065763329
 30
0.0
 10
877.3898437512928
 20
428.1986172908921
 30
0.0
 10
877.3189999691298
 20
427.9351434706173
 30
0.0
 10
877.2383019564802
 20
427.6734485844378
 30
0.0
 10
877.1467980634811
 20
427.4141632000827
 30
0.0
 10
877.0447640923069
 20
427.1576726232158
 30
0.0
 10
876.9321666802911
 20
426.9044323939162
 30
0.0
 10
876.8090831357869
 20
426.6548878674864
 30
0.0
 10
876.6755697568577
 20
426.4094743301171
 30
0.0
 10
876.3728411818381
 20
425.9025830992506
 30
0.0
 10
875.8166591431605
 20
425.1639803759202
 30
0.0
 10
874.917353837469
 20
424.3305434367632
 30
0.0
 10
873.8636912948972
 20
423.6516268624034
 30
0.0
 10
872.9992698422177
 20
423.2909762166736
 30
0.0
 10
872.3699767044407
 20
423.1096716663475
 30
0.0
 10
872.0256479097648
 20
423.027961013661
 30
0.0
 10
871.6382407228768
 20
422.9573969843428
 30
0.0
 10
871.2077075339803
 20
422.9054159763429
 30
0.0
 10
870.7345918386565
 20
422.8766444569198
 30
0.0
 10
870.4055952691463
 20
422.8861292059252
 30
0.0
 10
870.2344315799826
 20
422.8910637395375
 30
0.0
  0
SPLINE
  5
229
330
1F
100
AcDbEntity
  8
0
  6
SLD-Solid
 62
     7
370
    15
100
AcDbSpline
210
0.0
220
0.0
230
1.0
 70
     8
 71
     3
 72
    26
 73
    22
 74
     0
 42
0.00000001
 43
0.00000001
 40
0.0
 40
0.0
 40
0.0
 40
0.0
 40
0.0273623823797388
 40
0.0548344195310524
 40
0.0824169908493814
 40
0.1101109747513451
 40
0.1379172487074469
 40
0.1658366892737776
 40
0.1938701721241027
 40
0.2220185720816079
 40
0.2502827631531441
 40
0.3723677889030074
 40
0.5000672726350127
 40
0.6191293059298788
 40
0.7498737071978054
 40
0.7815240527161968
 40
0.8171823341729749
 40
0.856853385406538
 40
0.9005426023344513
 40
0.9482559552926584
 40
1.0
 40
1.0
 40
1.0
 40
1.0
 10
877.4473908576515
 20
446.8026758479297
 30
0.0
 10
877.4282347249982
 20
446.891190810883
 30
0.0
 10
877.389845691473
 20
447.0685754605816
 30
0.0
 10
877.3190042652002
 20
447.3320437352684
 30
0.0
 10
877.2383083541424
 20
447.5937355415641
 30
0.0
 10
877.1468060859968
 20
447.8530202645275
 30
0.0
 10
877.0447729851387
 20
448.1095125126221
 30
0.0
 10
876.9321754281469
 20
448.3627566419394
 30
0.0
 10
876.8090904668993
 20
448.612307172395
 30
0.0
 10
876.6755741529275
 20
448.8577286680008
 30
0.0
 10
876.3728516324246
 20
449.3646137503123
 30
0.0
 10
875.8166706931241
 20
450.1032257091006
 30
0.0
 10
874.9173803684349
 20
450.9366619468243
 30
0.0
 10
873.8637068719898
 20
451.6155985564646
 30
0.0
 10
872.999292742701
 20
451.9762553785617
 30
0.0
 10
872.3699943866
 20
452.1575662502131
 30
0.0
 10
872.0256782925118
 20
452.2392773303699
 30
0.0
 10
871.6382756571952
 20
452.3098447742784
 30
0.0
 10
871.2077385440724
 20
452.361830824593
 30
0.0
 10
870.7346102388863
 20
452.3906075151814
 30
0.0
 10
870.4056023471487
 20
452.3811243534119
 30
0.0
 10
870.2344315799786
 20
452.3761906113463
 30
0.0
  0
LINE
  5
22A
330
1F
100
AcDbEntity
  8
0
  6
SLD-Solid
 62
     7
370
    15
100
AcDbLine
 10
877.4473908577
 20
428.4645242438
 30
0.0
 11
877.268385345
 21
428.3148464119
 31
0.0
  0
LINE
  5
22B
330
1F
100
AcDbEntity
  8
0
  6
SLD-Solid
 62
     7
370
    15
100
AcDbLine
 10
877.268409368
 20
446.9522418669
 30
0.0
 11
877.4473908577
 21
446.8026758479
 31
0.0
  0
SPLINE
  5
22C
330
1F
100
AcDbEntity
  8
0
  6
SLD-Solid
 62
   142
420
    32960
370
     0
100
AcDbSpline
210
0.0
220
0.0
230
1.0
 70
     8
 71
     3
 72
     8
 73
     4
 74
     0
 42
0.00000001
 43
0.00000001
 40
0.0
 40
0.0
 40
0.0
 40
0.0
 40
1.0
 40
1.0
 40
1.0
 40
1.0
 10
48.53569475736147
 20
13.00114154190618
 30
0.0
 10
48.80833914671262
 20
13.20293370069755
 30
0.0
 10
48.98227674474598
 20
13.40775552950482
 30
0.0
 10
48.98227674474598
 20
13.61791613509095
 30
0.0
  0
SPLINE
  5
22D
330
1F
100
AcDbEntity
  8
0
  6
SLD-Solid
 62
   142
420
    32960
370
     0
100
AcDbSpline
210
0.0
220
0.0
230
1.0
 70
     8
 71
     3
 72
    12
 73
     8
 74
     0
 42
0.00000001
 43
0.00000001
 40
0.0
 40
0.0
 40
0.0
 40
0.0
 40
0.2499999999999992
 40
0.2499999999999992
 40
0.4999999999999984
 40
0.4999999999999984
 40
1.0
 40
1.0
 40
1.0
 40
1.0
 10
48.98227674474598
 20
13.61791613509095
 30
0.0
 10
48.98227674474592
 20
13.67025990597018
 30
0.0
 10
48.97172118422255
 20
13.72283831160986
 30
0.0
 10
48.93087245766225
 20
13.82684939206616
 30
0.0
 10
48.90061854762223
 20
13.87850705646945
 30
0.0
 10
48.78393242237361
 20
14.03256256380125
 30
0.0
 10
48.671676684647
 20
14.13404649081701
 30
0.0
 10
48.53569475736114
 20
14.23469072827568
 30
0.0
  0
LINE
  5
22E
330
1F
100
AcDbEntity
  8
0
  6
SLD-Solid
 62
   142
420
    32960
370
     0
100
AcDbLine
 10
48.5356947574
 20
14.2346907283
 30
0.0
 11
47.9322767447
 21
14.2346907283
 31
0.0
  0
LINE
  5
22F
330
1F
100
AcDbEntity
  8
0
  6
SLD-Solid
 62
   142
420
    32960
370
     0
100
AcDbLine
 10
44.2288587321
 20
13.0011415419
 30
0.0
 11
44.0258935609
 21
13.2814568355
 31
0.0
  0
LINE
  5
230
330
1F
100
AcDbEntity
  8
0
  6
SLD-Solid
 62
   142
420
    32960
370
     0
100
AcDbLine
 10
48.5356947574
 20
13.0011415419
 30
0.0
 11
44.2288587321
 21
13.0011415419
 31
0.0
  0
LINE
  5
231
330
1F
100
AcDbEntity
  8
0
  6
SLD-Solid
 62
   142
420
    32960
370
     0
100
AcDbLine
 10
21.0077839282
 20
486.7333724201
 30
0.0
 11
21.0077839282
 21
484.7333724201
 31
0.0
  0
SPLINE
  5
232
330
1F
100
AcDbEntity
  8
0
  6
SLD-Solid
 62
     7
370
    15
100
AcDbSpline
210
0.0
220
0.0
230
1.0
 70
     8
 71
     3
 72
    12
 73
     8
 74
     0
 42
0.00000001
 43
0.00000001
 40
0.0
 40
0.0
 40
0.0
 40
0.0
 40
0.2499999999999966
 40
0.2499999999999966
 40
0.4999999999999931
 40
0.4999999999999931
 40
1.0
 40
1.0
 40
1.0
 40
1.0
 10
13.50538535877421
 20
483.4333724201031
 30
0.0
 10
14.14406757049874
 20
483.4333724201031
 30
0.0
 10
14.78763575020131
 20
483.4644187525276
 30
0.0
 10
16.05686844664395
 20
483.5841999624166
 30
0.0
 10
16.68609276341587
 20
483.672761036013
 30
0.0
 10
18.559693956606
 20
484.013266496875
 30
0.0
 10
19.79007362044655
 20
484.3396367565044
 30
0.0
 10
21.00778392819142
 20
484.7333724201029
 30
0.0
  0
SPLINE
  5
233
330
1F
100
AcDbEntity
  8
0
  6
SLD-Solid
 62
     7
370
    15
100
AcDbSpline
210
0.0
220
0.0
230
1.0
 70
     8
 71
     3
 72
    10
 73
     6
 74
     0
 42
0.00000001
 43
0.00000001
 40
0.0
 40
0.0
 40
0.0
 40
0.0
 40
0.5
 40
0.5
 40
1.0
 40
1.0
 40
1.0
 40
1.0
 10
6.002986789357068
 20
484.7333724201031
 30
0.0
 10
7.225180144632692
 20
484.338187203451
 30
0.0
 10
8.458210886772344
 20
484.0115918868531
 30
0.0
 10
10.95587713072976
 20
483.5584280068563
 30
0.0
 10
12.22075168688647
 20
483.4333724201031
 30
0.0
 10
13.50538535877421
 20
483.4333724201031
 30
0.0
  0
LINE
  5
234
330
1F
100
AcDbEntity
  8
0
  6
SLD-Solid
 62
     7
370
    15
100
AcDbLine
 10
6.0029867894
 20
486.7333724201
 30
0.0
 11
6.0029867894
 21
484.7333724201
 31
0.0
  0
SPLINE
  5
235
330
1F
100
AcDbEntity
  8
0
  6
SLD-Solid
 62
     7
370
    15
100
AcDbSpline
210
0.0
220
0.0
230
1.0
 70
     8
 71
     3
 72
    12
 73
     8
 74
     0
 42
0.00000001
 43
0.00000001
 40
0.0
 40
0.0
 40
0.0
 40
0.0
 40
0.2499999999999994
 40
0.2499999999999994
 40
0.4999999999999988
 40
0.4999999999999988
 40
1.0
 40
1.0
 40
1.0
 40
1.0
 10
2.440233197635866
 20
483.4333724201031
 30
0.0
 10
2.743531845759706
 20
483.4333724201031
 30
0.0
 10
3.049150751838481
 20
483.4644187525276
 30
0.0
 10
3.651886437784913
 20
483.5841999624163
 30
0.0
 10
3.950693702399755
 20
483.6727610360129
 30
0.0
 10
4.840433072912765
 20
484.013266496875
 30
0.0
 10
5.424718155339237
 20
484.3396367565043
 30
0.0
 10
6.002986789357124
 20
484.7333724201029
 30
0.0
  0
LINE
  5
236
330
1F
100
AcDbEntity
  8
0
  6
SLD-Solid
 62
     7
370
    15
100
AcDbLine
 10
13.5053853588
 20
483.4333724201
 30
0.0
 11
2.4402331976
 21
483.4333724201
 31
0.0
  0
LINE
  5
237
330
1F
100
AcDbEntity
  8
0
  6
SLD-Solid
 62
     7
370
    15
100
AcDbLine
 10
24.9474289059
 20
483.4333724201
 30
0.0
 11
13.5053853588
 21
483.4333724201
 31
0.0
  0
SPLINE
  5
238
330
1F
100
AcDbEntity
  8
0
  6
SLD-Solid
 62
   142
420
    32960
370
     0
100
AcDbSpline
210
0.0
220
0.0
230
1.0
 70
     8
 71
     3
 72
    12
 73
     8
 74
     0
 42
0.00000001
 43
0.00000001
 40
0.0
 40
0.0
 40
0.0
 40
0.0
 40
0.2500000000000028
 40
0.2500000000000028
 40
0.5000000000000057
 40
0.5000000000000057
 40
1.0
 40
1.0
 40
1.0
 40
1.0
 10
21.00778392819142
 20
484.7333724201031
 30
0.0
 10
21.32652788204065
 20
484.537106103184
 30
0.0
 10
21.64878516582685
 20
484.3564520697768
 30
0.0
 10
22.3022910228366
 20
484.035098849887
 30
0.0
 10
22.63040870352495
 20
483.8960772363461
 30
0.0
 10
23.61739086502168
 20
483.5560947776357
 30
0.0
 10
24.27979983527917
 20
483.4333724201034
 30
0.0
 10
24.94742890588736
 20
483.4333724201031
 30
0.0
  0
LINE
  5
239
330
1F
100
AcDbEntity
  8
0
  6
SLD-Solid
 62
     7
370
    15
100
AcDbLine
 10
2.4402331976
 20
483.4333724201
 30
0.0
 11
0.8822767447
 21
483.4333724201
 31
0.0
  0
LINE
  5
23A
330
1F
100
AcDbEntity
  8
0
  6
SLD-Solid
 62
   142
420
    32960
370
     0
100
AcDbLine
 10
26.8822767447
 20
483.4333724201
 30
0.0
 11
24.9474289059
 21
483.4333724201
 31
0.0
  0
SPLINE
  5
23B
330
1F
100
AcDbEntity
  8
0
  6
SLD-Solid
 62
     7
370
    15
100
AcDbSpline
210
0.0
220
0.0
230
1.0
 70
     8
 71
     3
 72
     9
 73
     5
 74
     0
 42
0.00000001
 43
0.00000001
 40
0.0
 40
0.0
 40
0.0
 40
0.0
 40
0.4583164324424118
 40
1.0
 40
1.0
 40
1.0
 40
1.0
 10
-0.8884325669636373
 20
484.606702379391
 30
0.0
 10
-0.390704227147709
 20
484.2967905798341
 30
0.0
 10
0.6952885598957015
 20
483.6205944462905
 30
0.0
 10
1.827132133025766
 20
483.4991544633218
 30
0.0
 10
2.440233197635866
 20
483.4333724201031
 30
0.0
  0
LINE
  5
23C
330
1F
100
AcDbEntity
  8
0
  6
SLD-Solid
 62
     7
370
    15
100
AcDbLine
 10
-1.1225203941
 20
486.7333724201
 30
0.0
 11
-1.1225203941
 21
484.7333724201
 31
0.0
  0
LINE
  5
23D
330
1F
100
AcDbEntity
  8
0
  6
SLD-Solid
 62
   142
420
    32960
370
     0
100
AcDbLine
 10
642.0801099194
 20
686.5399398722
 30
0.0
 11
458.8844435703
 21
686.5399398723
 31
0.0
  0
LINE
  5
23E
330
1F
100
AcDbEntity
  8
0
  6
SLD-Solid
 62
   142
420
    32960
370
     0
100
AcDbLine
 10
648.5816887928
 20
678.4465073243
 30
0.0
 11
452.3828646968
 21
678.4465073243
 31
0.0
  0
LWPOLYLINE
  5
23F
330
1F
100
AcDbEntity
  8
0
  6
SLD-Solid
 62
   142
420
    32960
370
     0
100
AcDbPolyline
 90
        3
 70
   128
 43
0.0
 10
760.5499487762
 20
-40.7642082634
 10
760.776820393
 20
-40.5611712281
 10
760.7926263936
 20
-40.545235693
  0
LINE
  5
240
330
1F
100
AcDbEntity
  8
0
  6
SLD-Solid
 62
   142
420
    32960
370
     0
100
AcDbLine
 10
107.0822767447
 20
687.3833724201
 30
0.0
 11
106.5822767447
 21
687.3833724201
 31
0.0
  0
SPLINE
  5
241
330
1F
100
AcDbEntity
  8
0
  6
SLD-Solid
 62
   142
420
    32960
370
     0
100
AcDbSpline
210
0.0
220
0.0
230
1.0
 70
     8
 71
     3
 72
    10
 73
     6
 74
     0
 42
0.00000001
 43
0.00000001
 40
0.0
 40
0.0
 40
0.0
 40
0.0
 40
0.5
 40
0.5
 40
1.0
 40
1.0
 40
1.0
 40
1.0
 10
44.22885873213117
 20
4.465603298304477
 30
0.0
 10
44.09332381682385
 20
4.912975724890356
 30
0.0
 10
43.97964591799087
 20
5.37117285299038
 30
0.0
 10
43.82420718359808
 20
6.28964157297085
 30
0.0
 10
43.782276744746
 20
6.751446291793473
 30
0.0
 10
43.782276744746
 20
7.216262452389599
 30
0.0
  0
LINE
  5
242
330
1F
100
AcDbEntity
  8
0
  6
SLD-Solid
 62
   142
420
    32960
370
     0
100
AcDbLine
 10
48.5356947574
 20
4.4656032983
 30
0.0
 11
44.2288587321
 21
4.4656032983
 31
0.0
  0
SPLINE
  5
243
330
1F
100
AcDbEntity
  8
0
  6
SLD-Solid
 62
   142
420
    32960
370
     0
100
AcDbSpline
210
0.0
220
0.0
230
1.0
 70
     8
 71
     3
 72
    10
 73
     6
 74
     0
 42
0.00000001
 43
0.00000001
 40
0.0
 40
0.0
 40
0.0
 40
0.0
 40
0.5
 40
0.5
 40
1.0
 40
1.0
 40
1.0
 40
1.0
 10
48.5356947573608
 20
4.465603298304477
 30
0.0
 10
48.67122967266818
 20
4.912975724890356
 30
0.0
 10
48.78490757150112
 20
5.37117285299038
 30
0.0
 10
48.94034630589389
 20
6.28964157297085
 30
0.0
 10
48.98227674474592
 20
6.751446291793417
 30
0.0
 10
48.98227674474598
 20
7.216262452389599
 30
0.0
  0
SPLINE
  5
244
330
1F
100
AcDbEntity
  8
0
  6
SLD-Solid
 62
   142
420
    32960
370
     0
100
AcDbSpline
210
0.0
220
0.0
230
1.0
 70
     8
 71
     3
 72
    10
 73
     6
 74
     0
 42
0.00000001
 43
0.00000001
 40
0.0
 40
0.0
 40
0.0
 40
0.0
 40
0.5
 40
0.5
 40
1.0
 40
1.0
 40
1.0
 40
1.0
 10
48.98227674474598
 20
7.216262452389599
 30
0.0
 10
48.98227674474592
 20
7.681354776659044
 30
0.0
 10
48.93918639771145
 20
8.152771055530916
 30
0.0
 10
48.78265603762627
 20
9.071555032222205
 30
0.0
 10
48.6704401114757
 20
9.522155356354839
 30
0.0
 10
48.53569475736074
 20
9.966921606474804
 30
0.0
  0
LINE
  5
245
330
1F
100
AcDbEntity
  8
0
  6
SLD-Solid
 62
   142
420
    32960
370
     0
100
AcDbLine
 10
48.5356947574
 20
9.9669216065
 30
0.0
 11
44.2288587321
 21
9.9669216065
 31
0.0
  0
SPLINE
  5
246
330
1F
100
AcDbEntity
  8
0
  6
SLD-Solid
 62
   142
420
    32960
370
     0
100
AcDbSpline
210
0.0
220
0.0
230
1.0
 70
     8
 71
     3
 72
    10
 73
     6
 74
     0
 42
0.00000001
 43
0.00000001
 40
0.0
 40
0.0
 40
0.0
 40
0.0
 40
0.5
 40
0.5
 40
1.0
 40
1.0
 40
1.0
 40
1.0
 10
43.782276744746
 20
7.216262452389599
 30
0.0
 10
43.78227674474605
 20
7.681354776659044
 30
0.0
 10
43.82536709178042
 20
8.152771055530916
 30
0.0
 10
43.98189745186559
 20
9.071555032222262
 30
0.0
 10
44.09411337801633
 20
9.522155356354812
 30
0.0
 10
44.22885873213123
 20
9.966921606474804
 30
0.0
  0
LINE
  5
247
330
1F
100
AcDbEntity
  8
0
  6
SLD-Solid
 62
   142
420
    32960
370
     0
100
AcDbLine
 10
41.3822767447
 20
12.2891737451
 30
0.0
 11
41.3822767447
 21
16.603138295
 31
0.0
  0
LINE
  5
248
330
1F
100
AcDbEntity
  8
0
  6
SLD-Solid
 62
   142
420
    32960
370
     0
100
AcDbLine
 10
41.3822767447
 20
16.603138295
 30
0.0
 11
41.3822767447
 21
17.1833724201
 31
0.0
  0
LINE
  5
249
330
1F
100
AcDbEntity
  8
0
  6
SLD-Solid
 62
   142
420
    32960
370
     0
100
AcDbLine
 10
41.3822767447
 20
3.2948190463
 30
0.0
 11
41.3822767447
 21
3.589582907
 31
0.0
  0
LINE
  5
24A
330
1F
100
AcDbEntity
  8
0
  6
SLD-Solid
 62
   142
420
    32960
370
     0
100
AcDbLine
 10
41.3822767447
 20
4.1522205086
 30
0.0
 11
41.3822767447
 21
12.0666880769
 31
0.0
  0
LINE
  5
24B
330
1F
100
AcDbEntity
  8
0
  6
SLD-Solid
 62
   142
420
    32960
370
     0
100
AcDbLine
 10
41.3822767447
 20
12.0666880769
 30
0.0
 11
41.3822767447
 21
12.2891737451
 31
0.0
  0
SPLINE
  5
24C
330
1F
100
AcDbEntity
  8
0
  6
SLD-Solid
 62
   142
420
    32960
370
     0
100
AcDbSpline
210
0.0
220
0.0
230
1.0
 70
     8
 71
     3
 72
     9
 73
     5
 74
     0
 42
0.00000001
 43
0.00000001
 40
0.0
 40
0.0
 40
0.0
 40
0.0
 40
0.9170405201232075
 40
1.0
 40
1.0
 40
1.0
 40
1.0
 10
42.83227674474605
 20
-0.2370676143241823
 30
0.0
 10
42.67024314401296
 20
-0.2343656974158059
 30
0.0
 10
42.49355127797483
 20
-0.2314193533349274
 30
0.0
 10
42.34463108638353
 20
-0.1703019666839389
 30
0.0
 10
42.33227674474605
 20
-0.1652317000759851
 30
0.0
  0
SPLINE
  5
24D
330
1F
100
AcDbEntity
  8
0
  6
SLD-Solid
 62
   142
420
    32960
370
     0
100
AcDbSpline
210
0.0
220
0.0
230
1.0
 70
     8
 71
     3
 72
     9
 73
     5
 74
     0
 42
0.00000001
 43
0.00000001
 40
0.0
 40
0.0
 40
0.0
 40
0.0
 40
0.6186048177154463
 40
1.0
 40
1.0
 40
1.0
 40
1.0
 10
41.38227674474598
 20
5.177571095121514
 30
0.0
 10
41.39428324575422
 20
5.059611356967975
 30
0.0
 10
41.4136922459179
 20
4.868924613548876
 30
0.0
 10
41.57192683485461
 20
4.709420239096929
 30
0.0
 10
41.63227674474596
 20
4.648586039127601
 30
0.0
  0
LINE
  5
24E
330
1F
100
AcDbEntity
  8
0
  6
SLD-Solid
 62
   142
420
    32960
370
     0
100
AcDbLine
 10
47.9322767447
 20
4.1852880047
 30
0.0
 11
47.9322767447
 21
-0.2370676143
 31
0.0
  0
LINE
  5
24F
330
1F
100
AcDbEntity
  8
0
  6
SLD-Solid
 62
   142
420
    32960
370
     0
100
AcDbLine
 10
47.9322767447
 20
-0.2370676143
 30
0.0
 11
42.8322767447
 21
-0.2370676143
 31
0.0
  0
LINE
  5
250
330
1F
100
AcDbEntity
  8
0
  6
SLD-Solid
 62
   142
420
    32960
370
     0
100
AcDbLine
 10
43.4320958956
 20
4.1852880047
 30
0.0
 11
47.9322767447
 21
4.1852880047
 31
0.0
  0
LINE
  5
251
330
1F
100
AcDbEntity
  8
0
  6
SLD-Solid
 62
   142
420
    32960
370
     0
100
AcDbLine
 10
806.5597490132
 20
577.9109746398
 30
0.0
 11
806.397986234
 21
577.8427234457
 31
0.0
  0
SPLINE
  5
252
330
1F
100
AcDbEntity
  8
0
  6
SLD-Solid
 62
   142
420
    32960
370
     0
100
AcDbSpline
210
0.0
220
0.0
230
1.0
 70
     8
 71
     3
 72
     9
 73
     5
 74
     0
 42
0.00000001
 43
0.00000001
 40
0.0
 40
0.0
 40
0.0
 40
0.0
 40
0.114248798817219
 40
1.0
 40
1.0
 40
1.0
 40
1.0
 10
805.4773805352546
 20
578.9228175033014
 30
0.0
 10
805.4625776002771
 20
578.9105072505447
 30
0.0
 10
805.3330100675693
 20
578.8027577347177
 30
0.0
 10
805.1756646485223
 20
578.7486858220348
 30
0.0
 10
805.0362957546009
 20
578.7007915604254
 30
0.0
  0
LINE
  5
253
330
1F
100
AcDbEntity
  8
0
  6
SLD-Solid
 62
   142
420
    32960
370
     0
100
AcDbLine
 10
811.5035502949
 20
558.6278062914
 30
0.0
 11
811.7257438266
 21
558.7978897582
 31
0.0
  0
LINE
  5
254
330
1F
100
AcDbEntity
  8
0
  6
SLD-Solid
 62
     7
370
    15
100
AcDbLine
 10
750.8822767447
 20
-43.3666275799
 30
0.0
 11
750.8822767447
 21
-42.1666275799
 31
0.0
  0
LINE
  5
255
330
1F
100
AcDbEntity
  8
0
  6
SLD-Solid
 62
     7
370
    15
100
AcDbLine
 10
680.8822767447
 20
-43.3666275799
 30
0.0
 11
750.8822767447
 21
-43.3666275799
 31
0.0
  0
LINE
  5
256
330
1F
100
AcDbEntity
  8
0
  6
SLD-Solid
 62
     7
370
    15
100
AcDbLine
 10
680.8822767447
 20
-43.3666275799
 30
0.0
 11
680.8822767447
 21
-42.1666275799
 31
0.0
  0
LINE
  5
257
330
1F
100
AcDbEntity
  8
0
  6
SLD-Solid
 62
     7
370
    15
100
AcDbLine
 10
746.8419269651
 20
-137.3666275799
 30
0.0
 11
684.9226265244
 21
-137.3666275799
 31
0.0
  0
LINE
  5
258
330
1F
100
AcDbEntity
  8
0
  6
SLD-Solid
 62
   142
420
    32960
370
     0
100
AcDbLine
 10
813.2221576767
 20
540.3520934614
 30
0.0
 11
813.906303487
 21
540.1049337867
 31
0.0
  0
LINE
  5
259
330
1F
100
AcDbEntity
  8
0
  6
SLD-Solid
 62
   142
420
    32960
370
     0
100
AcDbLine
 10
55.4529874229
 20
640.1333724201
 30
0.0
 11
56.13043437
 21
640.1333724201
 31
0.0
  0
LINE
  5
25A
330
1F
100
AcDbEntity
  8
0
  6
SLD-Solid
 62
   142
420
    32960
370
     0
100
AcDbLine
 10
760.6334531881
 20
640.1333724201
 30
0.0
 11
761.3115660666
 21
640.1333724201
 31
0.0
  0
LINE
  5
25B
330
1F
100
AcDbEntity
  8
0
  6
SLD-Solid
 62
     7
370
    15
100
AcDbLine
 10
819.2616619863
 20
494.1174127068
 30
0.0
 11
823.9601250902
 21
495.8275134234
 31
0.0
  0
LINE
  5
25C
330
1F
100
AcDbEntity
  8
0
  6
SLD-Solid
 62
     7
370
    15
100
AcDbLine
 10
819.2616619863
 20
494.1174127068
 30
0.0
 11
817.6308164887
 21
493.5238334889
 31
0.0
  0
ARC
  5
25D
330
1F
100
AcDbEntity
  8
0
  6
SLD-Solid
 62
   142
420
    32960
370
     0
100
AcDbCircle
 10
793.8822767447
 20
490.4333724201
 30
0.0
 40
6.499999999999979
100
AcDbArc
 50
26.7436839504
 51
153.2563160496
  0
LINE
  5
25E
330
1F
100
AcDbEntity
  8
0
  6
SLD-Solid
 62
   142
420
    32960
370
     0
100
AcDbLine
 10
765.3822767447
 20
491.4333724201
 30
0.0
 11
767.6822767447
 21
491.4333724201
 31
0.0
  0
ARC
  5
25F
330
1F
100
AcDbEntity
  8
0
  6
SLD-Solid
 62
   142
420
    32960
370
     0
100
AcDbCircle
 10
765.3822767447
 20
489.9333724201
 30
0.0
 40
1.500000000000114
100
AcDbArc
 50
90.0
 51
180.0
  0
LINE
  5
260
330
1F
100
AcDbEntity
  8
0
  6
SLD-Solid
 62
   142
420
    32960
370
     0
100
AcDbLine
 10
763.8822767447
 20
480.4333724201
 30
0.0
 11
763.8822767447
 21
489.9333724201
 31
0.0
  0
LINE
  5
261
330
1F
100
AcDbEntity
  8
0
  6
SLD-Solid
 62
   142
420
    32960
370
     0
100
AcDbLine
 10
762.1822767447
 20
480.4333724201
 30
0.0
 11
763.8822767447
 21
480.4333724201
 31
0.0
  0
ARC
  5
262
330
1F
100
AcDbEntity
  8
0
  6
SLD-Solid
 62
   142
420
    32960
370
     0
100
AcDbCircle
 10
765.3822767447
 20
489.9333724201
 30
0.0
 40
3.500000000000057
100
AcDbArc
 50
90.0
 51
156.1044918136
  0
LINE
  5
263
330
1F
100
AcDbEntity
  8
0
  6
SLD-Solid
 62
   142
420
    32960
370
     0
100
AcDbLine
 10
767.6822767447
 20
493.4333724201
 30
0.0
 11
765.3822767447
 21
493.4333724201
 31
0.0
  0
ARC
  5
264
330
1F
100
AcDbEntity
  8
0
  6
SLD-Solid
 62
   142
420
    32960
370
     0
100
AcDbCircle
 10
784.951991195
 20
494.9333724201
 30
0.0
 40
1.500000000000036
100
AcDbArc
 50
270.0
 51
333.2563160496
  0
ARC
  5
265
330
1F
100
AcDbEntity
  8
0
  6
SLD-Solid
 62
   142
420
    32960
370
     0
100
AcDbCircle
 10
793.8822767447
 20
490.4333724201
 30
0.0
 40
8.500000000000076
100
AcDbArc
 50
26.7436839504
 51
153.2563160496
  0
ARC
  5
266
330
1F
100
AcDbEntity
  8
0
  6
SLD-Solid
 62
   142
420
    32960
370
     0
100
AcDbCircle
 10
802.8125622945
 20
494.9333724201
 30
0.0
 40
1.500000000000087
100
AcDbArc
 50
206.7436839504
 51
270.0
  0
ARC
  5
267
330
1F
100
AcDbEntity
  8
0
  6
SLD-Solid
 62
     7
370
    15
100
AcDbCircle
 10
817.1177862737
 20
494.9333724201
 30
0.0
 40
1.500000000000053
100
AcDbArc
 50
270.0
 51
290.0
  0
LINE
  5
268
330
1F
100
AcDbEntity
  8
0
  6
SLD-Solid
 62
     7
370
    15
100
AcDbLine
 10
819.1822767447
 20
491.9601632968
 30
0.0
 11
819.945702273
 21
492.2380274652
 31
0.0
  0
LINE
  5
269
330
1F
100
AcDbEntity
  8
0
  6
SLD-Solid
 62
     7
370
    15
100
AcDbLine
 10
823.9601250902
 20
495.8275134234
 30
0.0
 11
824.6441653769
 21
493.9481281818
 31
0.0
  0
LINE
  5
26A
330
1F
100
AcDbEntity
  8
0
  6
SLD-Solid
 62
     7
370
    15
100
AcDbLine
 10
824.6441653769
 20
493.9481281818
 30
0.0
 11
819.945702273
 21
492.2380274652
 31
0.0
  0
SPLINE
  5
26B
330
1F
100
AcDbEntity
  8
0
  6
SLD-Solid
 62
   142
420
    32960
370
     0
100
AcDbSpline
210
0.0
220
0.0
230
1.0
 70
     8
 71
     3
 72
    16
 73
    12
 74
     0
 42
0.00000001
 43
0.00000001
 40
0.0
 40
0.0
 40
0.0
 40
0.0
 40
0.2499999999999803
 40
0.2499999999999803
 40
0.4999999999999607
 40
0.4999999999999607
 40
0.749999999999941
 40
0.749999999999941
 40
0.8749999999999705
 40
0.8749999999999705
 40
1.0
 40
1.0
 40
1.0
 40
1.0
 10
41.63227674474596
 20
16.78288681792417
 30
0.0
 10
41.63227674474606
 20
16.89606681621347
 30
0.0
 10
41.66174038572851
 20
17.00855428819728
 30
0.0
 10
41.77622764297711
 20
17.21779321190586
 30
0.0
 10
41.86246499493823
 20
17.31579694076654
 30
0.0
 10
42.08063143495539
 20
17.48013833229098
 30
0.0
 10
42.21435195376311
 20
17.54776371390157
 30
0.0
 10
42.43532262868827
 20
17.61650162376618
 30
0.0
 10
42.5133881633834
 20
17.63426856927161
 30
0.0
 10
42.67067574921535
 20
17.65770261066393
 30
0.0
 10
42.75073489868709
 20
17.66369725111419
 30
0.0
 10
42.83227674474593
 20
17.66369725111416
 30
0.0
  0
LINE
  5
26C
330
1F
100
AcDbEntity
  8
0
  6
SLD-Solid
 62
   142
420
    32960
370
     0
100
AcDbLine
 10
41.6322767447
 20
16.6789957831
 30
0.0
 11
41.6322767447
 21
16.7828868179
 31
0.0
  0
LINE
  5
26D
330
1F
100
AcDbEntity
  8
0
  6
SLD-Solid
 62
     7
370
    15
100
AcDbLine
 10
42.3322767447
 20
16.6789957831
 30
0.0
 11
41.6322767447
 21
16.6789957831
 31
0.0
  0
LINE
  5
26E
330
1F
100
AcDbEntity
  8
0
  6
SLD-Solid
 62
   142
420
    32960
370
     0
100
AcDbLine
 10
42.3322767447
 20
16.7828868179
 30
0.0
 11
42.3322767447
 21
16.6789957831
 31
0.0
  0
SPLINE
  5
26F
330
1F
100
AcDbEntity
  8
0
  6
SLD-Solid
 62
   142
420
    32960
370
     0
100
AcDbSpline
210
0.0
220
0.0
230
1.0
 70
     8
 71
     3
 72
    10
 73
     6
 74
     0
 42
0.00000001
 43
0.00000001
 40
0.0
 40
0.0
 40
0.0
 40
0.0
 40
0.5
 40
0.5
 40
1.0
 40
1.0
 40
1.0
 40
1.0
 10
42.33227674474599
 20
16.78288681792417
 30
0.0
 10
42.33227674474593
 20
16.87738887670642
 30
0.0
 10
42.3827197767741
 20
16.97102718193114
 30
0.0
 10
42.56421592372728
 20
17.10870619714783
 30
0.0
 10
42.69609425117671
 20
17.15149482889403
 30
0.0
 10
42.83227674474593
 20
17.151494828894
 30
0.0
  0
LINE
  5
270
330
1F
100
AcDbEntity
  8
0
  6
SLD-Solid
 62
   142
420
    32960
370
     0
100
AcDbLine
 10
41.6322767447
 20
12.0055341873
 30
0.0
 11
41.6322767447
 21
16.6789957831
 31
0.0
  0
LINE
  5
271
330
1F
100
AcDbEntity
  8
0
  6
SLD-Solid
 62
   142
420
    32960
370
     0
100
AcDbLine
 10
41.6322767447
 20
16.8523374054
 30
0.0
 11
41.6322767447
 21
16.7828868179
 31
0.0
  0
LINE
  5
272
330
1F
100
AcDbEntity
  8
0
  6
SLD-Solid
 62
   142
420
    32960
370
     0
100
AcDbLine
 10
42.3322767447
 20
16.6789957831
 30
0.0
 11
42.3322767447
 21
12.0055341873
 31
0.0
  0
SPLINE
  5
273
330
1F
100
AcDbEntity
  8
0
  6
SLD-Solid
 62
     7
370
    15
100
AcDbSpline
210
0.0
220
0.0
230
1.0
 70
     8
 71
     3
 72
     9
 73
     5
 74
     0
 42
0.00000001
 43
0.00000001
 40
0.0
 40
0.0
 40
0.0
 40
0.0
 40
0.0467642327937153
 40
1.0
 40
1.0
 40
1.0
 40
1.0
 10
760.8898401277143
 20
-40.40132650531086
 30
0.0
 10
760.8988513089662
 20
-40.40470097365822
 30
0.0
 10
761.0915451844681
 20
-40.47686014629409
 30
0.0
 10
761.2403913018479
 20
-40.54901931892996
 30
0.0
 10
761.382276744744
 20
-40.6178040232184
 30
0.0
  0
SPLINE
  5
274
330
1F
100
AcDbEntity
  8
0
  6
SLD-Solid
 62
   142
420
    32960
370
     0
100
AcDbSpline
210
0.0
220
0.0
230
1.0
 70
     8
 71
     3
 72
    22
 73
    18
 74
     0
 42
0.00000001
 43
0.00000001
 40
0.0
 40
0.0
 40
0.0
 40
0.0
 40
0.125
 40
0.125
 40
0.25
 40
0.25
 40
0.375
 40
0.375
 40
0.5
 40
0.5
 40
0.625
 40
0.625
 40
0.75
 40
0.75
 40
0.875
 40
0.875
 40
1.0
 40
1.0
 40
1.0
 40
1.0
 10
55.45298742286109
 20
640.9333724201118
 30
0.0
 10
55.50256122565694
 20
640.9333724201114
 30
0.0
 10
55.55136403201266
 20
640.9200766875298
 30
0.0
 10
55.64911294614344
 20
640.8680584110176
 30
0.0
 10
55.69844655616446
 20
640.828902582542
 30
0.0
 10
55.79711681843447
 20
640.7258069931943
 30
0.0
 10
55.84583046137448
 20
640.6627454624829
 30
0.0
 10
55.94367182627307
 20
640.5144495098143
 30
0.0
 10
55.99331839736277
 20
640.4281353910498
 30
0.0
 10
56.09161421078112
 20
640.238387357814
 30
0.0
 10
56.14028446167957
 20
640.1351942856355
 30
0.0
 10
56.23831297057086
 20
639.9127683108514
 30
0.0
 10
56.28805931812308
 20
639.7924568105171
 30
0.0
 10
56.38607837724358
 20
639.5452352460078
 30
0.0
 10
56.4347498187548
 20
639.4174950644372
 30
0.0
 10
56.533060937909
 20
639.1542621235423
 30
0.0
 10
56.58270293998763
 20
639.0187371820808
 30
0.0
 10
56.63227674474247
 20
638.8833724201118
 30
0.0
  0
LINE
  5
275
330
1F
100
AcDbEntity
  8
0
  6
SLD-Solid
 62
     7
370
    15
100
AcDbLine
 10
679.2922767447
 20
640.9333724201
 30
0.0
 11
675.4822767447
 21
640.9333724201
 31
0.0
  0
LINE
  5
276
330
1F
100
AcDbEntity
  8
0
  6
SLD-Solid
 62
     7
370
    15
100
AcDbLine
 10
160.4822767447
 20
640.9333724201
 30
0.0
 11
156.0822767447
 21
640.9333724201
 31
0.0
  0
SPLINE
  5
277
330
1F
100
AcDbEntity
  8
0
  6
SLD-Solid
 62
   142
420
    32960
370
     0
100
AcDbSpline
210
0.0
220
0.0
230
1.0
 70
     8
 71
     3
 72
    11
 73
     7
 74
     0
 42
0.00000001
 43
0.00000001
 40
0.0
 40
0.0
 40
0.0
 40
0.0
 40
0.3237812528842531
 40
0.6475625057685072
 40
0.9713437586527612
 40
1.0
 40
1.0
 40
1.0
 40
1.0
 10
760.1322767447422
 20
638.8833724201141
 30
0.0
 10
760.2305508548989
 20
639.1533471256882
 30
0.0
 10
760.4270990752125
 20
639.6932965368364
 30
0.0
 10
760.7219214056827
 20
640.3506821713149
 30
0.0
 10
760.927167370519
 20
640.7342295154772
 30
0.0
 10
761.0341392251985
 20
640.7868572918214
 30
0.0
 10
761.0428369697212
 20
640.7911363889243
 30
0.0
  0
LINE
  5
278
330
1F
100
AcDbEntity
  8
0
  6
SLD-Solid
 62
     7
370
    15
100
AcDbLine
 10
54.5822767447
 20
640.062661742
 30
0.0
 11
54.5822767447
 21
-41.2959169018
 31
0.0
  0
SPLINE
  5
279
330
1F
100
AcDbEntity
  8
0
  6
SLD-Solid
 62
   142
420
    32960
370
     0
100
AcDbSpline
210
0.0
220
0.0
230
1.0
 70
     8
 71
     3
 72
    14
 73
    10
 74
     0
 42
0.00000001
 43
0.00000001
 40
0.0
 40
0.0
 40
0.0
 40
0.0
 40
0.25
 40
0.25
 40
0.5
 40
0.5
 40
0.75
 40
0.75
 40
1.0
 40
1.0
 40
1.0
 40
1.0
 10
56.63227674474258
 20
638.883372420112
 30
0.0
 10
56.36393237224841
 20
638.9816465302687
 30
0.0
 10
56.09569358180578
 20
639.0799206404256
 30
0.0
 10
55.59985783498173
 20
639.2764688607389
 30
0.0
 10
55.37245596879325
 20
639.3747429708958
 30
0.0
 10
54.99295971782525
 20
639.5712911912093
 30
0.0
 10
54.84101464861524
 20
639.6695653013662
 30
0.0
 10
54.63563275757133
 20
639.8661135216796
 30
0.0
 10
54.58227674474148
 20
639.9643876318364
 30
0.0
 10
54.58227674474153
 20
640.0626617419931
 30
0.0
  0
SPLINE
  5
27A
330
1F
100
AcDbEntity
  8
0
  6
SLD-Solid
 62
   142
420
    32960
370
     0
100
AcDbSpline
210
0.0
220
0.0
230
1.0
 70
     8
 71
     3
 72
    14
 73
    10
 74
     0
 42
0.00000001
 43
0.00000001
 40
0.0
 40
0.0
 40
0.0
 40
0.0
 40
0.25
 40
0.25
 40
0.5
 40
0.5
 40
0.75
 40
0.75
 40
1.0
 40
1.0
 40
1.0
 40
1.0
 10
54.58227674474381
 20
-41.29591690176942
 30
0.0
 10
54.58227674474369
 20
-41.19764279161264
 30
0.0
 10
54.63563275757366
 20
-41.09936868145603
 30
0.0
 10
54.84101464861762
 20
-40.90282046114246
 30
0.0
 10
54.99295971782747
 20
-40.80454635098562
 30
0.0
 10
55.37245596879525
 20
-40.60799813067207
 30
0.0
 10
55.59985783498361
 20
-40.50972402051522
 30
0.0
 10
56.0956935818076
 20
-40.31317580020166
 30
0.0
 10
56.36393237225007
 20
-40.21490169004505
 30
0.0
 10
56.63227674474425
 20
-40.11662757988827
 30
0.0
  0
LINE
  5
27B
330
1F
100
AcDbEntity
  8
0
  6
SLD-Solid
 62
     7
370
    15
100
AcDbLine
 10
762.1822767447
 20
-41.2959169018
 30
0.0
 11
762.1822767447
 21
623.1662460271
 31
0.0
  0
SPLINE
  5
27C
330
1F
100
AcDbEntity
  8
0
  6
SLD-Solid
 62
     7
370
    15
100
AcDbSpline
210
0.0
220
0.0
230
1.0
 70
     8
 71
     3
 72
    22
 73
    18
 74
     0
 42
0.00000001
 43
0.00000001
 40
0.0
 40
0.0
 40
0.0
 40
0.0
 40
0.125
 40
0.125
 40
0.25
 40
0.25
 40
0.375
 40
0.375
 40
0.5
 40
0.5
 40
0.625
 40
0.625
 40
0.75
 40
0.75
 40
0.875
 40
0.875
 40
1.0
 40
1.0
 40
1.0
 40
1.0
 10
760.1322767447438
 20
-40.1166275798856
 30
0.0
 10
760.2676415031322
 20
-40.16620138332916
 30
0.0
 10
760.4008800482478
 20
-40.21500418852509
 30
0.0
 10
760.6626855570537
 20
-40.31275309689519
 30
0.0
 10
760.7922463892505
 20
-40.36208669614055
 30
0.0
 10
761.0411675108635
 20
-40.46075697046503
 30
0.0
 10
761.1590081152965
 20
-40.50947061570032
 30
0.0
 10
761.3812496206533
 20
-40.60731197832796
 30
0.0
 10
761.4866095782983
 20
-40.65695854485807
 30
0.0
 10
761.6764414484412
 20
-40.75525436776734
 30
0.0
 10
761.7611892960474
 20
-40.80392461982485
 30
0.0
 10
761.9101288644886
 20
-40.9019531240975
 30
0.0
 10
761.9745509858151
 20
-40.95169947245792
 30
0.0
 10
762.0771022985809
 20
-41.04971853859774
 30
0.0
 10
762.116018285629
 20
-41.09838998014681
 30
0.0
 10
762.1687286230218
 20
-41.19670109231038
 30
0.0
 10
762.182276744744
 20
-41.24634309636443
 30
0.0
 10
762.182276744744
 20
-41.29591690176693
 30
0.0
  0
SPLINE
  5
27D
330
1F
100
AcDbEntity
  8
0
  6
SLD-Solid
 62
   142
420
    32960
370
     0
100
AcDbSpline
210
0.0
220
0.0
230
1.0
 70
     8
 71
     3
 72
    22
 73
    18
 74
     0
 42
0.00000001
 43
0.00000001
 40
0.0
 40
0.0
 40
0.0
 40
0.0
 40
0.125
 40
0.125
 40
0.25
 40
0.25
 40
0.375
 40
0.375
 40
0.5
 40
0.5
 40
0.625
 40
0.625
 40
0.75
 40
0.75
 40
0.875
 40
0.875
 40
1.0
 40
1.0
 40
1.0
 40
1.0
 10
762.1822767447416
 20
640.0626617419955
 30
0.0
 10
762.1822767447414
 20
640.0130879391994
 30
0.0
 10
762.1689810121599
 20
639.9642851328445
 30
0.0
 10
762.1169627356478
 20
639.8665362187135
 30
0.0
 10
762.0778069071719
 20
639.8172026086921
 30
0.0
 10
761.9747113178244
 20
639.7185323464223
 30
0.0
 10
761.9116497871129
 20
639.6698187034822
 30
0.0
 10
761.7633538344439
 20
639.5719773385839
 30
0.0
 10
761.67703971568
 20
639.5223307674942
 30
0.0
 10
761.4872916824445
 20
639.4240349540759
 30
0.0
 10
761.3840986102655
 20
639.3753647031772
 30
0.0
 10
761.1616726354815
 20
639.277336194286
 30
0.0
 10
761.0413611351472
 20
639.2275898467334
 30
0.0
 10
760.7941395706378
 20
639.1295707876133
 30
0.0
 10
760.666399389067
 20
639.0808993461021
 30
0.0
 10
760.4031664481719
 20
638.9825882269475
 30
0.0
 10
760.2676415067107
 20
638.9329462248689
 30
0.0
 10
760.1322767447417
 20
638.8833724201141
 30
0.0
  0
SPLINE
  5
27E
330
1F
100
AcDbEntity
  8
0
  6
SLD-Solid
 62
     7
370
    15
100
AcDbSpline
210
0.0
220
0.0
230
1.0
 70
     8
 71
     3
 72
    22
 73
    18
 74
     0
 42
0.00000001
 43
0.00000001
 40
0.0
 40
0.0
 40
0.0
 40
0.0
 40
0.125
 40
0.125
 40
0.25
 40
0.25
 40
0.375
 40
0.375
 40
0.5
 40
0.5
 40
0.625
 40
0.625
 40
0.75
 40
0.75
 40
0.875
 40
0.875
 40
1.0
 40
1.0
 40
1.0
 40
1.0
 10
56.63227674474475
 20
-40.11662757988821
 30
0.0
 10
56.58270294130108
 20
-40.25199233827664
 30
0.0
 10
56.53390013610521
 20
-40.38523088339213
 30
0.0
 10
56.4361512277351
 20
-40.64703639219819
 30
0.0
 10
56.38681762848979
 20
-40.77659722439469
 30
0.0
 10
56.28814735416526
 20
-41.02551834600765
 30
0.0
 10
56.23943370893009
 20
-41.14335895044064
 30
0.0
 10
56.1415923463024
 20
-41.36560045579751
 30
0.0
 10
56.09194577977233
 20
-41.47096041344239
 30
0.0
 10
55.99364995686312
 20
-41.66079228358527
 30
0.0
 10
55.94497970480544
 20
-41.7455401311917
 30
0.0
 10
55.84695120053279
 20
-41.89447969963284
 30
0.0
 10
55.79720485217238
 20
-41.95890182095913
 30
0.0
 10
55.69918578603266
 20
-42.06145313372495
 30
0.0
 10
55.65051434448354
 20
-42.10036912077325
 30
0.0
 10
55.55220323231996
 20
-42.15307945816593
 30
0.0
 10
55.50256122826597
 20
-42.16662757988815
 30
0.0
 10
55.45298742286337
 20
-42.16662757988815
 30
0.0
  0
LINE
  5
27F
330
1F
100
AcDbEntity
  8
0
  6
SLD-Solid
 62
     7
370
    15
100
AcDbLine
 10
55.4529874229
 20
-42.1666275799
 30
0.0
 11
55.4529874229
 21
-41.3666275799
 31
0.0
  0
SPLINE
  5
280
330
1F
100
AcDbEntity
  8
0
  6
SLD-Solid
 62
     7
370
    15
100
AcDbSpline
210
0.0
220
0.0
230
1.0
 70
     8
 71
     3
 72
    14
 73
    10
 74
     0
 42
0.00000001
 43
0.00000001
 40
0.0
 40
0.0
 40
0.0
 40
0.0
 40
0.25
 40
0.25
 40
0.5
 40
0.5
 40
0.75
 40
0.75
 40
1.0
 40
1.0
 40
1.0
 40
1.0
 10
56.63227674474475
 20
-40.11662757988821
 30
0.0
 10
56.53306638354899
 20
-40.28181103832213
 30
0.0
 10
56.43667170906453
 20
-40.4423596916797
 30
0.0
 10
56.23828239061496
 20
-40.74753441058071
 30
0.0
 10
56.14185784681608
 20
-40.88368279047455
 30
0.0
 10
55.94350666953479
 20
-41.1172211757434
 30
0.0
 10
55.84704394646839
 20
-41.20823309242932
 30
0.0
 10
55.64873063422643
 20
-41.3346220791882
 30
0.0
 10
55.55219778397441
 20
-41.36662757988818
 30
0.0
 10
55.45298742286337
 20
-41.36662757988812
 30
0.0
  0
LINE
  5
281
330
1F
100
AcDbEntity
  8
0
  6
SLD-Solid
 62
   142
420
    32960
370
     0
100
AcDbLine
 10
55.4529874229
 20
-42.1666275799
 30
0.0
 11
761.3115660666
 21
-42.1666275799
 31
0.0
  0
SPLINE
  5
282
330
1F
100
AcDbEntity
  8
0
  6
SLD-Solid
 62
   142
420
    32960
370
     0
100
AcDbSpline
210
0.0
220
0.0
230
1.0
 70
     8
 71
     3
 72
    14
 73
    10
 74
     0
 42
0.00000001
 43
0.00000001
 40
0.0
 40
0.0
 40
0.0
 40
0.0
 40
0.25
 40
0.25
 40
0.5
 40
0.5
 40
0.75
 40
0.75
 40
1.0
 40
1.0
 40
1.0
 40
1.0
 10
761.3115660666257
 20
-42.16662757988565
 30
0.0
 10
761.2132919564687
 20
-42.16662757988565
 30
0.0
 10
761.115017846312
 20
-42.11327156705569
 30
0.0
 10
760.9184696259985
 20
-41.90788967601189
 30
0.0
 10
760.8201955158415
 20
-41.75594460680193
 30
0.0
 10
760.623647295528
 20
-41.37644835583426
 30
0.0
 10
760.5253731853712
 20
-41.14904648964601
 30
0.0
 10
760.3288249650577
 20
-40.65321074282225
 30
0.0
 10
760.2305508549008
 20
-40.38497195237984
 30
0.0
 10
760.132276744744
 20
-40.11662757988571
 30
0.0
  0
LINE
  5
283
330
1F
100
AcDbEntity
  8
0
  6
SLD-Solid
 62
   142
420
    32960
370
     0
100
AcDbLine
 10
761.3822767447
 20
-41.2959169018
 30
0.0
 11
762.1822767447
 21
-41.2959169018
 31
0.0
  0
SPLINE
  5
284
330
1F
100
AcDbEntity
  8
0
  6
SLD-Solid
 62
   142
420
    32960
370
     0
100
AcDbSpline
210
0.0
220
0.0
230
1.0
 70
     8
 71
     3
 72
    14
 73
    10
 74
     0
 42
0.00000001
 43
0.00000001
 40
0.0
 40
0.0
 40
0.0
 40
0.0
 40
0.25
 40
0.25
 40
0.5
 40
0.5
 40
0.75
 40
0.75
 40
1.0
 40
1.0
 40
1.0
 40
1.0
 10
760.1322767447438
 20
-40.11662757988555
 30
0.0
 10
760.2974602031779
 20
-40.21583794108125
 30
0.0
 10
760.4580088565356
 20
-40.31223261556577
 30
0.0
 10
760.7631835754366
 20
-40.51062193401545
 30
0.0
 10
760.8993319553304
 20
-40.60704647781438
 30
0.0
 10
761.1328703405993
 20
-40.80539765509555
 30
0.0
 10
761.2238822572855
 20
-40.90186037816207
 30
0.0
 10
761.3502712440444
 20
-41.10017369040381
 30
0.0
 10
761.3822767447439
 20
-41.196706540656
 30
0.0
 10
761.3822767447439
 20
-41.29591690176693
 30
0.0
  0
LINE
  5
285
330
1F
100
AcDbEntity
  8
0
  6
SLD-Solid
 62
   142
420
    32960
370
     0
100
AcDbLine
 10
761.3115660666
 20
-41.3666275799
 30
0.0
 11
760.6334531881
 21
-41.3666275799
 31
0.0
  0
SPLINE
  5
286
330
1F
100
AcDbEntity
  8
0
  6
SLD-Solid
 62
   142
420
    32960
370
     0
100
AcDbSpline
210
0.0
220
0.0
230
1.0
 70
     8
 71
     3
 72
    14
 73
    10
 74
     0
 42
0.00000001
 43
0.00000001
 40
0.0
 40
0.0
 40
0.0
 40
0.0
 40
0.25
 40
0.25
 40
0.5
 40
0.5
 40
0.75
 40
0.75
 40
1.0
 40
1.0
 40
1.0
 40
1.0
 10
761.3115660666257
 20
-41.36662757988563
 30
0.0
 10
761.2132919564687
 20
-41.36662757988563
 30
0.0
 10
761.115017846312
 20
-41.33409342572103
 30
0.0
 10
760.9184696259985
 20
-41.20886056532846
 30
0.0
 10
760.8201955158415
 20
-41.11621113288339
 30
0.0
 10
760.623647295528
 20
-40.8848109798543
 30
0.0
 10
760.5253731853712
 20
-40.74615130534931
 30
0.0
 10
760.3288249650577
 20
-40.44381243533473
 30
0.0
 10
760.2305508549008
 20
-40.28025219726011
 30
0.0
 10
760.132276744744
 20
-40.11662757988566
 30
0.0
  0
LINE
  5
287
330
1F
100
AcDbEntity
  8
0
  6
SLD-Solid
 62
   142
420
    32960
370
     0
100
AcDbLine
 10
55.3822767447
 20
-41.2959169018
 30
0.0
 11
54.5822767447
 21
-41.2959169018
 31
0.0
  0
LINE
  5
288
330
1F
100
AcDbEntity
  8
0
  6
SLD-Solid
 62
   142
420
    32960
370
     0
100
AcDbLine
 10
761.3822767447
 20
640.062661742
 30
0.0
 11
761.3822767447
 21
639.3852147948
 31
0.0
  0
LINE
  5
289
330
1F
100
AcDbEntity
  8
0
  6
SLD-Solid
 62
   142
420
    32960
370
     0
100
AcDbLine
 10
761.3115660666
 20
-42.1666275799
 30
0.0
 11
761.3115660666
 21
-41.3666275799
 31
0.0
  0
LINE
  5
28A
330
1F
100
AcDbEntity
  8
0
  6
SLD-Solid
 62
   142
420
    32960
370
     0
100
AcDbLine
 10
764.6822767447
 20
496.4333721095
 30
0.0
 11
764.6822767447
 21
500.845697893
 31
0.0
  0
LINE
  5
28B
330
1F
100
AcDbEntity
  8
0
  6
SLD-Solid
 62
   142
420
    32960
370
     0
100
AcDbLine
 10
42.8322767447
 20
17.7038124545
 30
0.0
 11
42.8322767447
 21
13.2814568355
 31
0.0
  0
LINE
  5
28C
330
1F
100
AcDbEntity
  8
0
  6
SLD-Solid
 62
   142
420
    32960
370
     0
100
AcDbLine
 10
42.8322767447
 20
13.2814568355
 30
0.0
 11
47.9322767447
 21
13.2814568355
 31
0.0
  0
LINE
  5
28D
330
1F
100
AcDbEntity
  8
0
  6
SLD-Solid
 62
   142
420
    32960
370
     0
100
AcDbLine
 10
47.9322767447
 20
13.2814568355
 30
0.0
 11
47.9322767447
 21
17.7038124545
 31
0.0
  0
LINE
  5
28E
330
1F
100
AcDbEntity
  8
0
  6
SLD-Solid
 62
   142
420
    32960
370
     0
100
AcDbLine
 10
47.9322767447
 20
17.7038124545
 30
0.0
 11
42.8322767447
 21
17.7038124545
 31
0.0
  0
LINE
  5
28F
330
1F
100
AcDbEntity
  8
0
  6
SLD-Solid
 62
   142
420
    32960
370
     0
100
AcDbLine
 10
45.8822767448
 20
535.7333724201
 30
0.0
 11
45.8822767448
 21
545.7333724201
 31
0.0
  0
LINE
  5
290
330
1F
100
AcDbEntity
  8
0
  6
SLD-Solid
 62
   142
420
    32960
370
     0
100
AcDbLine
 10
156.8310259625
 20
656.1333724201
 30
0.0
 11
156.8322767447
 21
656.0833724201
 31
0.0
  0
LINE
  5
291
330
1F
100
AcDbEntity
  8
0
  6
SLD-Solid
 62
   142
420
    32960
370
     0
100
AcDbLine
 10
156.8322767447
 20
656.0833724201
 30
0.0
 11
156.8322767447
 21
641.9333724201
 31
0.0
  0
ARC
  5
292
330
1F
100
AcDbEntity
  8
0
  6
SLD-Solid
 62
   142
420
    32960
370
     0
100
AcDbCircle
 10
156.0822767447
 20
641.9333724201
 30
0.0
 40
0.7499999999999716
100
AcDbArc
 50
270.0
 51
0.0
  0
ARC
  5
293
330
1F
100
AcDbEntity
  8
0
  6
SLD-Solid
 62
   142
420
    32960
370
     0
100
AcDbCircle
 10
54.6822767447
 20
641.9333724201
 30
0.0
 40
0.7499999999999716
100
AcDbArc
 50
180.0
 51
270.0
  0
ARC
  5
294
330
1F
100
AcDbEntity
  8
0
  6
SLD-Solid
 62
   142
420
    32960
370
     0
100
AcDbCircle
 10
54.9322767447
 20
726.1301416777
 30
0.0
 40
1.00000000000002
100
AcDbArc
 50
75.0
 51
180.0
  0
LINE
  5
295
330
1F
100
AcDbEntity
  8
0
  6
SLD-Solid
 62
   142
420
    32960
370
     0
100
AcDbLine
 10
55.1910957898
 20
727.096067504
 30
0.0
 11
88.488048111
 21
718.1741760191
 31
0.0
  0
LINE
  5
296
330
1F
100
AcDbEntity
  8
0
  6
SLD-Solid
 62
   142
420
    32960
370
     0
100
AcDbLine
 10
106.8322767447
 20
694.2675118185
 30
0.0
 11
106.8322767447
 21
687.3833724201
 31
0.0
  0
ARC
  5
297
330
1F
100
AcDbEntity
  8
0
  6
SLD-Solid
 62
   142
420
    32960
370
     0
100
AcDbCircle
 10
130.3322767447
 20
676.0833724201
 30
0.0
 40
0.9999999999999432
100
AcDbArc
 50
0.0
 51
90.0
  0
ARC
  5
298
330
1F
100
AcDbEntity
  8
0
  6
SLD-Solid
 62
   142
420
    32960
370
     0
100
AcDbCircle
 10
133.6322767447
 20
659.3833724201
 30
0.0
 40
2.299999999999955
100
AcDbArc
 50
180.0
 51
270.0
  0
LINE
  5
299
330
1F
100
AcDbEntity
  8
0
  6
SLD-Solid
 62
     7
370
    15
100
AcDbLine
 10
767.6822767447
 20
490.9333721095
 30
0.0
 11
811.1822767447
 21
490.9333721095
 31
0.0
  0
LINE
  5
29A
330
1F
100
AcDbEntity
  8
0
  6
SLD-Solid
 62
     7
370
    15
100
AcDbLine
 10
811.1822767447
 20
490.9333721095
 30
0.0
 11
819.1822767447
 21
490.9333721095
 31
0.0
  0
LINE
  5
29B
330
1F
100
AcDbEntity
  8
0
  6
SLD-Solid
 62
     7
370
    15
100
AcDbLine
 10
811.1822767447
 20
493.4333721095
 30
0.0
 11
819.1822767447
 21
493.4333721095
 31
0.0
  0
LINE
  5
29C
330
1F
100
AcDbEntity
  8
0
  6
SLD-Solid
 62
     7
370
    15
100
AcDbLine
 10
767.6822767447
 20
493.4333721095
 30
0.0
 11
811.1822767447
 21
493.4333721095
 31
0.0
  0
LINE
  5
29D
330
1F
100
AcDbEntity
  8
0
  6
SLD-Solid
 62
   142
420
    32960
370
     0
100
AcDbLine
 10
767.6822767447
 20
493.4333721095
 30
0.0
 11
767.6822767447
 21
490.9333721095
 31
0.0
  0
ARC
  5
29E
330
1F
100
AcDbEntity
  8
0
  6
SLD-Solid
 62
   142
420
    32960
370
     0
100
AcDbCircle
 10
37.2229827637
 20
17.9037384704
 30
0.0
 40
0.2409166953320109
100
AcDbArc
 50
87.7891193519
 51
177.6036857868
  0
LINE
  5
29F
330
1F
100
AcDbEntity
  8
0
  6
SLD-Solid
 62
   142
420
    32960
370
     0
100
AcDbLine
 10
36.9822767447
 20
17.3511739286
 30
0.0
 11
36.9822767447
 21
14.0386279171
 31
0.0
  0
LWPOLYLINE
  5
2A0
330
1F
100
AcDbEntity
  8
0
  6
SLD-Solid
 62
   142
420
    32960
370
     0
100
AcDbPolyline
 90
        9
 70
   128
 43
0.0
 10
37.2322767447
 20
14.1719257939
 10
37.1835041642
 20
14.1693645126
 10
37.1366058867
 20
14.1617790972
 10
37.0933841865
 20
14.149461051
 10
37.0555000494
 20
14.1328837497
 10
37.0244093417
 20
14.1126842496
 10
37.0013068616
 20
14.0896388061
 10
36.9870804246
 20
14.0646330428
 10
36.9832008309
 20
14.0500783724
  0
LINE
  5
2A1
330
1F
100
AcDbEntity
  8
0
  6
SLD-Solid
 62
   142
420
    32960
370
     0
100
AcDbLine
 10
37.2322767447
 20
18.1444758294
 30
0.0
 11
42.3322767447
 21
18.1444758294
 31
0.0
  0
LINE
  5
2A2
330
1F
100
AcDbEntity
  8
0
  6
SLD-Solid
 62
   142
420
    32960
370
     0
100
AcDbLine
 10
42.3322767447
 20
18.1444758294
 30
0.0
 11
42.3322767447
 21
17.691975972
 31
0.0
  0
LINE
  5
2A3
330
1F
100
AcDbEntity
  8
0
  6
SLD-Solid
 62
   142
420
    32960
370
     0
100
AcDbLine
 10
42.3322767447
 20
12.0055341873
 30
0.0
 11
41.6322767447
 21
12.0055341873
 31
0.0
  0
LINE
  5
2A4
330
1F
100
AcDbEntity
  8
0
  6
SLD-Solid
 62
   142
420
    32960
370
     0
100
AcDbLine
 10
41.6322767447
 20
12.0055341873
 30
0.0
 11
41.6322767447
 21
4.1522205086
 31
0.0
  0
LINE
  5
2A5
330
1F
100
AcDbEntity
  8
0
  6
SLD-Solid
 62
   142
420
    32960
370
     0
100
AcDbLine
 10
41.6322767447
 20
3.589582907
 30
0.0
 11
41.6322767447
 21
3.2948190463
 31
0.0
  0
LINE
  5
2A6
330
1F
100
AcDbEntity
  8
0
  6
SLD-Solid
 62
   142
420
    32960
370
     0
100
AcDbLine
 10
42.5822767447
 20
12.0666880769
 30
0.0
 11
42.5822767447
 21
4.1148371354
 31
0.0
  0
LINE
  5
2A7
330
1F
100
AcDbEntity
  8
0
  6
SLD-Solid
 62
   142
420
    32960
370
     0
100
AcDbLine
 10
42.5822767447
 20
3.5300067028
 30
0.0
 11
42.5822767447
 21
0.2833724201
 31
0.0
  0
SPLINE
  5
2A8
330
1F
100
AcDbEntity
  8
0
  6
SLD-Solid
 62
   142
420
    32960
370
     0
100
AcDbSpline
210
0.0
220
0.0
230
1.0
 70
     8
 71
     3
 72
    10
 73
     6
 74
     0
 42
0.00000001
 43
0.00000001
 40
0.0
 40
0.0
 40
0.0
 40
0.0
 40
0.5
 40
0.5
 40
1.0
 40
1.0
 40
1.0
 40
1.0
 10
42.33227674474599
 20
12.00553418731279
 30
0.0
 10
42.40558772129466
 20
12.00553418731279
 30
0.0
 10
42.47366841405808
 20
12.01399570095118
 30
0.0
 10
42.56112855861993
 20
12.0377374678122
 30
0.0
 10
42.58227674474596
 20
12.05245700520452
 30
0.0
 10
42.58227674474596
 20
12.06668807691222
 30
0.0
  0
LINE
  5
2A9
330
1F
100
AcDbEntity
  8
0
  6
SLD-Solid
 62
   142
420
    32960
370
     0
100
AcDbLine
 10
48.0822767448
 20
590.7333724201
 30
0.0
 11
48.0822767448
 21
603.2333724201
 31
0.0
  0
LINE
  5
2AA
330
1F
100
AcDbEntity
  8
0
  6
SLD-Solid
 62
   142
420
    32960
370
     0
100
AcDbLine
 10
48.0822767448
 20
578.2333724201
 30
0.0
 11
48.0822767448
 21
590.7333724201
 31
0.0
  0
LINE
  5
2AB
330
1F
100
AcDbEntity
  8
0
  6
SLD-Solid
 62
     7
370
    15
100
AcDbLine
 10
155.3822767447
 20
-205.3666275799
 30
0.0
 11
98.3822767447
 21
-205.3666275799
 31
0.0
  0
LINE
  5
2AC
330
1F
100
AcDbEntity
  8
0
  6
SLD-Solid
 62
     7
370
    15
100
AcDbLine
 10
153.3822766739
 20
-211.3666275799
 30
0.0
 11
100.3822767447
 21
-211.3666275799
 31
0.0
  0
LINE
  5
2AD
330
1F
100
AcDbEntity
  8
0
  6
SLD-Solid
 62
   142
420
    32960
370
     0
100
AcDbLine
 10
780.4214375606
 20
622.3333724201
 30
0.0
 11
780.4214375606
 21
623.1333724201
 31
0.0
  0
LINE
  5
2AE
330
1F
100
AcDbEntity
  8
0
  6
SLD-Solid
 62
     7
370
    15
100
AcDbLine
 10
764.1822767447
 20
622.3333724201
 30
0.0
 11
780.4214375606
 21
622.3333724201
 31
0.0
  0
LINE
  5
2AF
330
1F
100
AcDbEntity
  8
0
  6
SLD-Solid
 62
   142
420
    32960
370
     0
100
AcDbLine
 10
764.1822767447
 20
623.1333724201
 30
0.0
 11
764.1822767447
 21
622.3333724201
 31
0.0
  0
LINE
  5
2B0
330
1F
100
AcDbEntity
  8
0
  6
SLD-Solid
 62
   142
420
    32960
370
     0
100
AcDbLine
 10
764.1822767447
 20
623.1333724201
 30
0.0
 11
780.4214375606
 21
623.1333724201
 31
0.0
  0
LINE
  5
2B1
330
1F
100
AcDbEntity
  8
0
  6
SLD-Solid
 62
   142
420
    32960
370
     0
100
AcDbLine
 10
764.1822767447
 20
622.3333724201
 30
0.0
 11
762.1822767447
 21
622.3333724201
 31
0.0
  0
SPLINE
  5
2B2
330
1F
100
AcDbEntity
  8
0
  6
SLD-Solid
 62
   142
420
    32960
370
     0
100
AcDbSpline
210
0.0
220
0.0
230
1.0
 70
     8
 71
     3
 72
    10
 73
     6
 74
     0
 42
0.00000001
 43
0.00000001
 40
0.0
 40
0.0
 40
0.0
 40
0.0
 40
0.5
 40
0.5
 40
1.0
 40
1.0
 40
1.0
 40
1.0
 10
49.23227674474601
 20
9.66566557861931
 30
0.0
 10
49.23227674474601
 20
10.14520894927687
 30
0.0
 10
49.27536709178043
 20
10.63127276834363
 30
0.0
 10
49.43189745186582
 20
11.57860460354618
 30
0.0
 10
49.54411337801634
 20
12.0432056880585
 30
0.0
 10
49.67885873213124
 20
12.50179142600269
 30
0.0
  0
LINE
  5
2B3
330
1F
100
AcDbEntity
  8
0
  6
SLD-Solid
 62
     7
370
    15
100
AcDbLine
 10
53.9856947574
 20
12.501791426
 30
0.0
 11
49.6788587321
 21
12.501791426
 31
0.0
  0
SPLINE
  5
2B4
330
1F
100
AcDbEntity
  8
0
  6
SLD-Solid
 62
   142
420
    32960
370
     0
100
AcDbSpline
210
0.0
220
0.0
230
1.0
 70
     8
 71
     3
 72
    10
 73
     6
 74
     0
 42
0.00000001
 43
0.00000001
 40
0.0
 40
0.0
 40
0.0
 40
0.0
 40
0.5
 40
0.5
 40
1.0
 40
1.0
 40
1.0
 40
1.0
 10
54.43227674474599
 20
9.66566557861931
 30
0.0
 10
54.43227674474599
 20
10.14520894927687
 30
0.0
 10
54.38918639771156
 20
10.63127276834366
 30
0.0
 10
54.23265603762633
 20
11.57860460354612
 30
0.0
 10
54.12044011147571
 20
12.04320568805844
 30
0.0
 10
53.98569475736081
 20
12.50179142600263
 30
0.0
  0
SPLINE
  5
2B5
330
1F
100
AcDbEntity
  8
0
  6
SLD-Solid
 62
   142
420
    32960
370
     0
100
AcDbSpline
210
0.0
220
0.0
230
1.0
 70
     8
 71
     3
 72
    10
 73
     6
 74
     0
 42
0.00000001
 43
0.00000001
 40
0.0
 40
0.0
 40
0.0
 40
0.0
 40
0.5
 40
0.5
 40
1.0
 40
1.0
 40
1.0
 40
1.0
 10
53.98569475736081
 20
6.829539731235901
 30
0.0
 10
54.12122967266814
 20
7.290812623067189
 30
0.0
 10
54.23490757150107
 20
7.76324655450189
 30
0.0
 10
54.39034630589396
 20
8.710253337541857
 30
0.0
 10
54.43227674474593
 20
9.18640695241313
 30
0.0
 10
54.43227674474599
 20
9.66566557861931
 30
0.0
  0
LINE
  5
2B6
330
1F
100
AcDbEntity
  8
0
  6
SLD-Solid
 62
     7
370
    15
100
AcDbLine
 10
53.9856947574
 20
6.8295397312
 30
0.0
 11
49.6788587321
 21
6.8295397312
 31
0.0
  0
SPLINE
  5
2B7
330
1F
100
AcDbEntity
  8
0
  6
SLD-Solid
 62
   142
420
    32960
370
     0
100
AcDbSpline
210
0.0
220
0.0
230
1.0
 70
     8
 71
     3
 72
    10
 73
     6
 74
     0
 42
0.00000001
 43
0.00000001
 40
0.0
 40
0.0
 40
0.0
 40
0.0
 40
0.5
 40
0.5
 40
1.0
 40
1.0
 40
1.0
 40
1.0
 10
49.67885873213118
 20
6.829539731235901
 30
0.0
 10
49.5433238168238
 20
7.290812623067133
 30
0.0
 10
49.42964591799092
 20
7.76324655450189
 30
0.0
 10
49.27420718359804
 20
8.7102533375418
 30
0.0
 10
49.23227674474601
 20
9.18640695241313
 30
0.0
 10
49.23227674474601
 20
9.66566557861931
 30
0.0
  0
LINE
  5
2B8
330
1F
100
AcDbEntity
  8
0
  6
SLD-Solid
 62
     7
370
    15
100
AcDbLine
 10
53.9856947574
 20
3.0611207253
 30
0.0
 11
49.6788587321
 21
3.0611207253
 31
0.0
  0
SPLINE
  5
2B9
330
1F
100
AcDbEntity
  8
0
  6
SLD-Solid
 62
   142
420
    32960
370
     0
100
AcDbSpline
210
0.0
220
0.0
230
1.0
 70
     8
 71
     3
 72
     8
 73
     4
 74
     0
 42
0.00000001
 43
0.00000001
 40
0.0
 40
0.0
 40
0.0
 40
0.0
 40
1.0
 40
1.0
 40
1.0
 40
1.0
 10
49.67885873213051
 20
6.829539731236012
 30
0.0
 10
49.40621434277936
 20
6.213076752026758
 30
0.0
 10
49.23227674474601
 20
5.587358312074075
 30
0.0
 10
49.23227674474601
 20
4.945330228287248
 30
0.0
  0
SPLINE
  5
2BA
330
1F
100
AcDbEntity
  8
0
  6
SLD-Solid
 62
   142
420
    32960
370
     0
100
AcDbSpline
210
0.0
220
0.0
230
1.0
 70
     8
 71
     3
 72
    12
 73
     8
 74
     0
 42
0.00000001
 43
0.00000001
 40
0.0
 40
0.0
 40
0.0
 40
0.0
 40
0.2500000000000023
 40
0.2500000000000023
 40
0.5000000000000046
 40
0.5000000000000046
 40
1.0
 40
1.0
 40
1.0
 40
1.0
 10
49.23227674474601
 20
4.945330228287248
 30
0.0
 10
49.23227674474601
 20
4.78542313807856
 30
0.0
 10
49.24283230526938
 20
4.624799252706424
 30
0.0
 10
49.28368103182984
 20
4.307051621118774
 30
0.0
 10
49.3139349418697
 20
4.149240545169297
 30
0.0
 10
49.43062106711821
 20
3.678610181818587
 30
0.0
 10
49.54287680484487
 20
3.368582852884217
 30
0.0
 10
49.67885873213085
 20
3.06112072533854
 30
0.0
  0
SPLINE
  5
2BB
330
1F
100
AcDbEntity
  8
0
  6
SLD-Solid
 62
   142
420
    32960
370
     0
100
AcDbSpline
210
0.0
220
0.0
230
1.0
 70
     8
 71
     3
 72
    12
 73
     8
 74
     0
 42
0.00000001
 43
0.00000001
 40
0.0
 40
0.0
 40
0.0
 40
0.0
 40
0.2499999999999977
 40
0.2499999999999977
 40
0.4999999999999953
 40
0.4999999999999953
 40
1.0
 40
1.0
 40
1.0
 40
1.0
 10
54.43227674474599
 20
4.945330228287248
 30
0.0
 10
54.43227674474605
 20
4.78542313807856
 30
0.0
 10
54.42172118422262
 20
4.624799252706424
 30
0.0
 10
54.38087245766221
 20
4.307051621118774
 30
0.0
 10
54.35061854762213
 20
4.149240545169297
 30
0.0
 10
54.23393242237384
 20
3.678610181818587
 30
0.0
 10
54.12167668464713
 20
3.368582852884272
 30
0.0
 10
53.98569475736114
 20
3.061120725338595
 30
0.0
  0
SPLINE
  5
2BC
330
1F
100
AcDbEntity
  8
0
  6
SLD-Solid
 62
   142
420
    32960
370
     0
100
AcDbSpline
210
0.0
220
0.0
230
1.0
 70
     8
 71
     3
 72
     8
 73
     4
 74
     0
 42
0.00000001
 43
0.00000001
 40
0.0
 40
0.0
 40
0.0
 40
0.0
 40
1.0
 40
1.0
 40
1.0
 40
1.0
 10
53.98569475736148
 20
6.829539731236012
 30
0.0
 10
54.25833914671263
 20
6.213076752026758
 30
0.0
 10
54.43227674474599
 20
5.587358312074075
 30
0.0
 10
54.43227674474599
 20
4.945330228287248
 30
0.0
  0
LINE
  5
2BD
330
1F
100
AcDbEntity
  8
0
  6
SLD-Solid
 62
     7
370
    15
100
AcDbLine
 10
53.9856947574
 20
14.4056241149
 30
0.0
 11
49.6788587321
 21
14.4056241149
 31
0.0
  0
SPLINE
  5
2BE
330
1F
100
AcDbEntity
  8
0
  6
SLD-Solid
 62
   142
420
    32960
370
     0
100
AcDbSpline
210
0.0
220
0.0
230
1.0
 70
     8
 71
     3
 72
     8
 73
     4
 74
     0
 42
0.00000001
 43
0.00000001
 40
0.0
 40
0.0
 40
0.0
 40
0.0
 40
1.0
 40
1.0
 40
1.0
 40
1.0
 10
49.67885873213051
 20
14.40562411487209
 30
0.0
 10
49.40621434277936
 20
14.09418253434197
 30
0.0
 10
49.23227674474601
 20
13.77806502773082
 30
0.0
 10
49.23227674474601
 20
13.45370777043733
 30
0.0
  0
SPLINE
  5
2BF
330
1F
100
AcDbEntity
  8
0
  6
SLD-Solid
 62
   142
420
    32960
370
     0
100
AcDbSpline
210
0.0
220
0.0
230
1.0
 70
     8
 71
     3
 72
    12
 73
     8
 74
     0
 42
0.00000001
 43
0.00000001
 40
0.0
 40
0.0
 40
0.0
 40
0.0
 40
0.249999999999989
 40
0.249999999999989
 40
0.499999999999978
 40
0.499999999999978
 40
1.0
 40
1.0
 40
1.0
 40
1.0
 10
49.23227674474601
 20
13.45370777043733
 30
0.0
 10
49.23227674474606
 20
13.372921545486
 30
0.0
 10
49.24283230526944
 20
13.291773190405
 30
0.0
 10
49.28368103182989
 20
13.13124477600078
 30
0.0
 10
49.31393494186992
 20
13.05151747269714
 30
0.0
 10
49.43062106711815
 20
12.81375159031539
 30
0.0
 10
49.54287680484492
 20
12.65712352896006
 30
0.0
 10
49.67885873213085
 20
12.50179142600263
 30
0.0
  0
SPLINE
  5
2C0
330
1F
100
AcDbEntity
  8
0
  6
SLD-Solid
 62
   142
420
    32960
370
     0
100
AcDbSpline
210
0.0
220
0.0
230
1.0
 70
     8
 71
     3
 72
    12
 73
     8
 74
     0
 42
0.00000001
 43
0.00000001
 40
0.0
 40
0.0
 40
0.0
 40
0.0
 40
0.249999999999989
 40
0.249999999999989
 40
0.499999999999978
 40
0.499999999999978
 40
1.0
 40
1.0
 40
1.0
 40
1.0
 10
54.43227674474599
 20
13.45370777043733
 30
0.0
 10
54.43227674474615
 20
13.372921545486
 30
0.0
 10
54.42172118422256
 20
13.291773190405
 30
0.0
 10
54.38087245766226
 20
13.13124477600078
 30
0.0
 10
54.3506185476223
 20
13.05151747269714
 30
0.0
 10
54.23393242237368
 20
12.81375159031539
 30
0.0
 10
54.12167668464707
 20
12.65712352896006
 30
0.0
 10
53.98569475736114
 20
12.50179142600263
 30
0.0
  0
SPLINE
  5
2C1
330
1F
100
AcDbEntity
  8
0
  6
SLD-Solid
 62
   142
420
    32960
370
     0
100
AcDbSpline
210
0.0
220
0.0
230
1.0
 70
     8
 71
     3
 72
     8
 73
     4
 74
     0
 42
0.00000001
 43
0.00000001
 40
0.0
 40
0.0
 40
0.0
 40
0.0
 40
1.0
 40
1.0
 40
1.0
 40
1.0
 10
53.98569475736148
 20
14.40562411487209
 30
0.0
 10
54.25833914671263
 20
14.09418253434197
 30
0.0
 10
54.43227674474599
 20
13.77806502773082
 30
0.0
 10
54.43227674474599
 20
13.45370777043733
 30
0.0
  0
SPLINE
  5
2C2
330
1F
100
AcDbEntity
  8
0
  6
SLD-Solid
 62
   142
420
    32960
370
     0
100
AcDbSpline
210
0.0
220
0.0
230
1.0
 70
     8
 71
     3
 72
     8
 73
     4
 74
     0
 42
0.00000001
 43
0.00000001
 40
0.0
 40
0.0
 40
0.0
 40
0.0
 40
1.0
 40
1.0
 40
1.0
 40
1.0
 10
49.67885873213051
 20
3.06112072533854
 30
0.0
 10
49.40621434277936
 20
3.372562305868687
 30
0.0
 10
49.23227674474601
 20
3.688679812479778
 30
0.0
 10
49.23227674474601
 20
4.013037069773295
 30
0.0
  0
SPLINE
  5
2C3
330
1F
100
AcDbEntity
  8
0
  6
SLD-Solid
 62
   142
420
    32960
370
     0
100
AcDbSpline
210
0.0
220
0.0
230
1.0
 70
     8
 71
     3
 72
     8
 73
     4
 74
     0
 42
0.00000001
 43
0.00000001
 40
0.0
 40
0.0
 40
0.0
 40
0.0
 40
1.0
 40
1.0
 40
1.0
 40
1.0
 10
54.43227674474599
 20
4.013037069773295
 30
0.0
 10
54.43227674474599
 20
4.035554160163657
 30
0.0
 10
54.43146879279415
 20
4.058109524755271
 30
0.0
 10
54.42984664662804
 20
4.080703459255986
 30
0.0
  0
SPLINE
  5
2C4
330
1F
100
AcDbEntity
  8
0
  6
SLD-Solid
 62
   142
420
    32960
370
     0
100
AcDbSpline
210
0.0
220
0.0
230
1.0
 70
     8
 71
     3
 72
     8
 73
     4
 74
     0
 42
0.00000001
 43
0.00000001
 40
0.0
 40
0.0
 40
0.0
 40
0.0
 40
1.0
 40
1.0
 40
1.0
 40
1.0
 10
53.98569475736148
 20
3.06112072533854
 30
0.0
 10
54.25833914671263
 20
3.372562305868687
 30
0.0
 10
54.43227674474599
 20
3.688679812479778
 30
0.0
 10
54.43227674474599
 20
4.013037069773295
 30
0.0
  0
LINE
  5
2C5
330
1F
100
AcDbEntity
  8
0
  6
SLD-Solid
 62
   142
420
    32960
370
     0
100
AcDbLine
 10
49.4770587252
 20
11.4886355328
 30
0.0
 11
49.2322767447
 21
12.5214146119
 31
0.0
  0
SPLINE
  5
2C6
330
1F
100
AcDbEntity
  8
0
  6
SLD-Solid
 62
   142
420
    32960
370
     0
100
AcDbSpline
210
0.0
220
0.0
230
1.0
 70
     8
 71
     3
 72
     9
 73
     5
 74
     0
 42
0.00000001
 43
0.00000001
 40
0.0
 40
0.0
 40
0.0
 40
0.0
 40
0.1507861721879716
 40
1.0
 40
1.0
 40
1.0
 40
1.0
 10
49.23227674474601
 20
12.52141461192338
 30
0.0
 10
49.23230510913362
 20
12.56610558087232
 30
0.0
 10
49.23249321913836
 20
12.86249196896394
 30
0.0
 10
49.33581981034785
 20
13.15293943961157
 30
0.0
 10
49.42356618038368
 20
13.39959144793856
 30
0.0
  0
SPLINE
  5
2C7
330
1F
100
AcDbEntity
  8
0
  6
SLD-Solid
 62
   142
420
    32960
370
     0
100
AcDbSpline
210
0.0
220
0.0
230
1.0
 70
     8
 71
     3
 72
     9
 73
     5
 74
     0
 42
0.00000001
 43
0.00000001
 40
0.0
 40
0.0
 40
0.0
 40
0.0
 40
0.1507861721879716
 40
1.0
 40
1.0
 40
1.0
 40
1.0
 10
54.43227674474599
 20
12.52141461192338
 30
0.0
 10
54.43224838035843
 20
12.56610558087232
 30
0.0
 10
54.43206027035335
 20
12.86249196896394
 30
0.0
 10
54.32873367914392
 20
13.15293943961157
 30
0.0
 10
54.24098730910831
 20
13.39959144793856
 30
0.0
  0
LINE
  5
2C8
330
1F
100
AcDbEntity
  8
0
  6
SLD-Solid
 62
   142
420
    32960
370
     0
100
AcDbLine
 10
54.2625119297
 20
11.8051464084
 30
0.0
 11
54.4322767447
 21
12.5214146119
 31
0.0
  0
LINE
  5
2C9
330
1F
100
AcDbEntity
  8
0
  6
SLD-Solid
 62
     7
370
    15
100
AcDbLine
 10
49.4614941899
 20
5.9124397413
 30
0.0
 11
49.2322767447
 21
7.8010792616
 31
0.0
  0
LINE
  5
2CA
330
1F
100
AcDbEntity
  8
0
  6
SLD-Solid
 62
   142
420
    32960
370
     0
100
AcDbLine
 10
49.2322767447
 20
7.8010792616
 30
0.0
 11
49.2322767447
 21
4.8868154636
 31
0.0
  0
LINE
  5
2CB
330
1F
100
AcDbEntity
  8
0
  6
SLD-Solid
 62
   142
420
    32960
370
     0
100
AcDbLine
 10
54.4322767447
 20
7.8010792616
 30
0.0
 11
54.4049980285
 21
8.3955832636
 31
0.0
  0
LINE
  5
2CC
330
1F
100
AcDbEntity
  8
0
  6
SLD-Solid
 62
   142
420
    32960
370
     0
100
AcDbLine
 10
54.2622244729
 20
6.3999318008
 30
0.0
 11
54.4322767447
 21
7.8010792616
 31
0.0
  0
LINE
  5
2CD
330
1F
100
AcDbEntity
  8
0
  6
SLD-Solid
 62
   142
420
    32960
370
     0
100
AcDbLine
 10
40.9449470094
 20
13.3478114535
 30
0.0
 11
41.6322767447
 21
13.3478114535
 31
0.0
  0
LINE
  5
2CE
330
1F
100
AcDbEntity
  8
0
  6
SLD-Solid
 62
   142
420
    32960
370
     0
100
AcDbLine
 10
37.2322767447
 20
17.1182603743
 30
0.0
 11
37.2322767447
 21
14.1719257939
 31
0.0
  0
LINE
  5
2CF
330
1F
100
AcDbEntity
  8
0
  6
SLD-Solid
 62
   142
420
    32960
370
     0
100
AcDbLine
 10
41.6322767447
 20
17.1182603743
 30
0.0
 11
37.2322767447
 21
17.1182603743
 31
0.0
  0
LINE
  5
2D0
330
1F
100
AcDbEntity
  8
0
  6
SLD-Solid
 62
     7
370
    15
100
AcDbLine
 10
807.2822767447
 20
-41.8666275791
 30
0.0
 11
815.0822767447
 21
-41.8666275791
 31
0.0
  0
SPLINE
  5
2D1
330
1F
100
AcDbEntity
  8
0
  6
SLD-Solid
 62
   142
420
    32960
370
     0
100
AcDbSpline
210
0.0
220
0.0
230
1.0
 70
     8
 71
     3
 72
    10
 73
     6
 74
     0
 42
0.00000001
 43
0.00000001
 40
0.0
 40
0.0
 40
0.0
 40
0.0
 40
0.5
 40
0.5
 40
1.0
 40
1.0
 40
1.0
 40
1.0
 10
42.58227674474602
 20
13.07108647627769
 30
0.0
 10
42.58227674474596
 20
13.13802031472344
 30
0.0
 10
42.56170312521473
 20
13.20422280107678
 30
0.0
 10
42.47430146213544
 20
13.31084381480393
 30
0.0
 10
42.40609066209866
 20
13.34781145346517
 30
0.0
 10
42.33227674474605
 20
13.34781145346514
 30
0.0
  0
SPLINE
  5
2D2
330
1F
100
AcDbEntity
  8
0
  6
SLD-Solid
 62
   142
420
    32960
370
     0
100
AcDbSpline
210
0.0
220
0.0
230
1.0
 70
     8
 71
     3
 72
     9
 73
     5
 74
     0
 42
0.00000001
 43
0.00000001
 40
0.0
 40
0.0
 40
0.0
 40
0.0
 40
0.8917506254979163
 40
1.0
 40
1.0
 40
1.0
 40
1.0
 10
42.47903536922043
 20
13.29085704527863
 30
0.0
 10
42.51304128115952
 20
13.2856034401469
 30
0.0
 10
42.55117516182816
 20
13.27971210126638
 30
0.0
 10
42.57923886629156
 20
13.26066890239483
 30
0.0
 10
42.58227674474596
 20
13.25860748802848
 30
0.0
  0
LINE
  5
2D3
330
1F
100
AcDbEntity
  8
0
  6
SLD-Solid
 62
   142
420
    32960
370
     0
100
AcDbLine
 10
-7.5177232553
 20
481.5333724201
 30
0.0
 11
-7.5177232553
 21
486.2833724201
 31
0.0
  0
LWPOLYLINE
  5
2D4
330
1F
100
AcDbEntity
  8
0
  6
SLD-Solid
 62
   142
420
    32960
370
     0
100
AcDbPolyline
 90
        3
 70
   128
 43
0.0
 10
-7.5177232553
 20
486.2833724201
 10
-7.5417416548
 20
486.5272353226
 10
-7.6015328763
 20
486.7333724201
  0
LINE
  5
2D5
330
1F
100
AcDbEntity
  8
0
  6
SLD-Solid
 62
   142
420
    32960
370
     0
100
AcDbLine
 10
-17.4636572622
 20
646.7333724201
 30
0.0
 11
-18.1177232552
 21
646.7333724201
 31
0.0
  0
LINE
  5
2D6
330
1F
100
AcDbEntity
  8
0
  6
SLD-Solid
 62
   142
420
    32960
370
     0
100
AcDbLine
 10
36.7367767447
 20
8.0242445112
 30
0.0
 11
36.7367767447
 21
5.7333724201
 31
0.0
  0
LINE
  5
2D7
330
1F
100
AcDbEntity
  8
0
  6
SLD-Solid
 62
   142
420
    32960
370
     0
100
AcDbLine
 10
43.5322767447
 20
4.6712452503
 30
0.0
 11
43.5322767447
 21
13.2814568355
 31
0.0
  0
LINE
  5
2D8
330
1F
100
AcDbEntity
  8
0
  6
SLD-Solid
 62
     7
370
    15
100
AcDbLine
 10
42.8322767447
 20
4.6712452503
 30
0.0
 11
43.5322767447
 21
4.6712452503
 31
0.0
  0
SPLINE
  5
2D9
330
1F
100
AcDbEntity
  8
0
  6
SLD-Solid
 62
   142
420
    32960
370
     0
100
AcDbSpline
210
0.0
220
0.0
230
1.0
 70
     8
 71
     3
 72
    10
 73
     6
 74
     0
 42
0.00000001
 43
0.00000001
 40
0.0
 40
0.0
 40
0.0
 40
0.0
 40
0.5
 40
0.5
 40
1.0
 40
1.0
 40
1.0
 40
1.0
 10
42.83227674474599
 20
4.671245250301048
 30
0.0
 10
42.75896576819732
 20
4.671245250301048
 30
0.0
 10
42.69088507543389
 20
4.666815386513646
 30
0.0
 10
42.60342493087216
 20
4.654605196994622
 30
0.0
 10
42.58227674474596
 20
4.647133522998114
 30
0.0
 10
42.58227674474602
 20
4.640051590711569
 30
0.0
  0
LINE
  5
2DA
330
1F
100
AcDbEntity
  8
0
  6
SLD-Solid
 62
   142
420
    32960
370
     0
100
AcDbLine
 10
42.5822767447
 20
4.6400515907
 30
0.0
 11
42.5822767447
 21
17.1833724201
 31
0.0
  0
LINE
  5
2DB
330
1F
100
AcDbEntity
  8
0
  6
SLD-Solid
 62
   142
420
    32960
370
     0
100
AcDbLine
 10
42.8322767447
 20
4.6712452503
 30
0.0
 11
42.8322767447
 21
4.5571243478
 31
0.0
  0
SPLINE
  5
2DC
330
1F
100
AcDbEntity
  8
0
  6
SLD-Solid
 62
   142
420
    32960
370
     0
100
AcDbSpline
210
0.0
220
0.0
230
1.0
 70
     8
 71
     3
 72
    10
 73
     6
 74
     0
 42
0.00000001
 43
0.00000001
 40
0.0
 40
0.0
 40
0.0
 40
0.0
 40
0.5
 40
0.5
 40
1.0
 40
1.0
 40
1.0
 40
1.0
 10
42.33227674474605
 20
4.152220508585769
 30
0.0
 10
42.46862324217309
 20
4.152220508585769
 30
0.0
 10
42.60017700718333
 20
4.198974137066935
 30
0.0
 10
42.78251772000796
 20
4.351143102196808
 30
0.0
 10
42.83227674474599
 20
4.453224179014725
 30
0.0
 10
42.83227674474599
 20
4.557124347810692
 30
0.0
  0
LINE
  5
2DD
330
1F
100
AcDbEntity
  8
0
  6
SLD-Solid
 62
   142
420
    32960
370
     0
100
AcDbLine
 10
42.3322767447
 20
4.1522205086
 30
0.0
 11
37.2322767447
 21
4.1522205086
 31
0.0
  0
LINE
  5
2DE
330
1F
100
AcDbEntity
  8
0
  6
SLD-Solid
 62
   142
420
    32960
370
     0
100
AcDbLine
 10
37.2322767447
 20
4.1522205086
 30
0.0
 11
37.2322767447
 21
3.589582907
 31
0.0
  0
LINE
  5
2DF
330
1F
100
AcDbEntity
  8
0
  6
SLD-Solid
 62
   142
420
    32960
370
     0
100
AcDbLine
 10
37.2322767447
 20
3.589582907
 30
0.0
 11
42.3322767447
 21
3.589582907
 31
0.0
  0
SPLINE
  5
2E0
330
1F
100
AcDbEntity
  8
0
  6
SLD-Solid
 62
   142
420
    32960
370
     0
100
AcDbSpline
210
0.0
220
0.0
230
1.0
 70
     8
 71
     3
 72
    16
 73
    12
 74
     0
 42
0.00000001
 43
0.00000001
 40
0.0
 40
0.0
 40
0.0
 40
0.0
 40
0.2499999999999554
 40
0.2499999999999554
 40
0.3749999999999724
 40
0.3749999999999724
 40
0.4999999999999893
 40
0.4999999999999893
 40
0.7499999999999947
 40
0.7499999999999947
 40
1.0
 40
1.0
 40
1.0
 40
1.0
 10
42.33227674474605
 20
3.589582907000344
 30
0.0
 10
42.49553853924137
 20
3.589582907000288
 30
0.0
 10
42.65683975454121
 20
3.616571554424963
 30
0.0
 10
42.87731576971726
 20
3.692086356641922
 30
0.0
 10
42.94852802550847
 20
3.723632636765895
 30
0.0
 10
43.07894199058588
 20
3.795836618655901
 30
0.0
 10
43.13889058531395
 20
3.836628342326565
 30
0.0
 10
43.30323156945265
 20
3.972831585895897
 30
0.0
 10
43.38836954669184
 20
4.079206879454899
 30
0.0
 10
43.50350317119861
 20
4.310897890872467
 30
0.0
 10
43.53227674474602
 20
4.432701476073553
 30
0.0
 10
43.53227674474602
 20
4.557124347810692
 30
0.0
  0
LINE
  5
2E1
330
1F
100
AcDbEntity
  8
0
  6
SLD-Solid
 62
   142
420
    32960
370
     0
100
AcDbLine
 10
43.5322767447
 20
4.5571243478
 30
0.0
 11
43.5322767447
 21
4.6712452503
 31
0.0
  0
LINE
  5
2E2
330
1F
100
AcDbEntity
  8
0
  6
SLD-Solid
 62
   142
420
    32960
370
     0
100
AcDbLine
 10
48.8822767448
 20
574.2333724201
 30
0.0
 11
45.8822767448
 21
574.2333724201
 31
0.0
  0
LINE
  5
2E3
330
1F
100
AcDbEntity
  8
0
  6
SLD-Solid
 62
   142
420
    32960
370
     0
100
AcDbLine
 10
48.8822767448
 20
574.2333724201
 30
0.0
 11
48.8822767448
 21
578.2333724201
 31
0.0
  0
LINE
  5
2E4
330
1F
100
AcDbEntity
  8
0
  6
SLD-Solid
 62
     7
370
    15
100
AcDbLine
 10
48.0822767448
 20
590.7333724201
 30
0.0
 11
45.8822767448
 21
590.7333724201
 31
0.0
  0
LINE
  5
2E5
330
1F
100
AcDbEntity
  8
0
  6
SLD-Solid
 62
   142
420
    32960
370
     0
100
AcDbLine
 10
45.8822767448
 20
574.2333724201
 30
0.0
 11
45.8822767448
 21
590.7333724201
 31
0.0
  0
LINE
  5
2E6
330
1F
100
AcDbEntity
  8
0
  6
SLD-Solid
 62
   142
420
    32960
370
     0
100
AcDbLine
 10
45.8822767448
 20
590.7333724201
 30
0.0
 11
45.8822767448
 21
607.2333724201
 31
0.0
  0
LINE
  5
2E7
330
1F
100
AcDbEntity
  8
0
  6
SLD-Solid
 62
   142
420
    32960
370
     0
100
AcDbLine
 10
48.8822767448
 20
607.2333724201
 30
0.0
 11
45.8822767448
 21
607.2333724201
 31
0.0
  0
LINE
  5
2E8
330
1F
100
AcDbEntity
  8
0
  6
SLD-Solid
 62
   142
420
    32960
370
     0
100
AcDbLine
 10
48.8822767448
 20
603.2333724201
 30
0.0
 11
48.8822767448
 21
607.2333724201
 31
0.0
  0
LINE
  5
2E9
330
1F
100
AcDbEntity
  8
0
  6
SLD-Solid
 62
   142
420
    32960
370
     0
100
AcDbLine
 10
91.8822767447
 20
-43.3666275799
 30
0.0
 11
91.8822767447
 21
-42.1666275799
 31
0.0
  0
LINE
  5
2EA
330
1F
100
AcDbEntity
  8
0
  6
SLD-Solid
 62
   142
420
    32960
370
     0
100
AcDbLine
 10
161.8822767447
 20
-43.3666275799
 30
0.0
 11
161.8822767447
 21
-42.1666275799
 31
0.0
  0
LINE
  5
2EB
330
1F
100
AcDbEntity
  8
0
  6
SLD-Solid
 62
     7
370
    15
100
AcDbLine
 10
91.8822767447
 20
-43.3666275799
 30
0.0
 11
161.8822767447
 21
-43.3666275799
 31
0.0
  0
LINE
  5
2EC
330
1F
100
AcDbEntity
  8
0
  6
SLD-Solid
 62
     7
370
    15
100
AcDbLine
 10
157.8419269651
 20
-137.3666275799
 30
0.0
 11
95.9226265244
 21
-137.3666275799
 31
0.0
  0
LINE
  5
2ED
330
1F
100
AcDbEntity
  8
0
  6
SLD-Solid
 62
   142
420
    32960
370
     0
100
AcDbLine
 10
50.4632502352
 20
646.2975937064
 30
0.0
 11
45.5366452445
 21
646.7286157927
 31
0.0
  0
LINE
  5
2EE
330
1F
100
AcDbEntity
  8
0
  6
SLD-Solid
 62
   142
420
    32960
370
     0
100
AcDbLine
 10
45.0822767448
 20
635.5333724201
 30
0.0
 11
45.0822767448
 21
488.7833724201
 31
0.0
  0
LINE
  5
2EF
330
1F
100
AcDbEntity
  8
0
  6
SLD-Solid
 62
   142
420
    32960
370
     0
100
AcDbLine
 10
45.0822767448
 20
557.9333724201
 30
0.0
 11
45.0822767448
 21
551.5819876105
 31
0.0
  0
LINE
  5
2F0
330
1F
100
AcDbEntity
  8
0
  6
SLD-Solid
 62
   142
420
    32960
370
     0
100
AcDbLine
 10
45.0822767448
 20
572.3833724201
 30
0.0
 11
45.0822767448
 21
569.0833724201
 31
0.0
  0
LINE
  5
2F1
330
1F
100
AcDbEntity
  8
0
  6
SLD-Solid
 62
   142
420
    32960
370
     0
100
AcDbLine
 10
45.0822767448
 20
573.1333724201
 30
0.0
 11
45.0822767448
 21
568.3333724201
 31
0.0
  0
LINE
  5
2F2
330
1F
100
AcDbEntity
  8
0
  6
SLD-Solid
 62
   142
420
    32960
370
     0
100
AcDbLine
 10
45.0822767448
 20
615.7333724201
 30
0.0
 11
45.0822767448
 21
607.7445572314
 31
0.0
  0
LINE
  5
2F3
330
1F
100
AcDbEntity
  8
0
  6
SLD-Solid
 62
   142
420
    32960
370
     0
100
AcDbLine
 10
45.0822767448
 20
615.7333724201
 30
0.0
 11
45.0822767448
 21
607.7445572314
 31
0.0
  0
LINE
  5
2F4
330
1F
100
AcDbEntity
  8
0
  6
SLD-Solid
 62
   142
420
    32960
370
     0
100
AcDbLine
 10
45.0822767448
 20
615.7333724201
 30
0.0
 11
45.0822767448
 21
607.7445572314
 31
0.0
  0
LINE
  5
2F5
330
1F
100
AcDbEntity
  8
0
  6
SLD-Solid
 62
   142
420
    32960
370
     0
100
AcDbLine
 10
45.0822767448
 20
631.9333724201
 30
0.0
 11
45.0822767448
 21
625.5819876105
 31
0.0
  0
LINE
  5
2F6
330
1F
100
AcDbEntity
  8
0
  6
SLD-Solid
 62
   142
420
    32960
370
     0
100
AcDbLine
 10
45.0822767448
 20
631.9333724201
 30
0.0
 11
45.0822767448
 21
625.5819876105
 31
0.0
  0
LINE
  5
2F7
330
1F
100
AcDbEntity
  8
0
  6
SLD-Solid
 62
   142
420
    32960
370
     0
100
AcDbLine
 10
45.0822767448
 20
603.1333724201
 30
0.0
 11
45.0822767448
 21
598.3333724201
 31
0.0
  0
LINE
  5
2F8
330
1F
100
AcDbEntity
  8
0
  6
SLD-Solid
 62
   142
420
    32960
370
     0
100
AcDbLine
 10
45.0822767448
 20
543.9333724201
 30
0.0
 11
45.0822767448
 21
537.5819876105
 31
0.0
  0
LINE
  5
2F9
330
1F
100
AcDbEntity
  8
0
  6
SLD-Solid
 62
   142
420
    32960
370
     0
100
AcDbLine
 10
45.0822767448
 20
543.1333724201
 30
0.0
 11
45.0822767448
 21
538.3333724201
 31
0.0
  0
LINE
  5
2FA
330
1F
100
AcDbEntity
  8
0
  6
SLD-Solid
 62
   142
420
    32960
370
     0
100
AcDbLine
 10
45.0822767448
 20
543.9333724201
 30
0.0
 11
45.0822767448
 21
537.5819876105
 31
0.0
  0
LINE
  5
2FB
330
1F
100
AcDbEntity
  8
0
  6
SLD-Solid
 62
   142
420
    32960
370
     0
100
AcDbLine
 10
45.0822767448
 20
542.9333724201
 30
0.0
 11
45.0822767448
 21
538.5333724201
 31
0.0
  0
LINE
  5
2FC
330
1F
100
AcDbEntity
  8
0
  6
SLD-Solid
 62
   142
420
    32960
370
     0
100
AcDbLine
 10
45.0822767448
 20
515.0833724201
 30
0.0
 11
45.0822767448
 21
502.4296710696
 31
0.0
  0
LINE
  5
2FD
330
1F
100
AcDbEntity
  8
0
  6
SLD-Solid
 62
   142
420
    32960
370
     0
100
AcDbLine
 10
45.0822767448
 20
603.4333724201
 30
0.0
 11
45.0822767448
 21
578.0448155493
 31
0.0
  0
LINE
  5
2FE
330
1F
100
AcDbEntity
  8
0
  6
SLD-Solid
 62
   142
420
    32960
370
     0
100
AcDbLine
 10
45.0822767448
 20
641.4333724201
 30
0.0
 11
45.0822767448
 21
616.0448155493
 31
0.0
  0
LINE
  5
2FF
330
1F
100
AcDbEntity
  8
0
  6
SLD-Solid
 62
   142
420
    32960
370
     0
100
AcDbLine
 10
45.0822767448
 20
561.4333724201
 30
0.0
 11
45.0822767448
 21
536.0448155493
 31
0.0
  0
LINE
  5
300
330
1F
100
AcDbEntity
  8
0
  6
SLD-Solid
 62
   142
420
    32960
370
     0
100
AcDbLine
 10
45.0822767448
 20
543.9333724201
 30
0.0
 11
45.0822767448
 21
537.5819876105
 31
0.0
  0
LINE
  5
301
330
1F
100
AcDbEntity
  8
0
  6
SLD-Solid
 62
   142
420
    32960
370
     0
100
AcDbLine
 10
45.0822767448
 20
542.9333724201
 30
0.0
 11
45.0822767448
 21
538.5333724201
 31
0.0
  0
LINE
  5
302
330
1F
100
AcDbEntity
  8
0
  6
SLD-Solid
 62
   142
420
    32960
370
     0
100
AcDbLine
 10
45.0822767448
 20
543.9333724201
 30
0.0
 11
45.0822767448
 21
537.5819876105
 31
0.0
  0
LINE
  5
303
330
1F
100
AcDbEntity
  8
0
  6
SLD-Solid
 62
   142
420
    32960
370
     0
100
AcDbLine
 10
45.0822767448
 20
543.1333724201
 30
0.0
 11
45.0822767448
 21
538.3333724201
 31
0.0
  0
LINE
  5
304
330
1F
100
AcDbEntity
  8
0
  6
SLD-Solid
 62
   142
420
    32960
370
     0
100
AcDbLine
 10
45.0822767448
 20
603.1333724201
 30
0.0
 11
45.0822767448
 21
598.3333724201
 31
0.0
  0
LINE
  5
305
330
1F
100
AcDbEntity
  8
0
  6
SLD-Solid
 62
   142
420
    32960
370
     0
100
AcDbLine
 10
45.0822767448
 20
631.9333724201
 30
0.0
 11
45.0822767448
 21
625.5819876105
 31
0.0
  0
LINE
  5
306
330
1F
100
AcDbEntity
  8
0
  6
SLD-Solid
 62
   142
420
    32960
370
     0
100
AcDbLine
 10
45.0822767448
 20
631.9333724201
 30
0.0
 11
45.0822767448
 21
625.5819876105
 31
0.0
  0
LINE
  5
307
330
1F
100
AcDbEntity
  8
0
  6
SLD-Solid
 62
   142
420
    32960
370
     0
100
AcDbLine
 10
45.0822767448
 20
631.9333724201
 30
0.0
 11
45.0822767448
 21
625.5819876105
 31
0.0
  0
LINE
  5
308
330
1F
100
AcDbEntity
  8
0
  6
SLD-Solid
 62
   142
420
    32960
370
     0
100
AcDbLine
 10
45.0822767448
 20
615.7333724201
 30
0.0
 11
45.0822767448
 21
607.7445572314
 31
0.0
  0
LINE
  5
309
330
1F
100
AcDbEntity
  8
0
  6
SLD-Solid
 62
   142
420
    32960
370
     0
100
AcDbLine
 10
45.0822767448
 20
615.7333724201
 30
0.0
 11
45.0822767448
 21
607.7445572314
 31
0.0
  0
LINE
  5
30A
330
1F
100
AcDbEntity
  8
0
  6
SLD-Solid
 62
   142
420
    32960
370
     0
100
AcDbLine
 10
45.0822767448
 20
615.7333724201
 30
0.0
 11
45.0822767448
 21
607.7445572314
 31
0.0
  0
LINE
  5
30B
330
1F
100
AcDbEntity
  8
0
  6
SLD-Solid
 62
   142
420
    32960
370
     0
100
AcDbLine
 10
45.0822767448
 20
572.3833724201
 30
0.0
 11
45.0822767448
 21
569.0833724201
 31
0.0
  0
LINE
  5
30C
330
1F
100
AcDbEntity
  8
0
  6
SLD-Solid
 62
   142
420
    32960
370
     0
100
AcDbLine
 10
45.0822767448
 20
557.9333724201
 30
0.0
 11
45.0822767448
 21
551.5819876105
 31
0.0
  0
LINE
  5
30D
330
1F
100
AcDbEntity
  8
0
  6
SLD-Solid
 62
   142
420
    32960
370
     0
100
AcDbLine
 10
37.2322767447
 20
-0.6777309892
 30
0.0
 11
42.3322767447
 21
-0.6777309892
 31
0.0
  0
LINE
  5
30E
330
1F
100
AcDbEntity
  8
0
  6
SLD-Solid
 62
   142
420
    32960
370
     0
100
AcDbLine
 10
42.3322767447
 20
3.2948190463
 30
0.0
 11
37.2322767447
 21
3.2948190463
 31
0.0
  0
LINE
  5
30F
330
1F
100
AcDbEntity
  8
0
  6
SLD-Solid
 62
   142
420
    32960
370
     0
100
AcDbLine
 10
42.3322767447
 20
-0.6777309892
 30
0.0
 11
42.3322767447
 21
3.2948190463
 31
0.0
  0
ARC
  5
310
330
1F
100
AcDbEntity
  8
0
  6
SLD-Solid
 62
   142
420
    32960
370
     0
100
AcDbCircle
 10
37.2229827637
 20
-0.4369936302
 30
0.0
 40
0.2409166953321362
100
AcDbArc
 50
182.3963142132
 51
272.2108806481
  0
LWPOLYLINE
  5
311
330
1F
100
AcDbEntity
  8
0
  6
SLD-Solid
 62
   142
420
    32960
370
     0
100
AcDbPolyline
 90
        9
 70
   128
 43
0.0
 10
36.9822767447
 20
3.4281169231
 10
36.9870804246
 20
3.4021117974
 10
37.0013068616
 20
3.3771060341
 10
37.0244093417
 20
3.3540605906
 10
37.0555000494
 20
3.3338610905
 10
37.0933841865
 20
3.3172837892
 10
37.1366058867
 20
3.304965743
 10
37.1835041642
 20
3.2973803276
 10
37.2322767447
 20
3.2948190463
  0
LINE
  5
312
330
1F
100
AcDbEntity
  8
0
  6
SLD-Solid
 62
   142
420
    32960
370
     0
100
AcDbLine
 10
36.9822767447
 20
-0.4470666899
 30
0.0
 11
36.9822767447
 21
3.4281169231
 31
0.0
  0
LINE
  5
313
330
1F
100
AcDbEntity
  8
0
  6
SLD-Solid
 62
   142
420
    32960
370
     0
100
AcDbLine
 10
160.4822767447
 20
640.6333724201
 30
0.0
 11
160.4822767447
 21
642.3833724201
 31
0.0
  0
LINE
  5
314
330
1F
100
AcDbEntity
  8
0
  6
SLD-Solid
 62
   142
420
    32960
370
     0
100
AcDbLine
 10
675.4822767447
 20
642.3833724201
 30
0.0
 11
675.4822767447
 21
640.6333724201
 31
0.0
  0
LINE
  5
315
330
1F
100
AcDbEntity
  8
0
  6
SLD-Solid
 62
   142
420
    32960
370
     0
100
AcDbLine
 10
670.4822767447
 20
666.1333724201
 30
0.0
 11
165.4822767447
 21
666.1333724201
 31
0.0
  0
LINE
  5
316
330
1F
100
AcDbEntity
  8
0
  6
SLD-Solid
 62
   142
420
    32960
370
     0
100
AcDbLine
 10
160.4822767447
 20
661.1333724201
 30
0.0
 11
160.4822767447
 21
642.3833724201
 31
0.0
  0
ARC
  5
317
330
1F
100
AcDbEntity
  8
0
  6
SLD-Solid
 62
   142
420
    32960
370
     0
100
AcDbCircle
 10
165.4822767447
 20
661.1333724201
 30
0.0
 40
5.0
100
AcDbArc
 50
90.0
 51
180.0
  0
ARC
  5
318
330
1F
100
AcDbEntity
  8
0
  6
SLD-Solid
 62
   142
420
    32960
370
     0
100
AcDbCircle
 10
670.4822767447
 20
661.1333724201
 30
0.0
 40
4.999999999999886
100
AcDbArc
 50
0.0
 51
90.0
  0
LINE
  5
319
330
1F
100
AcDbEntity
  8
0
  6
SLD-Solid
 62
   142
420
    32960
370
     0
100
AcDbLine
 10
675.4822767447
 20
642.3833724201
 30
0.0
 11
675.4822767447
 21
661.1333724201
 31
0.0
  0
SPLINE
  5
31A
330
1F
100
AcDbEntity
  8
0
  6
SLD-Solid
 62
   142
420
    32960
370
     0
100
AcDbSpline
210
0.0
220
0.0
230
1.0
 70
     8
 71
     3
 72
    20
 73
    16
 74
     0
 42
0.00000001
 43
0.00000001
 40
0.0
 40
0.0
 40
0.0
 40
0.0
 40
0.124999999999995
 40
0.124999999999995
 40
0.24999999999999
 40
0.24999999999999
 40
0.374999999999985
 40
0.374999999999985
 40
0.49999999999998
 40
0.49999999999998
 40
0.624999999999975
 40
0.624999999999975
 40
0.74999999999997
 40
0.74999999999997
 40
1.0
 40
1.0
 40
1.0
 40
1.0
 10
819.9402923876177
 20
503.501928482857
 30
0.0
 10
819.928994275136
 20
503.5367004976425
 30
0.0
 10
819.9052421819332
 20
503.5668114157805
 30
0.0
 10
819.8335013271235
 20
503.6193092037675
 30
0.0
 10
819.7849016143666
 20
503.6418584926783
 30
0.0
 10
819.664540388428
 20
503.6791610287166
 30
0.0
 10
819.5935510726573
 20
503.6938436425868
 30
0.0
 10
819.4301135482544
 20
503.7166759886771
 30
0.0
 10
819.336543192211
 20
503.7248372855449
 30
0.0
 10
819.1341172135325
 20
503.7351385700275
 30
0.0
 10
819.0249672374341
 20
503.7374042702007
 30
0.0
 10
818.7905733520482
 20
503.7374412712683
 30
0.0
 10
818.6650448616919
 20
503.7351586271728
 30
0.0
 10
818.2796365283192
 20
503.7237361793401
 30
0.0
 10
818.0018863170857
 20
503.70980598314
 30
0.0
 10
817.7218353300523
 20
503.6956978929821
 30
0.0
  0
SPLINE
  5
31B
330
1F
100
AcDbEntity
  8
0
  6
SLD-Solid
 62
   142
420
    32960
370
     0
100
AcDbSpline
210
0.0
220
0.0
230
1.0
 70
     8
 71
     3
 72
    14
 73
    10
 74
     0
 42
0.00000001
 43
0.00000001
 40
0.0
 40
0.0
 40
0.0
 40
0.0
 40
0.25
 40
0.25
 40
0.5
 40
0.5
 40
0.75
 40
0.75
 40
1.0
 40
1.0
 40
1.0
 40
1.0
 10
779.8402035381915
 20
620.2833724201222
 30
0.0
 10
780.0879425789517
 20
620.3892906836293
 30
0.0
 10
780.3355812052138
 20
620.4951763204882
 30
0.0
 10
780.7922057766195
 20
620.6943885767984
 30
0.0
 10
781.0010061799642
 20
620.787654910065
 30
0.0
 10
781.3469853157337
 20
620.9509162850384
 30
0.0
 10
781.4840220406134
 20
621.0208651856976
 30
0.0
 10
781.6644085797968
 20
621.1303222644901
 30
0.0
 10
781.7076815401709
 20
621.1698054712682
 30
0.0
 10
781.7002099168593
 20
621.1928007633298
 30
0.0
  0
SPLINE
  5
31C
330
1F
100
AcDbEntity
  8
0
  6
SLD-Solid
 62
     7
370
    15
100
AcDbSpline
210
0.0
220
0.0
230
1.0
 70
     8
 71
     3
 72
    14
 73
    10
 74
     0
 42
0.00000001
 43
0.00000001
 40
0.0
 40
0.0
 40
0.0
 40
0.0
 40
0.25
 40
0.25
 40
0.5
 40
0.5
 40
0.75
 40
0.75
 40
1.0
 40
1.0
 40
1.0
 40
1.0
 10
763.6893835259228
 20
501.6456978929822
 30
0.0
 10
763.7346246274908
 20
501.6456978929824
 30
0.0
 10
763.7798657290584
 20
501.6990539058121
 30
0.0
 10
763.870347932194
 20
501.9044357968559
 30
0.0
 10
763.9155890337619
 20
502.0563808660661
 30
0.0
 10
764.0060712368975
 20
502.4358771170336
 30
0.0
 10
764.0513123384653
 20
502.6632789832219
 30
0.0
 10
764.1417945416008
 20
503.159114730046
 30
0.0
 10
764.1870356431685
 20
503.4273535204881
 30
0.0
 10
764.2322767447364
 20
503.6956978929823
 30
0.0
  0
LINE
  5
31D
330
1F
100
AcDbEntity
  8
0
  6
SLD-Solid
 62
   142
420
    32960
370
     0
100
AcDbLine
 10
764.1822767447
 20
501.645697893
 30
0.0
 11
763.6893835259
 21
501.645697893
 31
0.0
  0
SPLINE
  5
31E
330
1F
100
AcDbEntity
  8
0
  6
SLD-Solid
 62
   142
420
    32960
370
     0
100
AcDbSpline
210
0.0
220
0.0
230
1.0
 70
     8
 71
     3
 72
    20
 73
    16
 74
     0
 42
0.00000001
 43
0.00000001
 40
0.0
 40
0.0
 40
0.0
 40
0.0
 40
0.1249999999999858
 40
0.1249999999999858
 40
0.2499999999999716
 40
0.2499999999999716
 40
0.3749999999999575
 40
0.3749999999999575
 40
0.4999999999999433
 40
0.4999999999999433
 40
0.6249999999999291
 40
0.6249999999999291
 40
0.749999999999915
 40
0.749999999999915
 40
1.0
 40
1.0
 40
1.0
 40
1.0
 10
817.7218353300522
 20
503.6956978929821
 30
0.0
 10
817.7583967900599
 20
503.5603459210258
 30
0.0
 10
817.7943737754188
 20
503.427178131818
 30
0.0
 10
817.8664712821018
 20
503.1653728724246
 30
0.0
 10
817.9029350674218
 20
503.0355481711257
 30
0.0
 10
817.9756055516737
 20
502.786993766652
 30
0.0
 10
818.0115064522637
 20
502.6692334246017
 30
0.0
 10
818.0837262763546
 20
502.4468118837986
 30
0.0
 10
818.120402961109
 20
502.3413015710976
 30
0.0
 10
818.1927531323569
 20
502.1518496135742
 30
0.0
 10
818.228637138821
 20
502.0670820737017
 30
0.0
 10
818.3011040228889
 20
501.9177847604166
 30
0.0
 10
818.337723536146
 20
501.853519223991
 30
0.0
 10
818.4459578674883
 20
501.6999130829676
 30
0.0
 10
818.5185389990814
 20
501.645697892982
 30
0.0
 10
818.5916619222892
 20
501.645697892982
 30
0.0
  0
SPLINE
  5
31F
330
1F
100
AcDbEntity
  8
0
  6
SLD-Solid
 62
   142
420
    32960
370
     0
100
AcDbSpline
210
0.0
220
0.0
230
1.0
 70
     8
 71
     3
 72
    14
 73
    10
 74
     0
 42
0.00000001
 43
0.00000001
 40
0.0
 40
0.0
 40
0.0
 40
0.0
 40
0.25
 40
0.25
 40
0.5
 40
0.5
 40
0.75
 40
0.75
 40
1.0
 40
1.0
 40
1.0
 40
1.0
 10
780.1303477094483
 20
622.3333724201221
 30
0.0
 10
780.1061690285102
 20
622.3333724201224
 30
0.0
 10
780.0819903475722
 20
622.2800164072924
 30
0.0
 10
780.033632985696
 20
622.0746345162485
 30
0.0
 10
780.009454304758
 20
621.9226894470387
 30
0.0
 10
779.9610969428818
 20
621.5431931960707
 30
0.0
 10
779.9369182619438
 20
621.3157913298826
 30
0.0
 10
779.8885609000677
 20
620.8199555830589
 30
0.0
 10
779.8643822191295
 20
620.5517167926165
 30
0.0
 10
779.8402035381915
 20
620.2833724201222
 30
0.0
  0
SPLINE
  5
320
330
1F
100
AcDbEntity
  8
0
  6
SLD-Solid
 62
   142
420
    32960
370
     0
100
AcDbSpline
210
0.0
220
0.0
230
1.0
 70
     8
 71
     3
 72
    14
 73
    10
 74
     0
 42
0.00000001
 43
0.00000001
 40
0.0
 40
0.0
 40
0.0
 40
0.0
 40
0.25
 40
0.25
 40
0.5
 40
0.5
 40
0.75
 40
0.75
 40
1.0
 40
1.0
 40
1.0
 40
1.0
 10
764.2322767447364
 20
620.2833724201222
 30
0.0
 10
764.1870356431687
 20
620.551716792616
 30
0.0
 10
764.1417945416009
 20
620.8199555830589
 30
0.0
 10
764.0513123384651
 20
621.3157913298824
 30
0.0
 10
764.0060712368975
 20
621.5431931960709
 30
0.0
 10
763.9155890337619
 20
621.9226894470387
 30
0.0
 10
763.8703479321941
 20
622.0746345162485
 30
0.0
 10
763.7798657290585
 20
622.2800164072924
 30
0.0
 10
763.7346246274908
 20
622.3333724201224
 30
0.0
 10
763.6893835259228
 20
622.3333724201221
 30
0.0
  0
SPLINE
  5
321
330
1F
100
AcDbEntity
  8
0
  6
SLD-Solid
 62
   142
420
    32960
370
     0
100
AcDbSpline
210
0.0
220
0.0
230
1.0
 70
     8
 71
     3
 72
    14
 73
    10
 74
     0
 42
0.00000001
 43
0.00000001
 40
0.0
 40
0.0
 40
0.0
 40
0.0
 40
0.25
 40
0.25
 40
0.5
 40
0.5
 40
0.75
 40
0.75
 40
1.0
 40
1.0
 40
1.0
 40
1.0
 10
762.1822767447363
 20
620.8262656389356
 30
0.0
 10
762.1822767447363
 20
620.7810245373679
 30
0.0
 10
762.2356327575663
 20
620.7357834358
 30
0.0
 10
762.44101464861
 20
620.6453012326642
 30
0.0
 10
762.5929597178201
 20
620.6000601310968
 30
0.0
 10
762.9724559687878
 20
620.5095779279612
 30
0.0
 10
763.1998578349761
 20
620.4643368263934
 30
0.0
 10
763.6956935817998
 20
620.373854623258
 30
0.0
 10
763.9639323722422
 20
620.3286135216902
 30
0.0
 10
764.2322767447364
 20
620.2833724201222
 30
0.0
  0
LINE
  5
322
330
1F
100
AcDbEntity
  8
0
  6
SLD-Solid
 62
   142
420
    32960
370
     0
100
AcDbLine
 10
762.1822767447
 20
620.8262656389
 30
0.0
 11
762.1822767447
 21
503.1528046742
 31
0.0
  0
SPLINE
  5
323
330
1F
100
AcDbEntity
  8
0
  6
SLD-Solid
 62
   142
420
    32960
370
     0
100
AcDbSpline
210
0.0
220
0.0
230
1.0
 70
     8
 71
     3
 72
    14
 73
    10
 74
     0
 42
0.00000001
 43
0.00000001
 40
0.0
 40
0.0
 40
0.0
 40
0.0
 40
0.25
 40
0.25
 40
0.5
 40
0.5
 40
0.75
 40
0.75
 40
1.0
 40
1.0
 40
1.0
 40
1.0
 10
764.2322767447364
 20
503.6956978929823
 30
0.0
 10
763.9639323722422
 20
503.6504567914144
 30
0.0
 10
763.6956935817998
 20
503.6052156898467
 30
0.0
 10
763.1998578349759
 20
503.514733486711
 30
0.0
 10
762.9724559687878
 20
503.4694923851433
 30
0.0
 10
762.59295971782
 20
503.3790101820075
 30
0.0
 10
762.4410146486101
 20
503.33376908044
 30
0.0
 10
762.2356327575663
 20
503.2432868773045
 30
0.0
 10
762.1822767447363
 20
503.1980457757365
 30
0.0
 10
762.1822767447363
 20
503.1528046741689
 30
0.0
  0
SPLINE
  5
324
330
1F
100
AcDbEntity
  8
0
  6
SLD-Solid
 62
   142
420
    32960
370
     0
100
AcDbSpline
210
0.0
220
0.0
230
1.0
 70
     8
 71
     3
 72
    14
 73
    10
 74
     0
 42
0.00000001
 43
0.00000001
 40
0.0
 40
0.0
 40
0.0
 40
0.0
 40
0.25
 40
0.25
 40
0.5
 40
0.5
 40
0.75
 40
0.75
 40
1.0
 40
1.0
 40
1.0
 40
1.0
 10
763.6893835259228
 20
502.4456978929823
 30
0.0
 10
763.7346246274908
 20
502.4456978929823
 30
0.0
 10
763.7798657290584
 20
502.4782320471468
 30
0.0
 10
763.870347932194
 20
502.6034649075393
 30
0.0
 10
763.9155890337619
 20
502.6961143399844
 30
0.0
 10
764.0060712368975
 20
502.9275144930136
 30
0.0
 10
764.0513123384653
 20
503.0661741675186
 30
0.0
 10
764.1417945416008
 20
503.3685130375331
 30
0.0
 10
764.1870356431685
 20
503.5320732756077
 30
0.0
 10
764.2322767447364
 20
503.6956978929823
 30
0.0
  0
LINE
  5
325
330
1F
100
AcDbEntity
  8
0
  6
SLD-Solid
 62
   142
420
    32960
370
     0
100
AcDbLine
 10
763.6893835259
 20
501.645697893
 30
0.0
 11
763.6893835259
 21
502.445697893
 31
0.0
  0
LINE
  5
326
330
1F
100
AcDbEntity
  8
0
  6
SLD-Solid
 62
     7
370
    15
100
AcDbLine
 10
45.4822767447
 20
647.5333724201
 30
0.0
 11
45.4277005661
 21
647.5333724201
 31
0.0
  0
LINE
  5
327
330
1F
100
AcDbEntity
  8
0
  6
SLD-Solid
 62
   142
420
    32960
370
     0
100
AcDbLine
 10
45.4822767447
 20
647.5333724201
 30
0.0
 11
45.4822767447
 21
645.4833724201
 31
0.0
  0
SPLINE
  5
328
330
1F
100
AcDbEntity
  8
0
  6
SLD-Solid
 62
   142
420
    32960
370
     0
100
AcDbSpline
210
0.0
220
0.0
230
1.0
 70
     8
 71
     3
 72
    14
 73
    10
 74
     0
 42
0.00000001
 43
0.00000001
 40
0.0
 40
0.0
 40
0.0
 40
0.0
 40
0.25
 40
0.25
 40
0.5
 40
0.5
 40
0.75
 40
0.75
 40
1.0
 40
1.0
 40
1.0
 40
1.0
 10
-17.46065218744502
 20
645.4833724201054
 30
0.0
 10
-17.46124144309602
 20
645.7517167925997
 30
0.0
 10
-17.46183069874707
 20
646.0199555830421
 30
0.0
 10
-17.46300921004901
 20
646.5157913298658
 30
0.0
 10
-17.4635984657
 20
646.7431931960539
 30
0.0
 10
-17.46477697700205
 20
647.1226894470219
 30
0.0
 10
-17.46536623265299
 20
647.2746345162315
 30
0.0
 10
-17.46654474395498
 20
647.4800164072756
 30
0.0
 10
-17.46713399960592
 20
647.5333724201056
 30
0.0
 10
-17.46772325525692
 20
647.5333724201054
 30
0.0
  0
LINE
  5
329
330
1F
100
AcDbEntity
  8
0
  6
SLD-Solid
 62
     7
370
    15
100
AcDbLine
 10
-17.4677232553
 20
647.5333724201
 30
0.0
 11
45.4277005661
 21
647.5333724201
 31
0.0
  0
LINE
  5
32A
330
1F
100
AcDbEntity
  8
0
  6
SLD-Solid
 62
     7
370
    15
100
AcDbLine
 10
-7.5106521874
 20
635.5333724201
 30
0.0
 11
45.4822767447
 21
635.5333724201
 31
0.0
  0
LINE
  5
32B
330
1F
100
AcDbEntity
  8
0
  6
SLD-Solid
 62
   142
420
    32960
370
     0
100
AcDbLine
 10
-7.5106521874
 20
635.5333724201
 30
0.0
 11
-17.4606521874
 21
645.4833724201
 31
0.0
  0
LINE
  5
32C
330
1F
100
AcDbEntity
  8
0
  6
SLD-Solid
 62
   142
420
    32960
370
     0
100
AcDbLine
 10
45.4822767447
 20
635.5333724201
 30
0.0
 11
45.4822767447
 21
645.4833724201
 31
0.0
  0
LINE
  5
32D
330
1F
100
AcDbEntity
  8
0
  6
SLD-Solid
 62
   142
420
    32960
370
     0
100
AcDbLine
 10
-17.4677232553
 20
645.4763013523
 30
0.0
 11
-7.5177232553
 21
635.5263013523
 31
0.0
  0
LINE
  5
32E
330
1F
100
AcDbEntity
  8
0
  6
SLD-Solid
 62
   142
420
    32960
370
     0
100
AcDbLine
 10
-17.4677232553
 20
488.3333724201
 30
0.0
 11
-7.5177232553
 21
488.3333724201
 31
0.0
  0
LINE
  5
32F
330
1F
100
AcDbEntity
  8
0
  6
SLD-Solid
 62
   142
420
    32960
370
     0
100
AcDbLine
 10
-7.5177232553
 20
488.3333724201
 30
0.0
 11
-7.5177232553
 21
635.5263013523
 31
0.0
  0
LINE
  5
330
330
1F
100
AcDbEntity
  8
0
  6
SLD-Solid
 62
     7
370
    15
100
AcDbLine
 10
-19.5177232553
 20
488.3333724201
 30
0.0
 11
-19.5177232553
 21
645.4833724201
 31
0.0
  0
LINE
  5
331
330
1F
100
AcDbEntity
  8
0
  6
SLD-Solid
 62
   142
420
    32960
370
     0
100
AcDbLine
 10
-17.4677232553
 20
488.3333724201
 30
0.0
 11
-19.5177232553
 21
488.3333724201
 31
0.0
  0
SPLINE
  5
332
330
1F
100
AcDbEntity
  8
0
  6
SLD-Solid
 62
   142
420
    32960
370
     0
100
AcDbSpline
210
0.0
220
0.0
230
1.0
 70
     8
 71
     3
 72
    14
 73
    10
 74
     0
 42
0.00000001
 43
0.00000001
 40
0.0
 40
0.0
 40
0.0
 40
0.0
 40
0.25
 40
0.25
 40
0.5
 40
0.5
 40
0.75
 40
0.75
 40
1.0
 40
1.0
 40
1.0
 40
1.0
 10
-19.51772325525686
 20
645.4833724201054
 30
0.0
 10
-19.51772325525675
 20
645.4827831644548
 30
0.0
 10
-19.4643672424269
 20
645.4821939088035
 30
0.0
 10
-19.25898535138304
 20
645.4810153975014
 30
0.0
 10
-19.10704028217314
 20
645.4804261418506
 30
0.0
 10
-18.72754403120547
 20
645.4792476305485
 30
0.0
 10
-18.50014216501716
 20
645.4786583748975
 30
0.0
 10
-18.0043064181935
 20
645.4774798635956
 30
0.0
 10
-17.73606762775104
 20
645.4768906079445
 30
0.0
 10
-17.46772325525686
 20
645.4763013522935
 30
0.0
  0
ARC
  5
333
330
1F
100
AcDbEntity
  8
0
  6
SLD-Solid
 62
   142
420
    32960
370
     0
100
AcDbCircle
 10
-17.4677232553
 20
645.4833724201
 30
0.0
 40
2.050000000000182
100
AcDbArc
 50
90.0
 51
180.0
  0
SPLINE
  5
334
330
1F
100
AcDbEntity
  8
0
  6
SLD-Solid
 62
   142
420
    32960
370
     0
100
AcDbSpline
210
0.0
220
0.0
230
1.0
 70
     8
 71
     3
 72
     8
 73
     4
 74
     0
 42
0.00000001
 43
0.00000001
 40
0.0
 40
0.0
 40
0.0
 40
0.0
 40
1.0
 40
1.0
 40
1.0
 40
1.0
 10
45.48226726788324
 20
647.5326460658315
 30
0.0
 10
45.52369361818576
 20
647.5315429924049
 30
0.0
 10
45.56508650072988
 20
647.5291833752646
 30
0.0
 10
45.60636983874011
 20
647.5255715511961
 30
0.0
  0
LINE
  5
335
330
1F
100
AcDbEntity
  8
0
  6
SLD-Solid
 62
   142
420
    32960
370
     0
100
AcDbLine
 10
50.5329748294
 20
647.0945494648
 30
0.0
 11
45.6063698387
 21
647.5255715512
 31
0.0
  0
ARC
  5
336
330
1F
100
AcDbEntity
  8
0
  6
SLD-Solid
 62
     7
370
    15
100
AcDbCircle
 10
-17.4677232553
 20
489.5833724201
 30
0.0
 40
2.050000000000031
100
AcDbArc
 50
217.5718693197
 51
270.0
  0
LINE
  5
337
330
1F
100
AcDbEntity
  8
0
  6
SLD-Solid
 62
   142
420
    32960
370
     0
100
AcDbLine
 10
-17.4677232553
 20
488.2404792013
 30
0.0
 11
-17.4677232553
 21
487.5333724201
 31
0.0
  0
LINE
  5
338
330
1F
100
AcDbEntity
  8
0
  6
SLD-Solid
 62
   142
420
    32960
370
     0
100
AcDbLine
 10
764.6822767447
 20
-35.8666275791
 30
0.0
 11
764.6822767447
 21
-25.8666275791
 31
0.0
  0
LINE
  5
339
330
1F
100
AcDbEntity
  8
0
  6
SLD-Solid
 62
   142
420
    32960
370
     0
100
AcDbLine
 10
764.6822767447
 20
-25.8666275791
 30
0.0
 11
764.6822767447
 21
-20.8666275791
 31
0.0
  0
LINE
  5
33A
330
1F
100
AcDbEntity
  8
0
  6
SLD-Solid
 62
   142
420
    32960
370
     0
100
AcDbLine
 10
768.0822767447
 20
485.5833724209
 30
0.0
 11
768.0822767447
 21
39.1333724209
 31
0.0
  0
LINE
  5
33B
330
1F
100
AcDbEntity
  8
0
  6
SLD-Solid
 62
   142
420
    32960
370
     0
100
AcDbLine
 10
819.6822767447
 20
488.1333724209
 30
0.0
 11
802.6822767447
 21
488.1333724209
 31
0.0
  0
LINE
  5
33C
330
1F
100
AcDbEntity
  8
0
  6
SLD-Solid
 62
   142
420
    32960
370
     0
100
AcDbLine
 10
819.6822767447
 20
489.6333724209
 30
0.0
 11
802.6822767447
 21
489.6333724209
 31
0.0
  0
SPLINE
  5
33D
330
1F
100
AcDbEntity
  8
0
  6
SLD-Solid
 62
   142
420
    32960
370
     0
100
AcDbSpline
210
0.0
220
0.0
230
1.0
 70
     8
 71
     3
 72
    10
 73
     6
 74
     0
 42
0.00000001
 43
0.00000001
 40
0.0
 40
0.0
 40
0.0
 40
0.0
 40
0.0067988312691158
 40
0.577945013984692
 40
1.0
 40
1.0
 40
1.0
 40
1.0
 10
804.6253033396156
 20
575.7614296379023
 30
0.0
 10
804.6270838024068
 20
575.7626228241872
 30
0.0
 10
804.7784347555412
 20
575.8640514428428
 30
0.0
 10
804.9848443152132
 20
576.134217276409
 30
0.0
 10
805.1318870645819
 20
576.4245981805345
 30
0.0
 10
805.1943720147434
 20
576.5479938352
 30
0.0
  0
LINE
  5
33E
330
1F
100
AcDbEntity
  8
0
  6
SLD-Solid
 62
   142
420
    32960
370
     0
100
AcDbLine
 10
806.0595964213
 20
577.1126601444
 30
0.0
 11
806.30786795
 21
576.3606078772
 31
0.0
  0
LINE
  5
33F
330
1F
100
AcDbEntity
  8
0
  6
SLD-Solid
 62
   142
420
    32960
370
     0
100
AcDbLine
 10
805.3013524115
 20
578.50078545
 30
0.0
 11
804.9062629184
 21
577.553548006
 31
0.0
  0
SPLINE
  5
340
330
1F
100
AcDbEntity
  8
0
  6
SLD-Solid
 62
   142
420
    32960
370
     0
100
AcDbSpline
210
0.0
220
0.0
230
1.0
 70
     8
 71
     3
 72
    10
 73
     6
 74
     0
 42
0.00000001
 43
0.00000001
 40
0.0
 40
0.0
 40
0.0
 40
0.0
 40
0.2405193455599694
 40
0.6210263918122234
 40
1.0
 40
1.0
 40
1.0
 40
1.0
 10
804.6609328770857
 20
577.0535437353741
 30
0.0
 10
804.6252034035059
 20
576.9756922795779
 30
0.0
 10
804.5329490943698
 20
576.7746780593792
 30
0.0
 10
804.320579862324
 20
576.4829777629741
 30
0.0
 10
804.1022219241212
 20
576.3414691935637
 30
0.0
 10
803.9932633940605
 20
576.2708577661026
 30
0.0
  0
LINE
  5
341
330
1F
100
AcDbEntity
  8
0
  6
SLD-Solid
 62
     7
370
    15
100
AcDbLine
 10
54.4322767447
 20
14.8333724201
 30
0.0
 11
54.4322767447
 21
2.6333724201
 31
0.0
  0
LINE
  5
342
330
1F
100
AcDbEntity
  8
0
  6
SLD-Solid
 62
   142
420
    32960
370
     0
100
AcDbLine
 10
37.2322767447
 20
18.075277514
 30
0.0
 11
37.2322767447
 21
17.5126399124
 31
0.0
  0
LWPOLYLINE
  5
343
330
1F
100
AcDbEntity
  8
0
  6
SLD-Solid
 62
   142
420
    32960
370
     0
100
AcDbPolyline
 90
        9
 70
   128
 43
0.0
 10
37.2322767447
 20
17.5126399124
 10
37.1835041642
 20
17.5095373888
 10
37.1366058867
 20
17.5003490463
 10
37.0933841865
 20
17.4854279876
 10
37.0555000494
 20
17.4653476207
 10
37.0244093417
 20
17.4408796229
 10
37.0013068616
 20
17.4129642855
 10
36.9870804246
 20
17.3826743794
 10
36.9822767447
 20
17.3511739286
  0
LINE
  5
344
330
1F
100
AcDbEntity
  8
0
  6
SLD-Solid
 62
   142
420
    32960
370
     0
100
AcDbLine
 10
36.9822767447
 20
17.3511739286
 30
0.0
 11
36.9822767447
 21
17.9138115302
 31
0.0
  0
LWPOLYLINE
  5
345
330
1F
100
AcDbEntity
  8
0
  6
SLD-Solid
 62
   142
420
    32960
370
     0
100
AcDbPolyline
 90
        9
 70
   128
 43
0.0
 10
37.2322767447
 20
18.075277514
 10
37.1835041642
 20
18.0721749904
 10
37.1366058867
 20
18.0629866479
 10
37.0933841865
 20
18.0480655892
 10
37.0555000494
 20
18.0279852223
 10
37.0244093417
 20
18.0035172244
 10
37.0013068616
 20
17.9756018871
 10
36.9870804246
 20
17.9453119809
 10
36.9822767447
 20
17.9138115302
  0
LINE
  5
346
330
1F
100
AcDbEntity
  8
0
  6
SLD-Solid
 62
     7
370
    15
100
AcDbLine
 10
698.9322767447
 20
656.9233724201
 30
0.0
 11
698.9322767447
 21
656.9333724201
 31
0.0
  0
LINE
  5
347
330
1F
100
AcDbEntity
  8
0
  6
SLD-Solid
 62
     7
370
    15
100
AcDbLine
 10
698.9322767447
 20
658.1333724201
 30
0.0
 11
698.9322767447
 21
678.1333724201
 31
0.0
  0
LINE
  5
348
330
1F
100
AcDbEntity
  8
0
  6
SLD-Solid
 62
     7
370
    15
100
AcDbLine
 10
136.9322767447
 20
658.1333724201
 30
0.0
 11
136.9322767447
 21
678.1333724201
 31
0.0
  0
LINE
  5
349
330
1F
100
AcDbEntity
  8
0
  6
SLD-Solid
 62
     7
370
    15
100
AcDbLine
 10
136.9322767447
 20
678.1333724201
 30
0.0
 11
698.9322767447
 21
678.1333724201
 31
0.0
  0
LINE
  5
34A
330
1F
100
AcDbEntity
  8
0
  6
SLD-Solid
 62
   142
420
    32960
370
     0
100
AcDbLine
 10
156.5806082221
 20
656.1333724201
 30
0.0
 11
160.4822767447
 21
656.1333724201
 31
0.0
  0
LINE
  5
34B
330
1F
100
AcDbEntity
  8
0
  6
SLD-Solid
 62
   142
420
    32960
370
     0
100
AcDbLine
 10
675.4822767447
 20
656.1333724201
 30
0.0
 11
678.123957829
 21
656.1333724201
 31
0.0
  0
LINE
  5
34C
330
1F
100
AcDbEntity
  8
0
  6
SLD-Solid
 62
   142
420
    32960
370
     0
100
AcDbLine
 10
679.3660863658
 20
656.1333724201
 30
0.0
 11
679.3768114705
 21
656.1333724201
 31
0.0
  0
LINE
  5
34D
330
1F
100
AcDbEntity
  8
0
  6
SLD-Solid
 62
   142
420
    32960
370
     0
100
AcDbLine
 10
809.896577038
 20
556.3733589639
 30
0.0
 11
809.1530392787
 21
556.0832334229
 31
0.0
  0
LINE
  5
34E
330
1F
100
AcDbEntity
  8
0
  6
SLD-Solid
 62
   142
420
    32960
370
     0
100
AcDbLine
 10
809.0265399656
 20
556.4485169702
 30
0.0
 11
809.445977938
 21
556.7741605271
 31
0.0
  0
SPLINE
  5
34F
330
1F
100
AcDbEntity
  8
0
  6
SLD-Solid
 62
   142
420
    32960
370
     0
100
AcDbSpline
210
0.0
220
0.0
230
1.0
 70
     8
 71
     3
 72
     8
 73
     4
 74
     0
 42
0.00000001
 43
0.00000001
 40
0.0
 40
0.0
 40
0.0
 40
0.0
 40
1.0
 40
1.0
 40
1.0
 40
1.0
 10
811.2108017375542
 20
558.370809098629
 30
0.0
 10
811.4154274601766
 20
558.5298896859043
 30
0.0
 10
811.6200605740506
 20
558.6889475252459
 30
0.0
 10
811.8247010906945
 20
558.847982581205
 30
0.0
  0
LINE
  5
350
330
1F
100
AcDbEntity
  8
0
  6
SLD-Solid
 62
   142
420
    32960
370
     0
100
AcDbLine
 10
812.7305069445
 20
558.8693883534
 30
0.0
 11
812.174164462
 21
558.4377006584
 31
0.0
  0
LINE
  5
351
330
1F
100
AcDbEntity
  8
0
  6
SLD-Solid
 62
   142
420
    32960
370
     0
100
AcDbLine
 10
811.1153326962
 20
557.615733651
 30
0.0
 11
810.6868441517
 21
557.2832629802
 31
0.0
  0
LINE
  5
352
330
1F
100
AcDbEntity
  8
0
  6
SLD-Solid
 62
   142
420
    32960
370
     0
100
AcDbLine
 10
810.6750814244
 20
557.0949136578
 30
0.0
 11
811.5337034799
 21
557.4167160928
 31
0.0
  0
ENDSEC
  0
SECTION
  2
OBJECTS
  0
DICTIONARY
  5
C
330
0
100
AcDbDictionary
281
     1
  3
ACAD_GROUP
350
D
  3
ACAD_LAYOUT
350
1A
  3
ACAD_MATERIAL
350
3B
  3
ACAD_MLEADERSTYLE
350
354
  3
ACAD_MLINESTYLE
350
17
  3
ACAD_PLOTSETTINGS
350
19
  3
ACAD_PLOTSTYLENAME
350
E
  3
ACAD_TABLESTYLE
350
353
  3
ACAD_VISUALSTYLE
350
2A
  0
DICTIONARY
  5
D
102
{ACAD_REACTORS
330
C
102
}
330
C
100
AcDbDictionary
281
     1
  0
DICTIONARY
  5
1A
102
{ACAD_REACTORS
330
C
102
}
330
C
100
AcDbDictionary
281
     1
  3
Layout1
350
1E
  3
Layout2
350
26
  3
Model
350
22
  0
DICTIONARY
  5
3B
102
{ACAD_REACTORS
330
C
102
}
330
C
100
AcDbDictionary
281
     1
  3
ByBlock
350
3D
  3
ByLayer
350
3C
  3
Global
350
3E
  0
DICTIONARY
  5
354
102
{ACAD_REACTORS
330
C
102
}
330
C
100
AcDbDictionary
281
     1
  0
DICTIONARY
  5
17
102
{ACAD_REACTORS
330
C
102
}
330
C
100
AcDbDictionary
281
     1
  3
Standard
350
18
  0
DICTIONARY
  5
19
102
{ACAD_REACTORS
330
C
102
}
330
C
100
AcDbDictionary
281
     1
  0
ACDBDICTIONARYWDFLT
  5
E
102
{ACAD_REACTORS
330
C
102
}
330
C
100
AcDbDictionary
281
     1
  3
Normal
350
F
100
AcDbDictionaryWithDefault
340
F
  0
DICTIONARY
  5
353
102
{ACAD_REACTORS
330
C
102
}
330
C
100
AcDbDictionary
281
     1
  0
DICTIONARY
  5
2A
102
{ACAD_REACTORS
330
C
102
}
330
C
100
AcDbDictionary
281
     1
  3
2dWireframe
350
2F
  3
3D Hidden
350
31
  3
3dWireframe
350
30
  3
Basic
350
32
  3
Brighten
350
36
  3
ColorChange
350
3A
  3
Conceptual
350
34
  3
Dim
350
35
  3
Facepattern
350
39
  3
Flat
350
2B
  3
FlatWithEdges
350
2C
  3
Gouraud
350
2D
  3
GouraudWithEdges
350
2E
  3
Linepattern
350
38
  3
Realistic
350
33
  3
Thicken
350
37
  0
LAYOUT
  5
1E
102
{ACAD_REACTORS
330
1A
102
}
330
1A
100
AcDbPlotSettings
  1

  2
none_device
  4

  6

 40
0.0
 41
0.0
 42
0.0
 43
0.0
 44
0.0
 45
0.0
 46
0.0
 47
0.0
 48
0.0
 49
0.0
140
0.0
141
0.0
142
1.0
143
1.0
 70
   688
 72
     0
 73
     0
 74
     5
  7

 75
    16
 76
     0
 77
     2
 78
   300
147
1.0
148
0.0
149
0.0
100
AcDbLayout
  1
Layout1
 70
     1
 71
     1
 10
0.0
 20
0.0
 11
420.0
 21
297.0
 12
0.0
 22
0.0
 32
0.0
 14
1.0000000000E+20
 24
1.0000000000E+20
 34
1.0000000000E+20
 15
-1.0000000000E+20
 25
-1.0000000000E+20
 35
-1.0000000000E+20
146
0.0
 13
0.0
 23
0.0
 33
0.0
 16
1.0
 26
0.0
 36
0.0
 17
0.0
 27
1.0
 37
0.0
 76
     0
330
1B
  0
LAYOUT
  5
26
102
{ACAD_REACTORS
330
1A
102
}
330
1A
100
AcDbPlotSettings
  1

  2
none_device
  4

  6

 40
0.0
 41
0.0
 42
0.0
 43
0.0
 44
0.0
 45
0.0
 46
0.0
 47
0.0
 48
0.0
 49
0.0
140
0.0
141
0.0
142
1.0
143
1.0
 70
   688
 72
     0
 73
     0
 74
     5
  7

 75
    16
 76
     0
 77
     2
 78
   300
147
1.0
148
0.0
149
0.0
100
AcDbLayout
  1
Layout2
 70
     1
 71
     2
 10
0.0
 20
0.0
 11
0.0
 21
0.0
 12
0.0
 22
0.0
 32
0.0
 14
0.0
 24
0.0
 34
0.0
 15
0.0
 25
0.0
 35
0.0
146
0.0
 13
0.0
 23
0.0
 33
0.0
 16
1.0
 26
0.0
 36
0.0
 17
0.0
 27
1.0
 37
0.0
 76
     0
330
23
  0
LAYOUT
  5
22
102
{ACAD_REACTORS
330
1A
102
}
330
1A
100
AcDbPlotSettings
  1

  2
none_device
  4

  6

 40
0.0
 41
0.0
 42
0.0
 43
0.0
 44
0.0
 45
0.0
 46
0.0
 47
0.0
 48
0.0
 49
0.0
140
0.0
141
0.0
142
1.0
143
1.0
 70
  1712
 72
     0
 73
     0
 74
     0
  7

 75
     0
 76
     0
 77
     2
 78
   300
147
1.0
148
0.0
149
0.0
100
AcDbLayout
  1
Model
 70
     1
 71
     0
 10
0.0
 20
0.0
 11
841.0
 21
594.0
 12
0.0
 22
0.0
 32
0.0
 14
0.0
 24
0.0
 34
0.0
 15
841.0
 25
594.0
 35
0.0
146
0.0
 13
0.0
 23
0.0
 33
0.0
 16
1.0
 26
0.0
 36
0.0
 17
0.0
 27
1.0
 37
0.0
 76
     0
330
1F
331
29
  0
MATERIAL
  5
3D
102
{ACAD_REACTORS
330
3B
102
}
330
3B
100
AcDbMaterial
  1
ByBlock
 72
     1
 94
      127
  0
MATERIAL
  5
3C
102
{ACAD_REACTORS
330
3B
102
}
330
3B
100
AcDbMaterial
  1
ByLayer
 72
     1
 94
      127
  0
MATERIAL
  5
3E
102
{ACAD_REACTORS
330
3B
102
}
330
3B
100
AcDbMaterial
  1
Global
 72
     1
 94
      127
  0
MLINESTYLE
  5
18
102
{ACAD_REACTORS
330
17
102
}
330
17
100
AcDbMlineStyle
  2
Standard
 70
     0
  3

 62
   256
 51
90.0
 52
90.0
 71
     2
 49
0.5
 62
   256
  6
BYLAYER
 49
-0.5
 62
   256
  6
BYLAYER
  0
ACDBPLACEHOLDER
  5
F
102
{ACAD_REACTORS
330
E
102
}
330
E
  0
VISUALSTYLE
  5
2F
102
{ACAD_REACTORS
330
2A
102
}
330
2A
100
AcDbVisualStyle
  2
2dWireframe
 70
     4
 71
     0
 72
     2
 73
     0
 90
        0
 40
-0.6
 41
-30.0
 62
     5
 63
     7
421
 16777215
 74
     1
 91
        4
 64
     7
 65
   257
 75
     1
175
     1
 42
1.0
 92
        0
 66
   257
 43
1.0
 76
     1
 77
     6
 78
     2
 67
     7
 79
     5
170
     0
171
     0
290
     0
174
     0
 93
        1
 44
0.0
173
     0
291
     0
 45
0.0
  0
VISUALSTYLE
  5
31
102
{ACAD_REACTORS
330
2A
102
}
330
2A
100
AcDbVisualStyle
  2
3D Hidden
 70
     6
 71
     1
 72
     2
 73
     2
 90
        0
 40
-0.6
 41
-30.0
 62
     5
 63
     7
421
 16777215
 74
     2
 91
        2
 64
     7
 65
   257
 75
     2
175
     1
 42
40.0
 92
        0
 66
   257
 43
1.0
 76
     1
 77
     6
 78
     2
 67
     7
 79
     3
170
     0
171
     0
290
     0
174
     0
 93
        1
 44
0.0
173
     0
291
     0
 45
0.0
  0
VISUALSTYLE
  5
30
102
{ACAD_REACTORS
330
2A
102
}
330
2A
100
AcDbVisualStyle
  2
3dWireframe
 70
     5
 71
     0
 72
     2
 73
     0
 90
        0
 40
-0.6
 41
-30.0
 62
     5
 63
     7
421
 16777215
 74
     1
 91
        4
 64
     7
 65
   257
 75
     1
175
     1
 42
1.0
 92
        0
 66
   257
 43
1.0
 76
     1
 77
     6
 78
     2
 67
     7
 79
     5
170
     0
171
     0
290
     0
174
     0
 93
        1
 44
0.0
173
     0
291
     0
 45
0.0
  0
VISUALSTYLE
  5
32
102
{ACAD_REACTORS
330
2A
102
}
330
2A
100
AcDbVisualStyle
  2
Basic
 70
     7
 71
     1
 72
     0
 73
     1
 90
        0
 40
-0.6
 41
-30.0
 62
     5
 63
     7
421
 16777215
 74
     0
 91
        4
 64
     7
 65
   257
 75
     1
175
     1
 42
1.0
 92
        8
 66
     7
 43
1.0
 76
     1
 77
     6
 78
     2
 67
     7
 79
     5
170
     0
171
     0
290
     0
174
     0
 93
        1
 44
0.0
173
     0
291
     1
 45
0.0
  0
VISUALSTYLE
  5
36
102
{ACAD_REACTORS
330
2A
102
}
330
2A
100
AcDbVisualStyle
  2
Brighten
 70
    12
 71
     2
 72
     2
 73
     0
 90
        0
 40
-0.6
 41
-30.0
 62
     5
 63
     7
421
 16777215
 74
     1
 91
        4
 64
     7
 65
   257
 75
     1
175
     1
 42
1.0
 92
        8
 66
     7
 43
1.0
 76
     1
 77
     6
 78
     2
 67
     7
 79
     5
170
     0
171
     0
290
     0
174
     0
 93
        1
 44
50.0
173
     0
291
     1
 45
0.0
  0
VISUALSTYLE
  5
3A
102
{ACAD_REACTORS
330
2A
102
}
330
2A
100
AcDbVisualStyle
  2
ColorChange
 70
    16
 71
     2
 72
     2
 73
     3
 90
        0
 40
-0.6
 41
-30.0
 62
     5
 63
     8
421
  8421504
 74
     1
 91
        4
 64
     7
 65
   257
 75
     1
175
     1
 42
1.0
 92
        8
 66
     8
424
  8421504
 43
1.0
 76
     1
 77
     6
 78
     2
 67
     7
 79
     5
170
     0
171
     0
290
     0
174
     0
 93
        1
 44
0.0
173
     0
291
     1
 45
0.0
  0
VISUALSTYLE
  5
34
102
{ACAD_REACTORS
330
2A
102
}
330
2A
100
AcDbVisualStyle
  2
Conceptual
 70
     9
 71
     3
 72
     2
 73
     0
 90
        0
 40
-0.6
 41
-30.0
 62
     5
 63
     7
421
 16777215
 74
     2
 91
        2
 64
     7
 65
   257
 75
     1
175
     1
 42
40.0
 92
        8
 66
     7
 43
1.0
 76
     1
 77
     6
 78
     2
 67
     7
 79
     3
170
     0
171
     0
290
     0
174
     0
 93
        1
 44
0.0
173
     0
291
     0
 45
0.0
  0
VISUALSTYLE
  5
35
102
{ACAD_REACTORS
330
2A
102
}
330
2A
100
AcDbVisualStyle
  2
Dim
 70
    11
 71
     2
 72
     2
 73
     0
 90
        0
 40
-0.6
 41
-30.0
 62
     5
 63
     7
421
 16777215
 74
     1
 91
        4
 64
     7
 65
   257
 75
     1
175
     1
 42
1.0
 92
        8
 66
     7
 43
1.0
 76
     1
 77
     6
 78
     2
 67
     7
 79
     5
170
     0
171
     0
290
     0
174
     0
 93
        1
 44
-50.0
173
     0
291
     1
 45
0.0
  0
VISUALSTYLE
  5
39
102
{ACAD_REACTORS
330
2A
102
}
330
2A
100
AcDbVisualStyle
  2
Facepattern
 70
    15
 71
     2
 72
     2
 73
     0
 90
        0
 40
-0.6
 41
-30.0
 62
     5
 63
     7
421
 16777215
 74
     1
 91
        4
 64
     7
 65
   257
 75
     1
175
     1
 42
1.0
 92
        8
 66
     7
 43
1.0
 76
     1
 77
     6
 78
     2
 67
     7
 79
     5
170
     0
171
     0
290
     0
174
     0
 93
        1
 44
0.0
173
     0
291
     1
 45
0.0
  0
VISUALSTYLE
  5
2B
102
{ACAD_REACTORS
330
2A
102
}
330
2A
100
AcDbVisualStyle
  2
Flat
 70
     0
 71
     2
 72
     1
 73
     1
 90
        2
 40
-0.6
 41
30.0
 62
     5
 63
     7
421
 16777215
 74
     0
 91
        4
 64
     7
 65
   257
 75
     1
175
     1
 42
1.0
 92
        8
 66
     7
 43
1.0
 76
     1
 77
     6
 78
     2
 67
     7
 79
     5
170
     0
171
     0
290
     0
174
     0
 93
       13
 44
0.0
173
     0
291
     1
 45
0.0
  0
VISUALSTYLE
  5
2C
102
{ACAD_REACTORS
330
2A
102
}
330
2A
100
AcDbVisualStyle
  2
FlatWithEdges
 70
     1
 71
     2
 72
     1
 73
     1
 90
        2
 40
-0.6
 41
30.0
 62
     5
 63
     7
421
 16777215
 74
     1
 91
        4
 64
     7
 65
   257
 75
     1
175
     1
 42
1.0
 92
        0
 66
   257
 43
1.0
 76
     1
 77
     6
 78
     2
 67
     7
 79
     5
170
     0
171
     0
290
     0
174
     0
 93
       13
 44
0.0
173
     0
291
     1
 45
0.0
  0
VISUALSTYLE
  5
2D
102
{ACAD_REACTORS
330
2A
102
}
330
2A
100
AcDbVisualStyle
  2
Gouraud
 70
     2
 71
     2
 72
     2
 73
     1
 90
        2
 40
-0.6
 41
30.0
 62
     5
 63
     7
421
 16777215
 74
     0
 91
        4
 64
     7
 65
   257
 75
     1
175
     1
 42
1.0
 92
        0
 66
     7
 43
1.0
 76
     1
 77
     6
 78
     2
 67
     7
 79
     5
170
     0
171
     0
290
     0
174
     0
 93
       13
 44
0.0
173
     0
291
     1
 45
0.0
  0
VISUALSTYLE
  5
2E
102
{ACAD_REACTORS
330
2A
102
}
330
2A
100
AcDbVisualStyle
  2
GouraudWithEdges
 70
     3
 71
     2
 72
     2
 73
     1
 90
        2
 40
-0.6
 41
30.0
 62
     5
 63
     7
421
 16777215
 74
     1
 91
        4
 64
     7
 65
   257
 75
     1
175
     1
 42
1.0
 92
        0
 66
   257
 43
1.0
 76
     1
 77
     6
 78
     2
 67
     7
 79
     5
170
     0
171
     0
290
     0
174
     0
 93
       13
 44
0.0
173
     0
291
     1
 45
0.0
  0
VISUALSTYLE
  5
38
102
{ACAD_REACTORS
330
2A
102
}
330
2A
100
AcDbVisualStyle
  2
Linepattern
 70
    14
 71
     2
 72
     2
 73
     0
 90
        0
 40
-0.6
 41
-30.0
 62
     5
 63
     7
421
 16777215
 74
     1
 91
        4
 64
     7
 65
   257
 75
     7
175
     7
 42
1.0
 92
        8
 66
     7
 43
1.0
 76
     1
 77
     6
 78
     2
 67
     7
 79
     5
170
     0
171
     0
290
     0
174
     0
 93
        1
 44
0.0
173
     0
291
     1
 45
0.0
  0
VISUALSTYLE
  5
33
102
{ACAD_REACTORS
330
2A
102
}
330
2A
100
AcDbVisualStyle
  2
Realistic
 70
     8
 71
     2
 72
     2
 73
     0
 90
        0
 40
-0.6
 41
-30.0
 62
     5
 63
     7
421
 16777215
 74
     1
 91
        0
 64
     7
 65
   257
 75
     1
175
     1
 42
1.0
 92
        8
 66
     8
424
  7895160
 43
1.0
 76
     1
 77
     6
 78
     2
 67
     7
 79
     5
170
     0
171
     0
290
     0
174
     0
 93
       13
 44
0.0
173
     0
291
     0
 45
0.0
  0
VISUALSTYLE
  5
37
102
{ACAD_REACTORS
330
2A
102
}
330
2A
100
AcDbVisualStyle
  2
Thicken
 70
    13
 71
     2
 72
     2
 73
     0
 90
        0
 40
-0.6
 41
-30.0
 62
     5
 63
     7
421
 16777215
 74
     1
 91
        4
 64
     7
 65
   257
 75
     1
175
     1
 42
1.0
 92
       12
 66
     7
 43
1.0
 76
     1
 77
     6
 78
     2
 67
     7
 79
     5
170
     0
171
     0
290
     0
174
     0
 93
        1
 44
0.0
173
     0
291
     1
 45
0.0
  0
ENDSEC
  0
EOF
