  0
SECTION
  2
HEADER
  9
$ACADVER
  1
AC1021
  9
$ACADMAINTVER
 70
    25
  9
$DWGCODEPAGE
  3
ANSI_1252
  9
$INSBASE
 10
0.0
 20
0.0
 30
0.0
  9
$EXTMIN
 10
0.0
 20
0.0
 30
0.0
  9
$EXTMAX
 10
841.0
 20
594.0
 30
0.0
  9
$LIMMIN
 10
0.0
 20
0.0
  9
$LIMMAX
 10
841.0
 20
594.0
  9
$ORTHOMODE
 70
     0
  9
$REGENMODE
 70
     1
  9
$FILLMODE
 70
     1
  9
$QTEXTMODE
 70
     0
  9
$MIRRTEXT
 70
     1
  9
$LTSCALE
 40
1.0
  9
$ATTMODE
 70
     1
  9
$TEXTSIZE
 40
3.5
  9
$TRACEWID
 40
1.0
  9
$TEXTSTYLE
  7
STANDARD
  9
$CLAYER
  8
0
  9
$CELTYPE
  6
ByLayer
  9
$CECOLOR
 62
   256
  9
$CELTSCALE
 40
1.0
  9
$DISPSILH
 70
     0
  9
$DIMSCALE
 40
1.0
  9
$DIMASZ
 40
3.302
  9
$DIMEXO
 40
1.0
  9
$DIMDLI
 40
3.75
  9
$DIMRND
 40
0.0
  9
$DIMDLE
 40
0.0
  9
$DIMEXE
 40
1.0
  9
$DIMTP
 40
0.0
  9
$DIMTM
 40
0.0
  9
$DIMTXT
 40
3.5
  9
$DIMCEN
 40
2.5
  9
$DIMTSZ
 40
0.0
  9
$DIMTOL
 70
     0
  9
$DIMLIM
 70
     0
  9
$DIMTIH
 70
     1
  9
$DIMTOH
 70
     1
  9
$DIMSE1
 70
     0
  9
$DIMSE2
 70
     0
  9
$DIMTAD
 70
     1
  9
$DIMZIN
 70
     0
  9
$DIMBLK
  1

  9
$DIMASO
 70
     1
  9
$DIMSHO
 70
     1
  9
$DIMPOST
  1

  9
$DIMAPOST
  1

  9
$DIMALT
 70
     0
  9
$DIMALTD
 70
     3
  9
$DIMALTF
 40
0.0393700787
  9
$DIMLFAC
 40
1.0
  9
$DIMTOFL
 70
     1
  9
$DIMTVP
 40
0.0
  9
$DIMTIX
 70
     0
  9
$DIMSOXD
 70
     0
  9
$DIMSAH
 70
     0
  9
$DIMBLK1
  1

  9
$DIMBLK2
  1

  9
$DIMSTYLE
  2
ISO-25
  9
$DIMCLRD
 70
     0
  9
$DIMCLRE
 70
     0
  9
$DIMCLRT
 70
     0
  9
$DIMTFAC
 40
1.0
  9
$DIMGAP
 40
1.524
  9
$DIMJUST
 70
     0
  9
$DIMSD1
 70
     0
  9
$DIMSD2
 70
     0
  9
$DIMTOLJ
 70
     0
  9
$DIMTZIN
 70
     0
  9
$DIMALTZ
 70
     0
  9
$DIMALTTZ
 70
     0
  9
$DIMUPT
 70
     0
  9
$DIMDEC
 70
     1
  9
$DIMTDEC
 70
     1
  9
$DIMALTU
 70
     2
  9
$DIMALTTD
 70
     3
  9
$DIMTXSTY
  7
STANDARD
  9
$DIMAUNIT
 70
     0
  9
$DIMADEC
 70
     1
  9
$DIMALTRND
 40
0.0
  9
$DIMAZIN
 70
     0
  9
$DIMDSEP
 70
    44
  9
$DIMATFIT
 70
     3
  9
$DIMFRAC
 70
     0
  9
$DIMLDRBLK
  1

  9
$DIMLUNIT
 70
     2
  9
$DIMLWD
 70
    -2
  9
$DIMLWE
 70
    -2
  9
$DIMTMOVE
 70
     0
  9
$DIMFXL
 40
1.0
  9
$DIMFXLON
 70
     0
  9
$DIMJOGANG
 40
0.7853981634
  9
$DIMTFILL
 70
     0
  9
$DIMTFILLCLR
 70
     0
  9
$DIMARCSYM
 70
     0
  9
$DIMLTYPE
  6

  9
$DIMLTEX1
  6

  9
$DIMLTEX2
  6

  9
$LUNITS
 70
     2
  9
$LUPREC
 70
     1
  9
$SKETCHINC
 40
1.0
  9
$FILLETRAD
 40
10.0
  9
$AUNITS
 70
     0
  9
$AUPREC
 70
     1
  9
$MENU
  1
.
  9
$ELEVATION
 40
0.0
  9
$PELEVATION
 40
0.0
  9
$THICKNESS
 40
0.0
  9
$LIMCHECK
 70
     0
  9
$CHAMFERA
 40
10.0
  9
$CHAMFERB
 40
10.0
  9
$CHAMFERC
 40
20.0
  9
$CHAMFERD
 40
0.0
  9
$SKPOLY
 70
     0
  9
$TDCREATE
 40
2455700.658834873
  9
$TDUCREATE
 40
2455700.617168206
  9
$TDUPDATE
 40
2455700.658834884
  9
$TDUUPDATE
 40
2455700.617168217
  9
$TDINDWG
 40
0.0000000116
  9
$TDUSRTIMER
 40
0.0000000116
  9
$USRTIMER
 70
     1
  9
$ANGBASE
 50
0.0
  9
$ANGDIR
 70
     0
  9
$PDMODE
 70
     0
  9
$PDSIZE
 40
-1.0
  9
$PLINEWID
 40
0.0
  9
$SPLFRAME
 70
     0
  9
$SPLINETYPE
 70
     6
  9
$SPLINESEGS
 70
     8
  9
$HANDSEED
  5
2D6
  9
$SURFTAB1
 70
     6
  9
$SURFTAB2
 70
     6
  9
$SURFTYPE
 70
     6
  9
$SURFU
 70
     6
  9
$SURFV
 70
     6
  9
$UCSBASE
  2

  9
$UCSNAME
  2

  9
$UCSORG
 10
0.0
 20
0.0
 30
0.0
  9
$UCSXDIR
 10
1.0
 20
0.0
 30
0.0
  9
$UCSYDIR
 10
0.0
 20
1.0
 30
0.0
  9
$UCSORTHOREF
  2

  9
$UCSORTHOVIEW
 70
     0
  9
$UCSORGTOP
 10
0.0
 20
0.0
 30
0.0
  9
$UCSORGBOTTOM
 10
0.0
 20
0.0
 30
0.0
  9
$UCSORGLEFT
 10
0.0
 20
0.0
 30
0.0
  9
$UCSORGRIGHT
 10
0.0
 20
0.0
 30
0.0
  9
$UCSORGFRONT
 10
0.0
 20
0.0
 30
0.0
  9
$UCSORGBACK
 10
0.0
 20
0.0
 30
0.0
  9
$PUCSBASE
  2

  9
$PUCSNAME
  2

  9
$PUCSORG
 10
0.0
 20
0.0
 30
0.0
  9
$PUCSXDIR
 10
1.0
 20
0.0
 30
0.0
  9
$PUCSYDIR
 10
0.0
 20
1.0
 30
0.0
  9
$PUCSORTHOREF
  2

  9
$PUCSORTHOVIEW
 70
     0
  9
$PUCSORGTOP
 10
0.0
 20
0.0
 30
0.0
  9
$PUCSORGBOTTOM
 10
0.0
 20
0.0
 30
0.0
  9
$PUCSORGLEFT
 10
0.0
 20
0.0
 30
0.0
  9
$PUCSORGRIGHT
 10
0.0
 20
0.0
 30
0.0
  9
$PUCSORGFRONT
 10
0.0
 20
0.0
 30
0.0
  9
$PUCSORGBACK
 10
0.0
 20
0.0
 30
0.0
  9
$USERI1
 70
     0
  9
$USERI2
 70
     0
  9
$USERI3
 70
     0
  9
$USERI4
 70
     0
  9
$USERI5
 70
     0
  9
$USERR1
 40
0.0
  9
$USERR2
 40
0.0
  9
$USERR3
 40
0.0
  9
$USERR4
 40
0.0
  9
$USERR5
 40
0.0
  9
$WORLDVIEW
 70
     1
  9
$SHADEDGE
 70
     3
  9
$SHADEDIF
 70
    70
  9
$TILEMODE
 70
     1
  9
$MAXACTVP
 70
    64
  9
$PINSBASE
 10
0.0
 20
0.0
 30
0.0
  9
$PLIMCHECK
 70
     0
  9
$PEXTMIN
 10
1.0000000000E+20
 20
1.0000000000E+20
 30
1.0000000000E+20
  9
$PEXTMAX
 10
-1.0000000000E+20
 20
-1.0000000000E+20
 30
-1.0000000000E+20
  9
$PLIMMIN
 10
0.0
 20
0.0
  9
$PLIMMAX
 10
420.0
 20
297.0
  9
$UNITMODE
 70
     0
  9
$VISRETAIN
 70
     1
  9
$PLINEGEN
 70
     0
  9
$PSLTSCALE
 70
     1
  9
$TREEDEPTH
 70
  3020
  9
$CMLSTYLE
  2
Standard
  9
$CMLJUST
 70
     0
  9
$CMLSCALE
 40
20.0
  9
$PROXYGRAPHICS
 70
     1
  9
$MEASUREMENT
 70
     1
  9
$CELWEIGHT
370
    -1
  9
$ENDCAPS
280
     0
  9
$JOINSTYLE
280
     0
  9
$LWDISPLAY
290
     1
  9
$INSUNITS
 70
     4
  9
$HYPERLINKBASE
  1

  9
$STYLESHEET
  1

  9
$XEDIT
290
     1
  9
$CEPSNTYPE
380
     0
  9
$PSTYLEMODE
290
     1
  9
$FINGERPRINTGUID
  2
{66BA8C03-DA72-44F3-9A1E-473AB286BACD}
  9
$VERSIONGUID
  2
{FAEB1C32-E019-11D5-929B-00C0DF256EC4}
  9
$EXTNAMES
290
     1
  9
$PSVPSCALE
 40
0.0
  9
$OLESTARTUP
290
     0
  9
$SORTENTS
280
   127
  9
$INDEXCTL
280
     0
  9
$HIDETEXT
280
     1
  9
$XCLIPFRAME
290
     0
  9
$HALOGAP
280
     0
  9
$OBSCOLOR
 70
   257
  9
$OBSLTYPE
280
     0
  9
$INTERSECTIONDISPLAY
280
     0
  9
$INTERSECTIONCOLOR
 70
   257
  9
$DIMASSOC
280
     2
  9
$PROJECTNAME
  1

  9
$CAMERADISPLAY
290
     0
  9
$LENSLENGTH
 40
50.0
  9
$CAMERAHEIGHT
 40
0.0
  9
$STEPSPERSEC
 40
2.0
  9
$STEPSIZE
 40
6.0
  9
$3DDWFPREC
 40
2.0
  9
$PSOLWIDTH
 40
5.0
  9
$PSOLHEIGHT
 40
80.0
  9
$LOFTANG1
 40
1.5707963268
  9
$LOFTANG2
 40
1.5707963268
  9
$LOFTMAG1
 40
0.0
  9
$LOFTMAG2
 40
0.0
  9
$LOFTPARAM
 70
     7
  9
$LOFTNORMALS
280
     1
  9
$LATITUDE
 40
37.795
  9
$LONGITUDE
 40
-122.394
  9
$NORTHDIRECTION
 40
0.0
  9
$TIMEZONE
 70
 -8000
  9
$LIGHTGLYPHDISPLAY
280
     1
  9
$TILEMODELIGHTSYNCH
280
     1
  9
$SOLIDHIST
280
     1
  9
$SHOWHIST
280
     1
  9
$DWFFRAME
280
     2
  9
$DGNFRAME
280
     2
  9
$REALWORLDSCALE
290
     1
  9
$INTERFERECOLOR
 62
   256
  9
$CSHADOW
280
     0
  9
$SHADOWPLANELOCATION
 40
0.0
  0
ENDSEC
  0
SECTION
  2
CLASSES
  0
CLASS
  1
ACDBDICTIONARYWDFLT
  2
AcDbDictionaryWithDefault
  3
ObjectDBX Classes
 90
        0
 91
        4
280
     0
281
     0
  0
CLASS
  1
VISUALSTYLE
  2
AcDbVisualStyle
  3
ObjectDBX Classes
 90
     4095
 91
        4
280
     0
281
     0
  0
CLASS
  1
MATERIAL
  2
AcDbMaterial
  3
ObjectDBX Classes
 90
     1153
 91
        4
280
     0
281
     0
  0
ENDSEC
  0
SECTION
  2
TABLES
  0
TABLE
  2
VPORT
  5
8
330
0
100
AcDbSymbolTable
 70
     1
  0
VPORT
  5
29
330
8
100
AcDbSymbolTableRecord
100
AcDbViewportTableRecord
  2
*Active
 70
     0
 10
0.0
 20
0.0
 11
1.0
 21
1.0
 12
420.5
 22
297.0
 13
0.0
 23
0.0
 14
10.0
 24
10.0
 15
10.0
 25
10.0
 16
0.0
 26
0.0
 36
1.0
 17
0.0
 27
0.0
 37
0.0
 40
594.0
 41
1.4158249158
 42
50.0
 43
0.0
 44
0.0
 50
0.0
 51
0.0
 71
     0
 72
  2000
 73
     1
 74
     3
 75
     0
 76
     0
 77
     0
 78
     0
281
     0
 65
     1
110
0.0
120
0.0
130
0.0
111
1.0
121
0.0
131
0.0
112
0.0
122
1.0
132
0.0
 79
     0
146
0.0
 60
     3
 61
     5
292
     1
282
     1
141
0.0
142
0.0
 63
   250
  0
ENDTAB
  0
TABLE
  2
LTYPE
  5
5
330
0
100
AcDbSymbolTable
 70
     8
  0
LTYPE
  5
14
330
5
100
AcDbSymbolTableRecord
100
AcDbLinetypeTableRecord
  2
ByBlock
 70
     0
  3

 72
    65
 73
     0
 40
0.0
  0
LTYPE
  5
15
330
5
100
AcDbSymbolTableRecord
100
AcDbLinetypeTableRecord
  2
ByLayer
 70
     0
  3

 72
    65
 73
     0
 40
0.0
  0
LTYPE
  5
16
330
5
100
AcDbSymbolTableRecord
100
AcDbLinetypeTableRecord
  2
Continuous
 70
     0
  3
Solid line
 72
    65
 73
     0
 40
0.0
  0
LTYPE
  5
3F
330
5
100
AcDbSymbolTableRecord
100
AcDbLinetypeTableRecord
  2
SLD-Solid
 70
     0
  3
SolidWorks Line Style
 72
    65
 73
     0
 40
0.0
  0
LTYPE
  5
40
330
5
100
AcDbSymbolTableRecord
100
AcDbLinetypeTableRecord
  2
SLD-Dashed
 70
     0
  3
SolidWorks Line Style
 72
    65
 73
     2
 40
1.905
 49
1.27
 74
     0
 49
-0.635
 74
     0
  0
LTYPE
  5
41
330
5
100
AcDbSymbolTableRecord
100
AcDbLinetypeTableRecord
  2
SLD-Phantom
 70
     0
  3
SolidWorks Line Style
 72
    65
 73
     6
 40
12.7
 49
6.35
 74
     0
 49
-1.27
 74
     0
 49
1.27
 74
     0
 49
-1.27
 74
     0
 49
1.27
 74
     0
 49
-1.27
 74
     0
  0
LTYPE
  5
42
330
5
100
AcDbSymbolTableRecord
100
AcDbLinetypeTableRecord
  2
SLD-Chain
 70
     0
  3
SolidWorks Line Style
 72
    65
 73
     4
 40
10.16
 49
6.35
 74
     0
 49
-1.27
 74
     0
 49
1.27
 74
     0
 49
-1.27
 74
     0
  0
LTYPE
  5
43
330
5
100
AcDbSymbolTableRecord
100
AcDbLinetypeTableRecord
  2
SLD-Center
 70
     0
  3
SolidWorks Line Style
 72
    65
 73
     4
 40
19.05
 49
15.24
 74
     0
 49
-1.27
 74
     0
 49
1.27
 74
     0
 49
-1.27
 74
     0
  0
LTYPE
  5
44
330
5
100
AcDbSymbolTableRecord
100
AcDbLinetypeTableRecord
  2
SLD-Stitch
 70
     0
  3
SolidWorks Line Style
 72
    65
 73
     2
 40
0.635
 49
0.0
 74
     0
 49
-0.635
 74
     0
  0
LTYPE
  5
45
330
5
100
AcDbSymbolTableRecord
100
AcDbLinetypeTableRecord
  2
SLD-Thin-Thick-Chain
 70
     0
  3
SolidWorks Line Style
 72
    65
 73
     4
 40
10.16
 49
6.35
 74
     0
 49
-1.27
 74
     0
 49
1.27
 74
     0
 49
-1.27
 74
     0
  0
ENDTAB
  0
TABLE
  2
LAYER
  5
2
330
0
100
AcDbSymbolTable
 70
     1
  0
LAYER
  5
10
330
2
100
AcDbSymbolTableRecord
100
AcDbLayerTableRecord
  2
0
 70
     0
 62
     7
  6
Continuous
370
    -3
390
F
347
3E
  0
ENDTAB
  0
TABLE
  2
STYLE
  5
3
330
0
100
AcDbSymbolTable
 70
     1
  0
STYLE
  5
11
330
3
100
AcDbSymbolTableRecord
100
AcDbTextStyleTableRecord
  2
STANDARD
 70
     0
 40
0.0
 41
1.0
 50
0.0
 71
     0
 42
2.5
  3
GOTHIC.TTF
  4

1001
ACAD
1000
CENTURY GOTHIC
1071
       34
  0
ENDTAB
  0
TABLE
  2
VIEW
  5
6
330
0
100
AcDbSymbolTable
 70
     0
  0
ENDTAB
  0
TABLE
  2
UCS
  5
7
330
0
100
AcDbSymbolTable
 70
     0
  0
ENDTAB
  0
TABLE
  2
APPID
  5
9
330
0
100
AcDbSymbolTable
 70
     1
  0
APPID
  5
12
330
9
100
AcDbSymbolTableRecord
100
AcDbRegAppTableRecord
  2
ACAD
 70
     0
  0
ENDTAB
  0
TABLE
  2
DIMSTYLE
  5
A
330
0
100
AcDbSymbolTable
 70
     1
100
AcDbDimStyleTable
  0
DIMSTYLE
105
27
330
A
100
AcDbSymbolTableRecord
100
AcDbDimStyleTableRecord
  2
ISO-25
 70
     0
 41
2.5
 42
0.625
 43
3.75
 44
1.25
 73
     0
 74
     0
 77
     1
 78
     8
140
2.5
141
2.5
143
0.0393700787
147
0.625
171
     3
172
     1
271
     2
272
     2
274
     3
278
    44
283
     0
284
     8
340
11
  0
ENDTAB
  0
TABLE
  2
BLOCK_RECORD
  5
1
330
0
100
AcDbSymbolTable
 70
     1
  0
BLOCK_RECORD
  5
1F
330
1
100
AcDbSymbolTableRecord
100
AcDbBlockTableRecord
  2
*Model_Space
340
22
 70
     0
280
     1
281
     0
  0
BLOCK_RECORD
  5
1B
330
1
100
AcDbSymbolTableRecord
100
AcDbBlockTableRecord
  2
*Paper_Space
340
1E
 70
     0
280
     1
281
     0
  0
BLOCK_RECORD
  5
23
330
1
100
AcDbSymbolTableRecord
100
AcDbBlockTableRecord
  2
*Paper_Space0
340
26
 70
     0
280
     1
281
     0
  0
ENDTAB
  0
ENDSEC
  0
SECTION
  2
BLOCKS
  0
BLOCK
  5
20
330
1F
100
AcDbEntity
  8
0
100
AcDbBlockBegin
  2
*Model_Space
 70
     0
 10
0.0
 20
0.0
 30
0.0
  3
*Model_Space
  1

  0
ENDBLK
  5
21
330
1F
100
AcDbEntity
  8
0
100
AcDbBlockEnd
  0
BLOCK
  5
1C
330
1B
100
AcDbEntity
 67
     1
  8
0
100
AcDbBlockBegin
  2
*Paper_Space
 70
     0
 10
0.0
 20
0.0
 30
0.0
  3
*Paper_Space
  1

  0
ENDBLK
  5
1D
330
1B
100
AcDbEntity
 67
     1
  8
0
100
AcDbBlockEnd
  0
BLOCK
  5
24
330
23
100
AcDbEntity
  8
0
100
AcDbBlockBegin
  2
*Paper_Space0
 70
     0
 10
0.0
 20
0.0
 30
0.0
  3
*Paper_Space0
  1

  0
ENDBLK
  5
25
330
23
100
AcDbEntity
  8
0
100
AcDbBlockEnd
  0
ENDSEC
  0
SECTION
  2
ENTITIES
  0
LINE
  5
46
330
1F
100
AcDbEntity
  8
0
  6
SLD-Solid
 62
     7
370
    15
100
AcDbLine
 10
19.9322086528
 20
572.1893556201
 30
0.0
 11
19.1322086528
 21
572.1893556201
 31
0.0
  0
LINE
  5
47
330
1F
100
AcDbEntity
  8
0
  6
SLD-Solid
 62
     7
370
    15
100
AcDbLine
 10
19.1322086528
 20
822.5393556201
 30
0.0
 11
19.9322086528
 21
822.5393556201
 31
0.0
  0
LINE
  5
48
330
1F
100
AcDbEntity
  8
0
  6
SLD-Solid
 62
     7
370
    15
100
AcDbLine
 10
19.9322086528
 20
826.5393556201
 30
0.0
 11
19.1322086528
 21
826.5393556201
 31
0.0
  0
LINE
  5
49
330
1F
100
AcDbEntity
  8
0
  6
SLD-Solid
 62
     7
370
    15
100
AcDbLine
 10
19.1322086528
 20
792.5393556201
 30
0.0
 11
19.9322086528
 21
792.5393556201
 31
0.0
  0
LINE
  5
4A
330
1F
100
AcDbEntity
  8
0
  6
SLD-Solid
 62
     7
370
    15
100
AcDbLine
 10
19.9322086528
 20
796.5393556201
 30
0.0
 11
19.1322086528
 21
796.5393556201
 31
0.0
  0
LINE
  5
4B
330
1F
100
AcDbEntity
  8
0
  6
SLD-Solid
 62
     7
370
    15
100
AcDbLine
 10
19.1322086528
 20
788.1893556201
 30
0.0
 11
19.9322086528
 21
788.1893556201
 31
0.0
  0
LINE
  5
4C
330
1F
100
AcDbEntity
  8
0
  6
SLD-Solid
 62
     7
370
    15
100
AcDbLine
 10
19.9322086528
 20
800.8893556201
 30
0.0
 11
19.1322086528
 21
800.8893556201
 31
0.0
  0
LINE
  5
4D
330
1F
100
AcDbEntity
  8
0
  6
SLD-Solid
 62
     7
370
    15
100
AcDbLine
 10
772.0657058329
 20
657.9953124773
 30
0.0
 11
780.3402030184
 21
664.8897084862
 31
0.0
  0
LINE
  5
4E
330
1F
100
AcDbEntity
  8
0
  6
SLD-Solid
 62
     7
370
    15
100
AcDbLine
 10
755.4159554187
 20
719.585658733
 30
0.0
 11
751.9796011985
 21
719.8139860364
 31
0.0
  0
LINE
  5
4F
330
1F
100
AcDbEntity
  8
0
  6
SLD-Solid
 62
     7
370
    15
100
AcDbLine
 10
762.726234339
 20
719.099929915
 30
0.0
 11
760.09514399
 21
719.2747517541
 31
0.0
  0
LINE
  5
50
330
1F
100
AcDbEntity
  8
0
  6
SLD-Solid
 62
     7
370
    15
100
AcDbLine
 10
780.3402030184
 20
664.8897084862
 30
0.0
 11
796.1013971799
 21
679.195000253
 31
0.0
  0
LINE
  5
51
330
1F
100
AcDbEntity
  8
0
  6
SLD-Solid
 62
     7
370
    15
100
AcDbLine
 10
763.2232836135
 20
719.0456895361
 30
0.0
 11
762.726234339
 21
719.099929915
 31
0.0
  0
ARC
  5
52
330
1F
100
AcDbEntity
  8
0
  6
SLD-Solid
 62
     7
370
    15
100
AcDbCircle
 10
795.4293179368
 20
679.9354794837
 30
0.0
 40
0.9999999999999948
100
AcDbArc
 50
312.227745318
 51
18.0
  0
LINE
  5
53
330
1F
100
AcDbEntity
  8
0
  6
SLD-Solid
 62
     7
370
    15
100
AcDbLine
 10
120.5322076296
 20
-104.4606443799
 30
0.0
 11
120.5322076296
 21
-100.4606443799
 31
0.0
  0
LINE
  5
54
330
1F
100
AcDbEntity
  8
0
  6
SLD-Solid
 62
     7
370
    15
100
AcDbLine
 10
63.5322076296
 20
-100.4606443799
 30
0.0
 11
63.5322076296
 21
-104.4606443799
 31
0.0
  0
ARC
  5
55
330
1F
100
AcDbEntity
  8
0
  6
SLD-Solid
 62
     7
370
    15
100
AcDbCircle
 10
118.5322076296
 20
-104.4606443799
 30
0.0
 40
2.0
100
AcDbArc
 50
270.0
 51
0.0
  0
ARC
  5
56
330
1F
100
AcDbEntity
  8
0
  6
SLD-Solid
 62
     7
370
    15
100
AcDbCircle
 10
65.5322076296
 20
-104.4606443799
 30
0.0
 40
2.000000000000007
100
AcDbArc
 50
180.0
 51
270.0
  0
LINE
  5
57
330
1F
100
AcDbEntity
  8
0
  6
SLD-Solid
 62
     7
370
    15
100
AcDbLine
 10
120.3322076296
 20
-100.4606443799
 30
0.0
 11
120.3322076296
 21
-32.4606443799
 31
0.0
  0
LINE
  5
58
330
1F
100
AcDbEntity
  8
0
  6
SLD-Solid
 62
     7
370
    15
100
AcDbLine
 10
63.7322076296
 20
-32.4606443799
 30
0.0
 11
63.7322076296
 21
-100.4606443799
 31
0.0
  0
LINE
  5
59
330
1F
100
AcDbEntity
  8
0
  6
SLD-Solid
 62
     7
370
    15
100
AcDbLine
 10
657.6822076263
 20
63.5393556201
 30
0.0
 11
657.6822076263
 21
64.0393556201
 31
0.0
  0
LINE
  5
5A
330
1F
100
AcDbEntity
  8
0
  6
SLD-Solid
 62
     7
370
    15
100
AcDbLine
 10
649.3822076263
 20
64.0393556201
 30
0.0
 11
649.3822076263
 21
63.5393556201
 31
0.0
  0
LINE
  5
5B
330
1F
100
AcDbEntity
  8
0
  6
SLD-Solid
 62
     7
370
    15
100
AcDbLine
 10
-10.9177913473
 20
592.6393556201
 30
0.0
 11
-10.9177913473
 21
593.3464624013
 31
0.0
  0
LINE
  5
5C
330
1F
100
AcDbEntity
  8
0
  6
SLD-Solid
 62
     7
370
    15
100
AcDbLine
 10
-32.2177913473
 20
593.3464624013
 30
0.0
 11
-32.2177913473
 21
592.6393556201
 31
0.0
  0
ARC
  5
5D
330
1F
100
AcDbEntity
  8
0
  6
SLD-Solid
 62
     7
370
    15
100
AcDbCircle
 10
125.4322076296
 20
60.0393556201
 30
0.0
 40
1.500000000000057
100
AcDbArc
 50
90.0
 51
180.0
  0
ARC
  5
5E
330
1F
100
AcDbEntity
  8
0
  6
SLD-Solid
 62
     7
370
    15
100
AcDbCircle
 10
58.6322076296
 20
60.0393556201
 30
0.0
 40
1.500000000000057
100
AcDbArc
 50
0.0
 51
90.0
  0
LINE
  5
5F
330
1F
100
AcDbEntity
  8
0
  6
SLD-Solid
 62
     7
370
    15
100
AcDbLine
 10
123.9322076296
 20
-26.4280784342
 30
0.0
 11
123.9322076296
 21
60.0393556201
 31
0.0
  0
LINE
  5
60
330
1F
100
AcDbEntity
  8
0
  6
SLD-Solid
 62
     7
370
    15
100
AcDbLine
 10
60.1322076296
 20
60.0393556201
 30
0.0
 11
60.1322076296
 21
-26.4280784342
 31
0.0
  0
ARC
  5
61
330
1F
100
AcDbEntity
  8
0
  6
SLD-Solid
 62
     7
370
    15
100
AcDbCircle
 10
119.2322076296
 20
-26.4280784342
 30
0.0
 40
4.700000000000045
100
AcDbArc
 50
350.5402980318
 51
0.0
  0
ARC
  5
62
330
1F
100
AcDbEntity
  8
0
  6
SLD-Solid
 62
     7
370
    15
100
AcDbCircle
 10
64.8322076296
 20
-26.4280784342
 30
0.0
 40
4.700000000000038
100
AcDbArc
 50
180.0
 51
189.4597019682
  0
LINE
  5
63
330
1F
100
AcDbEntity
  8
0
  6
SLD-Solid
 62
     7
370
    15
100
AcDbLine
 10
60.1961208566
 20
-27.2005416587
 30
0.0
 11
61.0725574092
 21
-32.4606443799
 31
0.0
  0
LINE
  5
64
330
1F
100
AcDbEntity
  8
0
  6
SLD-Solid
 62
     7
370
    15
100
AcDbLine
 10
122.9918578499
 20
-32.4606443799
 30
0.0
 11
123.8682944026
 21
-27.2005416587
 31
0.0
  0
LINE
  5
65
330
1F
100
AcDbEntity
  8
0
  6
SLD-Solid
 62
     7
370
    15
100
AcDbLine
 10
20.7322086528
 20
697.6393556201
 30
0.0
 11
19.9322086528
 21
697.6393556201
 31
0.0
  0
LINE
  5
66
330
1F
100
AcDbEntity
  8
0
  6
SLD-Solid
 62
     7
370
    15
100
AcDbLine
 10
19.9322086528
 20
694.0393556201
 30
0.0
 11
20.7322086528
 21
694.0393556201
 31
0.0
  0
LINE
  5
67
330
1F
100
AcDbEntity
  8
0
  6
SLD-Solid
 62
     7
370
    15
100
AcDbLine
 10
20.7322086528
 20
708.5393556201
 30
0.0
 11
19.9322086528
 21
708.5393556201
 31
0.0
  0
LINE
  5
68
330
1F
100
AcDbEntity
  8
0
  6
SLD-Solid
 62
     7
370
    15
100
AcDbLine
 10
19.9322086528
 20
683.1393556201
 30
0.0
 11
20.7322086528
 21
683.1393556201
 31
0.0
  0
LINE
  5
69
330
1F
100
AcDbEntity
  8
0
  6
SLD-Solid
 62
     7
370
    15
100
AcDbLine
 10
19.9322086528
 20
494.8393556201
 30
0.0
 11
20.7322086528
 21
494.8393556201
 31
0.0
  0
LINE
  5
6A
330
1F
100
AcDbEntity
  8
0
  6
SLD-Solid
 62
     7
370
    15
100
AcDbLine
 10
20.7322086528
 20
508.8393556201
 30
0.0
 11
19.9322086528
 21
508.8393556201
 31
0.0
  0
LINE
  5
6B
330
1F
100
AcDbEntity
  8
0
  6
SLD-Solid
 62
     7
370
    15
100
AcDbLine
 10
20.7322086528
 20
662.1393556201
 30
0.0
 11
19.9322086528
 21
662.1393556201
 31
0.0
  0
LINE
  5
6C
330
1F
100
AcDbEntity
  8
0
  6
SLD-Solid
 62
     7
370
    15
100
AcDbLine
 10
19.9322086528
 20
657.5393556201
 30
0.0
 11
20.7322086528
 21
657.5393556201
 31
0.0
  0
LINE
  5
6D
330
1F
100
AcDbEntity
  8
0
  6
SLD-Solid
 62
     7
370
    15
100
AcDbLine
 10
20.7322086528
 20
666.5393556201
 30
0.0
 11
19.9322086528
 21
666.5393556201
 31
0.0
  0
LINE
  5
6E
330
1F
100
AcDbEntity
  8
0
  6
SLD-Solid
 62
     7
370
    15
100
AcDbLine
 10
19.9322086528
 20
641.1393556201
 30
0.0
 11
20.7322086528
 21
641.1393556201
 31
0.0
  0
LINE
  5
6F
330
1F
100
AcDbEntity
  8
0
  6
SLD-Solid
 62
     7
370
    15
100
AcDbLine
 10
20.7322086528
 20
746.5393556201
 30
0.0
 11
19.9322086528
 21
746.5393556201
 31
0.0
  0
LINE
  5
70
330
1F
100
AcDbEntity
  8
0
  6
SLD-Solid
 62
     7
370
    15
100
AcDbLine
 10
19.9322086528
 20
721.1393556201
 30
0.0
 11
20.7322086528
 21
721.1393556201
 31
0.0
  0
LINE
  5
71
330
1F
100
AcDbEntity
  8
0
  6
SLD-Solid
 62
     7
370
    15
100
AcDbLine
 10
20.7322086528
 20
718.1393556201
 30
0.0
 11
19.9322086528
 21
718.1393556201
 31
0.0
  0
LINE
  5
72
330
1F
100
AcDbEntity
  8
0
  6
SLD-Solid
 62
     7
370
    15
100
AcDbLine
 10
19.9322086528
 20
713.5393556201
 30
0.0
 11
20.7322086528
 21
713.5393556201
 31
0.0
  0
LINE
  5
73
330
1F
100
AcDbEntity
  8
0
  6
SLD-Solid
 62
     7
370
    15
100
AcDbLine
 10
19.9322086528
 20
562.8393556201
 30
0.0
 11
20.7322086528
 21
562.8393556201
 31
0.0
  0
LINE
  5
74
330
1F
100
AcDbEntity
  8
0
  6
SLD-Solid
 62
     7
370
    15
100
AcDbLine
 10
123.6822076263
 20
63.5393556201
 30
0.0
 11
123.6822076263
 21
64.0393556201
 31
0.0
  0
LINE
  5
75
330
1F
100
AcDbEntity
  8
0
  6
SLD-Solid
 62
     7
370
    15
100
AcDbLine
 10
115.3822076263
 20
64.0393556201
 30
0.0
 11
115.3822076263
 21
63.5393556201
 31
0.0
  0
ARC
  5
76
330
1F
100
AcDbEntity
  8
0
  6
SLD-Solid
 62
     7
370
    15
100
AcDbCircle
 10
707.5322076263
 20
-104.4606443799
 30
0.0
 40
2.0
100
AcDbArc
 50
270.0
 51
0.0
  0
ARC
  5
77
330
1F
100
AcDbEntity
  8
0
  6
SLD-Solid
 62
     7
370
    15
100
AcDbCircle
 10
654.5322076263
 20
-104.4606443799
 30
0.0
 40
2.0
100
AcDbArc
 50
180.0
 51
270.0
  0
LINE
  5
78
330
1F
100
AcDbEntity
  8
0
  6
SLD-Solid
 62
     7
370
    15
100
AcDbLine
 10
709.5322076263
 20
-104.4606443799
 30
0.0
 11
709.5322076263
 21
-100.4606443799
 31
0.0
  0
LINE
  5
79
330
1F
100
AcDbEntity
  8
0
  6
SLD-Solid
 62
     7
370
    15
100
AcDbLine
 10
652.5322076263
 20
-100.4606443799
 30
0.0
 11
652.5322076263
 21
-104.4606443799
 31
0.0
  0
LINE
  5
7A
330
1F
100
AcDbEntity
  8
0
  6
SLD-Solid
 62
     7
370
    15
100
AcDbLine
 10
19.1322086528
 20
654.4893556201
 30
0.0
 11
19.9322086528
 21
654.4893556201
 31
0.0
  0
LINE
  5
7B
330
1F
100
AcDbEntity
  8
0
  6
SLD-Solid
 62
     7
370
    15
100
AcDbLine
 10
712.6822076263
 20
63.5393556201
 30
0.0
 11
712.6822076263
 21
64.0393556201
 31
0.0
  0
LINE
  5
7C
330
1F
100
AcDbEntity
  8
0
  6
SLD-Solid
 62
     7
370
    15
100
AcDbLine
 10
704.3822076263
 20
64.0393556201
 30
0.0
 11
704.3822076263
 21
63.5393556201
 31
0.0
  0
LINE
  5
7D
330
1F
100
AcDbEntity
  8
0
  6
SLD-Solid
 62
     7
370
    15
100
AcDbLine
 10
709.3322076263
 20
-100.4606443799
 30
0.0
 11
709.3322076263
 21
-32.4606443799
 31
0.0
  0
LINE
  5
7E
330
1F
100
AcDbEntity
  8
0
  6
SLD-Solid
 62
     7
370
    15
100
AcDbLine
 10
652.7322076263
 20
-32.4606443799
 30
0.0
 11
652.7322076263
 21
-100.4606443799
 31
0.0
  0
LINE
  5
7F
330
1F
100
AcDbEntity
  8
0
  6
SLD-Solid
 62
     7
370
    15
100
AcDbLine
 10
12.6322086527
 20
683.3393556201
 30
0.0
 11
19.9322086528
 21
683.3393556201
 31
0.0
  0
LINE
  5
80
330
1F
100
AcDbEntity
  8
0
  6
SLD-Solid
 62
     7
370
    15
100
AcDbLine
 10
20.7322086528
 20
683.3393556201
 30
0.0
 11
21.1822086528
 21
683.3393556201
 31
0.0
  0
LINE
  5
81
330
1F
100
AcDbEntity
  8
0
  6
SLD-Solid
 62
     7
370
    15
100
AcDbLine
 10
21.1822086528
 20
708.3393556201
 30
0.0
 11
20.7322086528
 21
708.3393556201
 31
0.0
  0
LINE
  5
82
330
1F
100
AcDbEntity
  8
0
  6
SLD-Solid
 62
     7
370
    15
100
AcDbLine
 10
19.9322086528
 20
708.3393556201
 30
0.0
 11
12.6322086527
 21
708.3393556201
 31
0.0
  0
ARC
  5
83
330
1F
100
AcDbEntity
  8
0
  6
SLD-Solid
 62
     7
370
    15
100
AcDbCircle
 10
714.4322076263
 20
60.0393556201
 30
0.0
 40
1.5
100
AcDbArc
 50
90.0
 51
180.0
  0
ARC
  5
84
330
1F
100
AcDbEntity
  8
0
  6
SLD-Solid
 62
     7
370
    15
100
AcDbCircle
 10
647.6322076263
 20
60.0393556201
 30
0.0
 40
1.500000000000114
100
AcDbArc
 50
0.0
 51
90.0
  0
ARC
  5
85
330
1F
100
AcDbEntity
  8
0
  6
SLD-Solid
 62
     7
370
    15
100
AcDbCircle
 10
708.2322076263
 20
-26.4280784342
 30
0.0
 40
4.700000000000004
100
AcDbArc
 50
350.5402980318
 51
0.0
  0
ARC
  5
86
330
1F
100
AcDbEntity
  8
0
  6
SLD-Solid
 62
     7
370
    15
100
AcDbCircle
 10
653.8322076263
 20
-26.4280784342
 30
0.0
 40
4.700000000000045
100
AcDbArc
 50
180.0
 51
189.4597019682
  0
LINE
  5
87
330
1F
100
AcDbEntity
  8
0
  6
SLD-Solid
 62
     7
370
    15
100
AcDbLine
 10
712.9322076263
 20
-26.4280784342
 30
0.0
 11
712.9322076263
 21
60.0393556201
 31
0.0
  0
LINE
  5
88
330
1F
100
AcDbEntity
  8
0
  6
SLD-Solid
 62
     7
370
    15
100
AcDbLine
 10
649.1322076263
 20
60.0393556201
 30
0.0
 11
649.1322076263
 21
-26.4280784342
 31
0.0
  0
LINE
  5
89
330
1F
100
AcDbEntity
  8
0
  6
SLD-Solid
 62
     7
370
    15
100
AcDbLine
 10
649.1961208533
 20
-27.2005416587
 30
0.0
 11
650.0725574059
 21
-32.4606443799
 31
0.0
  0
LINE
  5
8A
330
1F
100
AcDbEntity
  8
0
  6
SLD-Solid
 62
     7
370
    15
100
AcDbLine
 10
711.9918578466
 20
-32.4606443799
 30
0.0
 11
712.8682943993
 21
-27.2005416587
 31
0.0
  0
LINE
  5
8B
330
1F
100
AcDbEntity
  8
0
  6
SLD-Solid
 62
     7
370
    15
100
AcDbLine
 10
68.6822076263
 20
63.5393556201
 30
0.0
 11
68.6822076263
 21
64.0393556201
 31
0.0
  0
LINE
  5
8C
330
1F
100
AcDbEntity
  8
0
  6
SLD-Solid
 62
     7
370
    15
100
AcDbLine
 10
60.3822076263
 20
64.0393556201
 30
0.0
 11
60.3822076263
 21
63.5393556201
 31
0.0
  0
LINE
  5
8D
330
1F
100
AcDbEntity
  8
0
  6
SLD-Solid
 62
     7
370
    15
100
AcDbLine
 10
762.5308730393
 20
680.868374441
 30
0.0
 11
764.2299177613
 21
682.1113884262
 31
0.0
  0
LINE
  5
8E
330
1F
100
AcDbEntity
  8
0
  6
SLD-Solid
 62
     7
370
    15
100
AcDbLine
 10
759.8153892702
 20
695.6979100875
 30
0.0
 11
757.710207927
 21
695.7048560952
 31
0.0
  0
LINE
  5
8F
330
1F
100
AcDbEntity
  8
0
  6
SLD-Solid
 62
     7
370
    15
100
AcDbLine
 10
759.3132593967
 20
719.3267037909
 30
0.0
 11
756.2110564146
 21
719.5328285371
 31
0.0
  0
SPLINE
  5
90
330
1F
100
AcDbEntity
  8
0
  6
SLD-Solid
 62
   142
420
    32960
370
     0
100
AcDbSpline
210
0.0
220
0.0
230
1.0
 70
     8
 71
     3
 72
    22
 73
    18
 74
     0
 42
0.00000001
 43
0.00000001
 40
0.0
 40
0.0
 40
0.0
 40
0.0
 40
0.125
 40
0.125
 40
0.25
 40
0.25
 40
0.375
 40
0.375
 40
0.5
 40
0.5
 40
0.625
 40
0.625
 40
0.75
 40
0.75
 40
0.875
 40
0.875
 40
1.0
 40
1.0
 40
1.0
 40
1.0
 10
19.13220865278631
 20
482.3464266879153
 30
0.0
 10
19.13220865278642
 20
482.3986774840449
 30
0.0
 10
19.14550720111297
 20
482.4501208786572
 30
0.0
 10
19.1975296285275
 20
482.5531466235863
 30
0.0
 10
19.23666131060686
 20
482.6051148806068
 30
0.0
 10
19.33979550924747
 20
482.7091480869753
 30
0.0
 10
19.40287905466731
 20
482.7605020396696
 30
0.0
 10
19.55116397003287
 20
482.8636105273353
 30
0.0
 10
19.63742428410809
 20
482.9159058064309
 30
0.0
 10
19.82728229656882
 20
483.0195637308695
 30
0.0
 10
19.9305046652144
 20
483.0708695730535
 30
0.0
 10
20.15284632297176
 20
483.1741458891459
 30
0.0
 10
20.27315120278361
 20
483.2265751565528
 30
0.0
 10
20.52052701281648
 20
483.329945841202
 30
0.0
 10
20.64827381194034
 20
483.3812436083386
 30
0.0
 10
20.91128790858654
 20
483.4847730725234
 30
0.0
 10
21.04683929626849
 20
483.5371048225608
 30
0.0
 10
21.18220865278653
 20
483.5893556201034
 30
0.0
  0
LINE
  5
91
330
1F
100
AcDbEntity
  8
0
  6
SLD-Solid
 62
   142
420
    32960
370
     0
100
AcDbLine
 10
21.1822086528
 20
743.0893556201
 30
0.0
 11
20.7322086528
 21
743.2668946287
 31
0.0
  0
SPLINE
  5
92
330
1F
100
AcDbEntity
  8
0
  6
SLD-Solid
 62
   142
420
    32960
370
     0
100
AcDbSpline
210
0.0
220
0.0
230
1.0
 70
     8
 71
     3
 72
    11
 73
     7
 74
     0
 42
0.00000001
 43
0.00000001
 40
0.0
 40
0.0
 40
0.0
 40
0.0
 40
0.0674517364689123
 40
0.4653965447068761
 40
0.8633410893278096
 40
1.0
 40
1.0
 40
1.0
 40
1.0
 10
19.93220865277756
 20
743.6132903055878
 30
0.0
 10
19.89591784670208
 20
743.6294658537818
 30
0.0
 10
19.6455222803853
 20
743.7410722353561
 30
0.0
 10
19.33967230573508
 20
743.9479591372423
 30
0.0
 10
19.1473629721054
 20
744.1720810368249
 30
0.0
 10
19.13529384402468
 20
744.2996695286889
 30
0.0
 10
19.13220865278631
 20
744.3322845522915
 30
0.0
  0
LINE
  5
93
330
1F
100
AcDbEntity
  8
0
  6
SLD-Solid
 62
   142
420
    32960
370
     0
100
AcDbLine
 10
725.925137585
 20
481.5393556201
 30
0.0
 11
725.925137585
 21
482.3393556201
 31
0.0
  0
LINE
  5
94
330
1F
100
AcDbEntity
  8
0
  6
SLD-Solid
 62
   142
420
    32960
370
     0
100
AcDbLine
 10
731.0322076263
 20
65.5393556201
 30
0.0
 11
731.0322076263
 21
69.8393556201
 31
0.0
  0
LINE
  5
95
330
1F
100
AcDbEntity
  8
0
  6
SLD-Solid
 62
   142
420
    32960
370
     0
100
AcDbLine
 10
729.5322076263
 20
65.5393556201
 30
0.0
 11
731.0322076263
 21
65.5393556201
 31
0.0
  0
ARC
  5
96
330
1F
100
AcDbEntity
  8
0
  6
SLD-Solid
 62
   142
420
    32960
370
     0
100
AcDbCircle
 10
728.2822076263
 20
66.7893556201
 30
0.0
 40
2.74999999999985
100
AcDbArc
 50
296.8704145403
 51
0.0
  0
LINE
  5
97
330
1F
100
AcDbEntity
  8
0
  6
SLD-Solid
 62
   142
420
    32960
370
     0
100
AcDbLine
 10
729.5322076263
 20
69.8393556201
 30
0.0
 11
729.5322076263
 21
65.5393556201
 31
0.0
  0
LINE
  5
98
330
1F
100
AcDbEntity
  8
0
  6
SLD-Solid
 62
     7
370
    15
100
AcDbLine
 10
623.5322076263
 20
477.8393556201
 30
0.0
 11
639.2322076263
 21
477.8393556201
 31
0.0
  0
LINE
  5
99
330
1F
100
AcDbEntity
  8
0
  6
SLD-Solid
 62
   142
420
    32960
370
     0
100
AcDbLine
 10
639.2322076263
 20
477.8393556201
 30
0.0
 11
641.7322076263
 21
477.8393556201
 31
0.0
  0
LINE
  5
9A
330
1F
100
AcDbEntity
  8
0
  6
SLD-Solid
 62
   142
420
    32960
370
     0
100
AcDbLine
 10
641.7322076263
 20
477.8393556201
 30
0.0
 11
642.7322076263
 21
477.8393556201
 31
0.0
  0
LINE
  5
9B
330
1F
100
AcDbEntity
  8
0
  6
SLD-Solid
 62
   142
420
    32960
370
     0
100
AcDbLine
 10
642.7322076263
 20
477.8393556201
 30
0.0
 11
645.2322076263
 21
477.8393556201
 31
0.0
  0
LINE
  5
9C
330
1F
100
AcDbEntity
  8
0
  6
SLD-Solid
 62
     7
370
    15
100
AcDbLine
 10
645.2322076263
 20
477.8393556201
 30
0.0
 11
661.1179940639
 21
477.8393556201
 31
0.0
  0
LINE
  5
9D
330
1F
100
AcDbEntity
  8
0
  6
SLD-Solid
 62
     7
370
    15
100
AcDbLine
 10
700.9464211886
 20
477.8393556201
 30
0.0
 11
716.8322076263
 21
477.8393556201
 31
0.0
  0
LINE
  5
9E
330
1F
100
AcDbEntity
  8
0
  6
SLD-Solid
 62
   142
420
    32960
370
     0
100
AcDbLine
 10
716.8322076263
 20
477.8393556201
 30
0.0
 11
719.3322076263
 21
477.8393556201
 31
0.0
  0
LINE
  5
9F
330
1F
100
AcDbEntity
  8
0
  6
SLD-Solid
 62
   142
420
    32960
370
     0
100
AcDbLine
 10
719.3322076263
 20
477.8393556201
 30
0.0
 11
720.3322076263
 21
477.8393556201
 31
0.0
  0
LINE
  5
A0
330
1F
100
AcDbEntity
  8
0
  6
SLD-Solid
 62
   142
420
    32960
370
     0
100
AcDbLine
 10
720.3322076263
 20
477.8393556201
 30
0.0
 11
722.8322076263
 21
477.8393556201
 31
0.0
  0
LINE
  5
A1
330
1F
100
AcDbEntity
  8
0
  6
SLD-Solid
 62
     7
370
    15
100
AcDbLine
 10
722.8322076263
 20
477.8393556201
 30
0.0
 11
738.5322076263
 21
477.8393556201
 31
0.0
  0
LINE
  5
A2
330
1F
100
AcDbEntity
  8
0
  6
SLD-Solid
 62
     7
370
    15
100
AcDbLine
 10
738.5322076263
 20
477.8393556201
 30
0.0
 11
741.0322076263
 21
477.8393556201
 31
0.0
  0
LINE
  5
A3
330
1F
100
AcDbEntity
  8
0
  6
SLD-Solid
 62
   142
420
    32960
370
     0
100
AcDbLine
 10
621.0322076263
 20
477.8393556201
 30
0.0
 11
623.5322076263
 21
477.8393556201
 31
0.0
  0
LINE
  5
A4
330
1F
100
AcDbEntity
  8
0
  6
SLD-Solid
 62
   142
420
    32960
370
     0
100
AcDbLine
 10
639.2322076263
 20
477.8393556201
 30
0.0
 11
639.2322076263
 21
480.3393556201
 31
0.0
  0
LINE
  5
A5
330
1F
100
AcDbEntity
  8
0
  6
SLD-Solid
 62
   142
420
    32960
370
     0
100
AcDbLine
 10
623.5322076263
 20
477.8393556201
 30
0.0
 11
623.5322076263
 21
480.3393556201
 31
0.0
  0
LINE
  5
A6
330
1F
100
AcDbEntity
  8
0
  6
SLD-Solid
 62
   142
420
    32960
370
     0
100
AcDbLine
 10
623.5322076263
 20
480.3393556201
 30
0.0
 11
639.2322076263
 21
480.3393556201
 31
0.0
  0
LINE
  5
A7
330
1F
100
AcDbEntity
  8
0
  6
SLD-Solid
 62
   142
420
    32960
370
     0
100
AcDbLine
 10
645.2322076263
 20
480.3393556201
 30
0.0
 11
716.8322076263
 21
480.3393556201
 31
0.0
  0
LINE
  5
A8
330
1F
100
AcDbEntity
  8
0
  6
SLD-Solid
 62
   142
420
    32960
370
     0
100
AcDbLine
 10
645.2322076263
 20
477.8393556201
 30
0.0
 11
645.2322076263
 21
480.3393556201
 31
0.0
  0
LINE
  5
A9
330
1F
100
AcDbEntity
  8
0
  6
SLD-Solid
 62
   142
420
    32960
370
     0
100
AcDbLine
 10
716.8322076263
 20
477.8393556201
 30
0.0
 11
716.8322076263
 21
480.3393556201
 31
0.0
  0
LINE
  5
AA
330
1F
100
AcDbEntity
  8
0
  6
SLD-Solid
 62
   142
420
    32960
370
     0
100
AcDbLine
 10
722.8322076263
 20
480.3393556201
 30
0.0
 11
738.5322076263
 21
480.3393556201
 31
0.0
  0
LINE
  5
AB
330
1F
100
AcDbEntity
  8
0
  6
SLD-Solid
 62
   142
420
    32960
370
     0
100
AcDbLine
 10
722.8322076263
 20
477.8393556201
 30
0.0
 11
722.8322076263
 21
480.3393556201
 31
0.0
  0
LINE
  5
AC
330
1F
100
AcDbEntity
  8
0
  6
SLD-Solid
 62
     7
370
    15
100
AcDbLine
 10
741.0322076263
 20
477.8393556201
 30
0.0
 11
741.0322076263
 21
480.3393556201
 31
0.0
  0
LINE
  5
AD
330
1F
100
AcDbEntity
  8
0
  6
SLD-Solid
 62
   142
420
    32960
370
     0
100
AcDbLine
 10
738.5322076263
 20
480.3393556201
 30
0.0
 11
741.0322076263
 21
480.3393556201
 31
0.0
  0
LINE
  5
AE
330
1F
100
AcDbEntity
  8
0
  6
SLD-Solid
 62
   142
420
    32960
370
     0
100
AcDbLine
 10
621.0322076263
 20
477.8393556201
 30
0.0
 11
621.0322076263
 21
480.3393556201
 31
0.0
  0
LINE
  5
AF
330
1F
100
AcDbEntity
  8
0
  6
SLD-Solid
 62
   142
420
    32960
370
     0
100
AcDbLine
 10
641.3322076263
 20
477.8393556201
 30
0.0
 11
641.3322076263
 21
480.3393556201
 31
0.0
  0
LINE
  5
B0
330
1F
100
AcDbEntity
  8
0
  6
SLD-Solid
 62
   142
420
    32960
370
     0
100
AcDbLine
 10
718.9322076263
 20
477.8393556201
 30
0.0
 11
718.9322076263
 21
480.3393556201
 31
0.0
  0
LINE
  5
B1
330
1F
100
AcDbEntity
  8
0
  6
SLD-Solid
 62
   142
420
    32960
370
     0
100
AcDbLine
 10
720.7322076263
 20
480.3393556201
 30
0.0
 11
718.9322076263
 21
480.3393556201
 31
0.0
  0
LINE
  5
B2
330
1F
100
AcDbEntity
  8
0
  6
SLD-Solid
 62
   142
420
    32960
370
     0
100
AcDbLine
 10
720.7322076263
 20
477.8393556201
 30
0.0
 11
720.7322076263
 21
480.3393556201
 31
0.0
  0
LINE
  5
B3
330
1F
100
AcDbEntity
  8
0
  6
SLD-Solid
 62
   142
420
    32960
370
     0
100
AcDbLine
 10
643.1322076263
 20
480.3393556201
 30
0.0
 11
641.3322076263
 21
480.3393556201
 31
0.0
  0
LINE
  5
B4
330
1F
100
AcDbEntity
  8
0
  6
SLD-Solid
 62
   142
420
    32960
370
     0
100
AcDbLine
 10
643.1322076263
 20
477.8393556201
 30
0.0
 11
643.1322076263
 21
480.3393556201
 31
0.0
  0
LINE
  5
B5
330
1F
100
AcDbEntity
  8
0
  6
SLD-Solid
 62
   142
420
    32960
370
     0
100
AcDbLine
 10
641.3322076263
 20
480.3393556201
 30
0.0
 11
639.2322076263
 21
480.3393556201
 31
0.0
  0
LINE
  5
B6
330
1F
100
AcDbEntity
  8
0
  6
SLD-Solid
 62
   142
420
    32960
370
     0
100
AcDbLine
 10
759.8336761239
 20
708.7096184825
 30
0.0
 11
759.6738173303
 21
709.2004996953
 31
0.0
  0
SPLINE
  5
B7
330
1F
100
AcDbEntity
  8
0
  6
SLD-Solid
 62
   142
420
    32960
370
     0
100
AcDbSpline
210
0.0
220
0.0
230
1.0
 70
     8
 71
     3
 72
     8
 73
     4
 74
     0
 42
0.00000001
 43
0.00000001
 40
0.0
 40
0.0
 40
0.0
 40
0.0
 40
1.0
 40
1.0
 40
1.0
 40
1.0
 10
763.3361235576348
 20
708.9301555779729
 30
0.0
 10
762.168706502788
 20
708.8564418613596
 30
0.0
 10
761.0012240085899
 20
708.7829295463599
 30
0.0
 10
759.833676123947
 20
708.7096184824564
 30
0.0
  0
LINE
  5
B8
330
1F
100
AcDbEntity
  8
0
  6
SLD-Solid
 62
   142
420
    32960
370
     0
100
AcDbLine
 10
761.1524957506
 20
708.1514990639
 30
0.0
 11
763.5318868661
 21
708.3008874452
 31
0.0
  0
LINE
  5
B9
330
1F
100
AcDbEntity
  8
0
  6
SLD-Solid
 62
     7
370
    15
100
AcDbLine
 10
9.5322086528
 20
752.6393556201
 30
0.0
 11
9.4776324741
 21
752.6393556201
 31
0.0
  0
LINE
  5
BA
330
1F
100
AcDbEntity
  8
0
  6
SLD-Solid
 62
   142
420
    32960
370
     0
100
AcDbLine
 10
9.5322086528
 20
752.6393556201
 30
0.0
 11
9.5322086528
 21
750.5893556201
 31
0.0
  0
SPLINE
  5
BB
330
1F
100
AcDbEntity
  8
0
  6
SLD-Solid
 62
   142
420
    32960
370
     0
100
AcDbSpline
210
0.0
220
0.0
230
1.0
 70
     8
 71
     3
 72
    14
 73
    10
 74
     0
 42
0.00000001
 43
0.00000001
 40
0.0
 40
0.0
 40
0.0
 40
0.0
 40
0.25
 40
0.25
 40
0.5
 40
0.5
 40
0.75
 40
0.75
 40
1.0
 40
1.0
 40
1.0
 40
1.0
 10
-53.41072027941362
 20
750.5893556201173
 30
0.0
 10
-53.41130953506457
 20
750.8576999926113
 30
0.0
 10
-53.41189879071562
 20
751.1259387830539
 30
0.0
 10
-53.41307730201738
 20
751.6217745298775
 30
0.0
 10
-53.41366655766866
 20
751.849176396066
 30
0.0
 10
-53.41484506897032
 20
752.2286726470332
 30
0.0
 10
-53.41543432462159
 20
752.3806177162435
 30
0.0
 10
-53.41661283592347
 20
752.5859996072872
 30
0.0
 10
-53.41720209157441
 20
752.6393556201172
 30
0.0
 10
-53.41779134722546
 20
752.6393556201172
 30
0.0
  0
LINE
  5
BC
330
1F
100
AcDbEntity
  8
0
  6
SLD-Solid
 62
     7
370
    15
100
AcDbLine
 10
-53.4177913472
 20
752.6393556201
 30
0.0
 11
9.4776324741
 21
752.6393556201
 31
0.0
  0
LINE
  5
BD
330
1F
100
AcDbEntity
  8
0
  6
SLD-Solid
 62
   142
420
    32960
370
     0
100
AcDbLine
 10
-53.4177913472
 20
750.5822845523
 30
0.0
 11
-43.4677913472
 21
740.6322845523
 31
0.0
  0
LINE
  5
BE
330
1F
100
AcDbEntity
  8
0
  6
SLD-Solid
 62
   142
420
    32960
370
     0
100
AcDbLine
 10
-53.4177913472
 20
593.4393556201
 30
0.0
 11
-43.4677913472
 21
593.4393556201
 31
0.0
  0
LINE
  5
BF
330
1F
100
AcDbEntity
  8
0
  6
SLD-Solid
 62
   142
420
    32960
370
     0
100
AcDbLine
 10
-43.4677913472
 20
593.4393556201
 30
0.0
 11
-43.4677913472
 21
740.6322845523
 31
0.0
  0
LINE
  5
C0
330
1F
100
AcDbEntity
  8
0
  6
SLD-Solid
 62
     7
370
    15
100
AcDbLine
 10
-55.4677913472
 20
593.4393556201
 30
0.0
 11
-55.4677913472
 21
750.5893556201
 31
0.0
  0
LINE
  5
C1
330
1F
100
AcDbEntity
  8
0
  6
SLD-Solid
 62
   142
420
    32960
370
     0
100
AcDbLine
 10
-53.4177913472
 20
593.4393556201
 30
0.0
 11
-55.4677913472
 21
593.4393556201
 31
0.0
  0
SPLINE
  5
C2
330
1F
100
AcDbEntity
  8
0
  6
SLD-Solid
 62
   142
420
    32960
370
     0
100
AcDbSpline
210
0.0
220
0.0
230
1.0
 70
     8
 71
     3
 72
    14
 73
    10
 74
     0
 42
0.00000001
 43
0.00000001
 40
0.0
 40
0.0
 40
0.0
 40
0.0
 40
0.25
 40
0.25
 40
0.5
 40
0.5
 40
0.75
 40
0.75
 40
1.0
 40
1.0
 40
1.0
 40
1.0
 10
-55.46779134722535
 20
750.5893556201172
 30
0.0
 10
-55.46779134722524
 20
750.588766364466
 30
0.0
 10
-55.41443533439517
 20
750.5881771088153
 30
0.0
 10
-55.20905344335137
 20
750.5869985975133
 30
0.0
 10
-55.05710837414157
 20
750.5864093418622
 30
0.0
 10
-54.6776121231739
 20
750.58523083056
 30
0.0
 10
-54.45021025698582
 20
750.5846415749093
 30
0.0
 10
-53.95437451016194
 20
750.5834630636075
 30
0.0
 10
-53.68613571971959
 20
750.5828738079562
 30
0.0
 10
-53.41779134722535
 20
750.5822845523053
 30
0.0
  0
LINE
  5
C3
330
1F
100
AcDbEntity
  8
0
  6
SLD-Solid
 62
     7
370
    15
100
AcDbLine
 10
-43.4607202794
 20
740.6393556201
 30
0.0
 11
9.5322086528
 21
740.6393556201
 31
0.0
  0
LINE
  5
C4
330
1F
100
AcDbEntity
  8
0
  6
SLD-Solid
 62
   142
420
    32960
370
     0
100
AcDbLine
 10
-43.4607202794
 20
740.6393556201
 30
0.0
 11
-53.4107202794
 21
750.5893556201
 31
0.0
  0
LINE
  5
C5
330
1F
100
AcDbEntity
  8
0
  6
SLD-Solid
 62
   142
420
    32960
370
     0
100
AcDbLine
 10
9.5322086528
 20
740.6393556201
 30
0.0
 11
9.5322086528
 21
750.5893556201
 31
0.0
  0
ARC
  5
C6
330
1F
100
AcDbEntity
  8
0
  6
SLD-Solid
 62
   142
420
    32960
370
     0
100
AcDbCircle
 10
-53.4177913472
 20
750.5893556201
 30
0.0
 40
2.049999999999997
100
AcDbArc
 50
90.0
 51
180.0
  0
ARC
  5
C7
330
1F
100
AcDbEntity
  8
0
  6
SLD-Solid
 62
   142
420
    32960
370
     0
100
AcDbCircle
 10
-53.4177913472
 20
750.5893556201
 30
0.0
 40
1.25
100
AcDbArc
 50
90.0
 51
180.0
  0
SPLINE
  5
C8
330
1F
100
AcDbEntity
  8
0
  6
SLD-Solid
 62
   142
420
    32960
370
     0
100
AcDbSpline
210
0.0
220
0.0
230
1.0
 70
     8
 71
     3
 72
     8
 73
     4
 74
     0
 42
0.00000001
 43
0.00000001
 40
0.0
 40
0.0
 40
0.0
 40
0.0
 40
1.0
 40
1.0
 40
1.0
 40
1.0
 10
9.532199175914746
 20
752.6386292658433
 30
0.0
 10
9.57362552621721
 20
752.6375261924165
 30
0.0
 10
9.615018408761443
 20
752.6351665752762
 30
0.0
 10
9.656301746771678
 20
752.6315547512078
 30
0.0
  0
LINE
  5
C9
330
1F
100
AcDbEntity
  8
0
  6
SLD-Solid
 62
   142
420
    32960
370
     0
100
AcDbLine
 10
14.5829067374
 20
752.2005326649
 30
0.0
 11
9.6563017468
 21
752.6315547512
 31
0.0
  0
LINE
  5
CA
330
1F
100
AcDbEntity
  8
0
  6
SLD-Solid
 62
     7
370
    15
100
AcDbLine
 10
-52.3177913473
 20
592.6393556201
 30
0.0
 11
-53.4177913472
 21
592.6393556201
 31
0.0
  0
LINE
  5
CB
330
1F
100
AcDbEntity
  8
0
  6
SLD-Solid
 62
   142
420
    32960
370
     0
100
AcDbLine
 10
-53.4177913472
 20
593.3464624013
 30
0.0
 11
-53.4177913472
 21
592.6393556201
 31
0.0
  0
LINE
  5
CC
330
1F
100
AcDbEntity
  8
0
  6
SLD-Solid
 62
   142
420
    32960
370
     0
100
AcDbLine
 10
-43.4677913472
 20
592.6393556201
 30
0.0
 11
-43.4677913472
 21
593.3464624013
 31
0.0
  0
ARC
  5
CD
330
1F
100
AcDbEntity
  8
0
  6
SLD-Solid
 62
   142
420
    32960
370
     0
100
AcDbCircle
 10
-53.4177913472
 20
594.6893556201
 30
0.0
 40
2.049999999999962
100
AcDbArc
 50
217.5718693197
 51
270.0
  0
LINE
  5
CE
330
1F
100
AcDbEntity
  8
0
  6
SLD-Solid
 62
     7
370
    15
100
AcDbLine
 10
99.8822086528
 20
763.8393556201
 30
0.0
 11
122.0822086528
 21
763.8393556201
 31
0.0
  0
LINE
  5
CF
330
1F
100
AcDbEntity
  8
0
  6
SLD-Solid
 62
   142
420
    32960
370
     0
100
AcDbLine
 10
122.0822086528
 20
763.0393556201
 30
0.0
 11
122.0822086528
 21
763.8393556201
 31
0.0
  0
LINE
  5
D0
330
1F
100
AcDbEntity
  8
0
  6
SLD-Solid
 62
     7
370
    15
100
AcDbLine
 10
99.8822086528
 20
763.0393556201
 30
0.0
 11
122.0822086528
 21
763.0393556201
 31
0.0
  0
ARC
  5
D1
330
1F
100
AcDbEntity
  8
0
  6
SLD-Solid
 62
   142
420
    32960
370
     0
100
AcDbCircle
 10
122.0822086528
 20
761.7893556201
 30
0.0
 40
2.050000000000068
100
AcDbArc
 50
0.0
 51
90.0
  0
ARC
  5
D2
330
1F
100
AcDbEntity
  8
0
  6
SLD-Solid
 62
   142
420
    32960
370
     0
100
AcDbCircle
 10
96.5822086528
 20
781.7893556201
 30
0.0
 40
2.049999999999997
100
AcDbArc
 50
0.0
 51
90.0
  0
ARC
  5
D3
330
1F
100
AcDbEntity
  8
0
  6
SLD-Solid
 62
     7
370
    15
100
AcDbCircle
 10
75.3822086528
 20
785.0893556201
 30
0.0
 40
1.25
100
AcDbArc
 50
180.0
 51
270.0
  0
LINE
  5
D4
330
1F
100
AcDbEntity
  8
0
  6
SLD-Solid
 62
     7
370
    15
100
AcDbLine
 10
21.7127876953
 20
833.7989587238
 30
0.0
 11
55.0097400164
 21
824.8770672389
 31
0.0
  0
LINE
  5
D5
330
1F
100
AcDbEntity
  8
0
  6
SLD-Solid
 62
     7
370
    15
100
AcDbLine
 10
21.5057324592
 20
833.0262180627
 30
0.0
 11
54.8026847804
 21
824.1043265779
 31
0.0
  0
ARC
  5
D6
330
1F
100
AcDbEntity
  8
0
  6
SLD-Solid
 62
     7
370
    15
100
AcDbCircle
 10
99.8822086528
 20
765.0893556201
 30
0.0
 40
2.050000000000068
100
AcDbArc
 50
180.0
 51
270.0
  0
LINE
  5
D7
330
1F
100
AcDbEntity
  8
0
  6
SLD-Solid
 62
     7
370
    15
100
AcDbLine
 10
74.1322086528
 20
799.9561809206
 30
0.0
 11
74.1322086528
 21
785.0893556201
 31
0.0
  0
LINE
  5
D8
330
1F
100
AcDbEntity
  8
0
  6
SLD-Solid
 62
   142
420
    32960
370
     0
100
AcDbLine
 10
124.1322086528
 20
761.7893556201
 30
0.0
 11
124.1322086528
 21
753.0393556201
 31
0.0
  0
ARC
  5
D9
330
1F
100
AcDbEntity
  8
0
  6
SLD-Solid
 62
     7
370
    15
100
AcDbCircle
 10
48.3322086528
 20
799.9561809206
 30
0.0
 40
25.00000000000001
100
AcDbArc
 50
0.0
 51
75.0
  0
ARC
  5
DA
330
1F
100
AcDbEntity
  8
0
  6
SLD-Solid
 62
     7
370
    15
100
AcDbCircle
 10
48.3322086528
 20
799.9561809206
 30
0.0
 40
25.80000000000004
100
AcDbArc
 50
0.0
 51
75.0
  0
LINE
  5
DB
330
1F
100
AcDbEntity
  8
0
  6
SLD-Solid
 62
     7
370
    15
100
AcDbLine
 10
98.6322086528
 20
781.7893556201
 30
0.0
 11
98.6322086528
 21
765.0893556201
 31
0.0
  0
ARC
  5
DC
330
1F
100
AcDbEntity
  8
0
  6
SLD-Solid
 62
     7
370
    15
100
AcDbCircle
 10
99.8822086528
 20
765.0893556201
 30
0.0
 40
1.250000000000085
100
AcDbArc
 50
180.0
 51
270.0
  0
ARC
  5
DD
330
1F
100
AcDbEntity
  8
0
  6
SLD-Solid
 62
   142
420
    32960
370
     0
100
AcDbCircle
 10
122.0822086528
 20
761.7893556201
 30
0.0
 40
1.25
100
AcDbArc
 50
0.0
 51
90.0
  0
ARC
  5
DE
330
1F
100
AcDbEntity
  8
0
  6
SLD-Solid
 62
     7
370
    15
100
AcDbCircle
 10
21.1822086528
 20
831.8188107799
 30
0.0
 40
2.049999999999997
100
AcDbArc
 50
75.0
 51
180.0
  0
LINE
  5
DF
330
1F
100
AcDbEntity
  8
0
  6
SLD-Solid
 62
   142
420
    32960
370
     0
100
AcDbLine
 10
123.3322086528
 20
753.0393556201
 30
0.0
 11
124.1322086528
 21
753.0393556201
 31
0.0
  0
ARC
  5
E0
330
1F
100
AcDbEntity
  8
0
  6
SLD-Solid
 62
   142
420
    32960
370
     0
100
AcDbCircle
 10
96.5822086528
 20
781.7893556201
 30
0.0
 40
1.250000000000085
100
AcDbArc
 50
0.0
 51
90.0
  0
LINE
  5
E1
330
1F
100
AcDbEntity
  8
0
  6
SLD-Solid
 62
     7
370
    15
100
AcDbLine
 10
75.3822086528
 20
783.8393556201
 30
0.0
 11
96.5822086528
 21
783.8393556201
 31
0.0
  0
ARC
  5
E2
330
1F
100
AcDbEntity
  8
0
  6
SLD-Solid
 62
     7
370
    15
100
AcDbCircle
 10
75.3822086528
 20
785.0893556201
 30
0.0
 40
2.049999999999997
100
AcDbArc
 50
180.0
 51
270.0
  0
LINE
  5
E3
330
1F
100
AcDbEntity
  8
0
  6
SLD-Solid
 62
   142
420
    32960
370
     0
100
AcDbLine
 10
123.3322086528
 20
761.7893556201
 30
0.0
 11
123.3322086528
 21
753.0393556201
 31
0.0
  0
LINE
  5
E4
330
1F
100
AcDbEntity
  8
0
  6
SLD-Solid
 62
     7
370
    15
100
AcDbLine
 10
73.3322086528
 20
799.9561809206
 30
0.0
 11
73.3322086528
 21
785.0893556201
 31
0.0
  0
LINE
  5
E5
330
1F
100
AcDbEntity
  8
0
  6
SLD-Solid
 62
   142
420
    32960
370
     0
100
AcDbLine
 10
19.1322086528
 20
783.0393556201
 30
0.0
 11
19.9322086528
 21
783.0393556201
 31
0.0
  0
LINE
  5
E6
330
1F
100
AcDbEntity
  8
0
  6
SLD-Solid
 62
     7
370
    15
100
AcDbLine
 10
97.8322086528
 20
781.7893556201
 30
0.0
 11
97.8322086528
 21
765.0893556201
 31
0.0
  0
LINE
  5
E7
330
1F
100
AcDbEntity
  8
0
  6
SLD-Solid
 62
   142
420
    32960
370
     0
100
AcDbLine
 10
98.6322086528
 20
781.7893556201
 30
0.0
 11
97.8322086528
 21
781.7893556201
 31
0.0
  0
LINE
  5
E8
330
1F
100
AcDbEntity
  8
0
  6
SLD-Solid
 62
   142
420
    32960
370
     0
100
AcDbLine
 10
19.9322086528
 20
783.0393556201
 30
0.0
 11
19.9322086528
 21
831.8188107799
 31
0.0
  0
LINE
  5
E9
330
1F
100
AcDbEntity
  8
0
  6
SLD-Solid
 62
   142
420
    32960
370
     0
100
AcDbLine
 10
19.9322086528
 20
831.8188107799
 30
0.0
 11
19.1322086528
 21
831.8188107799
 31
0.0
  0
ARC
  5
EA
330
1F
100
AcDbEntity
  8
0
  6
SLD-Solid
 62
   142
420
    32960
370
     0
100
AcDbCircle
 10
21.1822086528
 20
831.8188107799
 30
0.0
 40
1.250000000000085
100
AcDbArc
 50
75.0
 51
180.0
  0
LINE
  5
EB
330
1F
100
AcDbEntity
  8
0
  6
SLD-Solid
 62
   142
420
    32960
370
     0
100
AcDbLine
 10
19.1322086528
 20
783.0393556201
 30
0.0
 11
19.1322086528
 21
831.8188107799
 31
0.0
  0
LINE
  5
EC
330
1F
100
AcDbEntity
  8
0
  6
SLD-Solid
 62
     7
370
    15
100
AcDbLine
 10
75.3822086528
 20
783.0393556201
 30
0.0
 11
96.5822086528
 21
783.0393556201
 31
0.0
  0
LINE
  5
ED
330
1F
100
AcDbEntity
  8
0
  6
SLD-Solid
 62
   142
420
    32960
370
     0
100
AcDbLine
 10
96.5822086528
 20
783.0393556201
 30
0.0
 11
96.5822086528
 21
783.8393556201
 31
0.0
  0
LINE
  5
EE
330
1F
100
AcDbEntity
  8
0
  6
SLD-Solid
 62
   142
420
    32960
370
     0
100
AcDbLine
 10
19.9322086528
 20
791.3893556201
 30
0.0
 11
19.1322086528
 21
791.3893556201
 31
0.0
  0
LINE
  5
EF
330
1F
100
AcDbEntity
  8
0
  6
SLD-Solid
 62
   142
420
    32960
370
     0
100
AcDbLine
 10
19.9322086528
 20
797.6893556201
 30
0.0
 11
19.1322086528
 21
797.6893556201
 31
0.0
  0
LINE
  5
F0
330
1F
100
AcDbEntity
  8
0
  6
SLD-Solid
 62
   142
420
    32960
370
     0
100
AcDbLine
 10
729.5251365584
 20
69.8393556201
 30
0.0
 11
729.5251365584
 21
66.7893556201
 31
0.0
  0
LINE
  5
F1
330
1F
100
AcDbEntity
  8
0
  6
SLD-Solid
 62
   142
420
    32960
370
     0
100
AcDbLine
 10
43.5392786941
 20
69.8393556201
 30
0.0
 11
43.5392786941
 21
66.7893556201
 31
0.0
  0
LINE
  5
F2
330
1F
100
AcDbEntity
  8
0
  6
SLD-Solid
 62
     7
370
    15
100
AcDbLine
 10
43.5392786941
 20
64.0393556201
 30
0.0
 11
729.5251365584
 21
64.0393556201
 31
0.0
  0
LINE
  5
F3
330
1F
100
AcDbEntity
  8
0
  6
SLD-Solid
 62
   142
420
    32960
370
     0
100
AcDbLine
 10
43.5392786941
 20
64.0393556201
 30
0.0
 11
43.5392786941
 21
66.7893556201
 31
0.0
  0
LINE
  5
F4
330
1F
100
AcDbEntity
  8
0
  6
SLD-Solid
 62
   142
420
    32960
370
     0
100
AcDbLine
 10
729.5251365584
 20
66.7893556201
 30
0.0
 11
729.5251365584
 21
64.0393556201
 31
0.0
  0
SPLINE
  5
F5
330
1F
100
AcDbEntity
  8
0
  6
SLD-Solid
 62
   142
420
    32960
370
     0
100
AcDbSpline
210
0.0
220
0.0
230
1.0
 70
     8
 71
     3
 72
     9
 73
     5
 74
     0
 42
0.00000001
 43
0.00000001
 40
0.0
 40
0.0
 40
0.0
 40
0.0
 40
0.5019979753639192
 40
1.0
 40
1.0
 40
1.0
 40
1.0
 10
774.7782144744024
 20
664.1211159142749
 30
0.0
 10
774.9978857672005
 20
664.2016115280419
 30
0.0
 10
775.4354797488074
 20
664.3619620029788
 30
0.0
 10
775.8681598310504
 20
664.5277907621397
 30
0.0
 10
776.083635388027
 20
664.6103738199448
 30
0.0
  0
LINE
  5
F6
330
1F
100
AcDbEntity
  8
0
  6
SLD-Solid
 62
   142
420
    32960
370
     0
100
AcDbLine
 10
775.9489932971
 20
665.0295407148
 30
0.0
 11
774.7782144744
 21
664.1211159143
 31
0.0
  0
SPLINE
  5
F7
330
1F
100
AcDbEntity
  8
0
  6
SLD-Solid
 62
   142
420
    32960
370
     0
100
AcDbSpline
210
0.0
220
0.0
230
1.0
 70
     8
 71
     3
 72
     9
 73
     5
 74
     0
 42
0.00000001
 43
0.00000001
 40
0.0
 40
0.0
 40
0.0
 40
0.0
 40
0.5000008151764186
 40
1.0
 40
1.0
 40
1.0
 40
1.0
 10
776.083635388027
 20
664.6103738199447
 30
0.0
 10
776.062426767189
 20
664.6788612391933
 30
0.0
 10
776.0200095946678
 20
664.8158358543733
 30
0.0
 10
775.9726653705629
 20
664.9583058387218
 30
0.0
 10
775.9489932971044
 20
665.0295407147578
 30
0.0
  0
LINE
  5
F8
330
1F
100
AcDbEntity
  8
0
  6
SLD-Solid
 62
   142
420
    32960
370
     0
100
AcDbLine
 10
777.2804388526
 20
666.0630460805
 30
0.0
 11
776.5631347733
 21
665.506462044
 31
0.0
  0
SPLINE
  5
F9
330
1F
100
AcDbEntity
  8
0
  6
SLD-Solid
 62
   142
420
    32960
370
     0
100
AcDbSpline
210
0.0
220
0.0
230
1.0
 70
     8
 71
     3
 72
     9
 73
     5
 74
     0
 42
0.00000001
 43
0.00000001
 40
0.0
 40
0.0
 40
0.0
 40
0.0
 40
0.5000044117887613
 40
1.0
 40
1.0
 40
1.0
 40
1.0
 10
777.1557762415821
 20
666.4213779853433
 30
0.0
 10
777.1773852011248
 20
666.3607387269941
 30
0.0
 10
777.2206027388769
 20
666.2394612803967
 30
0.0
 10
777.2604935986668
 20
666.1218508012488
 30
0.0
 10
777.2804388525716
 20
666.0630460805472
 30
0.0
  0
SPLINE
  5
FA
330
1F
100
AcDbEntity
  8
0
  6
SLD-Solid
 62
   142
420
    32960
370
     0
100
AcDbSpline
210
0.0
220
0.0
230
1.0
 70
     8
 71
     3
 72
     8
 73
     4
 74
     0
 42
0.00000001
 43
0.00000001
 40
0.0
 40
0.0
 40
0.0
 40
0.0
 40
1.0
 40
1.0
 40
1.0
 40
1.0
 10
776.4386036361291
 20
665.8646336630092
 30
0.0
 10
776.6776538979775
 20
666.050237488691
 30
0.0
 10
776.9167114299466
 20
666.235818939242
 30
0.0
 10
777.1557762418142
 20
666.4213779845697
 30
0.0
  0
SPLINE
  5
FB
330
1F
100
AcDbEntity
  8
0
  6
SLD-Solid
 62
   142
420
    32960
370
     0
100
AcDbSpline
210
0.0
220
0.0
230
1.0
 70
     8
 71
     3
 72
     8
 73
     4
 74
     0
 42
0.00000001
 43
0.00000001
 40
0.0
 40
0.0
 40
0.0
 40
0.0
 40
1.0
 40
1.0
 40
1.0
 40
1.0
 10
776.3746329987739
 20
666.0416403083447
 30
0.0
 10
776.3962000909225
 20
665.9818885345991
 30
0.0
 10
776.417524201502
 20
665.9228845812286
 30
0.0
 10
776.4386036361291
 20
665.8646336630092
 30
0.0
  0
SPLINE
  5
FC
330
1F
100
AcDbEntity
  8
0
  6
SLD-Solid
 62
   142
420
    32960
370
     0
100
AcDbSpline
210
0.0
220
0.0
230
1.0
 70
     8
 71
     3
 72
     8
 73
     4
 74
     0
 42
0.00000001
 43
0.00000001
 40
0.0
 40
0.0
 40
0.0
 40
0.0
 40
1.0
 40
1.0
 40
1.0
 40
1.0
 10
775.7607336456336
 20
665.5644668257687
 30
0.0
 10
775.965359368256
 20
665.7235474130441
 30
0.0
 10
776.1699924821302
 20
665.8826052523856
 30
0.0
 10
776.3746329987739
 20
666.0416403083447
 30
0.0
  0
SPLINE
  5
FD
330
1F
100
AcDbEntity
  8
0
  6
SLD-Solid
 62
   142
420
    32960
370
     0
100
AcDbSpline
210
0.0
220
0.0
230
1.0
 70
     8
 71
     3
 72
     8
 73
     4
 74
     0
 42
0.00000001
 43
0.00000001
 40
0.0
 40
0.0
 40
0.0
 40
0.0
 40
1.0
 40
1.0
 40
1.0
 40
1.0
 10
775.8245981231515
 20
665.3875765836028
 30
0.0
 10
775.8035517480902
 20
665.4457958626793
 30
0.0
 10
775.7822630353215
 20
665.5047609805279
 30
0.0
 10
775.7607336456336
 20
665.5644668257687
 30
0.0
  0
SPLINE
  5
FE
330
1F
100
AcDbEntity
  8
0
  6
SLD-Solid
 62
   142
420
    32960
370
     0
100
AcDbSpline
210
0.0
220
0.0
230
1.0
 70
     8
 71
     3
 72
     8
 73
     4
 74
     0
 42
0.00000001
 43
0.00000001
 40
0.0
 40
0.0
 40
0.0
 40
0.0
 40
1.0
 40
1.0
 40
1.0
 40
1.0
 10
773.5764718736808
 20
663.6421746973078
 30
0.0
 10
774.3257799015632
 20
664.2241827268816
 30
0.0
 10
775.0751552283789
 20
664.8059836316364
 30
0.0
 10
775.8245981231515
 20
665.3875765836028
 30
0.0
  0
SPLINE
  5
FF
330
1F
100
AcDbEntity
  8
0
  6
SLD-Solid
 62
   142
420
    32960
370
     0
100
AcDbSpline
210
0.0
220
0.0
230
1.0
 70
     8
 71
     3
 72
     9
 73
     5
 74
     0
 42
0.00000001
 43
0.00000001
 40
0.0
 40
0.0
 40
0.0
 40
0.0
 40
0.4999960425238952
 40
0.9999999999999999
 40
0.9999999999999999
 40
0.9999999999999999
 40
0.9999999999999999
 10
773.7029711361467
 20
663.2768913012491
 30
0.0
 10
773.6827094273792
 20
663.3368654400473
 30
0.0
 10
773.6421856891009
 20
663.4568146670362
 30
0.0
 10
773.5983765944031
 20
663.5803876945256
 30
0.0
 10
773.5764718736808
 20
663.6421746973078
 30
0.0
  0
SPLINE
  5
100
330
1F
100
AcDbEntity
  8
0
  6
SLD-Solid
 62
   142
420
    32960
370
     0
100
AcDbSpline
210
0.0
220
0.0
230
1.0
 70
     8
 71
     3
 72
    11
 73
     7
 74
     0
 42
0.00000001
 43
0.00000001
 40
0.0
 40
0.0
 40
0.0
 40
0.0
 40
0.2471585206977144
 40
0.4962090954966969
 40
0.7471551958245417
 40
1.0
 40
1.0
 40
1.0
 40
1.0
 10
776.1886990551818
 20
664.2468124937233
 30
0.0
 10
775.9864664244193
 20
664.1640321522874
 30
0.0
 10
775.580453026591
 20
663.9978377672713
 30
0.0
 10
774.9632456744737
 20
663.7542038287611
 30
0.0
 10
774.3375044318398
 20
663.5130167617755
 30
0.0
 10
773.9150130350023
 20
663.3557971987126
 30
0.0
 10
773.7029711867985
 20
663.2768911500327
 30
0.0
  0
SPLINE
  5
101
330
1F
100
AcDbEntity
  8
0
  6
SLD-Solid
 62
   142
420
    32960
370
     0
100
AcDbSpline
210
0.0
220
0.0
230
1.0
 70
     8
 71
     3
 72
     8
 73
     4
 74
     0
 42
0.00000001
 43
0.00000001
 40
0.0
 40
0.0
 40
0.0
 40
0.0
 40
1.0
 40
1.0
 40
1.0
 40
1.0
 10
776.8026300635593
 20
664.7239548738571
 30
0.0
 10
776.597992555144
 20
664.5648884520697
 30
0.0
 10
776.3933488891248
 20
664.4058409814379
 30
0.0
 10
776.1886990551818
 20
664.2468124937234
 30
0.0
  0
SPLINE
  5
102
330
1F
100
AcDbEntity
  8
0
  6
SLD-Solid
 62
   142
420
    32960
370
     0
100
AcDbSpline
210
0.0
220
0.0
230
1.0
 70
     8
 71
     3
 72
    11
 73
     7
 74
     0
 42
0.00000001
 43
0.00000001
 40
0.0
 40
0.0
 40
0.0
 40
0.0
 40
0.2500033754366616
 40
0.4999921878809035
 40
0.7499849073600303
 40
1.0
 40
1.0
 40
1.0
 40
1.0
 10
776.563126949203
 20
665.50645597301
 30
0.0
 10
776.5856900731176
 20
665.438334295156
 30
0.0
 10
776.6308150066179
 20
665.3020949076162
 30
0.0
 10
776.6926563086976
 20
665.1042474206956
 30
0.0
 10
776.7505861197019
 20
664.9107830089486
 30
0.0
 10
776.7852815647838
 20
664.7862327765803
 30
0.0
 10
776.8026300635593
 20
664.7239548738571
 30
0.0
  0
LINE
  5
103
330
1F
100
AcDbEntity
  8
0
  6
SLD-Solid
 62
     7
370
    15
100
AcDbLine
 10
661.0322076263
 20
477.8393556201
 30
0.0
 11
661.0322076263
 21
104.8393556201
 31
0.0
  0
LINE
  5
104
330
1F
100
AcDbEntity
  8
0
  6
SLD-Solid
 62
   142
420
    32960
370
     0
100
AcDbLine
 10
661.0322076263
 20
477.8393556201
 30
0.0
 11
662.5322076263
 21
477.8393556201
 31
0.0
  0
LINE
  5
105
330
1F
100
AcDbEntity
  8
0
  6
SLD-Solid
 62
   142
420
    32960
370
     0
100
AcDbLine
 10
662.5322076263
 20
477.8393556201
 30
0.0
 11
699.5322076263
 21
477.8393556201
 31
0.0
  0
LINE
  5
106
330
1F
100
AcDbEntity
  8
0
  6
SLD-Solid
 62
     7
370
    15
100
AcDbLine
 10
701.0322076263
 20
477.8393556201
 30
0.0
 11
701.0322076263
 21
104.8393556201
 31
0.0
  0
LINE
  5
107
330
1F
100
AcDbEntity
  8
0
  6
SLD-Solid
 62
   142
420
    32960
370
     0
100
AcDbLine
 10
699.5322076263
 20
477.8393556201
 30
0.0
 11
701.0322076263
 21
477.8393556201
 31
0.0
  0
LINE
  5
108
330
1F
100
AcDbEntity
  8
0
  6
SLD-Solid
 62
   142
420
    32960
370
     0
100
AcDbLine
 10
722.8322076263
 20
480.3393556201
 30
0.0
 11
720.7322076263
 21
480.3393556201
 31
0.0
  0
LINE
  5
109
330
1F
100
AcDbEntity
  8
0
  6
SLD-Solid
 62
   142
420
    32960
370
     0
100
AcDbLine
 10
772.0657058329
 20
657.9953124773
 30
0.0
 11
751.9796011985
 21
719.8139860364
 31
0.0
  0
LINE
  5
10A
330
1F
100
AcDbEntity
  8
0
  6
SLD-Solid
 62
     7
370
    15
100
AcDbLine
 10
764.2095844165
 20
714.5346478014
 30
0.0
 11
762.726234339
 21
719.099929915
 31
0.0
  0
SPLINE
  5
10B
330
1F
100
AcDbEntity
  8
0
  6
SLD-Solid
 62
   142
420
    32960
370
     0
100
AcDbSpline
210
0.0
220
0.0
230
1.0
 70
     8
 71
     3
 72
    10
 73
     6
 74
     0
 42
0.00000001
 43
0.00000001
 40
0.0
 40
0.0
 40
0.0
 40
0.0
 40
0.5
 40
0.5
 40
1.0
 40
1.0
 40
1.0
 40
1.0
 10
763.9531160838119
 20
713.2897536642888
 30
0.0
 10
763.8771204548782
 20
713.523644160355
 30
0.0
 10
763.8575515147163
 20
713.7464556501028
 30
0.0
 10
763.9423603094053
 20
714.1706396709113
 30
0.0
 10
764.0453865516232
 20
714.3628589019031
 30
0.0
 10
764.2095844165419
 20
714.5346478014469
 30
0.0
  0
LINE
  5
10C
330
1F
100
AcDbEntity
  8
0
  6
SLD-Solid
 62
     7
370
    15
100
AcDbLine
 10
780.3402030184
 20
664.8897084862
 30
0.0
 11
778.8568529408
 21
669.4549905997
 31
0.0
  0
SPLINE
  5
10D
330
1F
100
AcDbEntity
  8
0
  6
SLD-Solid
 62
   142
420
    32960
370
     0
100
AcDbSpline
210
0.0
220
0.0
230
1.0
 70
     8
 71
     3
 72
     9
 73
     5
 74
     0
 42
0.00000001
 43
0.00000001
 40
0.0
 40
0.0
 40
0.0
 40
0.0
 40
0.4997022537551319
 40
1.0
 40
1.0
 40
1.0
 40
1.0
 10
759.1120269405768
 20
709.3491443785547
 30
0.0
 10
759.0831537386728
 20
709.2590227167346
 30
0.0
 10
759.0253729268253
 20
709.0786719955943
 30
0.0
 10
758.9669415769694
 20
708.8956645325756
 30
0.0
 10
758.9377085043265
 20
708.8041063112812
 30
0.0
  0
SPLINE
  5
10E
330
1F
100
AcDbEntity
  8
0
  6
SLD-Solid
 62
   142
420
    32960
370
     0
100
AcDbSpline
210
0.0
220
0.0
230
1.0
 70
     8
 71
     3
 72
     9
 73
     5
 74
     0
 42
0.00000001
 43
0.00000001
 40
0.0
 40
0.0
 40
0.0
 40
0.0
 40
0.503093529177775
 40
1.0
 40
1.0
 40
1.0
 40
1.0
 10
758.9377085043265
 20
708.8041063112812
 30
0.0
 10
759.342628822701
 20
708.6853438921264
 30
0.0
 10
760.1474897379994
 20
708.4492795973842
 30
0.0
 10
760.9505608330109
 20
708.2064097821473
 30
0.0
 10
761.3496120566523
 20
708.0857261993885
 30
0.0
  0
SPLINE
  5
10F
330
1F
100
AcDbEntity
  8
0
  6
SLD-Solid
 62
   142
420
    32960
370
     0
100
AcDbSpline
210
0.0
220
0.0
230
1.0
 70
     8
 71
     3
 72
    13
 73
     9
 74
     0
 42
0.00000001
 43
0.00000001
 40
0.0
 40
0.0
 40
0.0
 40
0.0
 40
0.2862474508623529
 40
0.5000653653801007
 40
0.6274835430651744
 40
0.7500272884545238
 40
0.8750054630897255
 40
1.0
 40
1.0
 40
1.0
 40
1.0
 10
761.3496120566523
 20
708.0857261993884
 30
0.0
 10
761.4523956364438
 20
708.054846972663
 30
0.0
 10
761.6319553433639
 20
708.0009019270437
 30
0.0
 10
761.8594979563799
 20
707.9402191539021
 30
0.0
 10
762.0297928409414
 20
707.9057587997639
 30
0.0
 10
762.1681950738606
 20
707.8875983473345
 30
0.0
 10
762.3055590680325
 20
707.8786146184839
 30
0.0
 10
762.3959521948932
 20
707.8819316926237
 30
0.0
 10
762.4411517167209
 20
707.8835903382553
 30
0.0
  0
SPLINE
  5
110
330
1F
100
AcDbEntity
  8
0
  6
SLD-Solid
 62
   142
420
    32960
370
     0
100
AcDbSpline
210
0.0
220
0.0
230
1.0
 70
     8
 71
     3
 72
    16
 73
    12
 74
     0
 42
0.00000001
 43
0.00000001
 40
0.0
 40
0.0
 40
0.0
 40
0.0
 40
0.0626347164105552
 40
0.1252462045551223
 40
0.2503234762037471
 40
0.4994982808584165
 40
0.6245902168365624
 40
0.7496705979364946
 40
0.8747389694974437
 40
0.9373591468078101
 40
1.0
 40
1.0
 40
1.0
 40
1.0
 10
762.4411517167209
 20
707.8835903382553
 30
0.0
 10
762.4845791182977
 20
707.8872055184988
 30
0.0
 10
762.5714178162737
 20
707.8944345382857
 30
0.0
 10
762.7378392919684
 20
707.9267382098398
 30
0.0
 10
763.0085788521046
 20
708.0183792960052
 30
0.0
 10
763.2488265968557
 20
708.2026380991565
 30
0.0
 10
763.4119320636728
 20
708.4263518198093
 30
0.0
 10
763.4782152647177
 20
708.6170360361865
 30
0.0
 10
763.4873903557412
 20
708.7850646780929
 30
0.0
 10
763.4659388159687
 20
708.9206298487275
 30
0.0
 10
763.4470369714835
 20
708.9880021040543
 30
0.0
 10
763.4375844892494
 20
709.0216937920295
 30
0.0
  0
SPLINE
  5
111
330
1F
100
AcDbEntity
  8
0
  6
SLD-Solid
 62
   142
420
    32960
370
     0
100
AcDbSpline
210
0.0
220
0.0
230
1.0
 70
     8
 71
     3
 72
    17
 73
    13
 74
     0
 42
0.00000001
 43
0.00000001
 40
0.0
 40
0.0
 40
0.0
 40
0.0
 40
0.0625792467947376
 40
0.1251386172826942
 40
0.2500882291406233
 40
0.3750454651189783
 40
0.500016619772215
 40
0.6275888092705023
 40
0.7499048935735639
 40
0.8748659115759291
 40
0.9374228974929628
 40
1.0
 40
1.0
 40
1.0
 40
1.0
 10
763.4375844892494
 20
709.0216937920295
 30
0.0
 10
763.4255662981661
 20
709.0551252686614
 30
0.0
 10
763.4015337331956
 20
709.1219776034802
 30
0.0
 10
763.3354529094561
 20
709.2527441450911
 30
0.0
 10
763.2226518927299
 20
709.4093761134335
 30
0.0
 10
763.0375702403938
 20
709.5750603151414
 30
0.0
 10
762.8171495429985
 20
709.7164493380762
 30
0.0
 10
762.5732568249057
 20
709.8297873355308
 30
0.0
 10
762.3098334695845
 20
709.9077253385574
 30
0.0
 10
762.0855042278228
 20
709.9386823423212
 30
0.0
 10
761.9063398541813
 20
709.945901546561
 30
0.0
 10
761.8185752194571
 20
709.9417869176128
 30
0.0
 10
761.7746858475618
 20
709.939729272404
 30
0.0
  0
SPLINE
  5
112
330
1F
100
AcDbEntity
  8
0
  6
SLD-Solid
 62
   142
420
    32960
370
     0
100
AcDbSpline
210
0.0
220
0.0
230
1.0
 70
     8
 71
     3
 72
    17
 73
    13
 74
     0
 42
0.00000001
 43
0.00000001
 40
0.0
 40
0.0
 40
0.0
 40
0.0
 40
0.0625828327880266
 40
0.1251475851228467
 40
0.2501263684710707
 40
0.3738523636076243
 40
0.5000343517336374
 40
0.6278306699013687
 40
0.7499469008274949
 40
0.8748604327671071
 40
0.9374196577040577
 40
1.0
 40
1.0
 40
1.0
 40
1.0
 10
761.7746858475618
 20
709.939729272404
 30
0.0
 10
761.7313297524674
 20
709.9361632211233
 30
0.0
 10
761.6446300880436
 20
709.9290321488098
 30
0.0
 10
761.4763917574867
 20
709.9030082247931
 30
0.0
 10
761.2794733573324
 20
709.8482706576394
 30
0.0
 10
761.0732532970967
 20
709.7467280590535
 30
0.0
 10
760.9072630123435
 20
709.6110524449082
 30
0.0
 10
760.7830537242954
 20
709.4516441453397
 30
0.0
 10
760.7108415265176
 20
709.2708187277203
 30
0.0
 10
760.6978001986573
 20
709.1089341307122
 30
0.0
 10
760.7170036520122
 20
708.9753126003227
 30
0.0
 10
760.7359002572213
 20
708.9082089370825
 30
0.0
 10
760.7453501542311
 20
708.8746514435754
 30
0.0
  0
SPLINE
  5
113
330
1F
100
AcDbEntity
  8
0
  6
SLD-Solid
 62
   142
420
    32960
370
     0
100
AcDbSpline
210
0.0
220
0.0
230
1.0
 70
     8
 71
     3
 72
     9
 73
     5
 74
     0
 42
0.00000001
 43
0.00000001
 40
0.0
 40
0.0
 40
0.0
 40
0.0
 40
0.4978933901263071
 40
1.0
 40
1.0
 40
1.0
 40
1.0
 10
760.7453501542311
 20
708.8746514435754
 30
0.0
 10
760.4744667350143
 20
708.9541745076963
 30
0.0
 10
759.9304076561257
 20
709.1138935674346
 30
0.0
 10
759.3855856640183
 20
709.2705074918881
 30
0.0
 10
759.1120269405768
 20
709.3491443785547
 30
0.0
  0
SPLINE
  5
114
330
1F
100
AcDbEntity
  8
0
  6
SLD-Solid
 62
   142
420
    32960
370
     0
100
AcDbSpline
210
0.0
220
0.0
230
1.0
 70
     8
 71
     3
 72
     9
 73
     5
 74
     0
 42
0.00000001
 43
0.00000001
 40
0.0
 40
0.0
 40
0.0
 40
0.0
 40
0.5000002533571392
 40
1.0
 40
1.0
 40
1.0
 40
1.0
 10
759.6141441778966
 20
709.3717321677246
 30
0.0
 10
759.650713279032
 20
709.2613405606404
 30
0.0
 10
759.7238514442427
 20
709.040557458346
 30
0.0
 10
759.7959211631413
 20
708.8154484557804
 30
0.0
 10
759.8319560043312
 20
708.7028940115307
 30
0.0
  0
SPLINE
  5
115
330
1F
100
AcDbEntity
  8
0
  6
SLD-Solid
 62
   142
420
    32960
370
     0
100
AcDbSpline
210
0.0
220
0.0
230
1.0
 70
     8
 71
     3
 72
     8
 73
     4
 74
     0
 42
0.00000001
 43
0.00000001
 40
0.0
 40
0.0
 40
0.0
 40
0.0
 40
1.0
 40
1.0
 40
1.0
 40
1.0
 10
759.8319560043312
 20
708.7028940115306
 30
0.0
 10
760.9995034399266
 20
708.776206457461
 30
0.0
 10
762.166985484966
 20
708.8497201548283
 30
0.0
 10
763.3344020905437
 20
708.9234352541499
 30
0.0
  0
LINE
  5
116
330
1F
100
AcDbEntity
  8
0
  6
SLD-Solid
 62
   142
420
    32960
370
     0
100
AcDbLine
 10
761.1702915258
 20
708.1461968875
 30
0.0
 11
763.5301011906
 21
708.2943647343
 31
0.0
  0
SPLINE
  5
117
330
1F
100
AcDbEntity
  8
0
  6
SLD-Solid
 62
   142
420
    32960
370
     0
100
AcDbSpline
210
0.0
220
0.0
230
1.0
 70
     8
 71
     3
 72
    19
 73
    15
 74
     0
 42
0.00000001
 43
0.00000001
 40
0.0
 40
0.0
 40
0.0
 40
0.0
 40
0.1252636569322574
 40
0.2504606304605762
 40
0.3754117004534123
 40
0.5012496476207041
 40
0.5377354893582955
 40
0.5727333229857138
 40
0.6271094136918991
 40
0.7507320422279399
 40
0.8205725051889282
 40
0.8746429677350854
 40
0.9790193147360946
 40
1.0
 40
1.0
 40
1.0
 40
1.0
 10
757.7438555753503
 20
719.3951489069061
 30
0.0
 10
757.6099311856617
 20
719.4042330334978
 30
0.0
 10
757.3421537001809
 20
719.4223964507971
 30
0.0
 10
756.9425116136645
 20
719.4509781419847
 30
0.0
 10
756.5473366078799
 20
719.4808787329065
 30
0.0
 10
756.2601526283985
 20
719.504719641589
 30
0.0
 10
756.0758637792628
 20
719.5207626075359
 30
0.0
 10
755.963830047354
 20
719.5308198006306
 30
0.0
 10
755.7849185581167
 20
719.547297803193
 30
0.0
 10
755.6153612965694
 20
719.564218084567
 30
0.0
 10
755.5031799388013
 20
719.5760591908886
 30
0.0
 10
755.4327342384638
 20
719.5836694538821
 30
0.0
 10
755.409552140229
 20
719.5862325774837
 30
0.0
 10
755.4088337160717
 20
719.5860951569624
 30
0.0
 10
755.4087134752615
 20
719.5860721572418
 30
0.0
  0
SPLINE
  5
118
330
1F
100
AcDbEntity
  8
0
  6
SLD-Solid
 62
   142
420
    32960
370
     0
100
AcDbSpline
210
0.0
220
0.0
230
1.0
 70
     8
 71
     3
 72
    13
 73
     9
 74
     0
 42
0.00000001
 43
0.00000001
 40
0.0
 40
0.0
 40
0.0
 40
0.0
 40
0.1251938662589927
 40
0.2503283849861639
 40
0.5000192369710066
 40
0.7496882904451706
 40
0.8748125585586276
 40
1.0
 40
1.0
 40
1.0
 40
1.0
 10
755.4087134752615
 20
719.5860721572418
 30
0.0
 10
755.410821419339
 20
719.5857299050564
 30
0.0
 10
755.4150363082334
 20
719.585045562929
 30
0.0
 10
755.4505147620339
 20
719.5804093010086
 30
0.0
 10
755.5482708272428
 20
719.5691411519167
 30
0.0
 10
755.7155022010951
 20
719.5515865645654
 30
0.0
 10
755.88106342288
 20
719.5353715400815
 30
0.0
 10
755.9739024890522
 20
719.5267044198258
 30
0.0
 10
756.0203337374365
 20
719.5223697659999
 30
0.0
  0
SPLINE
  5
119
330
1F
100
AcDbEntity
  8
0
  6
SLD-Solid
 62
   142
420
    32960
370
     0
100
AcDbSpline
210
0.0
220
0.0
230
1.0
 70
     8
 71
     3
 72
    14
 73
    10
 74
     0
 42
0.00000001
 43
0.00000001
 40
0.0
 40
0.0
 40
0.0
 40
0.0
 40
0.0625271511718612
 40
0.1250385665834469
 40
0.2500185759795689
 40
0.4998671003519328
 40
0.7498915699466165
 40
0.8749419633117772
 40
0.9999999999999999
 40
0.9999999999999999
 40
0.9999999999999999
 40
0.9999999999999999
 10
756.0203337374365
 20
719.5223697659999
 30
0.0
 10
756.0529371975524
 20
719.5194224785954
 30
0.0
 10
756.1181359127046
 20
719.5135286455089
 30
0.0
 10
756.2538996247825
 20
719.5015480307013
 30
0.0
 10
756.5058348455675
 20
719.4806217028522
 30
0.0
 10
756.8816615746714
 20
719.4514692379049
 30
0.0
 10
757.2645724200484
 20
719.423888284785
 30
0.0
 10
757.572074754131
 20
719.4026952307893
 30
0.0
 10
757.7259726393542
 20
719.3923488422209
 30
0.0
 10
757.8029239335283
 20
719.3871754898439
 30
0.0
  0
SPLINE
  5
11A
330
1F
100
AcDbEntity
  8
0
  6
SLD-Solid
 62
   142
420
    32960
370
     0
100
AcDbSpline
210
0.0
220
0.0
230
1.0
 70
     8
 71
     3
 72
    18
 73
    14
 74
     0
 42
0.00000001
 43
0.00000001
 40
0.0
 40
0.0
 40
0.0
 40
0.0
 40
0.1251615752902272
 40
0.2503026028558702
 40
0.3753841869036733
 40
0.5003399629435749
 40
0.6302195788122548
 40
0.749810864591355
 40
0.8125874632032577
 40
0.8748654797413354
 40
0.9374191148115163
 40
0.9687073650343845
 40
1.0
 40
1.0
 40
1.0
 40
1.0
 10
757.8029239335283
 20
719.3871754898439
 30
0.0
 10
757.9351444465688
 20
719.3784578219551
 30
0.0
 10
758.1995637660619
 20
719.3610239173537
 30
0.0
 10
758.594697007242
 20
719.3365084702697
 30
0.0
 10
758.9845243528408
 20
719.3142859842188
 30
0.0
 10
759.3586875961795
 20
719.2961156635135
 30
0.0
 10
759.6891831604325
 20
719.2829314019202
 30
0.0
 10
759.8979146329763
 20
719.2770641746973
 30
0.0
 10
760.0073161943551
 20
719.2749850714247
 30
0.0
 10
760.0631400658475
 20
719.2743719914884
 30
0.0
 10
760.0868937287271
 20
719.2744234884194
 30
0.0
 10
760.0967318521541
 20
719.2744912597433
 30
0.0
 10
760.0970603450825
 20
719.2745690457997
 30
0.0
 10
760.0972246030547
 20
719.274607941553
 30
0.0
  0
SPLINE
  5
11B
330
1F
100
AcDbEntity
  8
0
  6
SLD-Solid
 62
   142
420
    32960
370
     0
100
AcDbSpline
210
0.0
220
0.0
230
1.0
 70
     8
 71
     3
 72
    21
 73
    17
 74
     0
 42
0.00000001
 43
0.00000001
 40
0.0
 40
0.0
 40
0.0
 40
0.0
 40
0.0058710092808699
 40
0.0679694924427183
 40
0.1298970787197937
 40
0.1923195363555971
 40
0.2542898596691116
 40
0.3251818438344682
 40
0.3959557723149434
 40
0.449464189034234
 40
0.5029207417835915
 40
0.6268212425505242
 40
0.7513131241816278
 40
0.8757012581326421
 40
0.9377771560630553
 40
1.0
 40
1.0
 40
1.0
 40
1.0
 10
760.0972246030547
 20
719.274607941553
 30
0.0
 10
760.0970810865517
 20
719.274619983998
 30
0.0
 10
760.0954195760006
 20
719.2747594010623
 30
0.0
 10
760.0880389907895
 20
719.2748050951242
 30
0.0
 10
760.054024676693
 20
719.2752202793154
 30
0.0
 10
759.9921485635708
 20
719.2763847087546
 30
0.0
 10
759.8974185783422
 20
719.2786981054484
 30
0.0
 10
759.7638464439241
 20
719.2828819365046
 30
0.0
 10
759.6061225599118
 20
719.2889583672942
 30
0.0
 10
759.4491070728988
 20
719.2956046546536
 30
0.0
 10
759.2313491639102
 20
719.3056921940531
 30
0.0
 10
758.9285877350316
 20
719.3210417828333
 30
0.0
 10
758.5369231737304
 20
719.343929719733
 30
0.0
 10
758.2069438788006
 20
719.3646391062877
 30
0.0
 10
757.9423686424807
 20
719.3818861881253
 30
0.0
 10
757.8100787287844
 20
719.390724517754
 30
0.0
 10
757.7438555753503
 20
719.3951489069062
 30
0.0
  0
SPLINE
  5
11C
330
1F
100
AcDbEntity
  8
0
  6
SLD-Solid
 62
   142
420
    32960
370
     0
100
AcDbSpline
210
0.0
220
0.0
230
1.0
 70
     8
 71
     3
 72
    11
 73
     7
 74
     0
 42
0.00000001
 43
0.00000001
 40
0.0
 40
0.0
 40
0.0
 40
0.0
 40
0.250010201451647
 40
0.500000643697558
 40
0.7499907640102773
 40
1.0
 40
1.0
 40
1.0
 40
1.0
 10
766.8906132776758
 20
684.6116223907188
 30
0.0
 10
766.9453132411562
 20
684.4492011518503
 30
0.0
 10
767.0547088449821
 20
684.1243715108476
 30
0.0
 10
767.2145143990037
 20
683.6377173767831
 30
0.0
 10
767.3714232976672
 20
683.1515714653924
 30
0.0
 10
767.4730965138951
 20
682.8280957864956
 30
0.0
 10
767.523935065564
 20
682.6663517635828
 30
0.0
  0
SPLINE
  5
11D
330
1F
100
AcDbEntity
  8
0
  6
SLD-Solid
 62
   142
420
    32960
370
     0
100
AcDbSpline
210
0.0
220
0.0
230
1.0
 70
     8
 71
     3
 72
     9
 73
     5
 74
     0
 42
0.00000001
 43
0.00000001
 40
0.0
 40
0.0
 40
0.0
 40
0.0
 40
0.5036675688378667
 40
1.0
 40
1.0
 40
1.0
 40
1.0
 10
767.523935065564
 20
682.6663517635828
 30
0.0
 10
767.9075624549381
 20
682.7333129416713
 30
0.0
 10
768.6692302952144
 20
682.8662601120496
 30
0.0
 10
769.4298226566704
 20
682.9994865948094
 30
0.0
 10
769.8073293125551
 20
683.0656112188926
 30
0.0
  0
SPLINE
  5
11E
330
1F
100
AcDbEntity
  8
0
  6
SLD-Solid
 62
   142
420
    32960
370
     0
100
AcDbSpline
210
0.0
220
0.0
230
1.0
 70
     8
 71
     3
 72
     9
 73
     5
 74
     0
 42
0.00000001
 43
0.00000001
 40
0.0
 40
0.0
 40
0.0
 40
0.0
 40
0.5001021414442042
 40
1.0
 40
1.0
 40
1.0
 40
1.0
 10
769.8073293125551
 20
683.0656112188926
 30
0.0
 10
769.7968909590447
 20
683.1816429096692
 30
0.0
 10
769.7760185159068
 20
683.4136588943265
 30
0.0
 10
769.7535937559954
 20
683.646068220996
 30
0.0
 10
769.742383666537
 20
683.7622491457064
 30
0.0
  0
SPLINE
  5
11F
330
1F
100
AcDbEntity
  8
0
  6
SLD-Solid
 62
   142
420
    32960
370
     0
100
AcDbSpline
210
0.0
220
0.0
230
1.0
 70
     8
 71
     3
 72
    12
 73
     8
 74
     0
 42
0.00000001
 43
0.00000001
 40
0.0
 40
0.0
 40
0.0
 40
0.0
 40
0.2501215802572115
 40
0.5001385013493201
 40
0.7498605984541944
 40
0.874899045678325
 40
0.9999999999999999
 40
0.9999999999999999
 40
0.9999999999999999
 40
0.9999999999999999
 10
769.742383666537
 20
683.7622491457064
 30
0.0
 10
769.699696565234
 20
683.7826862297146
 30
0.0
 10
769.6143402243273
 20
683.8235518461773
 30
0.0
 10
769.4994197793137
 20
683.9112613035918
 30
0.0
 10
769.4192268972131
 20
684.0044800268829
 30
0.0
 10
769.3695355891616
 20
684.0912534394874
 30
0.0
 10
769.3519750182285
 20
684.1388801313308
 30
0.0
 10
769.3431925386649
 20
684.1626994279469
 30
0.0
  0
SPLINE
  5
120
330
1F
100
AcDbEntity
  8
0
  6
SLD-Solid
 62
   142
420
    32960
370
     0
100
AcDbSpline
210
0.0
220
0.0
230
1.0
 70
     8
 71
     3
 72
    16
 73
    12
 74
     0
 42
0.00000001
 43
0.00000001
 40
0.0
 40
0.0
 40
0.0
 40
0.0
 40
0.0625768915255252
 40
0.1251365117523846
 40
0.2500258664706299
 40
0.3749336302796281
 40
0.4998800117690972
 40
0.6248549835764924
 40
0.7498694666724617
 40
0.8748972018541606
 40
1.0
 40
1.0
 40
1.0
 40
1.0
 10
769.3431925386649
 20
684.1626994279469
 30
0.0
 10
769.3371077588647
 20
684.1833773140064
 30
0.0
 10
769.3249398786709
 20
684.2247273790036
 30
0.0
 10
769.311560020441
 20
684.3108388416964
 30
0.0
 10
769.3095851517031
 20
684.4213474755456
 30
0.0
 10
769.3378259829668
 20
684.5515096541993
 30
0.0
 10
769.3887437056732
 20
684.673126634567
 30
0.0
 10
769.458126546547
 20
684.7842199401495
 30
0.0
 10
769.5480883274107
 20
684.8757417494454
 30
0.0
 10
769.6492484913417
 20
684.9518712674786
 30
0.0
 10
769.7241728423128
 20
684.9863363443527
 30
0.0
 10
769.761646260016
 20
685.0035740541912
 30
0.0
  0
SPLINE
  5
121
330
1F
100
AcDbEntity
  8
0
  6
SLD-Solid
 62
   142
420
    32960
370
     0
100
AcDbSpline
210
0.0
220
0.0
230
1.0
 70
     8
 71
     3
 72
    17
 73
    13
 74
     0
 42
0.00000001
 43
0.00000001
 40
0.0
 40
0.0
 40
0.0
 40
0.0
 40
0.0625820088414557
 40
0.1251506259511005
 40
0.2501000092855333
 40
0.3750446097038961
 40
0.5000411091552502
 40
0.6250436569435665
 40
0.7499362197475696
 40
0.8748672129465493
 40
0.9374220428778685
 40
0.9999999999999999
 40
0.9999999999999999
 40
0.9999999999999999
 40
0.9999999999999999
 10
769.761646260016
 20
685.0035740541911
 30
0.0
 10
769.7816492514166
 20
685.0114052420836
 30
0.0
 10
769.8216509538395
 20
685.0270659420963
 30
0.0
 10
769.9036380923809
 20
685.0507402796603
 30
0.0
 10
770.0087022869803
 20
685.0659741220114
 30
0.0
 10
770.1352527393683
 20
685.0583690899775
 30
0.0
 10
770.2560617868921
 20
685.0198757666006
 30
0.0
 10
770.3675332086009
 20
684.9579754083088
 30
0.0
 10
770.4643381185618
 20
684.8717684107219
 30
0.0
 10
770.5276638301075
 20
684.7814889161925
 30
0.0
 10
770.5663590482978
 20
684.7013197082764
 30
0.0
 10
770.5812591331821
 20
684.6589362655967
 30
0.0
 10
770.58871055255
 20
684.6377406275776
 30
0.0
  0
SPLINE
  5
122
330
1F
100
AcDbEntity
  8
0
  6
SLD-Solid
 62
   142
420
    32960
370
     0
100
AcDbSpline
210
0.0
220
0.0
230
1.0
 70
     8
 71
     3
 72
    13
 73
     9
 74
     0
 42
0.00000001
 43
0.00000001
 40
0.0
 40
0.0
 40
0.0
 40
0.0
 40
0.1252132507906293
 40
0.2503205428080352
 40
0.4999327495223998
 40
0.749622523863523
 40
0.8747717100022763
 40
1.0
 40
1.0
 40
1.0
 40
1.0
 10
770.58871055255
 20
684.6377406275776
 30
0.0
 10
770.597554285413
 20
684.6056047950506
 30
0.0
 10
770.6152342673377
 20
684.5413603241906
 30
0.0
 10
770.6298965549616
 20
684.4071048797581
 30
0.0
 10
770.611148065765
 20
684.2358388961129
 30
0.0
 10
770.5480584461912
 20
684.0762647964497
 30
0.0
 10
770.4763742996971
 20
683.9622171110975
 30
0.0
 10
770.433907129175
 20
683.9108757484444
 30
0.0
 10
770.412666835409
 20
683.8851969567637
 30
0.0
  0
SPLINE
  5
123
330
1F
100
AcDbEntity
  8
0
  6
SLD-Solid
 62
   142
420
    32960
370
     0
100
AcDbSpline
210
0.0
220
0.0
230
1.0
 70
     8
 71
     3
 72
     9
 73
     5
 74
     0
 42
0.00000001
 43
0.00000001
 40
0.0
 40
0.0
 40
0.0
 40
0.0
 40
0.4999915155784068
 40
1.0
 40
1.0
 40
1.0
 40
1.0
 10
770.412666835409
 20
683.8851969567637
 30
0.0
 10
770.4553241297649
 20
683.7475622818624
 30
0.0
 10
770.5406401661912
 20
683.4722882609781
 30
0.0
 10
770.6233193234815
 20
683.1977251916672
 30
0.0
 10
770.6646596036115
 20
683.0604413275029
 30
0.0
  0
SPLINE
  5
124
330
1F
100
AcDbEntity
  8
0
  6
SLD-Solid
 62
   142
420
    32960
370
     0
100
AcDbSpline
210
0.0
220
0.0
230
1.0
 70
     8
 71
     3
 72
    17
 73
    13
 74
     0
 42
0.00000001
 43
0.00000001
 40
0.0
 40
0.0
 40
0.0
 40
0.0
 40
0.0625627776868668
 40
0.125114119602917
 40
0.2500805960564302
 40
0.375052710050797
 40
0.5000013317453667
 40
0.6249551927360077
 40
0.7498969439063292
 40
0.8748889489927837
 40
0.9374383434517434
 40
1.0
 40
1.0
 40
1.0
 40
1.0
 10
770.6646596036115
 20
683.0604413275029
 30
0.0
 10
770.6983561748584
 20
683.085846611712
 30
0.0
 10
770.7657431579987
 20
683.1366525363305
 30
0.0
 10
770.8934560203895
 20
683.249132550082
 30
0.0
 10
771.0386817356012
 20
683.4088647211229
 30
0.0
 10
771.180713709003
 20
683.6298608539099
 30
0.0
 10
771.2834445086432
 20
683.874023264186
 30
0.0
 10
771.345403813784
 20
684.1318504670015
 30
0.0
 10
771.3658096223572
 20
684.3957557530275
 30
0.0
 10
771.3434276550694
 20
684.613151972724
 30
0.0
 10
771.3086538153516
 20
684.7827033168584
 30
0.0
 10
771.2841247415043
 20
684.8651466069709
 30
0.0
 10
771.2718590025378
 20
684.9063722921458
 30
0.0
  0
SPLINE
  5
125
330
1F
100
AcDbEntity
  8
0
  6
SLD-Solid
 62
   142
420
    32960
370
     0
100
AcDbSpline
210
0.0
220
0.0
230
1.0
 70
     8
 71
     3
 72
    17
 73
    13
 74
     0
 42
0.00000001
 43
0.00000001
 40
0.0
 40
0.0
 40
0.0
 40
0.0
 40
0.0625713784685243
 40
0.1251215088470914
 40
0.2500656599897282
 40
0.3750200963255997
 40
0.4999716825898686
 40
0.6277208470488859
 40
0.7499098671822696
 40
0.8748726880329948
 40
0.9374260668416285
 40
1.0
 40
1.0
 40
1.0
 40
1.0
 10
771.2718590025378
 20
684.9063722921458
 30
0.0
 10
771.2557646712346
 20
684.9528260327339
 30
0.0
 10
771.2235814739672
 20
685.0457177390736
 30
0.0
 10
771.1395596204956
 20
685.2215827339772
 30
0.0
 10
771.0052469142402
 20
685.4231201934597
 30
0.0
 10
770.7963237384961
 20
685.6172987323408
 30
0.0
 10
770.5538010635429
 20
685.7629746918448
 30
0.0
 10
770.2912799174144
 20
685.8572487021364
 30
0.0
 10
770.0150610515257
 20
685.89119812351
 30
0.0
 10
769.7854196625648
 20
685.8662004957527
 30
0.0
 10
769.6052879797838
 20
685.8169280469951
 30
0.0
 10
769.5177023733679
 20
685.782930242439
 30
0.0
 10
769.4739023764258
 20
685.7659285477938
 30
0.0
  0
SPLINE
  5
126
330
1F
100
AcDbEntity
  8
0
  6
SLD-Solid
 62
   142
420
    32960
370
     0
100
AcDbSpline
210
0.0
220
0.0
230
1.0
 70
     8
 71
     3
 72
    19
 73
    15
 74
     0
 42
0.00000001
 43
0.00000001
 40
0.0
 40
0.0
 40
0.0
 40
0.0
 40
0.0625583465051444
 40
0.1251001633860555
 40
0.2500501157123809
 40
0.3749255740713308
 40
0.4998063905395773
 40
0.5999962464121111
 40
0.674872524912535
 40
0.7498430831687771
 40
0.8123758319883304
 40
0.8749111362463982
 40
0.9374468170257407
 40
1.0
 40
1.0
 40
1.0
 40
1.0
 10
769.4739023764258
 20
685.7659285477938
 30
0.0
 10
769.4333319460789
 20
685.7475553799053
 30
0.0
 10
769.3522018052006
 20
685.7108138988209
 30
0.0
 10
769.1958878412565
 20
685.6228010306963
 30
0.0
 10
769.0144526721767
 20
685.4848010280225
 30
0.0
 10
768.8300604988689
 20
685.2758829698665
 30
0.0
 10
768.6983313157127
 20
685.0461947488474
 30
0.0
 10
768.6192792220542
 20
684.8319001380462
 30
0.0
 10
768.5757072561684
 20
684.6458756696791
 30
0.0
 10
768.5602328878464
 20
684.4842955465087
 30
0.0
 10
768.5593690860342
 20
684.3318829871753
 30
0.0
 10
768.5748757013877
 20
684.1906101076996
 30
0.0
 10
768.6003976130156
 20
684.0515062727931
 30
0.0
 10
768.6273010058032
 20
683.9622056055123
 30
0.0
 10
768.6407545843327
 20
683.9175490244824
 30
0.0
  0
SPLINE
  5
127
330
1F
100
AcDbEntity
  8
0
  6
SLD-Solid
 62
   142
420
    32960
370
     0
100
AcDbSpline
210
0.0
220
0.0
230
1.0
 70
     8
 71
     3
 72
     9
 73
     5
 74
     0
 42
0.00000001
 43
0.00000001
 40
0.0
 40
0.0
 40
0.0
 40
0.0
 40
0.4999059913039255
 40
1.0
 40
1.0
 40
1.0
 40
1.0
 10
768.6407545843327
 20
683.9175490244824
 30
0.0
 10
768.6570487361768
 20
683.8729240797828
 30
0.0
 10
768.6896431681851
 20
683.7836574066969
 30
0.0
 10
768.738157282087
 20
683.7043052974919
 30
0.0
 10
768.7624188997864
 20
683.6646217831013
 30
0.0
  0
LINE
  5
128
330
1F
100
AcDbEntity
  8
0
  6
SLD-Solid
 62
   142
420
    32960
370
     0
100
AcDbLine
 10
768.0093898074
 20
683.5397074643
 30
0.0
 11
768.7624188998
 21
683.6646217831
 31
0.0
  0
SPLINE
  5
129
330
1F
100
AcDbEntity
  8
0
  6
SLD-Solid
 62
   142
420
    32960
370
     0
100
AcDbSpline
210
0.0
220
0.0
230
1.0
 70
     8
 71
     3
 72
     9
 73
     5
 74
     0
 42
0.00000001
 43
0.00000001
 40
0.0
 40
0.0
 40
0.0
 40
0.0
 40
0.4999969146687001
 40
0.9999999999999999
 40
0.9999999999999999
 40
0.9999999999999999
 40
0.9999999999999999
 10
768.0093898074164
 20
683.5397074643046
 30
0.0
 10
767.9366252220727
 20
683.7653705492071
 30
0.0
 10
767.7910951533684
 20
684.2166995040108
 30
0.0
 10
767.6389995894122
 20
684.6690453780396
 30
0.0
 10
767.5629513381689
 20
684.8952197106911
 30
0.0
  0
LINE
  5
12A
330
1F
100
AcDbEntity
  8
0
  6
SLD-Solid
 62
   142
420
    32960
370
     0
100
AcDbLine
 10
766.8906132777
 20
684.6116223907
 30
0.0
 11
767.5629513382
 21
684.8952197107
 31
0.0
  0
LINE
  5
12B
330
1F
100
AcDbEntity
  8
0
  6
SLD-Solid
 62
   142
420
    32960
370
     0
100
AcDbLine
 10
775.625998316
 20
664.8802092354
 30
0.0
 11
775.0539182937
 21
664.4432946731
 31
0.0
  0
SPLINE
  5
12C
330
1F
100
AcDbEntity
  8
0
  6
SLD-Solid
 62
   142
420
    32960
370
     0
100
AcDbSpline
210
0.0
220
0.0
230
1.0
 70
     8
 71
     3
 72
    18
 73
    14
 74
     0
 42
0.00000001
 43
0.00000001
 40
0.0
 40
0.0
 40
0.0
 40
0.0
 40
0.0625457692087449
 40
0.1250799684438286
 40
0.2500402054669359
 40
0.3749579694246809
 40
0.4999189686768729
 40
0.5624516703922233
 40
0.624977740376464
 40
0.7499527049293591
 40
0.8749216484551021
 40
0.9374548383199941
 40
1.0
 40
1.0
 40
1.0
 40
1.0
 10
776.4110939851307
 20
664.5433897075047
 30
0.0
 10
776.3858745878199
 20
664.5244435163147
 30
0.0
 10
776.3354404583862
 20
664.4865546386792
 30
0.0
 10
776.2341396951502
 20
664.4151201867445
 30
0.0
 10
776.1074115852965
 20
664.3339067075098
 30
0.0
 10
775.9608810669599
 20
664.2577024821885
 30
0.0
 10
775.845415515268
 20
664.2099697224876
 30
0.0
 10
775.7604399427298
 20
664.1848199059095
 30
0.0
 10
775.6793491501081
 20
664.1660042980975
 30
0.0
 10
775.590144131339
 20
664.1603328545316
 30
0.0
 10
775.5146691739052
 20
664.17196989862
 30
0.0
 10
775.4638070250643
 20
664.1920943222754
 30
0.0
 10
775.441981941724
 20
664.2060458849144
 30
0.0
 10
775.431068355565
 20
664.2130223339178
 30
0.0
  0
SPLINE
  5
12D
330
1F
100
AcDbEntity
  8
0
  6
SLD-Solid
 62
   142
420
    32960
370
     0
100
AcDbSpline
210
0.0
220
0.0
230
1.0
 70
     8
 71
     3
 72
     8
 73
     4
 74
     0
 42
0.00000001
 43
0.00000001
 40
0.0
 40
0.0
 40
0.0
 40
0.0
 40
1.0
 40
1.0
 40
1.0
 40
1.0
 10
776.4325392000015
 20
665.8712796234919
 30
0.0
 10
776.411465780994
 20
665.9295120275384
 30
0.0
 10
776.3901477615826
 20
665.988497234221
 30
0.0
 10
776.3685868356058
 20
666.0482300304415
 30
0.0
  0
SPLINE
  5
12E
330
1F
100
AcDbEntity
  8
0
  6
SLD-Solid
 62
   142
420
    32960
370
     0
100
AcDbSpline
210
0.0
220
0.0
230
1.0
 70
     8
 71
     3
 72
     8
 73
     4
 74
     0
 42
0.00000001
 43
0.00000001
 40
0.0
 40
0.0
 40
0.0
 40
0.0
 40
1.0
 40
1.0
 40
1.0
 40
1.0
 10
776.3685868356058
 20
666.0482300304415
 30
0.0
 10
776.1639460716756
 20
665.8891957355515
 30
0.0
 10
775.9593127106359
 20
665.7301386569077
 30
0.0
 10
775.7546867409685
 20
665.5710588299588
 30
0.0
  0
SPLINE
  5
12F
330
1F
100
AcDbEntity
  8
0
  6
SLD-Solid
 62
   142
420
    32960
370
     0
100
AcDbSpline
210
0.0
220
0.0
230
1.0
 70
     8
 71
     3
 72
     8
 73
     4
 74
     0
 42
0.00000001
 43
0.00000001
 40
0.0
 40
0.0
 40
0.0
 40
0.0
 40
1.0
 40
1.0
 40
1.0
 40
1.0
 10
775.7546867409685
 20
665.5710588299588
 30
0.0
 10
775.7762100302361
 20
665.5113717598811
 30
0.0
 10
775.797492716162
 20
665.4524251907469
 30
0.0
 10
775.8185331384874
 20
665.3942242323079
 30
0.0
  0
SPLINE
  5
130
330
1F
100
AcDbEntity
  8
0
  6
SLD-Solid
 62
   142
420
    32960
370
     0
100
AcDbSpline
210
0.0
220
0.0
230
1.0
 70
     8
 71
     3
 72
     8
 73
     4
 74
     0
 42
0.00000001
 43
0.00000001
 40
0.0
 40
0.0
 40
0.0
 40
0.0
 40
1.0
 40
1.0
 40
1.0
 40
1.0
 10
775.8185331384874
 20
665.3942242323079
 30
0.0
 10
775.0690896362003
 20
664.812633150079
 30
0.0
 10
774.3197137026418
 20
664.2308341126861
 30
0.0
 10
773.5704050687891
 20
663.6488279480969
 30
0.0
  0
SPLINE
  5
131
330
1F
100
AcDbEntity
  8
0
  6
SLD-Solid
 62
   142
420
    32960
370
     0
100
AcDbSpline
210
0.0
220
0.0
230
1.0
 70
     8
 71
     3
 72
     9
 73
     5
 74
     0
 42
0.00000001
 43
0.00000001
 40
0.0
 40
0.0
 40
0.0
 40
0.0
 40
0.5000039696612639
 40
1.0
 40
1.0
 40
1.0
 40
1.0
 10
773.5704050687891
 20
663.6488279480969
 30
0.0
 10
773.5923036386463
 20
663.5870595534758
 30
0.0
 10
773.6361004306435
 20
663.463523745024
 30
0.0
 10
773.6766126764574
 20
663.3436105360518
 30
0.0
 10
773.6968686385445
 20
663.2836544075802
 30
0.0
  0
SPLINE
  5
132
330
1F
100
AcDbEntity
  8
0
  6
SLD-Solid
 62
   142
420
    32960
370
     0
100
AcDbSpline
210
0.0
220
0.0
230
1.0
 70
     8
 71
     3
 72
    11
 73
     7
 74
     0
 42
0.00000001
 43
0.00000001
 40
0.0
 40
0.0
 40
0.0
 40
0.0
 40
0.252845638063152
 40
0.5037920205482
 40
0.7528423195117078
 40
0.9999999999999999
 40
0.9999999999999999
 40
0.9999999999999999
 40
0.9999999999999999
 10
773.6968686385445
 20
663.2836544075802
 30
0.0
 10
773.9089035999865
 20
663.3625805007991
 30
0.0
 10
774.3313808175885
 20
663.5198398321497
 30
0.0
 10
774.9571027408022
 20
663.7610860426838
 30
0.0
 10
775.5742912920321
 20
664.0047780596088
 30
0.0
 10
775.9802935516528
 20
664.1710106849574
 30
0.0
 10
776.1825204019179
 20
664.2538099784072
 30
0.0
  0
SPLINE
  5
133
330
1F
100
AcDbEntity
  8
0
  6
SLD-Solid
 62
   142
420
    32960
370
     0
100
AcDbSpline
210
0.0
220
0.0
230
1.0
 70
     8
 71
     3
 72
     8
 73
     4
 74
     0
 42
0.00000001
 43
0.00000001
 40
0.0
 40
0.0
 40
0.0
 40
0.0
 40
1.0
 40
1.0
 40
1.0
 40
1.0
 10
776.1825204019179
 20
664.2538099784072
 30
0.0
 10
776.3871700514347
 20
664.4128390337265
 30
0.0
 10
776.5918135331378
 20
664.5718870716247
 30
0.0
 10
776.7964508573473
 20
664.7309540603402
 30
0.0
  0
SPLINE
  5
134
330
1F
100
AcDbEntity
  8
0
  6
SLD-Solid
 62
   142
420
    32960
370
     0
100
AcDbSpline
210
0.0
220
0.0
230
1.0
 70
     8
 71
     3
 72
    11
 73
     7
 74
     0
 42
0.00000001
 43
0.00000001
 40
0.0
 40
0.0
 40
0.0
 40
0.0
 40
0.2500151131446908
 40
0.5000078356072521
 40
0.7499966392901724
 40
1.0
 40
1.0
 40
1.0
 40
1.0
 10
776.7964508573473
 20
664.7309540603402
 30
0.0
 10
776.7791083294915
 20
664.7932130646742
 30
0.0
 10
776.7444248269302
 20
664.9177254975931
 30
0.0
 10
776.6865141403156
 20
665.1111306598341
 30
0.0
 10
776.6246927668215
 20
665.3089172044082
 30
0.0
 10
776.5795819169809
 20
665.4451142902806
 30
0.0
 10
776.5570258353705
 20
665.5132148158724
 30
0.0
  0
LINE
  5
135
330
1F
100
AcDbEntity
  8
0
  6
SLD-Solid
 62
   142
420
    32960
370
     0
100
AcDbLine
 10
777.274337909
 20
666.0698043993
 30
0.0
 11
776.5570336593
 21
665.5132208872
 31
0.0
  0
SPLINE
  5
136
330
1F
100
AcDbEntity
  8
0
  6
SLD-Solid
 62
   142
420
    32960
370
     0
100
AcDbSpline
210
0.0
220
0.0
230
1.0
 70
     8
 71
     3
 72
     9
 73
     5
 74
     0
 42
0.00000001
 43
0.00000001
 40
0.0
 40
0.0
 40
0.0
 40
0.0
 40
0.4999955739392668
 40
1.0
 40
1.0
 40
1.0
 40
1.0
 10
777.2743379090348
 20
666.0698043992832
 30
0.0
 10
777.2543986301373
 20
666.1285904021307
 30
0.0
 10
777.2145197193297
 20
666.2461634485967
 30
0.0
 10
777.171314981611
 20
666.367402158297
 30
0.0
 10
777.1497124215248
 20
666.428022049757
 30
0.0
  0
SPLINE
  5
137
330
1F
100
AcDbEntity
  8
0
  6
SLD-Solid
 62
   142
420
    32960
370
     0
100
AcDbSpline
210
0.0
220
0.0
230
1.0
 70
     8
 71
     3
 72
     8
 73
     4
 74
     0
 42
0.00000001
 43
0.00000001
 40
0.0
 40
0.0
 40
0.0
 40
0.0
 40
1.0
 40
1.0
 40
1.0
 40
1.0
 10
777.1497045989806
 20
666.4280159770709
 30
0.0
 10
776.9106421894194
 20
666.242459587519
 30
0.0
 10
776.6715870596854
 20
666.0568807929621
 30
0.0
 10
776.4325392000015
 20
665.8712796234919
 30
0.0
  0
LINE
  5
138
330
1F
100
AcDbEntity
  8
0
  6
SLD-Solid
 62
     7
370
    15
100
AcDbLine
 10
764.776438721
 20
712.7900496406
 30
0.0
 11
778.2899986363
 21
671.1995887606
 31
0.0
  0
ARC
  5
139
330
1F
100
AcDbEntity
  8
0
  6
SLD-Solid
 62
   142
420
    32960
370
     0
100
AcDbCircle
 10
764.0240617805
 20
712.4785315793
 30
0.0
 40
0.8143184653811386
100
AcDbArc
 50
22.491765777
 51
94.998104743
  0
SPLINE
  5
13A
330
1F
100
AcDbEntity
  8
0
  6
SLD-Solid
 62
     7
370
    15
100
AcDbSpline
210
0.0
220
0.0
230
1.0
 70
     8
 71
     3
 72
    12
 73
     8
 74
     0
 42
0.00000001
 43
0.00000001
 40
0.0
 40
0.0
 40
0.0
 40
0.0
 40
0.2499999999999999
 40
0.2499999999999999
 40
0.4999999999999998
 40
0.4999999999999998
 40
1.0
 40
1.0
 40
1.0
 40
1.0
 10
778.8606944729406
 20
669.4854247663909
 30
0.0
 10
778.9096461168583
 20
669.5601500489984
 30
0.0
 10
778.9495308066723
 20
669.6407301694285
 30
0.0
 10
779.0116181335013
 20
669.8133081907604
 30
0.0
 10
779.0331226456731
 20
669.9043390678366
 30
0.0
 10
779.0664071982745
 20
670.1787247197383
 30
0.0
 10
779.0461978568101
 20
670.3683737381868
 30
0.0
 10
778.9872479000455
 20
670.5316216659446
 30
0.0
  0
SPLINE
  5
13B
330
1F
100
AcDbEntity
  8
0
  6
SLD-Solid
 62
     7
370
    15
100
AcDbSpline
210
0.0
220
0.0
230
1.0
 70
     8
 71
     3
 72
    14
 73
    10
 74
     0
 42
0.00000001
 43
0.00000001
 40
0.0
 40
0.0
 40
0.0
 40
0.0
 40
0.0000095361705259
 40
0.0000095361705259
 40
0.0000095361705259
 40
0.0000219642949667
 40
0.0000219642949667
 40
0.0000219642949667
 40
0.0000450544384129
 40
0.0000450544384129
 40
0.0000450544384129
 40
0.0000450544384129
 10
778.8606944729406
 20
669.4854247663909
 30
0.0
 10
778.8590280704595
 20
669.4828809826411
 30
0.0
 10
778.8577281557134
 20
669.4802495436703
 30
0.0
 10
778.8568358425943
 20
669.4777802096066
 30
0.0
 10
778.8556721434479
 20
669.4745598580508
 30
0.0
 10
778.8551265492574
 20
669.4715044890401
 30
0.0
 10
778.8549580460349
 20
669.4687140917846
 30
0.0
 10
778.8546457033597
 20
669.463541726947
 30
0.0
 10
778.8555340714179
 20
669.4590496623372
 30
0.0
 10
778.8568529408011
 20
669.4549905997486
 30
0.0
  0
SPLINE
  5
13C
330
1F
100
AcDbEntity
  8
0
  6
SLD-Solid
 62
   142
420
    32960
370
     0
100
AcDbSpline
210
0.0
220
0.0
230
1.0
 70
     8
 71
     3
 72
    10
 73
     6
 74
     0
 42
0.00000001
 43
0.00000001
 40
0.0
 40
0.0
 40
0.0
 40
0.0
 40
0.5
 40
0.5
 40
1.0
 40
1.0
 40
1.0
 40
1.0
 10
764.9479040174199
 20
713.7402792062429
 30
0.0
 10
764.8265532451296
 20
713.6197869781332
 30
0.0
 10
764.7516061195195
 20
713.4776336191642
 30
0.0
 10
764.6958272460333
 20
713.1524800309917
 30
0.0
 10
764.7155872770242
 20
712.9773311279771
 30
0.0
 10
764.7764387210261
 20
712.7900496405595
 30
0.0
  0
LINE
  5
13D
330
1F
100
AcDbEntity
  8
0
  6
SLD-Solid
 62
     7
370
    15
100
AcDbLine
 10
782.4335071323
 20
716.8986516355
 30
0.0
 11
783.9033617718
 21
716.7366930143
 31
0.0
  0
SPLINE
  5
13E
330
1F
100
AcDbEntity
  8
0
  6
SLD-Solid
 62
   142
420
    32960
370
     0
100
AcDbSpline
210
0.0
220
0.0
230
1.0
 70
     8
 71
     3
 72
    17
 73
    13
 74
     0
 42
0.00000001
 43
0.00000001
 40
0.0
 40
0.0
 40
0.0
 40
0.0
 40
0.0000166887075715
 40
0.0000166887075715
 40
0.0000166887075715
 40
0.0000336582619935
 40
0.0000336582619935
 40
0.0000336582619935
 40
0.0000426621382239
 40
0.0000426621382239
 40
0.0000426621382239
 40
0.0000451385286554
 40
0.0000451385286554
 40
0.0000451385286554
 40
0.0000451385286554
 10
764.2095844165419
 20
714.5346478014469
 30
0.0
 10
764.2105391978997
 20
714.5317092865807
 30
0.0
 10
764.2118221152085
 20
714.5287383734103
 30
0.0
 10
764.2136829511227
 20
714.5257997569954
 30
0.0
 10
764.215560794625
 20
714.5228342823402
 30
0.0
 10
764.2180827351842
 20
714.519818070159
 30
0.0
 10
764.2216626799529
 20
714.517130524115
 30
0.0
 10
764.2235780050769
 20
714.5156926459376
 30
0.0
 10
764.2258504711492
 20
714.5143291145257
 30
0.0
 10
764.2283921540218
 20
714.5131884841218
 30
0.0
 10
764.2291006792087
 20
714.5128705194462
 30
0.0
 10
764.2298321251612
 20
714.5125681000944
 30
0.0
 10
764.230581035645
 20
714.5122840393611
 30
0.0
  0
SPLINE
  5
13F
330
1F
100
AcDbEntity
  8
0
  6
SLD-Solid
 62
   142
420
    32960
370
     0
100
AcDbSpline
210
0.0
220
0.0
230
1.0
 70
     8
 71
     3
 72
     8
 73
     4
 74
     0
 42
0.00000001
 43
0.00000001
 40
0.0
 40
0.0
 40
0.0
 40
0.0
 40
1.0
 40
1.0
 40
1.0
 40
1.0
 10
763.455647085512
 20
719.0191896054179
 30
0.0
 10
769.7830871740586
 20
718.3250530484337
 30
0.0
 10
776.1096162541335
 20
717.6231287114229
 30
0.0
 10
782.433507132292
 20
716.8986516355139
 30
0.0
  0
SPLINE
  5
140
330
1F
100
AcDbEntity
  8
0
  6
SLD-Solid
 62
   142
420
    32960
370
     0
100
AcDbSpline
210
0.0
220
0.0
230
1.0
 70
     8
 71
     3
 72
    10
 73
     6
 74
     0
 42
0.00000001
 43
0.00000001
 40
0.0
 40
0.0
 40
0.0
 40
0.0
 40
0.5
 40
0.5
 40
1.0
 40
1.0
 40
1.0
 40
1.0
 10
763.455647085512
 20
719.0191896054179
 30
0.0
 10
763.3928434917452
 20
719.0260793222283
 30
0.0
 10
763.3330701262483
 20
719.032866406512
 30
0.0
 10
763.2478890993337
 20
719.0427162983477
 30
0.0
 10
763.2232797226154
 20
719.0456538807144
 30
0.0
 10
763.2232831856418
 20
719.0456856152779
 30
0.0
  0
SPLINE
  5
141
330
1F
100
AcDbEntity
  8
0
  6
SLD-Solid
 62
   142
420
    32960
370
     0
100
AcDbSpline
210
0.0
220
0.0
230
1.0
 70
     8
 71
     3
 72
    12
 73
     8
 74
     0
 42
0.00000001
 43
0.00000001
 40
0.0
 40
0.0
 40
0.0
 40
0.0
 40
0.25
 40
0.25
 40
0.5
 40
0.5
 40
1.0
 40
1.0
 40
1.0
 40
1.0
 10
764.230581035645
 20
714.5122840393612
 30
0.0
 10
764.3141061665668
 20
714.4806030701927
 30
0.0
 10
764.3937373648594
 20
714.4388560158218
 30
0.0
 10
764.5454058832083
 20
714.3357314787726
 30
0.0
 10
764.6163100060605
 20
714.2747259873184
 30
0.0
 10
764.8045176143935
 20
714.0723075010658
 30
0.0
 10
764.8996408098494
 20
713.9069994692927
 30
0.0
 10
764.9479040174209
 20
713.7402792062392
 30
0.0
  0
ARC
  5
142
330
1F
100
AcDbEntity
  8
0
  6
SLD-Solid
 62
   142
420
    32960
370
     0
100
AcDbCircle
 10
790.3488671392
 20
679.3149359131
 30
0.0
 40
5.651480467560771
100
AcDbArc
 50
33.9496313682
 51
44.8769008127
  0
LINE
  5
143
330
1F
100
AcDbEntity
  8
0
  6
SLD-Solid
 62
     7
370
    15
100
AcDbLine
 10
785.7436759546
 20
712.9808883366
 30
0.0
 11
795.3650220545
 21
683.3694298396
 31
0.0
  0
ARC
  5
144
330
1F
100
AcDbEntity
  8
0
  6
SLD-Solid
 62
   142
420
    32960
370
     0
100
AcDbCircle
 10
794.9304303295
 20
682.2609717366
 30
0.0
 40
1.190608807907045
100
AcDbArc
 50
68.5914088265
 51
118.9762263586
  0
LINE
  5
145
330
1F
100
AcDbEntity
  8
0
  6
SLD-Solid
 62
     7
370
    15
100
AcDbLine
 10
784.7467921477
 20
716.0489812176
 30
0.0
 11
785.7436759546
 21
712.9808883366
 31
0.0
  0
SPLINE
  5
146
330
1F
100
AcDbEntity
  8
0
  6
SLD-Solid
 62
     7
370
    15
100
AcDbSpline
210
0.0
220
0.0
230
1.0
 70
     8
 71
     3
 72
    10
 73
     6
 74
     0
 42
0.00000001
 43
0.00000001
 40
0.0
 40
0.0
 40
0.0
 40
0.0
 40
0.4999999999999991
 40
0.4999999999999991
 40
1.0
 40
1.0
 40
1.0
 40
1.0
 10
783.9033617717935
 20
716.7366930142919
 30
0.0
 10
784.0955676083755
 20
716.7155081737372
 30
0.0
 10
784.277655934621
 20
716.6383790587398
 30
0.0
 10
784.5739166309904
 20
716.3970087651729
 30
0.0
 10
784.6870419473005
 20
716.2328734258222
 30
0.0
 10
784.7467921477394
 20
716.0489812175884
 30
0.0
  0
LINE
  5
147
330
1F
100
AcDbEntity
  8
0
  6
SLD-Solid
 62
     7
370
    15
100
AcDbLine
 10
795.3650220545
 20
683.3694298396
 30
0.0
 11
796.3803744531
 21
680.244496478
 31
0.0
  0
ARC
  5
148
330
1F
100
AcDbEntity
  8
0
  6
SLD-Solid
 62
   142
420
    32960
370
     0
100
AcDbCircle
 10
794.557139782
 20
683.155395525
 30
0.0
 40
0.8357538238407647
100
AcDbArc
 50
305.0355498025
 51
14.8386162463
  0
LINE
  5
149
330
1F
100
AcDbEntity
  8
0
  6
SLD-Solid
 62
   142
420
    32960
370
     0
100
AcDbLine
 10
775.6608087196
 20
664.8174276916
 30
0.0
 11
775.2305286448
 21
664.4835673167
 31
0.0
  0
LINE
  5
14A
330
1F
100
AcDbEntity
  8
0
  6
SLD-Solid
 62
   142
420
    32960
370
     0
100
AcDbLine
 10
775.2346950811
 20
664.3012978319
 30
0.0
 11
776.077492275
 21
664.6172619231
 31
0.0
  0
SPLINE
  5
14B
330
1F
100
AcDbEntity
  8
0
  6
SLD-Solid
 62
   142
420
    32960
370
     0
100
AcDbSpline
210
0.0
220
0.0
230
1.0
 70
     8
 71
     3
 72
    11
 73
     7
 74
     0
 42
0.00000001
 43
0.00000001
 40
0.0
 40
0.0
 40
0.0
 40
0.0
 40
0.2500092344259803
 40
0.4999993581481847
 40
0.7499898028806274
 40
1.0
 40
1.0
 40
1.0
 40
1.0
 10
767.5281696166618
 20
682.6653376101309
 30
0.0
 10
767.4773156296415
 20
682.827129673277
 30
0.0
 10
767.3756115428794
 20
683.1507014321851
 30
0.0
 10
767.2186557566458
 20
683.6369920498882
 30
0.0
 10
767.0588029391027
 20
684.1237912449777
 30
0.0
 10
766.949375461283
 20
684.4487179137026
 30
0.0
 10
766.894659560922
 20
684.6111876661339
 30
0.0
  0
LINE
  5
14C
330
1F
100
AcDbEntity
  8
0
  6
SLD-Solid
 62
   142
420
    32960
370
     0
100
AcDbLine
 10
766.8946595609
 20
684.6111876661
 30
0.0
 11
767.5669967076
 21
684.8947877984
 31
0.0
  0
SPLINE
  5
14D
330
1F
100
AcDbEntity
  8
0
  6
SLD-Solid
 62
   142
420
    32960
370
     0
100
AcDbSpline
210
0.0
220
0.0
230
1.0
 70
     8
 71
     3
 72
     9
 73
     5
 74
     0
 42
0.00000001
 43
0.00000001
 40
0.0
 40
0.0
 40
0.0
 40
0.0
 40
0.5000030761515505
 40
1.0
 40
1.0
 40
1.0
 40
1.0
 10
767.566996707633
 20
684.8947877984384
 30
0.0
 10
767.6430673290588
 20
684.6685452755785
 30
0.0
 10
767.7952076358971
 20
684.2160630136664
 30
0.0
 10
767.9407813698328
 20
683.7645983546621
 30
0.0
 10
768.0135677889939
 20
683.5388674139335
 30
0.0
  0
LINE
  5
14E
330
1F
100
AcDbEntity
  8
0
  6
SLD-Solid
 62
   142
420
    32960
370
     0
100
AcDbLine
 10
768.013567789
 20
683.5388674139
 30
0.0
 11
768.7666134131
 21
683.6637291377
 31
0.0
  0
SPLINE
  5
14F
330
1F
100
AcDbEntity
  8
0
  6
SLD-Solid
 62
   142
420
    32960
370
     0
100
AcDbSpline
210
0.0
220
0.0
230
1.0
 70
     8
 71
     3
 72
     9
 73
     5
 74
     0
 42
0.00000001
 43
0.00000001
 40
0.0
 40
0.0
 40
0.0
 40
0.0
 40
0.5000907651098859
 40
1.0
 40
1.0
 40
1.0
 40
1.0
 10
768.7666138109157
 20
683.6637294400226
 30
0.0
 10
768.7423478628583
 20
683.7034263585992
 30
0.0
 10
768.6938247751502
 20
683.782805785988
 30
0.0
 10
768.6612217658444
 20
683.8720991562193
 30
0.0
 10
768.6449232204071
 20
683.9167377366125
 30
0.0
  0
SPLINE
  5
150
330
1F
100
AcDbEntity
  8
0
  6
SLD-Solid
 62
   142
420
    32960
370
     0
100
AcDbSpline
210
0.0
220
0.0
230
1.0
 70
     8
 71
     3
 72
    19
 73
    15
 74
     0
 42
0.00000001
 43
0.00000001
 40
0.0
 40
0.0
 40
0.0
 40
0.0
 40
0.0625636241951983
 40
0.1251094395618564
 40
0.1876542639276348
 40
0.2501954071452957
 40
0.3216525366447049
 40
0.3931172035823632
 40
0.5002367421285254
 40
0.6251150582598974
 40
0.7499809907806946
 40
0.8749164961190403
 40
0.9374501041531973
 40
1.0
 40
1.0
 40
1.0
 40
1.0
 10
768.6449232204071
 20
683.9167377366125
 30
0.0
 10
768.6314651449446
 20
683.9614077004006
 30
0.0
 10
768.6045528248804
 20
684.0507349126053
 30
0.0
 10
768.5790200447389
 20
684.1898785379149
 30
0.0
 10
768.5634925816881
 20
684.3311897789715
 30
0.0
 10
768.5643593253802
 20
684.4809606036931
 30
0.0
 10
768.5788210868775
 20
684.637299542306
 30
0.0
 10
768.620902127156
 20
684.823667905978
 30
0.0
 10
768.6997892743042
 20
685.0411504632677
 30
0.0
 10
768.8341142360435
 20
685.27540132164
 30
0.0
 10
769.0184935422928
 20
685.4843675224095
 30
0.0
 10
769.1999261278668
 20
685.6223856594804
 30
0.0
 10
769.3562390331491
 20
685.7104062538422
 30
0.0
 10
769.4373690345801
 20
685.747148873458
 30
0.0
 10
769.4779393174881
 20
685.7655225754952
 30
0.0
  0
SPLINE
  5
151
330
1F
100
AcDbEntity
  8
0
  6
SLD-Solid
 62
   142
420
    32960
370
     0
100
AcDbSpline
210
0.0
220
0.0
230
1.0
 70
     8
 71
     3
 72
    17
 73
    13
 74
     0
 42
0.00000001
 43
0.00000001
 40
0.0
 40
0.0
 40
0.0
 40
0.0
 40
0.0625643078841626
 40
0.1251082847994248
 40
0.2500544378946482
 40
0.37222059464017
 40
0.4999775367650148
 40
0.624932485551809
 40
0.7498976924323013
 40
0.8748587485724718
 40
0.9374185882520842
 40
1.0
 40
1.0
 40
1.0
 40
1.0
 10
769.4779393174881
 20
685.7655225754952
 30
0.0
 10
769.521739400117
 20
685.782524073823
 30
0.0
 10
769.6093253320503
 20
685.8165215456526
 30
0.0
 10
769.789460682359
 20
685.8657880530441
 30
0.0
 10
770.0191035269481
 20
685.890764694178
 30
0.0
 10
770.2953380523631
 20
685.856780205133
 30
0.0
 10
770.5578772894402
 20
685.7624471808352
 30
0.0
 10
770.800429159032
 20
685.6166982475029
 30
0.0
 10
771.0093753644024
 20
685.4224409731075
 30
0.0
 10
771.1437076884548
 20
685.2208357452602
 30
0.0
 10
771.2277477260808
 20
685.0449138641984
 30
0.0
 10
771.2599403882048
 20
684.9519929721577
 30
0.0
 10
771.2760394939804
 20
684.9055245172043
 30
0.0
  0
SPLINE
  5
152
330
1F
100
AcDbEntity
  8
0
  6
SLD-Solid
 62
   142
420
    32960
370
     0
100
AcDbSpline
210
0.0
220
0.0
230
1.0
 70
     8
 71
     3
 72
    17
 73
    13
 74
     0
 42
0.00000001
 43
0.00000001
 40
0.0
 40
0.0
 40
0.0
 40
0.0
 40
0.0625702169189209
 40
0.1251279424568637
 40
0.2501349728727763
 40
0.3750873360729432
 40
0.5000457796182403
 40
0.6249919778469408
 40
0.7499544397767056
 40
0.8749053120345736
 40
0.9374472680349637
 40
1.0
 40
1.0
 40
1.0
 40
1.0
 10
771.2760394939804
 20
684.9055245172043
 30
0.0
 10
771.2883094041655
 20
684.8642860075933
 30
0.0
 10
771.3128467749976
 20
684.7818172211369
 30
0.0
 10
771.3476369809114
 20
684.6122159068054
 30
0.0
 10
771.3700394095569
 20
684.3947605158885
 30
0.0
 10
771.3496575515882
 20
684.1307866273627
 30
0.0
 10
771.287720120541
 20
683.8728968948941
 30
0.0
 10
771.1850083186889
 20
683.6286798804755
 30
0.0
 10
771.042990574117
 20
683.4076388385253
 30
0.0
 10
770.8977711529186
 20
683.2478777449325
 30
0.0
 10
770.7700618402381
 20
683.1353815716108
 30
0.0
 10
770.7026761703269
 20
683.0845697407656
 30
0.0
 10
770.6689804329874
 20
683.0591616368148
 30
0.0
  0
SPLINE
  5
153
330
1F
100
AcDbEntity
  8
0
  6
SLD-Solid
 62
   142
420
    32960
370
     0
100
AcDbSpline
210
0.0
220
0.0
230
1.0
 70
     8
 71
     3
 72
     9
 73
     5
 74
     0
 42
0.00000001
 43
0.00000001
 40
0.0
 40
0.0
 40
0.0
 40
0.0
 40
0.5000084574257095
 40
0.9999999999999999
 40
0.9999999999999999
 40
0.9999999999999999
 40
0.9999999999999999
 10
770.6689804329874
 20
683.0591616368148
 30
0.0
 10
770.6276265510731
 20
683.196487733463
 30
0.0
 10
770.5449201862104
 20
683.4711352811369
 30
0.0
 10
770.4595763565426
 20
683.7464940988825
 30
0.0
 10
770.4169051634977
 20
683.8841711789289
 30
0.0
  0
SPLINE
  5
154
330
1F
100
AcDbEntity
  8
0
  6
SLD-Solid
 62
   142
420
    32960
370
     0
100
AcDbSpline
210
0.0
220
0.0
230
1.0
 70
     8
 71
     3
 72
    13
 73
     9
 74
     0
 42
0.00000001
 43
0.00000001
 40
0.0
 40
0.0
 40
0.0
 40
0.0
 40
0.1252129687240284
 40
0.2503508891031176
 40
0.5000341053572102
 40
0.7496609058298015
 40
0.8747812225091309
 40
1.0
 40
1.0
 40
1.0
 40
1.0
 10
770.4169051634977
 20
683.8841711789289
 30
0.0
 10
770.4381441263474
 20
683.9098546024588
 30
0.0
 10
770.480609322143
 20
683.9612060557582
 30
0.0
 10
770.5522876303667
 20
684.0752793149252
 30
0.0
 10
770.6153651540407
 20
684.2348938291311
 30
0.0
 10
770.6340967119227
 20
684.4061992977781
 30
0.0
 10
770.619422410836
 20
684.5404877040621
 30
0.0
 10
770.6017370336484
 20
684.604749030381
 30
0.0
 10
770.5928908671389
 20
684.636892330844
 30
0.0
  0
SPLINE
  5
155
330
1F
100
AcDbEntity
  8
0
  6
SLD-Solid
 62
   142
420
    32960
370
     0
100
AcDbSpline
210
0.0
220
0.0
230
1.0
 70
     8
 71
     3
 72
    17
 73
    13
 74
     0
 42
0.00000001
 43
0.00000001
 40
0.0
 40
0.0
 40
0.0
 40
0.0
 40
0.0625881928241726
 40
0.1251529137078534
 40
0.250100880588562
 40
0.3750040730282134
 40
0.5000096249504673
 40
0.6250016255043078
 40
0.7499345076396721
 40
0.8748676060176664
 40
0.937427207998172
 40
1.0
 40
1.0
 40
1.0
 40
1.0
 10
770.5928889379088
 20
684.6368993344955
 30
0.0
 10
770.5854353569939
 20
684.6581016326564
 30
0.0
 10
770.5705309904196
 20
684.7004982776526
 30
0.0
 10
770.5318276229581
 20
684.7806930937514
 30
0.0
 10
770.4684931729968
 20
684.8710031336954
 30
0.0
 10
770.3716779928848
 20
684.9572452659372
 30
0.0
 10
770.2601971084812
 20
685.0191761777555
 30
0.0
 10
770.1393803799004
 20
685.0576947482384
 30
0.0
 10
770.0128231391521
 20
685.0653171810696
 30
0.0
 10
769.9077547619227
 20
685.0500911270123
 30
0.0
 10
769.8257661281797
 20
685.0264195161408
 30
0.0
 10
769.785764250964
 20
685.0107590645065
 30
0.0
 10
769.7657612040867
 20
685.0029280133169
 30
0.0
  0
SPLINE
  5
156
330
1F
100
AcDbEntity
  8
0
  6
SLD-Solid
 62
   142
420
    32960
370
     0
100
AcDbSpline
210
0.0
220
0.0
230
1.0
 70
     8
 71
     3
 72
    16
 73
    12
 74
     0
 42
0.00000001
 43
0.00000001
 40
0.0
 40
0.0
 40
0.0
 40
0.0
 40
0.1250863805377361
 40
0.2500995968202173
 40
0.3751035203423814
 40
0.5000746512833835
 40
0.6250242473268356
 40
0.7499427910613329
 40
0.8748498777442001
 40
0.937419856727288
 40
1.0
 40
1.0
 40
1.0
 40
1.0
 10
769.7657612040867
 20
685.0029280133169
 30
0.0
 10
769.7282878411453
 20
684.9856898017587
 30
0.0
 10
769.6533630338012
 20
684.9512234614418
 30
0.0
 10
769.5522051667676
 20
684.8750839537297
 30
0.0
 10
769.4622473916912
 20
684.7835459574
 30
0.0
 10
769.3928723623122
 20
684.6724299885129
 30
0.0
 10
769.3419638273839
 20
684.5507853708392
 30
0.0
 10
769.3137343127877
 20
684.4205913024176
 30
0.0
 10
769.3157194485447
 20
684.3100553478936
 30
0.0
 10
769.3291067442814
 20
684.2239226927161
 30
0.0
 10
769.3412777115171
 20
684.1825627373474
 30
0.0
 10
769.3473636893784
 20
684.1618810801019
 30
0.0
  0
SPLINE
  5
157
330
1F
100
AcDbEntity
  8
0
  6
SLD-Solid
 62
   142
420
    32960
370
     0
100
AcDbSpline
210
0.0
220
0.0
230
1.0
 70
     8
 71
     3
 72
    12
 73
     8
 74
     0
 42
0.00000001
 43
0.00000001
 40
0.0
 40
0.0
 40
0.0
 40
0.0
 40
0.1251099641819164
 40
0.2501560287775239
 40
0.4998854219306456
 40
0.7498967401005555
 40
1.0
 40
1.0
 40
1.0
 40
1.0
 10
769.3473659012889
 20
684.1618735932534
 30
0.0
 10
769.3561507693631
 20
684.1380469208824
 30
0.0
 10
769.3737160186636
 20
684.0904057455508
 30
0.0
 10
769.4234159268052
 20
684.0036044630972
 30
0.0
 10
769.5036182281449
 20
683.910352443937
 30
0.0
 10
769.6185501481822
 20
683.8226052478223
 30
0.0
 10
769.7039158873398
 20
683.7817172020995
 30
0.0
 10
769.746606603794
 20
683.7612694207818
 30
0.0
  0
SPLINE
  5
158
330
1F
100
AcDbEntity
  8
0
  6
SLD-Solid
 62
   142
420
    32960
370
     0
100
AcDbSpline
210
0.0
220
0.0
230
1.0
 70
     8
 71
     3
 72
     9
 73
     5
 74
     0
 42
0.00000001
 43
0.00000001
 40
0.0
 40
0.0
 40
0.0
 40
0.0
 40
0.4998981072624313
 40
1.0
 40
1.0
 40
1.0
 40
1.0
 10
769.7466071067145
 20
683.7612691881508
 30
0.0
 10
769.7578278564049
 20
683.645055699865
 30
0.0
 10
769.7802739299696
 20
683.4125813483971
 30
0.0
 10
769.8011672722561
 20
683.1805004702436
 30
0.0
 10
769.8116160722792
 20
683.0644363838107
 30
0.0
  0
SPLINE
  5
159
330
1F
100
AcDbEntity
  8
0
  6
SLD-Solid
 62
   142
420
    32960
370
     0
100
AcDbSpline
210
0.0
220
0.0
230
1.0
 70
     8
 71
     3
 72
     9
 73
     5
 74
     0
 42
0.00000001
 43
0.00000001
 40
0.0
 40
0.0
 40
0.0
 40
0.0
 40
0.4963320672236988
 40
1.0
 40
1.0
 40
1.0
 40
1.0
 10
769.8116160722792
 20
683.0644363838107
 30
0.0
 10
769.4341010448653
 20
682.9983393021481
 30
0.0
 10
768.6734912589095
 20
682.8651682136219
 30
0.0
 10
767.9118060375368
 20
682.7322727789751
 30
0.0
 10
767.5281696166618
 20
682.6653376101309
 30
0.0
  0
LINE
  5
15A
330
1F
100
AcDbEntity
  8
0
  6
SLD-Solid
 62
   142
420
    32960
370
     0
100
AcDbLine
 10
123.3322086528
 20
753.0393556201
 30
0.0
 11
123.3322086528
 21
747.6393556201
 31
0.0
  0
LINE
  5
15B
330
1F
100
AcDbEntity
  8
0
  6
SLD-Solid
 62
     7
370
    15
100
AcDbLine
 10
120.5322076296
 20
-100.4606443799
 30
0.0
 11
63.5322076296
 21
-100.4606443799
 31
0.0
  0
LINE
  5
15C
330
1F
100
AcDbEntity
  8
0
  6
SLD-Solid
 62
     7
370
    15
100
AcDbLine
 10
118.5322075588
 20
-106.4606443799
 30
0.0
 11
65.5322076296
 21
-106.4606443799
 31
0.0
  0
LINE
  5
15D
330
1F
100
AcDbEntity
  8
0
  6
SLD-Solid
 62
     7
370
    15
100
AcDbLine
 10
747.6763620806
 20
730.1480587138
 30
0.0
 11
771.1714966676
 21
740.3640339836
 31
0.0
  0
LINE
  5
15E
330
1F
100
AcDbEntity
  8
0
  6
SLD-Solid
 62
   142
420
    32960
370
     0
100
AcDbLine
 10
726.9822086528
 20
748.6893556201
 30
0.0
 11
726.9822086528
 21
746.2393556201
 31
0.0
  0
LINE
  5
15F
330
1F
100
AcDbEntity
  8
0
  6
SLD-Solid
 62
   142
420
    32960
370
     0
100
AcDbLine
 10
726.9822086528
 20
746.2393556201
 30
0.0
 11
644.3422086528
 21
746.2393556201
 31
0.0
  0
LINE
  5
160
330
1F
100
AcDbEntity
  8
0
  6
SLD-Solid
 62
   142
420
    32960
370
     0
100
AcDbLine
 10
644.3422086528
 20
746.2393556201
 30
0.0
 11
644.3422086528
 21
748.6893556201
 31
0.0
  0
LINE
  5
161
330
1F
100
AcDbEntity
  8
0
  6
SLD-Solid
 62
   142
420
    32960
370
     0
100
AcDbLine
 10
727.2322086528
 20
728.8393556201
 30
0.0
 11
727.2322086528
 21
731.2893556201
 31
0.0
  0
LINE
  5
162
330
1F
100
AcDbEntity
  8
0
  6
SLD-Solid
 62
   142
420
    32960
370
     0
100
AcDbLine
 10
727.2322086528
 20
728.8393556201
 30
0.0
 11
728.528566191
 21
728.8393556201
 31
0.0
  0
LINE
  5
163
330
1F
100
AcDbEntity
  8
0
  6
SLD-Solid
 62
   142
420
    32960
370
     0
100
AcDbLine
 10
744.5256922728
 20
728.8393556201
 30
0.0
 11
746.7020293189
 21
728.8393556201
 31
0.0
  0
LINE
  5
164
330
1F
100
AcDbEntity
  8
0
  6
SLD-Solid
 62
   142
420
    32960
370
     0
100
AcDbLine
 10
746.9441564066
 20
728.8393556201
 30
0.0
 11
747.4263620806
 21
728.8393556201
 31
0.0
  0
LINE
  5
165
330
1F
100
AcDbEntity
  8
0
  6
SLD-Solid
 62
   142
420
    32960
370
     0
100
AcDbLine
 10
747.4263620806
 20
731.2893556201
 30
0.0
 11
747.4263620806
 21
728.8393556201
 31
0.0
  0
LINE
  5
166
330
1F
100
AcDbEntity
  8
0
  6
SLD-Solid
 62
     7
370
    15
100
AcDbLine
 10
667.3822086528
 20
762.6293556201
 30
0.0
 11
645.5822086528
 21
762.6293556201
 31
0.0
  0
ARC
  5
167
330
1F
100
AcDbEntity
  8
0
  6
SLD-Solid
 62
     7
370
    15
100
AcDbCircle
 10
667.3822086528
 20
765.0893556201
 30
0.0
 40
2.460000000000036
100
AcDbArc
 50
270.0
 51
0.0
  0
LINE
  5
168
330
1F
100
AcDbEntity
  8
0
  6
SLD-Solid
 62
     7
370
    15
100
AcDbLine
 10
669.8422086528
 20
781.3393556201
 30
0.0
 11
669.8422086528
 21
765.0893556201
 31
0.0
  0
ARC
  5
169
330
1F
100
AcDbEntity
  8
0
  6
SLD-Solid
 62
     7
370
    15
100
AcDbCircle
 10
762.3990171513
 20
760.5393556201
 30
0.0
 40
22.00000000000008
100
AcDbArc
 50
293.5
 51
88.6977110648
  0
ARC
  5
16A
330
1F
100
AcDbEntity
  8
0
  6
SLD-Solid
 62
   142
420
    32960
370
     0
100
AcDbCircle
 10
749.8990171513
 20
748.0393556201
 30
0.0
 40
2.59999999999997
100
AcDbArc
 50
99.9421486627
 51
260.0578513373
  0
ARC
  5
16B
330
1F
100
AcDbEntity
  8
0
  6
SLD-Solid
 62
   142
420
    32960
370
     0
100
AcDbCircle
 10
749.4069540134
 20
745.2321552588
 30
0.0
 40
0.25000000000004
100
AcDbArc
 50
260.0578513373
 51
80.0578513374
  0
ARC
  5
16C
330
1F
100
AcDbEntity
  8
0
  6
SLD-Solid
 62
   142
420
    32960
370
     0
100
AcDbCircle
 10
749.8990171513
 20
748.0393556201
 30
0.0
 40
3.099999999999957
100
AcDbArc
 50
99.9421486627
 51
260.0578513373
  0
ARC
  5
16D
330
1F
100
AcDbEntity
  8
0
  6
SLD-Solid
 62
   142
420
    32960
370
     0
100
AcDbCircle
 10
749.4069540134
 20
750.8465559814
 30
0.0
 40
0.25000000000004
100
AcDbArc
 50
279.9421486626
 51
99.9421486627
  0
ARC
  5
16E
330
1F
100
AcDbEntity
  8
0
  6
SLD-Solid
 62
   142
420
    32960
370
     0
100
AcDbCircle
 10
749.8990171513
 20
748.0393556201
 30
0.0
 40
2.59999999999995
100
AcDbArc
 50
279.9421486627
 51
80.0578513373
  0
ARC
  5
16F
330
1F
100
AcDbEntity
  8
0
  6
SLD-Solid
 62
   142
420
    32960
370
     0
100
AcDbCircle
 10
750.3910802891
 20
750.8465559814
 30
0.0
 40
0.2500000000000596
100
AcDbArc
 50
80.0578513374
 51
260.0578513373
  0
ARC
  5
170
330
1F
100
AcDbEntity
  8
0
  6
SLD-Solid
 62
   142
420
    32960
370
     0
100
AcDbCircle
 10
749.8990171513
 20
748.0393556201
 30
0.0
 40
3.100000000000049
100
AcDbArc
 50
279.9421486627
 51
80.0578513373
  0
ARC
  5
171
330
1F
100
AcDbEntity
  8
0
  6
SLD-Solid
 62
   142
420
    32960
370
     0
100
AcDbCircle
 10
750.3910802891
 20
745.2321552588
 30
0.0
 40
0.2500000000000596
100
AcDbArc
 50
99.9421486627
 51
279.9421486626
  0
LINE
  5
172
330
1F
100
AcDbEntity
  8
0
  6
SLD-Solid
 62
   142
420
    32960
370
     0
100
AcDbLine
 10
726.9822086528
 20
748.6893556201
 30
0.0
 11
726.9822086528
 21
748.7393556201
 31
0.0
  0
LINE
  5
173
330
1F
100
AcDbEntity
  8
0
  6
SLD-Solid
 62
   142
420
    32960
370
     0
100
AcDbLine
 10
726.9822086528
 20
748.7393556201
 30
0.0
 11
726.9926442604
 21
748.7393556201
 31
0.0
  0
ARC
  5
174
330
1F
100
AcDbEntity
  8
0
  6
SLD-Solid
 62
   142
420
    32960
370
     0
100
AcDbCircle
 10
727.1072086528
 20
748.6893556201
 30
0.0
 40
0.1250000000000767
100
AcDbArc
 50
23.5781784782
 51
156.4218215218
  0
LINE
  5
175
330
1F
100
AcDbEntity
  8
0
  6
SLD-Solid
 62
   142
420
    32960
370
     0
100
AcDbLine
 10
727.2217730452
 20
748.7393556201
 30
0.0
 11
727.2322086528
 21
748.7393556201
 31
0.0
  0
LINE
  5
176
330
1F
100
AcDbEntity
  8
0
  6
SLD-Solid
 62
   142
420
    32960
370
     0
100
AcDbLine
 10
727.2322086528
 20
748.7393556201
 30
0.0
 11
727.2322086528
 21
731.2893556201
 31
0.0
  0
ARC
  5
177
330
1F
100
AcDbEntity
  8
0
  6
SLD-Solid
 62
   142
420
    32960
370
     0
100
AcDbCircle
 10
747.5513620806
 20
731.2893556201
 30
0.0
 40
0.1250000000001137
100
AcDbArc
 50
0.0
 51
180.0
  0
LINE
  5
178
330
1F
100
AcDbEntity
  8
0
  6
SLD-Solid
 62
   142
420
    32960
370
     0
100
AcDbLine
 10
747.6763620806
 20
730.1480587138
 30
0.0
 11
747.6763620806
 21
731.2893556201
 31
0.0
  0
LINE
  5
179
330
1F
100
AcDbEntity
  8
0
  6
SLD-Solid
 62
   142
420
    32960
370
     0
100
AcDbLine
 10
762.8990171513
 20
782.533673068
 30
0.0
 11
762.8990171513
 21
781.3393556201
 31
0.0
  0
LINE
  5
17A
330
1F
100
AcDbEntity
  8
0
  6
SLD-Solid
 62
   142
420
    32960
370
     0
100
AcDbLine
 10
762.8990171513
 20
781.3393556201
 30
0.0
 11
762.3990171513
 21
781.3393556201
 31
0.0
  0
LINE
  5
17B
330
1F
100
AcDbEntity
  8
0
  6
SLD-Solid
 62
   142
420
    32960
370
     0
100
AcDbLine
 10
762.3990171513
 20
781.3393556201
 30
0.0
 11
762.3990171513
 21
781.3893556201
 31
0.0
  0
LINE
  5
17C
330
1F
100
AcDbEntity
  8
0
  6
SLD-Solid
 62
   142
420
    32960
370
     0
100
AcDbLine
 10
671.0822086528
 20
781.3893556201
 30
0.0
 11
671.0822086528
 21
781.3393556201
 31
0.0
  0
LINE
  5
17D
330
1F
100
AcDbEntity
  8
0
  6
SLD-Solid
 62
   142
420
    32960
370
     0
100
AcDbLine
 10
671.0822086528
 20
781.3393556201
 30
0.0
 11
669.8422086528
 21
781.3393556201
 31
0.0
  0
ARC
  5
17E
330
1F
100
AcDbEntity
  8
0
  6
SLD-Solid
 62
   142
420
    32960
370
     0
100
AcDbCircle
 10
645.5822086528
 20
761.3893556201
 30
0.0
 40
1.240000000000009
100
AcDbArc
 50
90.0
 51
180.0
  0
LINE
  5
17F
330
1F
100
AcDbEntity
  8
0
  6
SLD-Solid
 62
   142
420
    32960
370
     0
100
AcDbLine
 10
644.3422086528
 20
761.3893556201
 30
0.0
 11
644.3422086528
 21
748.6893556201
 31
0.0
  0
LINE
  5
180
330
1F
100
AcDbEntity
  8
0
  6
SLD-Solid
 62
     7
370
    15
100
AcDbLine
 10
671.0822086528
 20
783.8393556201
 30
0.0
 11
762.3990171513
 21
783.8393556201
 31
0.0
  0
LINE
  5
181
330
1F
100
AcDbEntity
  8
0
  6
SLD-Solid
 62
   142
420
    32960
370
     0
100
AcDbLine
 10
671.0822086528
 20
781.3893556201
 30
0.0
 11
671.0822086528
 21
783.8393556201
 31
0.0
  0
LINE
  5
182
330
1F
100
AcDbEntity
  8
0
  6
SLD-Solid
 62
   142
420
    32960
370
     0
100
AcDbLine
 10
762.3990171513
 20
783.8393556201
 30
0.0
 11
762.3990171513
 21
781.3893556201
 31
0.0
  0
LINE
  5
183
330
1F
100
AcDbEntity
  8
0
  6
SLD-Solid
 62
   142
420
    32960
370
     0
100
AcDbLine
 10
668.6322086528
 20
781.3893556201
 30
0.0
 11
668.6322086528
 21
765.0893556201
 31
0.0
  0
ARC
  5
184
330
1F
100
AcDbEntity
  8
0
  6
SLD-Solid
 62
     7
370
    15
100
AcDbCircle
 10
762.3990171513
 20
760.5393556201
 30
0.0
 40
23.3000000000001
100
AcDbArc
 50
293.5
 51
88.7703824493
  0
ARC
  5
185
330
1F
100
AcDbEntity
  8
0
  6
SLD-Solid
 62
   142
420
    32960
370
     0
100
AcDbCircle
 10
762.3990171513
 20
760.5393556201
 30
0.0
 40
23.30000000000007
100
AcDbArc
 50
88.7703824493
 51
90.0
  0
LINE
  5
186
330
1F
100
AcDbEntity
  8
0
  6
SLD-Solid
 62
   142
420
    32960
370
     0
100
AcDbLine
 10
762.8990171513
 20
782.6336987875
 30
0.0
 11
762.8990171513
 21
783.8339901955
 31
0.0
  0
ARC
  5
187
330
1F
100
AcDbEntity
  8
0
  6
SLD-Solid
 62
   142
420
    32960
370
     0
100
AcDbCircle
 10
762.3990171513
 20
760.5393556201
 30
0.0
 40
22.10000000000011
100
AcDbArc
 50
293.5
 51
88.703604783
  0
LINE
  5
188
330
1F
100
AcDbEntity
  8
0
  6
SLD-Solid
 62
     7
370
    15
100
AcDbLine
 10
749.4358277786
 20
729.4955227374
 30
0.0
 11
771.6898704572
 21
739.1718558869
 31
0.0
  0
LINE
  5
189
330
1F
100
AcDbEntity
  8
0
  6
SLD-Solid
 62
   142
420
    32960
370
     0
100
AcDbLine
 10
749.4358277786
 20
729.4955227374
 30
0.0
 11
748.5187677042
 21
729.0967736684
 31
0.0
  0
LINE
  5
18A
330
1F
100
AcDbEntity
  8
0
  6
SLD-Solid
 62
   142
420
    32960
370
     0
100
AcDbLine
 10
748.9573288959
 20
730.5959948266
 30
0.0
 11
771.2113715745
 21
740.2723279762
 31
0.0
  0
LINE
  5
18B
330
1F
100
AcDbEntity
  8
0
  6
SLD-Solid
 62
   142
420
    32960
370
     0
100
AcDbLine
 10
748.9573288959
 20
730.5959948266
 30
0.0
 11
749.4358277786
 21
729.4955227374
 31
0.0
  0
ARC
  5
18C
330
1F
100
AcDbEntity
  8
0
  6
SLD-Solid
 62
   142
420
    32960
370
     0
100
AcDbCircle
 10
645.5822086528
 20
761.3893556201
 30
0.0
 40
2.449999999999932
100
AcDbArc
 50
90.0
 51
180.0
  0
LINE
  5
18D
330
1F
100
AcDbEntity
  8
0
  6
SLD-Solid
 62
   142
420
    32960
370
     0
100
AcDbLine
 10
643.1322086528
 20
753.8393556201
 30
0.0
 11
643.1322086528
 21
754.8393556201
 31
0.0
  0
LINE
  5
18E
330
1F
100
AcDbEntity
  8
0
  6
SLD-Solid
 62
   142
420
    32960
370
     0
100
AcDbLine
 10
643.1322086528
 20
761.3893556201
 30
0.0
 11
643.1322086528
 21
754.8393556201
 31
0.0
  0
LINE
  5
18F
330
1F
100
AcDbEntity
  8
0
  6
SLD-Solid
 62
     7
370
    15
100
AcDbLine
 10
667.3822086528
 20
763.8393556201
 30
0.0
 11
645.5822086528
 21
763.8393556201
 31
0.0
  0
LINE
  5
190
330
1F
100
AcDbEntity
  8
0
  6
SLD-Solid
 62
     7
370
    15
100
AcDbLine
 10
667.3822086528
 20
762.6393556201
 30
0.0
 11
645.5822086528
 21
762.6393556201
 31
0.0
  0
LINE
  5
191
330
1F
100
AcDbEntity
  8
0
  6
SLD-Solid
 62
   142
420
    32960
370
     0
100
AcDbLine
 10
645.5822086528
 20
763.8393556201
 30
0.0
 11
645.5822086528
 21
762.6393556201
 31
0.0
  0
LINE
  5
192
330
1F
100
AcDbEntity
  8
0
  6
SLD-Solid
 62
   142
420
    32960
370
     0
100
AcDbLine
 10
667.3822086528
 20
762.6393556201
 30
0.0
 11
667.3822086528
 21
763.8393556201
 31
0.0
  0
ARC
  5
193
330
1F
100
AcDbEntity
  8
0
  6
SLD-Solid
 62
   142
420
    32960
370
     0
100
AcDbCircle
 10
667.3822086528
 20
765.0893556201
 30
0.0
 40
1.25
100
AcDbArc
 50
270.0
 51
0.0
  0
ARC
  5
194
330
1F
100
AcDbEntity
  8
0
  6
SLD-Solid
 62
   142
420
    32960
370
     0
100
AcDbCircle
 10
671.0822086528
 20
781.3893556201
 30
0.0
 40
2.450000000000159
100
AcDbArc
 50
90.0
 51
180.0
  0
LINE
  5
195
330
1F
100
AcDbEntity
  8
0
  6
SLD-Solid
 62
   142
420
    32960
370
     0
100
AcDbLine
 10
748.0402688215
 20
730.1972457577
 30
0.0
 11
748.9573288959
 21
730.5959948266
 31
0.0
  0
LINE
  5
196
330
1F
100
AcDbEntity
  8
0
  6
SLD-Solid
 62
   142
420
    32960
370
     0
100
AcDbLine
 10
748.5187677042
 20
729.0967736684
 30
0.0
 11
748.0402688215
 21
730.1972457577
 31
0.0
  0
LINE
  5
197
330
1F
100
AcDbEntity
  8
0
  6
SLD-Solid
 62
   142
420
    32960
370
     0
100
AcDbLine
 10
19.9322086528
 20
747.6393556201
 30
0.0
 11
19.9322086528
 21
783.0393556201
 31
0.0
  0
LINE
  5
198
330
1F
100
AcDbEntity
  8
0
  6
SLD-Solid
 62
   142
420
    32960
370
     0
100
AcDbLine
 10
20.4322086528
 20
831.8361248777
 30
0.0
 11
19.9323285697
 21
831.8361248777
 31
0.0
  0
LINE
  5
199
330
1F
100
AcDbEntity
  8
0
  6
SLD-Solid
 62
   142
420
    32960
370
     0
100
AcDbLine
 10
19.9322086528
 20
747.6393556201
 30
0.0
 11
20.4322086528
 21
747.6393556201
 31
0.0
  0
LINE
  5
19A
330
1F
100
AcDbEntity
  8
0
  6
SLD-Solid
 62
   142
420
    32960
370
     0
100
AcDbLine
 10
789.0172569762
 20
642.1808228606
 30
0.0
 11
787.606496639
 21
642.690484779
 31
0.0
  0
LINE
  5
19B
330
1F
100
AcDbEntity
  8
0
  6
SLD-Solid
 62
   142
420
    32960
370
     0
100
AcDbLine
 10
791.4259585634
 20
641.3106371606
 30
0.0
 11
786.4423030657
 21
643.1110701287
 31
0.0
  0
LINE
  5
19C
330
1F
100
AcDbEntity
  8
0
  6
SLD-Solid
 62
   142
420
    32960
370
     0
100
AcDbLine
 10
782.5485774528
 20
644.5177468072
 30
0.0
 11
782.6062772611
 21
644.4969017393
 31
0.0
  0
LINE
  5
19D
330
1F
100
AcDbEntity
  8
0
  6
SLD-Solid
 62
     7
370
    15
100
AcDbLine
 10
72.8322086528
 20
785.0893556201
 30
0.0
 11
73.3322086528
 21
785.0893556201
 31
0.0
  0
LINE
  5
19E
330
1F
100
AcDbEntity
  8
0
  6
SLD-Solid
 62
     7
370
    15
100
AcDbLine
 10
73.3322086528
 20
793.0893556201
 30
0.0
 11
72.8322086528
 21
793.0893556201
 31
0.0
  0
LINE
  5
19F
330
1F
100
AcDbEntity
  8
0
  6
SLD-Solid
 62
   142
420
    32960
370
     0
100
AcDbLine
 10
75.3822086528
 20
783.0393556201
 30
0.0
 11
75.3822086528
 21
782.5393556201
 31
0.0
  0
LINE
  5
1A0
330
1F
100
AcDbEntity
  8
0
  6
SLD-Solid
 62
     7
370
    15
100
AcDbLine
 10
21.8392786941
 20
69.8393556201
 30
0.0
 11
780.2251365584
 21
69.8393556201
 31
0.0
  0
LINE
  5
1A1
330
1F
100
AcDbEntity
  8
0
  6
SLD-Solid
 62
   142
420
    32960
370
     0
100
AcDbLine
 10
780.2251365584
 20
102.7893556201
 30
0.0
 11
780.2251365584
 21
69.8393556201
 31
0.0
  0
LINE
  5
1A2
330
1F
100
AcDbEntity
  8
0
  6
SLD-Solid
 62
   142
420
    32960
370
     0
100
AcDbLine
 10
21.8392786941
 20
102.7893556201
 30
0.0
 11
21.8392786941
 21
69.8393556201
 31
0.0
  0
LINE
  5
1A3
330
1F
100
AcDbEntity
  8
0
  6
SLD-Solid
 62
     7
370
    15
100
AcDbLine
 10
23.0822076263
 20
104.8393556201
 30
0.0
 11
778.9822076263
 21
104.8393556201
 31
0.0
  0
SPLINE
  5
1A4
330
1F
100
AcDbEntity
  8
0
  6
SLD-Solid
 62
   142
420
    32960
370
     0
100
AcDbSpline
210
0.0
220
0.0
230
1.0
 70
     8
 71
     3
 72
    22
 73
    18
 74
     0
 42
0.00000001
 43
0.00000001
 40
0.0
 40
0.0
 40
0.0
 40
0.0
 40
0.125
 40
0.125
 40
0.25
 40
0.25
 40
0.375
 40
0.375
 40
0.5
 40
0.5
 40
0.625
 40
0.625
 40
0.75
 40
0.75
 40
0.875
 40
0.875
 40
1.0
 40
1.0
 40
1.0
 40
1.0
 10
21.8392786940732
 20
102.7893556201174
 30
0.0
 10
21.89152949020301
 20
102.9247249729742
 30
0.0
 10
21.94297288481484
 20
103.0579814802553
 30
0.0
 10
22.04599862974421
 20
103.3197911267059
 30
0.0
 10
22.09796688676502
 20
103.4492847824031
 30
0.0
 10
22.20200009313334
 20
103.6982971850224
 30
0.0
 10
22.25335404582718
 20
103.816160122995
 30
0.0
 10
22.35646253349321
 20
104.038369050283
 30
0.0
 10
22.40875781258889
 20
104.1436714671817
 30
0.0
 10
22.51241573702723
 20
104.3336045406445
 30
0.0
 10
22.56372157921138
 20
104.4183542575134
 30
0.0
 10
22.66699789530391
 20
104.5672230581173
 30
0.0
 10
22.71942716271069
 20
104.6316490026636
 30
0.0
 10
22.82279784735996
 20
104.734248358061
 30
0.0
 10
22.87409561449649
 20
104.7731400966146
 30
0.0
 10
22.9776250786814
 20
104.8257959491776
 30
0.0
 10
23.02995682871845
 20
104.8393556201174
 30
0.0
 10
23.08220762626134
 20
104.8393556201174
 30
0.0
  0
SPLINE
  5
1A5
330
1F
100
AcDbEntity
  8
0
  6
SLD-Solid
 62
   142
420
    32960
370
     0
100
AcDbSpline
210
0.0
220
0.0
230
1.0
 70
     8
 71
     3
 72
    22
 73
    18
 74
     0
 42
0.00000001
 43
0.00000001
 40
0.0
 40
0.0
 40
0.0
 40
0.0
 40
0.125
 40
0.125
 40
0.25
 40
0.25
 40
0.375
 40
0.375
 40
0.5
 40
0.5
 40
0.625
 40
0.625
 40
0.75
 40
0.75
 40
0.875
 40
0.875
 40
1.0
 40
1.0
 40
1.0
 40
1.0
 10
778.9822076262614
 20
104.8393556201174
 30
0.0
 10
779.0344584223911
 20
104.8393556201174
 30
0.0
 10
779.0859018170034
 20
104.8260570717905
 30
0.0
 10
779.1889275619324
 20
104.7740346443761
 30
0.0
 10
779.2408958189529
 20
104.7349029622969
 30
0.0
 10
779.3449290253214
 20
104.6317687636563
 30
0.0
 10
779.3962829780156
 20
104.5686852182365
 30
0.0
 10
779.4993914656814
 20
104.4204003028709
 30
0.0
 10
779.5516867447772
 20
104.3341399887958
 30
0.0
 10
779.6553446692157
 20
104.1442819763352
 30
0.0
 10
779.7066505113995
 20
104.0410596076894
 30
0.0
 10
779.809926827492
 20
103.8187179499321
 30
0.0
 10
779.8623560948987
 20
103.6984130701202
 30
0.0
 10
779.9657267795479
 20
103.4510372600874
 30
0.0
 10
780.0170245466846
 20
103.3232904609638
 30
0.0
 10
780.1205540108695
 20
103.0602763643175
 30
0.0
 10
780.1728857609068
 20
102.924724976635
 30
0.0
 10
780.2251365584495
 20
102.7893556201174
 30
0.0
  0
SPLINE
  5
1A6
330
1F
100
AcDbEntity
  8
0
  6
SLD-Solid
 62
   142
420
    32960
370
     0
100
AcDbSpline
210
0.0
220
0.0
230
1.0
 70
     8
 71
     3
 72
    22
 73
    18
 74
     0
 42
0.00000001
 43
0.00000001
 40
0.0
 40
0.0
 40
0.0
 40
0.0
 40
0.125
 40
0.125
 40
0.25
 40
0.25
 40
0.375
 40
0.375
 40
0.5
 40
0.5
 40
0.625
 40
0.625
 40
0.75
 40
0.75
 40
0.875
 40
0.875
 40
1.0
 40
1.0
 40
1.0
 40
1.0
 10
781.0322076262613
 20
102.7893556201174
 30
0.0
 10
781.0322076262613
 20
102.9247249729741
 30
0.0
 10
781.0189090779345
 20
103.0579814802552
 30
0.0
 10
780.9668866505201
 20
103.3197911267059
 30
0.0
 10
780.9277549684408
 20
103.4492847824032
 30
0.0
 10
780.8246207698002
 20
103.6982971850224
 30
0.0
 10
780.7615372243806
 20
103.8161601229951
 30
0.0
 10
780.6132523090149
 20
104.0383690502831
 30
0.0
 10
780.5269919949396
 20
104.1436714671818
 30
0.0
 10
780.3371339824791
 20
104.3336045406446
 30
0.0
 10
780.2339116138334
 20
104.4183542575134
 30
0.0
 10
780.011569956076
 20
104.5672230581173
 30
0.0
 10
779.8912650762642
 20
104.6316490026637
 30
0.0
 10
779.6438892662314
 20
104.7342483580611
 30
0.0
 10
779.5161424671078
 20
104.7731400966147
 30
0.0
 10
779.2531283704615
 20
104.8257959491777
 30
0.0
 10
779.1175769827789
 20
104.8393556201174
 30
0.0
 10
778.9822076262614
 20
104.8393556201174
 30
0.0
  0
SPLINE
  5
1A7
330
1F
100
AcDbEntity
  8
0
  6
SLD-Solid
 62
   142
420
    32960
370
     0
100
AcDbSpline
210
0.0
220
0.0
230
1.0
 70
     8
 71
     3
 72
    22
 73
    18
 74
     0
 42
0.00000001
 43
0.00000001
 40
0.0
 40
0.0
 40
0.0
 40
0.0
 40
0.125
 40
0.125
 40
0.25
 40
0.25
 40
0.375
 40
0.375
 40
0.5
 40
0.5
 40
0.625
 40
0.625
 40
0.75
 40
0.75
 40
0.875
 40
0.875
 40
1.0
 40
1.0
 40
1.0
 40
1.0
 10
23.08220762626134
 20
104.8393556201174
 30
0.0
 10
22.94683827340438
 20
104.8393556201174
 30
0.0
 10
22.81358176612336
 20
104.8260570717906
 30
0.0
 10
22.55177211967296
 20
104.7740346443761
 30
0.0
 10
22.42227846397571
 20
104.7349029622969
 30
0.0
 10
22.17326606135661
 20
104.6317687636563
 30
0.0
 10
22.05540312338372
 20
104.5686852182367
 30
0.0
 10
21.83319419609586
 20
104.420400302871
 30
0.0
 10
21.72789177919709
 20
104.3341399887958
 30
0.0
 10
21.53795870573438
 20
104.1442819763352
 30
0.0
 10
21.45320898886549
 20
104.0410596076894
 30
0.0
 10
21.30434018826155
 20
103.8187179499321
 30
0.0
 10
21.23991424371518
 20
103.6984130701203
 30
0.0
 10
21.13731488831782
 20
103.4510372600875
 30
0.0
 10
21.09842314976407
 20
103.3232904609638
 30
0.0
 10
21.04576729720076
 20
103.0602763643175
 30
0.0
 10
21.03220762626135
 20
102.9247249766351
 30
0.0
 10
21.03220762626146
 20
102.7893556201174
 30
0.0
  0
LINE
  5
1A8
330
1F
100
AcDbEntity
  8
0
  6
SLD-Solid
 62
   142
420
    32960
370
     0
100
AcDbLine
 10
781.0322076263
 20
102.7893556201
 30
0.0
 11
781.0322076263
 21
69.8393556201
 31
0.0
  0
LINE
  5
1A9
330
1F
100
AcDbEntity
  8
0
  6
SLD-Solid
 62
   142
420
    32960
370
     0
100
AcDbLine
 10
781.0322076263
 20
69.8393556201
 30
0.0
 11
780.2322076263
 21
69.8393556201
 31
0.0
  0
LINE
  5
1AA
330
1F
100
AcDbEntity
  8
0
  6
SLD-Solid
 62
   142
420
    32960
370
     0
100
AcDbLine
 10
780.2322076263
 20
102.7893556201
 30
0.0
 11
780.2322076263
 21
69.8393556201
 31
0.0
  0
LINE
  5
1AB
330
1F
100
AcDbEntity
  8
0
  6
SLD-Solid
 62
   142
420
    32960
370
     0
100
AcDbLine
 10
21.0322076263
 20
69.8393556201
 30
0.0
 11
21.8322076263
 21
69.8393556201
 31
0.0
  0
LINE
  5
1AC
330
1F
100
AcDbEntity
  8
0
  6
SLD-Solid
 62
   142
420
    32960
370
     0
100
AcDbLine
 10
21.0322076263
 20
102.7893556201
 30
0.0
 11
21.0322076263
 21
69.8393556201
 31
0.0
  0
LINE
  5
1AD
330
1F
100
AcDbEntity
  8
0
  6
SLD-Solid
 62
   142
420
    32960
370
     0
100
AcDbLine
 10
21.8322076263
 20
102.7893556201
 30
0.0
 11
21.8322076263
 21
69.8393556201
 31
0.0
  0
LINE
  5
1AE
330
1F
100
AcDbEntity
  8
0
  6
SLD-Solid
 62
   142
420
    32960
370
     0
100
AcDbLine
 10
21.0322076263
 20
102.7893556201
 30
0.0
 11
21.8322076263
 21
102.7893556201
 31
0.0
  0
LINE
  5
1AF
330
1F
100
AcDbEntity
  8
0
  6
SLD-Solid
 62
     7
370
    15
100
AcDbLine
 10
133.8322076263
 20
480.3393556201
 30
0.0
 11
149.5322076263
 21
480.3393556201
 31
0.0
  0
LINE
  5
1B0
330
1F
100
AcDbEntity
  8
0
  6
SLD-Solid
 62
     7
370
    15
100
AcDbLine
 10
56.2322076263
 20
480.3393556201
 30
0.0
 11
127.8322076263
 21
480.3393556201
 31
0.0
  0
LINE
  5
1B1
330
1F
100
AcDbEntity
  8
0
  6
SLD-Solid
 62
     7
370
    15
100
AcDbLine
 10
53.7322076263
 20
480.3393556201
 30
0.0
 11
56.2322076263
 21
480.3393556201
 31
0.0
  0
LINE
  5
1B2
330
1F
100
AcDbEntity
  8
0
  6
SLD-Solid
 62
     7
370
    15
100
AcDbLine
 10
34.5322076263
 20
480.3393556201
 30
0.0
 11
50.2322076263
 21
480.3393556201
 31
0.0
  0
LINE
  5
1B3
330
1F
100
AcDbEntity
  8
0
  6
SLD-Solid
 62
     7
370
    15
100
AcDbLine
 10
32.0322076263
 20
480.3393556201
 30
0.0
 11
34.5322076263
 21
480.3393556201
 31
0.0
  0
LINE
  5
1B4
330
1F
100
AcDbEntity
  8
0
  6
SLD-Solid
 62
   142
420
    32960
370
     0
100
AcDbLine
 10
50.2322076263
 20
480.3393556201
 30
0.0
 11
52.7322076263
 21
480.3393556201
 31
0.0
  0
LINE
  5
1B5
330
1F
100
AcDbEntity
  8
0
  6
SLD-Solid
 62
   142
420
    32960
370
     0
100
AcDbLine
 10
52.7322076263
 20
480.3393556201
 30
0.0
 11
53.7322076263
 21
480.3393556201
 31
0.0
  0
LINE
  5
1B6
330
1F
100
AcDbEntity
  8
0
  6
SLD-Solid
 62
   142
420
    32960
370
     0
100
AcDbLine
 10
127.8322076263
 20
480.3393556201
 30
0.0
 11
130.3322076263
 21
480.3393556201
 31
0.0
  0
LINE
  5
1B7
330
1F
100
AcDbEntity
  8
0
  6
SLD-Solid
 62
   142
420
    32960
370
     0
100
AcDbLine
 10
130.3322076263
 20
480.3393556201
 30
0.0
 11
131.3322076263
 21
480.3393556201
 31
0.0
  0
LINE
  5
1B8
330
1F
100
AcDbEntity
  8
0
  6
SLD-Solid
 62
   142
420
    32960
370
     0
100
AcDbLine
 10
131.3322076263
 20
480.3393556201
 30
0.0
 11
133.8322076263
 21
480.3393556201
 31
0.0
  0
LINE
  5
1B9
330
1F
100
AcDbEntity
  8
0
  6
SLD-Solid
 62
   142
420
    32960
370
     0
100
AcDbLine
 10
149.5322076263
 20
480.3393556201
 30
0.0
 11
152.0322076263
 21
480.3393556201
 31
0.0
  0
LINE
  5
1BA
330
1F
100
AcDbEntity
  8
0
  6
SLD-Solid
 62
     7
370
    15
100
AcDbLine
 10
34.5322076263
 20
477.8393556201
 30
0.0
 11
50.2322076263
 21
477.8393556201
 31
0.0
  0
LINE
  5
1BB
330
1F
100
AcDbEntity
  8
0
  6
SLD-Solid
 62
   142
420
    32960
370
     0
100
AcDbLine
 10
50.2322076263
 20
477.8393556201
 30
0.0
 11
50.2322076263
 21
480.3393556201
 31
0.0
  0
LINE
  5
1BC
330
1F
100
AcDbEntity
  8
0
  6
SLD-Solid
 62
     7
370
    15
100
AcDbLine
 10
53.7322076263
 20
477.8393556201
 30
0.0
 11
56.2322076263
 21
477.8393556201
 31
0.0
  0
LINE
  5
1BD
330
1F
100
AcDbEntity
  8
0
  6
SLD-Solid
 62
     7
370
    15
100
AcDbLine
 10
56.2322076263
 20
477.8393556201
 30
0.0
 11
72.1179940639
 21
477.8393556201
 31
0.0
  0
LINE
  5
1BE
330
1F
100
AcDbEntity
  8
0
  6
SLD-Solid
 62
     7
370
    15
100
AcDbLine
 10
110.5322076263
 20
477.8393556201
 30
0.0
 11
127.8322076263
 21
477.8393556201
 31
0.0
  0
LINE
  5
1BF
330
1F
100
AcDbEntity
  8
0
  6
SLD-Solid
 62
     7
370
    15
100
AcDbLine
 10
133.8322076263
 20
477.8393556201
 30
0.0
 11
149.5322076263
 21
477.8393556201
 31
0.0
  0
LINE
  5
1C0
330
1F
100
AcDbEntity
  8
0
  6
SLD-Solid
 62
     7
370
    15
100
AcDbLine
 10
32.0322076263
 20
477.8393556201
 30
0.0
 11
34.5322076263
 21
477.8393556201
 31
0.0
  0
LINE
  5
1C1
330
1F
100
AcDbEntity
  8
0
  6
SLD-Solid
 62
   142
420
    32960
370
     0
100
AcDbLine
 10
149.5322076263
 20
477.8393556201
 30
0.0
 11
152.0322076263
 21
477.8393556201
 31
0.0
  0
LINE
  5
1C2
330
1F
100
AcDbEntity
  8
0
  6
SLD-Solid
 62
   142
420
    32960
370
     0
100
AcDbLine
 10
131.3322076263
 20
477.8393556201
 30
0.0
 11
133.8322076263
 21
477.8393556201
 31
0.0
  0
LINE
  5
1C3
330
1F
100
AcDbEntity
  8
0
  6
SLD-Solid
 62
   142
420
    32960
370
     0
100
AcDbLine
 10
130.3322076263
 20
477.8393556201
 30
0.0
 11
131.3322076263
 21
477.8393556201
 31
0.0
  0
LINE
  5
1C4
330
1F
100
AcDbEntity
  8
0
  6
SLD-Solid
 62
   142
420
    32960
370
     0
100
AcDbLine
 10
127.8322076263
 20
477.8393556201
 30
0.0
 11
130.3322076263
 21
477.8393556201
 31
0.0
  0
LINE
  5
1C5
330
1F
100
AcDbEntity
  8
0
  6
SLD-Solid
 62
   142
420
    32960
370
     0
100
AcDbLine
 10
52.7322076263
 20
477.8393556201
 30
0.0
 11
53.7322076263
 21
477.8393556201
 31
0.0
  0
LINE
  5
1C6
330
1F
100
AcDbEntity
  8
0
  6
SLD-Solid
 62
   142
420
    32960
370
     0
100
AcDbLine
 10
50.2322076263
 20
477.8393556201
 30
0.0
 11
52.7322076263
 21
477.8393556201
 31
0.0
  0
LINE
  5
1C7
330
1F
100
AcDbEntity
  8
0
  6
SLD-Solid
 62
     7
370
    15
100
AcDbLine
 10
32.0322076263
 20
477.8393556201
 30
0.0
 11
32.0322076263
 21
480.3393556201
 31
0.0
  0
LINE
  5
1C8
330
1F
100
AcDbEntity
  8
0
  6
SLD-Solid
 62
   142
420
    32960
370
     0
100
AcDbLine
 10
53.7322076263
 20
477.8393556201
 30
0.0
 11
53.7322076263
 21
480.3393556201
 31
0.0
  0
LINE
  5
1C9
330
1F
100
AcDbEntity
  8
0
  6
SLD-Solid
 62
   142
420
    32960
370
     0
100
AcDbLine
 10
127.8322076263
 20
477.8393556201
 30
0.0
 11
127.8322076263
 21
480.3393556201
 31
0.0
  0
LINE
  5
1CA
330
1F
100
AcDbEntity
  8
0
  6
SLD-Solid
 62
   142
420
    32960
370
     0
100
AcDbLine
 10
133.8322076263
 20
477.8393556201
 30
0.0
 11
133.8322076263
 21
480.3393556201
 31
0.0
  0
LINE
  5
1CB
330
1F
100
AcDbEntity
  8
0
  6
SLD-Solid
 62
   142
420
    32960
370
     0
100
AcDbLine
 10
149.5322076263
 20
477.8393556201
 30
0.0
 11
149.5322076263
 21
480.3393556201
 31
0.0
  0
LINE
  5
1CC
330
1F
100
AcDbEntity
  8
0
  6
SLD-Solid
 62
   142
420
    32960
370
     0
100
AcDbLine
 10
152.0322076263
 20
477.8393556201
 30
0.0
 11
152.0322076263
 21
480.3393556201
 31
0.0
  0
LINE
  5
1CD
330
1F
100
AcDbEntity
  8
0
  6
SLD-Solid
 62
   142
420
    32960
370
     0
100
AcDbLine
 10
52.3322076263
 20
477.8393556201
 30
0.0
 11
52.3322076263
 21
480.3393556201
 31
0.0
  0
LINE
  5
1CE
330
1F
100
AcDbEntity
  8
0
  6
SLD-Solid
 62
   142
420
    32960
370
     0
100
AcDbLine
 10
129.9322076263
 20
477.8393556201
 30
0.0
 11
129.9322076263
 21
480.3393556201
 31
0.0
  0
LINE
  5
1CF
330
1F
100
AcDbEntity
  8
0
  6
SLD-Solid
 62
   142
420
    32960
370
     0
100
AcDbLine
 10
131.7322076263
 20
477.8393556201
 30
0.0
 11
131.7322076263
 21
480.3393556201
 31
0.0
  0
LINE
  5
1D0
330
1F
100
AcDbEntity
  8
0
  6
SLD-Solid
 62
   142
420
    32960
370
     0
100
AcDbLine
 10
-8.5677913473
 20
591.8393556201
 30
0.0
 11
-8.5677913473
 21
589.8393556201
 31
0.0
  0
SPLINE
  5
1D1
330
1F
100
AcDbEntity
  8
0
  6
SLD-Solid
 62
     7
370
    15
100
AcDbSpline
210
0.0
220
0.0
230
1.0
 70
     8
 71
     3
 72
    12
 73
     8
 74
     0
 42
0.00000001
 43
0.00000001
 40
0.0
 40
0.0
 40
0.0
 40
0.0
 40
0.249999999999986
 40
0.249999999999986
 40
0.499999999999972
 40
0.499999999999972
 40
1.0
 40
1.0
 40
1.0
 40
1.0
 10
-15.06779134726377
 20
588.5393556201166
 30
0.0
 10
-14.51444372945876
 20
588.5393556201165
 30
0.0
 10
-13.95686295987431
 20
588.5704019525413
 30
0.0
 10
-12.85721296786924
 20
588.6901831624301
 30
0.0
 10
-12.31205957176862
 20
588.7787442360268
 30
0.0
 10
-10.68879100731534
 20
589.1192496968887
 30
0.0
 10
-9.622802878190173
 20
589.4456199565176
 30
0.0
 10
-8.567791347263821
 20
589.8393556201165
 30
0.0
  0
SPLINE
  5
1D2
330
1F
100
AcDbEntity
  8
0
  6
SLD-Solid
 62
     7
370
    15
100
AcDbSpline
210
0.0
220
0.0
230
1.0
 70
     8
 71
     3
 72
    10
 73
     6
 74
     0
 42
0.00000001
 43
0.00000001
 40
0.0
 40
0.0
 40
0.0
 40
0.0
 40
0.5
 40
0.5
 40
1.0
 40
1.0
 40
1.0
 40
1.0
 10
-21.56779134726383
 20
589.8393556201166
 30
0.0
 10
-20.50889575063752
 20
589.4441704034646
 30
0.0
 10
-19.44061075487924
 20
589.1175750868669
 30
0.0
 10
-17.27665872866946
 20
588.66441120687
 30
0.0
 10
-16.18078458402794
 20
588.5393556201166
 30
0.0
 10
-15.06779134726377
 20
588.5393556201166
 30
0.0
  0
LINE
  5
1D3
330
1F
100
AcDbEntity
  8
0
  6
SLD-Solid
 62
     7
370
    15
100
AcDbLine
 10
-21.5677913473
 20
591.8393556201
 30
0.0
 11
-21.5677913473
 21
589.8393556201
 31
0.0
  0
SPLINE
  5
1D4
330
1F
100
AcDbEntity
  8
0
  6
SLD-Solid
 62
     7
370
    15
100
AcDbSpline
210
0.0
220
0.0
230
1.0
 70
     8
 71
     3
 72
    12
 73
     8
 74
     0
 42
0.00000001
 43
0.00000001
 40
0.0
 40
0.0
 40
0.0
 40
0.0
 40
0.2500000000000085
 40
0.2500000000000085
 40
0.5000000000000171
 40
0.5000000000000171
 40
1.0
 40
1.0
 40
1.0
 40
1.0
 10
-28.06779134726389
 20
588.5393556201165
 30
0.0
 10
-27.5144437294591
 20
588.5393556201165
 30
0.0
 10
-26.95686295987432
 20
588.570401952541
 30
0.0
 10
-25.85721296786969
 20
588.6901831624299
 30
0.0
 10
-25.31205957176896
 20
588.7787442360265
 30
0.0
 10
-23.68879100731525
 20
589.1192496968886
 30
0.0
 10
-22.62280287819041
 20
589.4456199565178
 30
0.0
 10
-21.56779134726383
 20
589.8393556201165
 30
0.0
  0
SPLINE
  5
1D5
330
1F
100
AcDbEntity
  8
0
  6
SLD-Solid
 62
     7
370
    15
100
AcDbSpline
210
0.0
220
0.0
230
1.0
 70
     8
 71
     3
 72
    10
 73
     6
 74
     0
 42
0.00000001
 43
0.00000001
 40
0.0
 40
0.0
 40
0.0
 40
0.0
 40
0.5
 40
0.5
 40
1.0
 40
1.0
 40
1.0
 40
1.0
 10
-34.56779134726384
 20
589.8393556201165
 30
0.0
 10
-33.50889575063765
 20
589.4441704034646
 30
0.0
 10
-32.44061075487925
 20
589.1175750868666
 30
0.0
 10
-30.27665872866925
 20
588.6644112068699
 30
0.0
 10
-29.18078458402806
 20
588.5393556201165
 30
0.0
 10
-28.06779134726389
 20
588.5393556201165
 30
0.0
  0
LINE
  5
1D6
330
1F
100
AcDbEntity
  8
0
  6
SLD-Solid
 62
     7
370
    15
100
AcDbLine
 10
-34.5677913473
 20
591.8393556201
 30
0.0
 11
-34.5677913473
 21
589.8393556201
 31
0.0
  0
LINE
  5
1D7
330
1F
100
AcDbEntity
  8
0
  6
SLD-Solid
 62
     7
370
    15
100
AcDbLine
 10
-15.0677913473
 20
588.5393556201
 30
0.0
 11
-28.0677913473
 21
588.5393556201
 31
0.0
  0
LINE
  5
1D8
330
1F
100
AcDbEntity
  8
0
  6
SLD-Solid
 62
     7
370
    15
100
AcDbLine
 10
-28.0677913473
 20
588.5393556201
 30
0.0
 11
-34.5677913473
 21
588.5393556201
 31
0.0
  0
LINE
  5
1D9
330
1F
100
AcDbEntity
  8
0
  6
SLD-Solid
 62
     7
370
    15
100
AcDbLine
 10
-8.5677913473
 20
588.5393556201
 30
0.0
 11
-15.0677913473
 21
588.5393556201
 31
0.0
  0
SPLINE
  5
1DA
330
1F
100
AcDbEntity
  8
0
  6
SLD-Solid
 62
     7
370
    15
100
AcDbSpline
210
0.0
220
0.0
230
1.0
 70
    24
 71
     3
 72
    12
 73
     8
 74
     0
 42
0.00000001
 43
0.00000001
 40
0.0
 40
0.0
 40
0.0
 40
0.0
 40
0.2499999999999946
 40
0.2499999999999946
 40
0.4999999999999892
 40
0.4999999999999892
 40
1.0
 40
1.0
 40
1.0
 40
1.0
 10
-34.56779134726384
 20
589.8393556201165
 30
0.0
 10
-34.56779134726396
 20
589.6430893031976
 30
0.0
 10
-34.56779134726396
 20
589.4624352697901
 30
0.0
 10
-34.56779134726384
 20
589.1410820499004
 30
0.0
 10
-34.56779134726396
 20
589.0020604363594
 30
0.0
 10
-34.56779134726374
 20
588.6620779776489
 30
0.0
 10
-34.56779134726374
 20
588.5393556201165
 30
0.0
 10
-34.56779134726384
 20
588.5393556201165
 30
0.0
  0
SPLINE
  5
1DB
330
1F
100
AcDbEntity
  8
0
  6
SLD-Solid
 62
   142
420
    32960
370
     0
100
AcDbSpline
210
0.0
220
0.0
230
1.0
 70
    24
 71
     3
 72
    12
 73
     8
 74
     0
 42
0.00000001
 43
0.00000001
 40
0.0
 40
0.0
 40
0.0
 40
0.0
 40
0.2500000000000053
 40
0.2500000000000053
 40
0.5000000000000107
 40
0.5000000000000107
 40
1.0
 40
1.0
 40
1.0
 40
1.0
 10
-8.567791347263821
 20
589.8393556201166
 30
0.0
 10
-8.567791347263597
 20
589.6430893031978
 30
0.0
 10
-8.567791347263821
 20
589.4624352697904
 30
0.0
 10
-8.567791347263821
 20
589.1410820499008
 30
0.0
 10
-8.567791347263931
 20
589.0020604363596
 30
0.0
 10
-8.567791347263931
 20
588.6620779776491
 30
0.0
 10
-8.567791347263821
 20
588.5393556201168
 30
0.0
 10
-8.567791347263821
 20
588.5393556201167
 30
0.0
  0
LINE
  5
1DC
330
1F
100
AcDbEntity
  8
0
  6
SLD-Solid
 62
   142
420
    32960
370
     0
100
AcDbLine
 10
727.5322086528
 20
483.3464266879
 30
0.0
 11
727.5322086528
 21
483.8300746976
 31
0.0
  0
LINE
  5
1DD
330
1F
100
AcDbEntity
  8
0
  6
SLD-Solid
 62
   142
420
    32960
370
     0
100
AcDbLine
 10
727.5322086528
 20
606.2499348183
 30
0.0
 11
727.5322086528
 21
606.7322845523
 31
0.0
  0
LINE
  5
1DE
330
1F
100
AcDbEntity
  8
0
  6
SLD-Solid
 62
   142
420
    32960
370
     0
100
AcDbLine
 10
726.7322086528
 20
483.3464266879
 30
0.0
 11
727.5322086528
 21
483.3464266879
 31
0.0
  0
LINE
  5
1DF
330
1F
100
AcDbEntity
  8
0
  6
SLD-Solid
 62
   142
420
    32960
370
     0
100
AcDbLine
 10
726.7322086528
 20
606.7322845523
 30
0.0
 11
727.5322086528
 21
606.7322845523
 31
0.0
  0
LINE
  5
1E0
330
1F
100
AcDbEntity
  8
0
  6
SLD-Solid
 62
   142
420
    32960
370
     0
100
AcDbLine
 10
795.5598476743
 20
615.4383222021
 30
0.0
 11
794.277935679
 21
613.9031669538
 31
0.0
  0
LINE
  5
1E1
330
1F
100
AcDbEntity
  8
0
  6
SLD-Solid
 62
     7
370
    15
100
AcDbLine
 10
795.5598476743
 20
615.4383222021
 30
0.0
 11
801.313069688
 21
622.3281001286
 31
0.0
  0
ARC
  5
1E2
330
1F
100
AcDbEntity
  8
0
  6
SLD-Solid
 62
     7
370
    15
100
AcDbCircle
 10
793.0232313472
 20
629.2504249032
 30
0.0
 40
10.00000000000001
100
AcDbArc
 50
320.1368571726
 51
70.1368571726
  0
ARC
  5
1E3
330
1F
100
AcDbEntity
  8
0
  6
SLD-Solid
 62
     7
370
    15
100
AcDbCircle
 10
793.0232313472
 20
629.2504249032
 30
0.0
 40
10.79999999999998
100
AcDbArc
 50
320.1368571726
 51
70.1368571726
  0
LINE
  5
1E4
330
1F
100
AcDbEntity
  8
0
  6
SLD-Solid
 62
   142
420
    32960
370
     0
100
AcDbLine
 10
796.4209774693
 20
638.6554938179
 30
0.0
 11
796.6927971591
 21
639.407899331
 31
0.0
  0
LINE
  5
1E5
330
1F
100
AcDbEntity
  8
0
  6
SLD-Solid
 62
   142
420
    32960
370
     0
100
AcDbLine
 10
773.9686537495
 20
646.7667896035
 30
0.0
 11
773.6968340597
 21
646.8649892345
 31
0.0
  0
LINE
  5
1E6
330
1F
100
AcDbEntity
  8
0
  6
SLD-Solid
 62
   142
420
    32960
370
     0
100
AcDbLine
 10
778.6711882068
 20
645.0679165424
 30
0.0
 11
773.9686537495
 21
646.7667896035
 31
0.0
  0
LINE
  5
1E7
330
1F
100
AcDbEntity
  8
0
  6
SLD-Solid
 62
   142
420
    32960
370
     0
100
AcDbLine
 10
796.4209774693
 20
638.6554938179
 30
0.0
 11
778.6711882068
 21
645.0679165424
 31
0.0
  0
LINE
  5
1E8
330
1F
100
AcDbEntity
  8
0
  6
SLD-Solid
 62
     7
370
    15
100
AcDbLine
 10
794.945785575
 20
615.9510870002
 30
0.0
 11
800.6990075887
 21
622.8408649268
 31
0.0
  0
LINE
  5
1E9
330
1F
100
AcDbEntity
  8
0
  6
SLD-Solid
 62
   142
420
    32960
370
     0
100
AcDbLine
 10
793.6638735797
 20
614.4159317519
 30
0.0
 11
794.945785575
 21
615.9510870002
 31
0.0
  0
LINE
  5
1EA
330
1F
100
AcDbEntity
  8
0
  6
SLD-Solid
 62
   142
420
    32960
370
     0
100
AcDbLine
 10
794.945785575
 20
615.9510870002
 30
0.0
 11
795.5598476743
 21
615.4383222021
 31
0.0
  0
LINE
  5
1EB
330
1F
100
AcDbEntity
  8
0
  6
SLD-Solid
 62
   142
420
    32960
370
     0
100
AcDbLine
 10
774.2404734392
 20
647.5191951166
 30
0.0
 11
778.9430078966
 21
645.8203220556
 31
0.0
  0
LINE
  5
1EC
330
1F
100
AcDbEntity
  8
0
  6
SLD-Solid
 62
   142
420
    32960
370
     0
100
AcDbLine
 10
796.6927971591
 20
639.407899331
 30
0.0
 11
778.9430078966
 21
645.8203220556
 31
0.0
  0
LINE
  5
1ED
330
1F
100
AcDbEntity
  8
0
  6
SLD-Solid
 62
   142
420
    32960
370
     0
100
AcDbLine
 10
774.2404734392
 20
647.5191951166
 30
0.0
 11
773.9686537495
 21
647.6173947476
 31
0.0
  0
LINE
  5
1EE
330
1F
100
AcDbEntity
  8
0
  6
SLD-Solid
 62
   142
420
    32960
370
     0
100
AcDbLine
 10
794.277935679
 20
613.9031669538
 30
0.0
 11
793.6638735797
 21
614.4159317519
 31
0.0
  0
ARC
  5
1EF
330
1F
100
AcDbEntity
  8
0
  6
SLD-Solid
 62
   142
420
    32960
370
     0
100
AcDbCircle
 10
773.2721157944
 20
645.6893556201
 30
0.0
 40
2.050000000000068
100
AcDbArc
 50
70.1368571726
 51
90.0
  0
LINE
  5
1F0
330
1F
100
AcDbEntity
  8
0
  6
SLD-Solid
 62
   142
420
    32960
370
     0
100
AcDbLine
 10
774.2404734392
 20
647.5191951166
 30
0.0
 11
773.9686537495
 21
646.7667896035
 31
0.0
  0
LINE
  5
1F1
330
1F
100
AcDbEntity
  8
0
  6
SLD-Solid
 62
   142
420
    32960
370
     0
100
AcDbLine
 10
20.4322086528
 20
831.8361248777
 30
0.0
 11
20.4322086528
 21
747.6393556201
 31
0.0
  0
ARC
  5
1F2
330
1F
100
AcDbEntity
  8
0
  6
SLD-Solid
 62
   142
420
    32960
370
     0
100
AcDbCircle
 10
21.1822086528
 20
831.8361248777
 30
0.0
 40
0.7499999999995843
100
AcDbArc
 50
75.0
 51
180.0000000001
  0
LINE
  5
1F3
330
1F
100
AcDbEntity
  8
0
  6
SLD-Solid
 62
   142
420
    32960
370
     0
100
AcDbLine
 10
72.8322086528
 20
785.0893556201
 30
0.0
 11
72.8322086528
 21
799.9734950185
 31
0.0
  0
ARC
  5
1F4
330
1F
100
AcDbEntity
  8
0
  6
SLD-Solid
 62
   142
420
    32960
370
     0
100
AcDbCircle
 10
75.3822086528
 20
785.0893556201
 30
0.0
 40
2.550000000000054
100
AcDbArc
 50
180.0
 51
270.0
  0
LINE
  5
1F5
330
1F
100
AcDbEntity
  8
0
  6
SLD-Solid
 62
   142
420
    32960
370
     0
100
AcDbLine
 10
96.5822086528
 20
782.5393556201
 30
0.0
 11
75.3822086528
 21
782.5393556201
 31
0.0
  0
ARC
  5
1F6
330
1F
100
AcDbEntity
  8
0
  6
SLD-Solid
 62
   142
420
    32960
370
     0
100
AcDbCircle
 10
96.5822086528
 20
781.7893556201
 30
0.0
 40
0.7500000000000284
100
AcDbArc
 50
0.0
 51
90.0
  0
LINE
  5
1F7
330
1F
100
AcDbEntity
  8
0
  6
SLD-Solid
 62
   142
420
    32960
370
     0
100
AcDbLine
 10
97.3322086528
 20
765.0893556201
 30
0.0
 11
97.3322086528
 21
781.7893556201
 31
0.0
  0
ARC
  5
1F8
330
1F
100
AcDbEntity
  8
0
  6
SLD-Solid
 62
   142
420
    32960
370
     0
100
AcDbCircle
 10
99.8822086528
 20
765.0893556201
 30
0.0
 40
2.549999999999955
100
AcDbArc
 50
180.0
 51
270.0
  0
LINE
  5
1F9
330
1F
100
AcDbEntity
  8
0
  6
SLD-Solid
 62
   142
420
    32960
370
     0
100
AcDbLine
 10
122.0822086528
 20
762.5393556201
 30
0.0
 11
99.8822086528
 21
762.5393556201
 31
0.0
  0
ARC
  5
1FA
330
1F
100
AcDbEntity
  8
0
  6
SLD-Solid
 62
   142
420
    32960
370
     0
100
AcDbCircle
 10
122.0822086528
 20
761.7893556201
 30
0.0
 40
0.7499999999998863
100
AcDbArc
 50
0.0
 51
90.0
  0
LINE
  5
1FB
330
1F
100
AcDbEntity
  8
0
  6
SLD-Solid
 62
   142
420
    32960
370
     0
100
AcDbLine
 10
122.8322086528
 20
747.6393556201
 30
0.0
 11
122.8322086528
 21
761.7893556201
 31
0.0
  0
ARC
  5
1FC
330
1F
100
AcDbEntity
  8
0
  6
SLD-Solid
 62
   142
420
    32960
370
     0
100
AcDbCircle
 10
122.3322086528
 20
747.6393556201
 30
0.0
 40
0.5000000000000568
100
AcDbArc
 50
270.0
 51
0.0
  0
ARC
  5
1FD
330
1F
100
AcDbEntity
  8
0
  6
SLD-Solid
 62
   142
420
    32960
370
     0
100
AcDbCircle
 10
20.9322086528
 20
747.6393556201
 30
0.0
 40
0.5000000000000568
100
AcDbArc
 50
180.0
 51
270.0
  0
LINE
  5
1FE
330
1F
100
AcDbEntity
  8
0
  6
SLD-Solid
 62
   142
420
    32960
370
     0
100
AcDbLine
 10
72.8322086528
 20
799.9734950185
 30
0.0
 11
73.3322086528
 21
799.9734950185
 31
0.0
  0
LINE
  5
1FF
330
1F
100
AcDbEntity
  8
0
  6
SLD-Solid
 62
   142
420
    32960
370
     0
100
AcDbLine
 10
21.3763229366
 20
832.5605692474
 30
0.0
 11
21.5014018557
 21
833.0273701285
 31
0.0
  0
LINE
  5
200
330
1F
100
AcDbEntity
  8
0
  6
SLD-Solid
 62
     7
370
    15
100
AcDbLine
 10
122.3322086528
 20
746.6393556201
 30
0.0
 11
20.9322086528
 21
746.6393556201
 31
0.0
  0
LINE
  5
201
330
1F
100
AcDbEntity
  8
0
  6
SLD-Solid
 62
   142
420
    32960
370
     0
100
AcDbLine
 10
20.9322086528
 20
747.1393556201
 30
0.0
 11
20.9322086528
 21
746.6393556201
 31
0.0
  0
LINE
  5
202
330
1F
100
AcDbEntity
  8
0
  6
SLD-Solid
 62
   142
420
    32960
370
     0
100
AcDbLine
 10
122.3322086528
 20
746.6393556201
 30
0.0
 11
122.3322086528
 21
747.1393556201
 31
0.0
  0
LINE
  5
203
330
1F
100
AcDbEntity
  8
0
  6
SLD-Solid
 62
   142
420
    32960
370
     0
100
AcDbLine
 10
785.5322086528
 20
570.5449777404
 30
0.0
 11
787.1322086528
 21
570.5449777404
 31
0.0
  0
LINE
  5
204
330
1F
100
AcDbEntity
  8
0
  6
SLD-Solid
 62
   142
420
    32960
370
     0
100
AcDbLine
 10
787.1322086528
 20
514.53333895
 30
0.0
 11
787.1322086528
 21
570.5449777404
 31
0.0
  0
LINE
  5
205
330
1F
100
AcDbEntity
  8
0
  6
SLD-Solid
 62
   142
420
    32960
370
     0
100
AcDbLine
 10
785.5322086528
 20
514.53333895
 30
0.0
 11
787.1322086528
 21
514.53333895
 31
0.0
  0
LINE
  5
206
330
1F
100
AcDbEntity
  8
0
  6
SLD-Solid
 62
   142
420
    32960
370
     0
100
AcDbLine
 10
112.0322076263
 20
477.8393556201
 30
0.0
 11
112.0322076263
 21
104.8393556201
 31
0.0
  0
LINE
  5
207
330
1F
100
AcDbEntity
  8
0
  6
SLD-Solid
 62
     7
370
    15
100
AcDbLine
 10
57.0322076296
 20
61.5393556201
 30
0.0
 11
127.0322076296
 21
61.5393556201
 31
0.0
  0
LINE
  5
208
330
1F
100
AcDbEntity
  8
0
  6
SLD-Solid
 62
     7
370
    15
100
AcDbLine
 10
57.0322076296
 20
61.5393556201
 30
0.0
 11
57.0322076296
 21
63.5393556201
 31
0.0
  0
LINE
  5
209
330
1F
100
AcDbEntity
  8
0
  6
SLD-Solid
 62
     7
370
    15
100
AcDbLine
 10
127.0322076296
 20
61.5393556201
 30
0.0
 11
127.0322076296
 21
63.5393556201
 31
0.0
  0
LINE
  5
20A
330
1F
100
AcDbEntity
  8
0
  6
SLD-Solid
 62
   142
420
    32960
370
     0
100
AcDbLine
 10
57.0322076296
 20
63.5393556201
 30
0.0
 11
127.0322076296
 21
63.5393556201
 31
0.0
  0
LINE
  5
20B
330
1F
100
AcDbEntity
  8
0
  6
SLD-Solid
 62
     7
370
    15
100
AcDbLine
 10
122.9918578499
 20
-32.4606443799
 30
0.0
 11
61.0725574092
 21
-32.4606443799
 31
0.0
  0
LINE
  5
20C
330
1F
100
AcDbEntity
  8
0
  6
SLD-Solid
 62
   142
420
    32960
370
     0
100
AcDbLine
 10
785.5322086528
 20
572.5393556201
 30
0.0
 11
787.1322086528
 21
572.5393556201
 31
0.0
  0
SPLINE
  5
20D
330
1F
100
AcDbEntity
  8
0
  6
SLD-Solid
 62
   142
420
    32960
370
     0
100
AcDbSpline
210
0.0
220
0.0
230
1.0
 70
    24
 71
     3
 72
     8
 73
     4
 74
     0
 42
0.00000001
 43
0.00000001
 40
1.0
 40
1.0
 40
1.0
 40
1.0
 40
2.0
 40
2.0
 40
2.0
 40
2.0
 10
787.1322086528086
 20
572.5393556201192
 30
0.0
 10
787.1322086528086
 20
572.5393556201192
 30
0.0
 10
787.1322086528086
 20
571.6397810338832
 30
0.0
 10
787.1322086528086
 20
570.5406071849684
 30
0.0
  0
LINE
  5
20E
330
1F
100
AcDbEntity
  8
0
  6
SLD-Solid
 62
   142
420
    32960
370
     0
100
AcDbLine
 10
20.7322086528
 20
747.1810980506
 30
0.0
 11
20.7322086528
 21
745.1393556201
 31
0.0
  0
LINE
  5
20F
330
1F
100
AcDbEntity
  8
0
  6
SLD-Solid
 62
   142
420
    32960
370
     0
100
AcDbLine
 10
20.7322086528
 20
743.7490266085
 30
0.0
 11
20.7322086528
 21
482.4993779632
 31
0.0
  0
LINE
  5
210
330
1F
100
AcDbEntity
  8
0
  6
SLD-Solid
 62
   142
420
    32960
370
     0
100
AcDbLine
 10
20.7322086528
 20
481.5393556201
 30
0.0
 11
20.7322086528
 21
480.8393556201
 31
0.0
  0
LINE
  5
211
330
1F
100
AcDbEntity
  8
0
  6
SLD-Solid
 62
   142
420
    32960
370
     0
100
AcDbLine
 10
19.9322086528
 20
747.6393556201
 30
0.0
 11
19.9322086528
 21
480.8393556201
 31
0.0
  0
LINE
  5
212
330
1F
100
AcDbEntity
  8
0
  6
SLD-Solid
 62
   142
420
    32960
370
     0
100
AcDbLine
 10
19.9322086528
 20
480.8393556201
 30
0.0
 11
20.7322086528
 21
480.8393556201
 31
0.0
  0
LINE
  5
213
330
1F
100
AcDbEntity
  8
0
  6
SLD-Solid
 62
   142
420
    32960
370
     0
100
AcDbLine
 10
19.9322086528
 20
532.2459876827
 30
0.0
 11
20.7322086528
 21
532.2459876827
 31
0.0
  0
LINE
  5
214
330
1F
100
AcDbEntity
  8
0
  6
SLD-Solid
 62
   142
420
    32960
370
     0
100
AcDbLine
 10
19.9322086528
 20
527.2693394355
 30
0.0
 11
20.7322086528
 21
527.2693394355
 31
0.0
  0
LINE
  5
215
330
1F
100
AcDbEntity
  8
0
  6
SLD-Solid
 62
   142
420
    32960
370
     0
100
AcDbLine
 10
19.9322086528
 20
534.4393556201
 30
0.0
 11
20.7322086528
 21
534.4393556201
 31
0.0
  0
LINE
  5
216
330
1F
100
AcDbEntity
  8
0
  6
SLD-Solid
 62
   142
420
    32960
370
     0
100
AcDbLine
 10
19.9322086528
 20
525.1393556201
 30
0.0
 11
20.7322086528
 21
525.1393556201
 31
0.0
  0
LINE
  5
217
330
1F
100
AcDbEntity
  8
0
  6
SLD-Solid
 62
   142
420
    32960
370
     0
100
AcDbLine
 10
19.9322086528
 20
534.9393556201
 30
0.0
 11
20.7322086528
 21
534.9393556201
 31
0.0
  0
LINE
  5
218
330
1F
100
AcDbEntity
  8
0
  6
SLD-Solid
 62
   142
420
    32960
370
     0
100
AcDbLine
 10
19.9322086528
 20
566.8393556201
 30
0.0
 11
20.7322086528
 21
566.8393556201
 31
0.0
  0
LINE
  5
219
330
1F
100
AcDbEntity
  8
0
  6
SLD-Solid
 62
   142
420
    32960
370
     0
100
AcDbLine
 10
73.5322076263
 20
477.8393556201
 30
0.0
 11
110.5322076263
 21
477.8393556201
 31
0.0
  0
LINE
  5
21A
330
1F
100
AcDbEntity
  8
0
  6
SLD-Solid
 62
   142
420
    32960
370
     0
100
AcDbLine
 10
110.5322076263
 20
477.8393556201
 30
0.0
 11
110.5322076263
 21
104.8393556201
 31
0.0
  0
LINE
  5
21B
330
1F
100
AcDbEntity
  8
0
  6
SLD-Solid
 62
     7
370
    15
100
AcDbLine
 10
72.0322076263
 20
477.8393556201
 30
0.0
 11
72.0322076263
 21
104.8393556201
 31
0.0
  0
LINE
  5
21C
330
1F
100
AcDbEntity
  8
0
  6
SLD-Solid
 62
   142
420
    32960
370
     0
100
AcDbLine
 10
72.0322076263
 20
477.8393556201
 30
0.0
 11
73.5322076263
 21
477.8393556201
 31
0.0
  0
SPLINE
  5
21D
330
1F
100
AcDbEntity
  8
0
  6
SLD-Solid
 62
   142
420
    32960
370
     0
100
AcDbSpline
210
0.0
220
0.0
230
1.0
 70
     8
 71
     3
 72
    22
 73
    18
 74
     0
 42
0.00000001
 43
0.00000001
 40
0.0
 40
0.0
 40
0.0
 40
0.0
 40
0.125
 40
0.125
 40
0.25
 40
0.25
 40
0.375
 40
0.375
 40
0.5
 40
0.5
 40
0.625
 40
0.625
 40
0.75
 40
0.75
 40
0.875
 40
0.875
 40
1.0
 40
1.0
 40
1.0
 40
1.0
 10
727.5392797206242
 20
607.5393556201252
 30
0.0
 10
727.591530516754
 20
607.5393556201253
 30
0.0
 10
727.6429739113661
 20
607.5260570717985
 30
0.0
 10
727.7459996562949
 20
607.4740346443839
 30
0.0
 10
727.7979679133156
 20
607.434902962305
 30
0.0
 10
727.902001119684
 20
607.3317687636644
 30
0.0
 10
727.953355072378
 20
607.2686852182444
 30
0.0
 10
728.0564635600438
 20
607.1204003028789
 30
0.0
 10
728.1087588391393
 20
607.0341399888032
 30
0.0
 10
728.2124167635778
 20
606.8442819763427
 30
0.0
 10
728.2637226057616
 20
606.7410596076973
 30
0.0
 10
728.366998921854
 20
606.5187179499399
 30
0.0
 10
728.4194281892607
 20
606.3984130701282
 30
0.0
 10
728.5227988739097
 20
606.1510372600952
 30
0.0
 10
728.5740966410466
 20
606.0232904609711
 30
0.0
 10
728.6776261052312
 20
605.760276364325
 30
0.0
 10
728.7299578552683
 20
605.6247249766429
 30
0.0
 10
728.782208652811
 20
605.4893556201251
 30
0.0
  0
LINE
  5
21E
330
1F
100
AcDbEntity
  8
0
  6
SLD-Solid
 62
   142
420
    32960
370
     0
100
AcDbLine
 10
727.5392797206
 20
607.5393556201
 30
0.0
 11
783.4114979748
 21
607.5393556201
 31
0.0
  0
SPLINE
  5
21F
330
1F
100
AcDbEntity
  8
0
  6
SLD-Solid
 62
   142
420
    32960
370
     0
100
AcDbSpline
210
0.0
220
0.0
230
1.0
 70
     8
 71
     3
 72
    14
 73
    10
 74
     0
 42
0.00000001
 43
0.00000001
 40
0.0
 40
0.0
 40
0.0
 40
0.0
 40
0.25
 40
0.25
 40
0.5
 40
0.5
 40
0.75
 40
0.75
 40
1.0
 40
1.0
 40
1.0
 40
1.0
 10
783.4822086528088
 20
605.4893556201251
 30
0.0
 10
783.4763160963041
 20
605.7576999926195
 30
0.0
 10
783.4704235397993
 20
606.0259387830616
 30
0.0
 10
783.4586384267899
 20
606.5217745298854
 30
0.0
 10
783.4527458702851
 20
606.7491763960738
 30
0.0
 10
783.4409607572757
 20
607.1286726470413
 30
0.0
 10
783.435068200771
 20
607.2806177162514
 30
0.0
 10
783.4232830877614
 20
607.4859996072953
 30
0.0
 10
783.4173905312567
 20
607.5393556201253
 30
0.0
 10
783.411497974752
 20
607.5393556201252
 30
0.0
  0
SPLINE
  5
220
330
1F
100
AcDbEntity
  8
0
  6
SLD-Solid
 62
   142
420
    32960
370
     0
100
AcDbSpline
210
0.0
220
0.0
230
1.0
 70
     8
 71
     3
 72
    27
 73
    23
 74
     0
 42
0.00000001
 43
0.00000001
 40
0.0
 40
0.0
 40
0.0
 40
0.0
 40
0.0499650995230809
 40
0.0980331776333535
 40
0.1442064793505824
 40
0.1884875458627683
 40
0.2308792666842332
 40
0.271384943761132
 40
0.3100083709218532
 40
0.3467539332370702
 40
0.3816267324927396
 40
0.4146327473129134
 40
0.4457790398397779
 40
0.4750740258158157
 40
0.5025278322606349
 40
0.5609843254198166
 40
0.6234197460615578
 40
0.6899941179611181
 40
0.7608391343122299
 40
0.836063768588828
 40
0.9157587331253212
 40
1.0
 40
1.0
 40
1.0
 40
1.0
 10
728.7822086528017
 20
605.4893556201253
 30
0.0
 10
728.7328242878484
 20
605.5200403566239
 30
0.0
 10
728.6359305306461
 20
605.5802448243928
 30
0.0
 10
728.4934101645737
 20
605.6676275805359
 30
0.0
 10
728.3572924199638
 20
605.750635163515
 30
0.0
 10
728.2279706046891
 20
605.8291927388536
 30
0.0
 10
728.1057664732458
 20
605.9033195469497
 30
0.0
 10
727.9908695619719
 20
605.9730111737531
 30
0.0
 10
727.8833686442237
 20
606.0382693334183
 30
0.0
 10
727.7832597686615
 20
606.0990939689352
 30
0.0
 10
727.6904605599867
 20
606.1554867855468
 30
0.0
 10
727.6048199644777
 20
606.2074451305518
 30
0.0
 10
727.5261367785115
 20
606.2549816676984
 30
0.0
 10
727.4541464573421
 20
606.2980576450427
 30
0.0
 10
727.3624927141416
 20
606.3522555549151
 30
0.0
 10
727.249528710795
 20
606.4151762234528
 30
0.0
 10
727.1189366592639
 20
606.483354359505
 30
0.0
 10
726.9968517087694
 20
606.54557131824
 30
0.0
 10
726.8891682069856
 20
606.6017757317487
 30
0.0
 10
726.8035527610461
 20
606.6518506572115
 30
0.0
 10
726.7439963301434
 20
606.6963976288591
 30
0.0
 10
726.7362098571047
 20
606.720103109931
 30
0.0
 10
726.7322086528093
 20
606.7322845523136
 30
0.0
  0
LINE
  5
221
330
1F
100
AcDbEntity
  8
0
  6
SLD-Solid
 62
   142
420
    32960
370
     0
100
AcDbLine
 10
726.7322086528
 20
606.7322845523
 30
0.0
 11
726.7322086528
 21
483.3464266879
 31
0.0
  0
SPLINE
  5
222
330
1F
100
AcDbEntity
  8
0
  6
SLD-Solid
 62
   142
420
    32960
370
     0
100
AcDbSpline
210
0.0
220
0.0
230
1.0
 70
     8
 71
     3
 72
    18
 73
    14
 74
     0
 42
0.00000001
 43
0.00000001
 40
0.0
 40
0.0
 40
0.0
 40
0.0
 40
0.1249999999999978
 40
0.1249999999999978
 40
0.2499999999999957
 40
0.2499999999999957
 40
0.4999999999999971
 40
0.4999999999999971
 40
0.6249999999999978
 40
0.6249999999999978
 40
0.7499999999999986
 40
0.7499999999999986
 40
1.0
 40
1.0
 40
1.0
 40
1.0
 10
726.7322086528056
 20
483.346426687937
 30
0.0
 10
726.7322086528056
 20
483.3564016503292
 30
0.0
 10
726.7477638464535
 20
483.3712158702402
 30
0.0
 10
726.8080991259214
 20
483.4120725630029
 30
0.0
 10
726.8537287027538
 20
483.4385031999686
 30
0.0
 10
727.0274396346014
 20
483.5353034726589
 30
0.0
 10
727.1965968956167
 20
483.6255025154082
 30
0.0
 10
727.4890699688337
 20
483.802036168905
 30
0.0
 10
727.5945131072189
 20
483.8679124700724
 30
0.0
 10
727.8136203344335
 20
484.0033945873791
 30
0.0
 10
727.9277254524882
 20
484.073392444845
 30
0.0
 10
728.2837872915915
 20
484.2886481451153
 30
0.0
 10
728.5319078774612
 20
484.4368371809832
 30
0.0
 10
728.7822086528057
 20
484.5893556201269
 30
0.0
  0
LINE
  5
223
330
1F
100
AcDbEntity
  8
0
  6
SLD-Solid
 62
     7
370
    15
100
AcDbLine
 10
785.5322086528
 20
605.4893556201
 30
0.0
 11
785.5322086528
 21
484.5893556201
 31
0.0
  0
LINE
  5
224
330
1F
100
AcDbEntity
  8
0
  6
SLD-Solid
 62
   142
420
    32960
370
     0
100
AcDbLine
 10
785.5322086528
 20
484.5893556201
 30
0.0
 11
783.4822086528
 21
484.5893556201
 31
0.0
  0
LINE
  5
225
330
1F
100
AcDbEntity
  8
0
  6
SLD-Solid
 62
   142
420
    32960
370
     0
100
AcDbLine
 10
783.4822086528
 20
605.4893556201
 30
0.0
 11
785.5322086528
 21
605.4893556201
 31
0.0
  0
LINE
  5
226
330
1F
100
AcDbEntity
  8
0
  6
SLD-Solid
 62
     7
370
    15
100
AcDbLine
 10
727.5392797206
 20
482.5393556201
 30
0.0
 11
783.3407872966
 21
482.5393556201
 31
0.0
  0
SPLINE
  5
227
330
1F
100
AcDbEntity
  8
0
  6
SLD-Solid
 62
     7
370
    15
100
AcDbSpline
210
0.0
220
0.0
230
1.0
 70
     8
 71
     3
 72
    14
 73
    10
 74
     0
 42
0.00000001
 43
0.00000001
 40
0.0
 40
0.0
 40
0.0
 40
0.0
 40
0.25
 40
0.25
 40
0.5
 40
0.5
 40
0.75
 40
0.75
 40
1.0
 40
1.0
 40
1.0
 40
1.0
 10
783.3407872965714
 20
482.5393556201251
 30
0.0
 10
783.3525724095913
 20
482.5393556201248
 30
0.0
 10
783.364357522611
 20
482.5927116329548
 30
0.0
 10
783.3879277486507
 20
482.7980935239983
 30
0.0
 10
783.3997128616703
 20
482.9500385932081
 30
0.0
 10
783.4232830877099
 20
483.329534844176
 30
0.0
 10
783.4350682007296
 20
483.5569367103642
 30
0.0
 10
783.4586384267692
 20
484.0527724571883
 30
0.0
 10
783.4704235397891
 20
484.3210112476309
 30
0.0
 10
783.4822086528088
 20
484.5893556201251
 30
0.0
  0
SPLINE
  5
228
330
1F
100
AcDbEntity
  8
0
  6
SLD-Solid
 62
   142
420
    32960
370
     0
100
AcDbSpline
210
0.0
220
0.0
230
1.0
 70
     8
 71
     3
 72
    14
 73
    10
 74
     0
 42
0.00000001
 43
0.00000001
 40
0.0
 40
0.0
 40
0.0
 40
0.0
 40
0.25
 40
0.25
 40
0.5
 40
0.5
 40
0.75
 40
0.75
 40
1.0
 40
1.0
 40
1.0
 40
1.0
 10
728.7822086528104
 20
484.5893556201274
 30
0.0
 10
728.6786312417945
 20
484.321011247633
 30
0.0
 10
728.5750538307785
 20
484.0527724571905
 30
0.0
 10
728.3678990087468
 20
483.5569367103661
 30
0.0
 10
728.2643215977308
 20
483.3295348441776
 30
0.0
 10
728.057166775699
 20
482.9500385932095
 30
0.0
 10
727.953589364683
 20
482.7980935239994
 30
0.0
 10
727.7464345426512
 20
482.5927116329552
 30
0.0
 10
727.6428571316352
 20
482.5393556201251
 30
0.0
 10
727.5392797206192
 20
482.5393556201251
 30
0.0
  0
LINE
  5
229
330
1F
100
AcDbEntity
  8
0
  6
SLD-Solid
 62
   142
420
    32960
370
     0
100
AcDbLine
 10
727.5392797206
 20
483.3393556201
 30
0.0
 11
727.5392797206
 21
482.5393556201
 31
0.0
  0
ARC
  5
22A
330
1F
100
AcDbEntity
  8
0
  6
SLD-Solid
 62
   142
420
    32960
370
     0
100
AcDbCircle
 10
783.4822086528
 20
605.4893556201
 30
0.0
 40
2.050000000000068
100
AcDbArc
 50
0.0
 51
90.0
  0
ARC
  5
22B
330
1F
100
AcDbEntity
  8
0
  6
SLD-Solid
 62
   142
420
    32960
370
     0
100
AcDbCircle
 10
783.4822086528
 20
605.4893556201
 30
0.0
 40
1.25
100
AcDbArc
 50
0.0
 51
90.0
  0
ARC
  5
22C
330
1F
100
AcDbEntity
  8
0
  6
SLD-Solid
 62
     7
370
    15
100
AcDbCircle
 10
783.4822086528
 20
484.5893556201
 30
0.0
 40
2.050000000000068
100
AcDbArc
 50
270.0
 51
360.0
  0
LINE
  5
22D
330
1F
100
AcDbEntity
  8
0
  6
SLD-Solid
 62
   142
420
    32960
370
     0
100
AcDbLine
 10
783.4822086528
 20
482.5393556201
 30
0.0
 11
783.3407872966
 21
482.5393556201
 31
0.0
  0
LINE
  5
22E
330
1F
100
AcDbEntity
  8
0
  6
SLD-Solid
 62
   142
420
    32960
370
     0
100
AcDbLine
 10
727.5392797206
 20
482.5393556201
 30
0.0
 11
726.7322086528
 21
482.5393556201
 31
0.0
  0
ARC
  5
22F
330
1F
100
AcDbEntity
  8
0
  6
SLD-Solid
 62
   142
420
    32960
370
     0
100
AcDbCircle
 10
783.4822086528
 20
484.5893556201
 30
0.0
 40
1.250000000000057
100
AcDbArc
 50
270.0
 51
360.0
  0
LINE
  5
230
330
1F
100
AcDbEntity
  8
0
  6
SLD-Solid
 62
   142
420
    32960
370
     0
100
AcDbLine
 10
728.2539865363
 20
483.3393556201
 30
0.0
 11
727.5392797206
 21
483.3393556201
 31
0.0
  0
LINE
  5
231
330
1F
100
AcDbEntity
  8
0
  6
SLD-Solid
 62
   142
420
    32960
370
     0
100
AcDbLine
 10
726.7322086528
 20
483.3393556201
 30
0.0
 11
727.5392797206
 21
483.3393556201
 31
0.0
  0
SPLINE
  5
232
330
1F
100
AcDbEntity
  8
0
  6
SLD-Solid
 62
     7
370
    15
100
AcDbSpline
210
0.0
220
0.0
230
1.0
 70
     8
 71
     3
 72
    18
 73
    14
 74
     0
 42
0.00000001
 43
0.00000001
 40
0.0
 40
0.0
 40
0.0
 40
0.0
 40
0.1249999999999822
 40
0.1249999999999822
 40
0.2499999999999645
 40
0.2499999999999645
 40
0.3749999999999467
 40
0.3749999999999467
 40
0.4999999999999289
 40
0.4999999999999289
 40
0.7499999999999645
 40
0.7499999999999645
 40
1.0
 40
1.0
 40
1.0
 40
1.0
 10
727.5322086528088
 20
606.7322845523164
 30
0.0
 10
727.5322086528088
 20
606.7211797680667
 30
0.0
 10
727.5439378279585
 20
606.7041778964667
 30
0.0
 10
727.5882639008515
 20
606.6568777775836
 30
0.0
 10
727.6214516567059
 20
606.6261540594373
 30
0.0
 10
727.7028546595412
 20
606.5523526837552
 30
0.0
 10
727.7519996648341
 20
606.5084066910749
 30
0.0
 10
727.8591520127562
 20
606.4089571534538
 30
0.0
 10
727.9167881464326
 20
606.3533859626581
 30
0.0
 10
728.0982624882595
 20
606.1709027791176
 30
0.0
 10
728.2267953791546
 20
606.0391572053506
 30
0.0
 10
728.4997606193853
 20
605.7690941353623
 30
0.0
 10
728.6413491043406
 20
605.6301191980457
 30
0.0
 10
728.7822086528088
 20
605.4893556201283
 30
0.0
  0
LWPOLYLINE
  5
233
330
1F
100
AcDbEntity
  8
0
  6
SLD-Solid
 62
   142
420
    32960
370
     0
100
AcDbPolyline
 90
        2
 70
   128
 43
0.0
 10
728.7822086528
 20
605.4893556201
 10
728.7822086528
 20
605.4893556201
  0
SPLINE
  5
234
330
1F
100
AcDbEntity
  8
0
  6
SLD-Solid
 62
   142
420
    32960
370
     0
100
AcDbSpline
210
0.0
220
0.0
230
1.0
 70
     8
 71
     3
 72
    23
 73
    19
 74
     0
 42
0.00000001
 43
0.00000001
 40
0.0
 40
0.0
 40
0.0
 40
0.0
 40
0.0701797198735454
 40
0.1365739862189378
 40
0.1991900076737783
 40
0.2580364110335998
 40
0.3131236242804943
 40
0.3644643968181237
 40
0.4120745193120669
 40
0.4559738405573114
 40
0.4961877375267003
 40
0.5327492961334536
 40
0.6006980911155302
 40
0.6720564573690239
 40
0.7472948851106173
 40
0.8268143982710089
 40
0.9109541866439324
 40
1.0
 40
1.0
 40
1.0
 40
1.0
 10
728.7822086528087
 20
484.5893556201283
 30
0.0
 10
728.7433106547596
 20
484.5497622793624
 30
0.0
 10
728.6676127941944
 20
484.4727112397475
 30
0.0
 10
728.5567959180644
 20
484.3616885500242
 30
0.0
 10
728.4528940213802
 20
484.2580932949861
 30
0.0
 10
728.3562814717974
 20
484.1620059581268
 30
0.0
 10
728.2672299236023
 20
484.0734054375744
 30
0.0
 10
728.1858090446599
 20
483.9922930050339
 30
0.0
 10
728.1119420546813
 20
483.9186701268417
 30
0.0
 10
728.04544256264
 20
483.8525158005532
 30
0.0
 10
727.9859865691845
 20
483.7938831040093
 30
0.0
 10
727.9165205188483
 20
483.7262130228442
 30
0.0
 10
727.8343595880744
 20
483.6516512621009
 30
0.0
 10
727.7421458679614
 20
483.5736423461288
 30
0.0
 10
727.6585397568494
 20
483.5037935705612
 30
0.0
 10
727.5904331482938
 20
483.442390116731
 30
0.0
 10
727.5419790535244
 20
483.3885687122623
 30
0.0
 10
727.535526383746
 20
483.3607368377406
 30
0.0
 10
727.5322086528088
 20
483.3464266879402
 30
0.0
  0
LINE
  5
235
330
1F
100
AcDbEntity
  8
0
  6
SLD-Solid
 62
   142
420
    32960
370
     0
100
AcDbLine
 10
783.4822086528
 20
606.7393556201
 30
0.0
 11
783.4822086528
 21
607.5393556201
 31
0.0
  0
SPLINE
  5
236
330
1F
100
AcDbEntity
  8
0
  6
SLD-Solid
 62
   142
420
    32960
370
     0
100
AcDbSpline
210
0.0
220
0.0
230
1.0
 70
     8
 71
     3
 72
    20
 73
    16
 74
     0
 42
0.00000001
 43
0.00000001
 40
0.0
 40
0.0
 40
0.0
 40
0.0
 40
0.1250000000000025
 40
0.1250000000000025
 40
0.250000000000005
 40
0.250000000000005
 40
0.3750000000000075
 40
0.3750000000000075
 40
0.50000000000001
 40
0.50000000000001
 40
0.6250000000000124
 40
0.6250000000000124
 40
0.750000000000015
 40
0.750000000000015
 40
1.0
 40
1.0
 40
1.0
 40
1.0
 10
784.4902242956952
 20
610.695586210001
 30
0.0
 10
784.4789261832135
 20
610.7303582247866
 30
0.0
 10
784.4551740900107
 20
610.7604691429246
 30
0.0
 10
784.3834332352012
 20
610.8129669309118
 30
0.0
 10
784.334833522444
 20
610.8355162198224
 30
0.0
 10
784.2144722965054
 20
610.8728187558603
 30
0.0
 10
784.1434829807349
 20
610.8875013697309
 30
0.0
 10
783.9800454563322
 20
610.9103337158215
 30
0.0
 10
783.8864751002885
 20
610.9184950126893
 30
0.0
 10
783.68404912161
 20
610.9287962971715
 30
0.0
 10
783.5748991455116
 20
610.9310619973447
 30
0.0
 10
783.3405052601256
 20
610.931098998412
 30
0.0
 10
783.2149767697694
 20
610.9288163543172
 30
0.0
 10
782.8295684363966
 20
610.9173939064844
 30
0.0
 10
782.551818225163
 20
610.9034637102839
 30
0.0
 10
782.2717672381297
 20
610.889355620126
 30
0.0
  0
SPLINE
  5
237
330
1F
100
AcDbEntity
  8
0
  6
SLD-Solid
 62
   142
420
    32960
370
     0
100
AcDbSpline
210
0.0
220
0.0
230
1.0
 70
     8
 71
     3
 72
    14
 73
    10
 74
     0
 42
0.00000001
 43
0.00000001
 40
0.0
 40
0.0
 40
0.0
 40
0.0
 40
0.25
 40
0.25
 40
0.5
 40
0.5
 40
0.75
 40
0.75
 40
1.0
 40
1.0
 40
1.0
 40
1.0
 10
744.390135446269
 20
727.4770301472663
 30
0.0
 10
744.6378744870291
 20
727.5829484107734
 30
0.0
 10
744.885513113291
 20
727.6888340476323
 30
0.0
 10
745.3421376846971
 20
727.8880463039425
 30
0.0
 10
745.5509380880417
 20
727.981312637209
 30
0.0
 10
745.8969172238112
 20
728.1445740121825
 30
0.0
 10
746.0339539486909
 20
728.2145229128416
 30
0.0
 10
746.2143404878742
 20
728.3239799916341
 30
0.0
 10
746.2576134482481
 20
728.3634631984122
 30
0.0
 10
746.2501418249368
 20
728.3864584904738
 30
0.0
  0
SPLINE
  5
238
330
1F
100
AcDbEntity
  8
0
  6
SLD-Solid
 62
     7
370
    15
100
AcDbSpline
210
0.0
220
0.0
230
1.0
 70
     8
 71
     3
 72
    14
 73
    10
 74
     0
 42
0.00000001
 43
0.00000001
 40
0.0
 40
0.0
 40
0.0
 40
0.0
 40
0.25
 40
0.25
 40
0.5
 40
0.5
 40
0.75
 40
0.75
 40
1.0
 40
1.0
 40
1.0
 40
1.0
 10
728.2393154340003
 20
608.8393556201263
 30
0.0
 10
728.2845565355681
 20
608.8393556201262
 30
0.0
 10
728.3297976371359
 20
608.8927116329561
 30
0.0
 10
728.4202798402715
 20
609.0980935239998
 30
0.0
 10
728.4655209418394
 20
609.25003859321
 30
0.0
 10
728.556003144975
 20
609.6295348441778
 30
0.0
 10
728.6012442465426
 20
609.856936710366
 30
0.0
 10
728.6917264496782
 20
610.3527724571898
 30
0.0
 10
728.736967551246
 20
610.6210112476322
 30
0.0
 10
728.7822086528139
 20
610.8893556201263
 30
0.0
  0
SPLINE
  5
239
330
1F
100
AcDbEntity
  8
0
  6
SLD-Solid
 62
   142
420
    32960
370
     0
100
AcDbSpline
210
0.0
220
0.0
230
1.0
 70
     8
 71
     3
 72
    20
 73
    16
 74
     0
 42
0.00000001
 43
0.00000001
 40
0.0
 40
0.0
 40
0.0
 40
0.0
 40
0.1250000000000046
 40
0.1250000000000046
 40
0.2500000000000092
 40
0.2500000000000092
 40
0.3750000000000138
 40
0.3750000000000138
 40
0.5000000000000184
 40
0.5000000000000184
 40
0.6250000000000231
 40
0.6250000000000231
 40
0.7500000000000276
 40
0.7500000000000276
 40
1.0
 40
1.0
 40
1.0
 40
1.0
 10
782.2717672381297
 20
610.889355620126
 30
0.0
 10
782.3083286981375
 20
610.7540036481697
 30
0.0
 10
782.344305683496
 20
610.6208358589618
 30
0.0
 10
782.4164031901794
 20
610.3590305995687
 30
0.0
 10
782.4528669754992
 20
610.2292058982697
 30
0.0
 10
782.5255374597513
 20
609.9806514937961
 30
0.0
 10
782.5614383603413
 20
609.8628911517455
 30
0.0
 10
782.6336581844321
 20
609.6404696109422
 30
0.0
 10
782.6703348691866
 20
609.5349592982413
 30
0.0
 10
782.7426850404346
 20
609.3455073407177
 30
0.0
 10
782.7785690468985
 20
609.260739800846
 30
0.0
 10
782.8510359309664
 20
609.1114424875608
 30
0.0
 10
782.8876554442236
 20
609.047176951135
 30
0.0
 10
782.9958897755658
 20
608.8935708101114
 30
0.0
 10
783.0684709071588
 20
608.8393556201263
 30
0.0
 10
783.1415938303666
 20
608.8393556201261
 30
0.0
  0
SPLINE
  5
23A
330
1F
100
AcDbEntity
  8
0
  6
SLD-Solid
 62
   142
420
    32960
370
     0
100
AcDbSpline
210
0.0
220
0.0
230
1.0
 70
     8
 71
     3
 72
    10
 73
     6
 74
     0
 42
0.00000001
 43
0.00000001
 40
0.0
 40
0.0
 40
0.0
 40
0.0
 40
0.2636891440949427
 40
0.6318445720474789
 40
1.0
 40
1.0
 40
1.0
 40
1.0
 10
744.5871610428154
 20
729.244886556327
 30
0.0
 10
744.5698432058427
 20
729.1490441768617
 30
0.0
 10
744.528346687932
 20
728.9193893405011
 30
0.0
 10
744.4626714890832
 20
728.2763992060032
 30
0.0
 10
744.414314127207
 20
727.7434865001785
 30
0.0
 10
744.390135446269
 20
727.4770301472662
 30
0.0
  0
SPLINE
  5
23B
330
1F
100
AcDbEntity
  8
0
  6
SLD-Solid
 62
   142
420
    32960
370
     0
100
AcDbSpline
210
0.0
220
0.0
230
1.0
 70
     8
 71
     3
 72
    10
 73
     6
 74
     0
 42
0.00000001
 43
0.00000001
 40
0.0
 40
0.0
 40
0.0
 40
0.0
 40
0.3681554279524962
 40
0.736310855905005
 40
1.0
 40
1.0
 40
1.0
 40
1.0
 10
728.7822086528139
 20
727.4770301472662
 30
0.0
 10
728.736967551246
 20
727.7434865001785
 30
0.0
 10
728.6464853481104
 20
728.2763992060029
 30
0.0
 10
728.5235994740127
 20
728.919389340501
 30
0.0
 10
728.4459547014826
 20
729.1490441768619
 30
0.0
 10
728.4135510305205
 20
729.2448865563271
 30
0.0
  0
SPLINE
  5
23C
330
1F
100
AcDbEntity
  8
0
  6
SLD-Solid
 62
   142
420
    32960
370
     0
100
AcDbSpline
210
0.0
220
0.0
230
1.0
 70
     8
 71
     3
 72
    14
 73
    10
 74
     0
 42
0.00000001
 43
0.00000001
 40
0.0
 40
0.0
 40
0.0
 40
0.0
 40
0.25
 40
0.25
 40
0.5
 40
0.5
 40
0.75
 40
0.75
 40
1.0
 40
1.0
 40
1.0
 40
1.0
 10
726.7322086528138
 20
728.0199233660796
 30
0.0
 10
726.7322086528138
 20
727.9746822645118
 30
0.0
 10
726.7855646656438
 20
727.9294411629442
 30
0.0
 10
726.9909465566876
 20
727.8389589598083
 30
0.0
 10
727.1428916258975
 20
727.7937178582407
 30
0.0
 10
727.5223878768653
 20
727.7032356551052
 30
0.0
 10
727.7497897430535
 20
727.6579945535374
 30
0.0
 10
728.2456254898773
 20
727.5675123504019
 30
0.0
 10
728.5138642803197
 20
727.5222712488339
 30
0.0
 10
728.7822086528139
 20
727.4770301472662
 30
0.0
  0
LINE
  5
23D
330
1F
100
AcDbEntity
  8
0
  6
SLD-Solid
 62
   142
420
    32960
370
     0
100
AcDbLine
 10
726.7322086528
 20
728.0199233661
 30
0.0
 11
726.7322086528
 21
610.3464624013
 31
0.0
  0
SPLINE
  5
23E
330
1F
100
AcDbEntity
  8
0
  6
SLD-Solid
 62
   142
420
    32960
370
     0
100
AcDbSpline
210
0.0
220
0.0
230
1.0
 70
     8
 71
     3
 72
    14
 73
    10
 74
     0
 42
0.00000001
 43
0.00000001
 40
0.0
 40
0.0
 40
0.0
 40
0.0
 40
0.25
 40
0.25
 40
0.5
 40
0.5
 40
0.75
 40
0.75
 40
1.0
 40
1.0
 40
1.0
 40
1.0
 10
728.7822086528139
 20
610.8893556201263
 30
0.0
 10
728.5138642803197
 20
610.8441145185586
 30
0.0
 10
728.2456254898773
 20
610.7988734169907
 30
0.0
 10
727.7497897430535
 20
610.708391213855
 30
0.0
 10
727.5223878768653
 20
610.6631501122873
 30
0.0
 10
727.1428916258975
 20
610.5726679091516
 30
0.0
 10
726.9909465566876
 20
610.5274268075841
 30
0.0
 10
726.7855646656438
 20
610.4369446044484
 30
0.0
 10
726.7322086528138
 20
610.3917035028807
 30
0.0
 10
726.7322086528138
 20
610.3464624013128
 30
0.0
  0
SPLINE
  5
23F
330
1F
100
AcDbEntity
  8
0
  6
SLD-Solid
 62
   142
420
    32960
370
     0
100
AcDbSpline
210
0.0
220
0.0
230
1.0
 70
     8
 71
     3
 72
    14
 73
    10
 74
     0
 42
0.00000001
 43
0.00000001
 40
0.0
 40
0.0
 40
0.0
 40
0.0
 40
0.25
 40
0.25
 40
0.5
 40
0.5
 40
0.75
 40
0.75
 40
1.0
 40
1.0
 40
1.0
 40
1.0
 10
728.2393154340003
 20
609.6393556201263
 30
0.0
 10
728.2845565355681
 20
609.6393556201264
 30
0.0
 10
728.3297976371359
 20
609.6718897742909
 30
0.0
 10
728.4202798402715
 20
609.7971226346834
 30
0.0
 10
728.4655209418394
 20
609.8897720671284
 30
0.0
 10
728.556003144975
 20
610.1211722201576
 30
0.0
 10
728.6012442465426
 20
610.2598318946627
 30
0.0
 10
728.6917264496782
 20
610.5621707646771
 30
0.0
 10
728.736967551246
 20
610.7257310027518
 30
0.0
 10
728.7822086528139
 20
610.8893556201263
 30
0.0
  0
LINE
  5
240
330
1F
100
AcDbEntity
  8
0
  6
SLD-Solid
 62
   142
420
    32960
370
     0
100
AcDbLine
 10
728.239315434
 20
608.8393556201
 30
0.0
 11
728.239315434
 21
609.6393556201
 31
0.0
  0
LINE
  5
241
330
1F
100
AcDbEntity
  8
0
  6
SLD-Solid
 62
   142
420
    32960
370
     0
100
AcDbLine
 10
782.9274190824
 20
644.2745579801
 30
0.0
 11
782.9613965437
 21
644.3686086693
 31
0.0
  0
LINE
  5
242
330
1F
100
AcDbEntity
  8
0
  6
SLD-Solid
 62
   142
420
    32960
370
     0
100
AcDbLine
 10
781.0464052995
 20
644.9541072045
 30
0.0
 11
781.0803827607
 21
645.0481578937
 31
0.0
  0
LINE
  5
243
330
1F
100
AcDbEntity
  8
0
  6
SLD-Solid
 62
   142
420
    32960
370
     0
100
AcDbLine
 10
727.6322086528
 20
609.4893556201
 30
0.0
 11
727.6322086528
 21
610.6790433452
 31
0.0
  0
ARC
  5
244
330
1F
100
AcDbEntity
  8
0
  6
SLD-Solid
 62
   142
420
    32960
370
     0
100
AcDbCircle
 10
729.6822086528
 20
609.4893556201
 30
0.0
 40
2.049999999999967
100
AcDbArc
 50
180.0
 51
252.0302461355
  0
ARC
  5
245
330
1F
100
AcDbEntity
  8
0
  6
SLD-Solid
 62
   142
420
    32960
370
     0
100
AcDbCircle
 10
763.1822086528
 20
609.4893556201
 30
0.0
 40
2.050000000000026
100
AcDbArc
 50
287.9697538645
 51
314.9829578283
  0
ARC
  5
246
330
1F
100
AcDbEntity
  8
0
  6
SLD-Solid
 62
   142
420
    32960
370
     0
100
AcDbCircle
 10
122.3322086528
 20
747.6393556201
 30
0.0
 40
1.000000000000014
100
AcDbArc
 50
270.0
 51
0.0
  0
LINE
  5
247
330
1F
100
AcDbEntity
  8
0
  6
SLD-Solid
 62
   142
420
    32960
370
     0
100
AcDbLine
 10
123.0809578706
 20
761.8393556201
 30
0.0
 11
123.0822086528
 21
761.7893556201
 31
0.0
  0
LINE
  5
248
330
1F
100
AcDbEntity
  8
0
  6
SLD-Solid
 62
   142
420
    32960
370
     0
100
AcDbLine
 10
123.0822086528
 20
761.7893556201
 30
0.0
 11
123.0822086528
 21
747.6393556201
 31
0.0
  0
ARC
  5
249
330
1F
100
AcDbEntity
  8
0
  6
SLD-Solid
 62
   142
420
    32960
370
     0
100
AcDbCircle
 10
122.3322086528
 20
747.6393556201
 30
0.0
 40
0.7500000000000284
100
AcDbArc
 50
270.0
 51
0.0
  0
ARC
  5
24A
330
1F
100
AcDbEntity
  8
0
  6
SLD-Solid
 62
   142
420
    32960
370
     0
100
AcDbCircle
 10
20.9322086528
 20
747.6393556201
 30
0.0
 40
0.7500000000000284
100
AcDbArc
 50
180.0
 51
270.0
  0
ARC
  5
24B
330
1F
100
AcDbEntity
  8
0
  6
SLD-Solid
 62
   142
420
    32960
370
     0
100
AcDbCircle
 10
21.1822086528
 20
831.8361248777
 30
0.0
 40
1.00000000000002
100
AcDbArc
 50
75.0
 51
180.0
  0
LINE
  5
24C
330
1F
100
AcDbEntity
  8
0
  6
SLD-Solid
 62
   142
420
    32960
370
     0
100
AcDbLine
 10
75.3822086528
 20
782.7893556201
 30
0.0
 11
96.5822086528
 21
782.7893556201
 31
0.0
  0
ARC
  5
24D
330
1F
100
AcDbEntity
  8
0
  6
SLD-Solid
 62
   142
420
    32960
370
     0
100
AcDbCircle
 10
96.5822086528
 20
781.7893556201
 30
0.0
 40
0.9999999999998863
100
AcDbArc
 50
0.0
 51
90.0
  0
LINE
  5
24E
330
1F
100
AcDbEntity
  8
0
  6
SLD-Solid
 62
   142
420
    32960
370
     0
100
AcDbLine
 10
97.5822086528
 20
781.7893556201
 30
0.0
 11
97.5822086528
 21
765.0893556201
 31
0.0
  0
ARC
  5
24F
330
1F
100
AcDbEntity
  8
0
  6
SLD-Solid
 62
   142
420
    32960
370
     0
100
AcDbCircle
 10
99.8822086528
 20
765.0893556201
 30
0.0
 40
2.300000000000068
100
AcDbArc
 50
180.0
 51
270.0
  0
LINE
  5
250
330
1F
100
AcDbEntity
  8
0
  6
SLD-Solid
 62
   142
420
    32960
370
     0
100
AcDbLine
 10
99.8822086528
 20
762.7893556201
 30
0.0
 11
102.6322086529
 21
762.7893556201
 31
0.0
  0
LINE
  5
251
330
1F
100
AcDbEntity
  8
0
  6
SLD-Solid
 62
   142
420
    32960
370
     0
100
AcDbLine
 10
785.5322086528
 20
512.5393556201
 30
0.0
 11
787.1322086528
 21
512.5393556201
 31
0.0
  0
LINE
  5
252
330
1F
100
AcDbEntity
  8
0
  6
SLD-Solid
 62
     7
370
    15
100
AcDbLine
 10
707.5322075555
 20
-106.4606443799
 30
0.0
 11
654.5322076263
 21
-106.4606443799
 31
0.0
  0
LINE
  5
253
330
1F
100
AcDbEntity
  8
0
  6
SLD-Solid
 62
     7
370
    15
100
AcDbLine
 10
709.5322076263
 20
-100.4606443799
 30
0.0
 11
652.5322076263
 21
-100.4606443799
 31
0.0
  0
SPLINE
  5
254
330
1F
100
AcDbEntity
  8
0
  6
SLD-Solid
 62
   142
420
    32960
370
     0
100
AcDbSpline
210
0.0
220
0.0
230
1.0
 70
     8
 71
     3
 72
    19
 73
    15
 74
     0
 42
0.00000001
 43
0.00000001
 40
0.0
 40
0.0
 40
0.0
 40
0.0
 40
0.0571143122037916
 40
0.115685969538609
 40
0.175720669903824
 40
0.2372237019665144
 40
0.3001999818643065
 40
0.3646540860234727
 40
0.4305902805559991
 40
0.4980125476391939
 40
0.6162771910106167
 40
0.7486631870564209
 40
0.8538896613728839
 40
1.0
 40
1.0
 40
1.0
 40
1.0
 10
787.1322086528086
 20
512.5393556201192
 30
0.0
 10
787.1808361673708
 20
512.5711701273459
 30
0.0
 10
787.2793319900695
 20
512.6356109298677
 30
0.0
 10
787.4211178021164
 20
512.7442341024995
 30
0.0
 10
787.5597656523062
 20
512.8633365928107
 30
0.0
 10
787.693722876297
 20
512.9938717816773
 30
0.0
 10
787.8220677628092
 20
513.1356739006569
 30
0.0
 10
787.9436362003082
 20
513.2887700056137
 30
0.0
 10
788.0572890761734
 20
513.4530134138986
 30
0.0
 10
788.1872780021959
 20
513.6708649248467
 30
0.0
 10
788.325362849022
 20
513.9603720460433
 30
0.0
 10
788.4368214752245
 20
514.3007358513489
 30
0.0
 10
788.5156792907435
 20
514.6784515050946
 30
0.0
 10
788.5261320947578
 20
514.9305297631835
 30
0.0
 10
788.5322086528085
 20
515.0770711282091
 30
0.0
  0
SPLINE
  5
255
330
1F
100
AcDbEntity
  8
0
  6
SLD-Solid
 62
   142
420
    32960
370
     0
100
AcDbSpline
210
0.0
220
0.0
230
1.0
 70
     8
 71
     3
 72
    19
 73
    15
 74
     0
 42
0.00000001
 43
0.00000001
 40
0.0
 40
0.0
 40
0.0
 40
0.0
 40
0.0571115640936047
 40
0.1156812592866445
 40
0.1757147833894042
 40
0.2372174247608469
 40
0.3001940990521368
 40
0.3646493820584512
 40
0.4305875391447104
 40
0.4980125516486575
 40
0.6162616165384428
 40
0.7486631924159406
 40
0.8538790033185841
 40
1.0
 40
1.0
 40
1.0
 40
1.0
 10
787.1322086528086
 20
572.5393556201192
 30
0.0
 10
787.1808338488695
 20
572.5075426847237
 30
0.0
 10
787.2793257042872
 20
572.4431045891026
 30
0.0
 10
787.421107169559
 20
572.334485632784
 30
0.0
 10
787.559752925697
 20
572.2153862350743
 30
0.0
 10
787.6937100975022
 20
572.0848527179375
 30
0.0
 10
787.8220566676399
 20
571.9430505063035
 30
0.0
 10
787.9436281736539
 20
571.7899522339923
 30
0.0
 10
788.057285086784
 20
571.6257043311234
 30
0.0
 10
788.1872687945377
 20
571.407862243786
 30
0.0
 10
788.3253569700753
 20
571.1183539665433
 30
0.0
 10
788.4368149630483
 20
570.7780008922009
 30
0.0
 10
788.5156778125408
 20
570.4002704705861
 30
0.0
 10
788.5261312709331
 20
570.1481921854183
 30
0.0
 10
788.5322086528085
 20
570.0016401120292
 30
0.0
  0
LINE
  5
256
330
1F
100
AcDbEntity
  8
0
  6
SLD-Solid
 62
   142
420
    32960
370
     0
100
AcDbLine
 10
788.5322086528
 20
570.001640112
 30
0.0
 11
788.5322086528
 21
515.0770711282
 31
0.0
  0
SPLINE
  5
257
330
1F
100
AcDbEntity
  8
0
  6
SLD-Solid
 62
   142
420
    32960
370
     0
100
AcDbSpline
210
0.0
220
0.0
230
1.0
 70
     8
 71
     3
 72
    19
 73
    15
 74
     0
 42
0.00000001
 43
0.00000001
 40
0.0
 40
0.0
 40
0.0
 40
0.0
 40
0.0571048789429672
 40
0.1156686822574109
 40
0.1756971814074711
 40
0.2371957328763118
 40
0.3001693154156234
 40
0.3646225633510036
 40
0.4305597964140975
 40
0.4979850465109809
 40
0.61623717953888
 40
0.7486453112633661
 40
0.8538681106766578
 40
1.0
 40
1.0
 40
1.0
 40
1.0
 10
787.1322086528086
 20
570.5406071849684
 30
0.0
 10
787.1808340071709
 20
570.5338410837489
 30
0.0
 10
787.279327004048
 20
570.520136019899
 30
0.0
 10
787.4211083215915
 20
570.496977591198
 30
0.0
 10
787.5597541088858
 20
570.471612029112
 30
0.0
 10
787.6937112369113
 20
570.4438578160712
 30
0.0
 10
787.8220577640482
 20
570.4137653542381
 30
0.0
 10
787.9436292070386
 20
570.381320535041
 30
0.0
 10
788.0572860450799
 20
570.3465273935018
 30
0.0
 10
788.1872703813983
 20
570.3003249676088
 30
0.0
 10
788.3253585972025
 20
570.2387211018257
 30
0.0
 10
788.4368157187173
 20
570.1665479794763
 30
0.0
 10
788.5156779646347
 20
570.0861500005261
 30
0.0
 10
788.5261313137788
 20
570.032709311228
 30
0.0
 10
788.5322086528085
 20
570.0016401120292
 30
0.0
  0
SPLINE
  5
258
330
1F
100
AcDbEntity
  8
0
  6
SLD-Solid
 62
   142
420
    32960
370
     0
100
AcDbSpline
210
0.0
220
0.0
230
1.0
 70
    24
 71
     3
 72
     8
 73
     4
 74
     0
 42
0.00000001
 43
0.00000001
 40
0.0
 40
0.0
 40
0.0
 40
0.0
 40
1.0
 40
1.0
 40
1.0
 40
1.0
 10
787.1322086528086
 20
512.5393556201192
 30
0.0
 10
787.1322086528086
 20
512.5393556201192
 30
0.0
 10
787.1322086528086
 20
513.4385365194465
 30
0.0
 10
787.1322086528086
 20
514.5377103683613
 30
0.0
  0
LINE
  5
259
330
1F
100
AcDbEntity
  8
0
  6
SLD-Solid
 62
   142
420
    32960
370
     0
100
AcDbLine
 10
19.1322086528
 20
744.3322845523
 30
0.0
 11
19.1322086528
 21
482.3464266879
 31
0.0
  0
LINE
  5
25A
330
1F
100
AcDbEntity
  8
0
  6
SLD-Solid
 62
   142
420
    32960
370
     0
100
AcDbLine
 10
19.1322086528
 20
482.3464266879
 30
0.0
 11
19.9322086528
 21
482.3464266879
 31
0.0
  0
LINE
  5
25B
330
1F
100
AcDbEntity
  8
0
  6
SLD-Solid
 62
   142
420
    32960
370
     0
100
AcDbLine
 10
19.1322086528
 20
670.8393556201
 30
0.0
 11
19.9322086528
 21
670.8393556201
 31
0.0
  0
LINE
  5
25C
330
1F
100
AcDbEntity
  8
0
  6
SLD-Solid
 62
   142
420
    32960
370
     0
100
AcDbLine
 10
19.1322086528
 20
555.8393556201
 30
0.0
 11
19.9322086528
 21
555.8393556201
 31
0.0
  0
LINE
  5
25D
330
1F
100
AcDbEntity
  8
0
  6
SLD-Solid
 62
   142
420
    32960
370
     0
100
AcDbLine
 10
19.1322086528
 20
562.6893556201
 30
0.0
 11
19.9322086528
 21
562.6893556201
 31
0.0
  0
LINE
  5
25E
330
1F
100
AcDbEntity
  8
0
  6
SLD-Solid
 62
   142
420
    32960
370
     0
100
AcDbLine
 10
19.1322086528
 20
568.9893556201
 30
0.0
 11
19.9322086528
 21
568.9893556201
 31
0.0
  0
LINE
  5
25F
330
1F
100
AcDbEntity
  8
0
  6
SLD-Solid
 62
   142
420
    32960
370
     0
100
AcDbLine
 10
19.1322086528
 20
663.9893556201
 30
0.0
 11
19.9322086528
 21
663.9893556201
 31
0.0
  0
SPLINE
  5
260
330
1F
100
AcDbEntity
  8
0
  6
SLD-Solid
 62
   142
420
    32960
370
     0
100
AcDbSpline
210
0.0
220
0.0
230
1.0
 70
     8
 71
     3
 72
    22
 73
    18
 74
     0
 42
0.00000001
 43
0.00000001
 40
0.0
 40
0.0
 40
0.0
 40
0.0
 40
0.125
 40
0.125
 40
0.25
 40
0.25
 40
0.375
 40
0.375
 40
0.5
 40
0.5
 40
0.625
 40
0.625
 40
0.75
 40
0.75
 40
0.875
 40
0.875
 40
1.0
 40
1.0
 40
1.0
 40
1.0
 10
21.18220865277809
 20
743.0893556201021
 30
0.0
 10
21.1299578566484
 20
743.2247249729589
 30
0.0
 10
21.07851446203601
 20
743.3579814802398
 30
0.0
 10
20.9754887171073
 20
743.6197911266902
 30
0.0
 10
20.92352046008639
 20
743.7492847823876
 30
0.0
 10
20.81948725371752
 20
743.9982971850069
 30
0.0
 10
20.76813330102378
 20
744.11616012298
 30
0.0
 10
20.66502481335764
 20
744.3383690502677
 30
0.0
 10
20.61272953426219
 20
744.4436714671664
 30
0.0
 10
20.50907160982374
 20
744.6336045406291
 30
0.0
 10
20.45776576764013
 20
744.718354257498
 30
0.0
 10
20.35448945154727
 20
744.8672230581016
 30
0.0
 10
20.3020601841406
 20
744.9316490026482
 30
0.0
 10
20.19868949949133
 20
745.0342483580454
 30
0.0
 10
20.14739173235469
 20
745.0731400965992
 30
0.0
 10
20.04386226816968
 20
745.1257959491619
 30
0.0
 10
19.99153051813252
 20
745.1393556201018
 30
0.0
 10
19.93927972058984
 20
745.1393556201019
 30
0.0
  0
LINE
  5
261
330
1F
100
AcDbEntity
  8
0
  6
SLD-Solid
 62
     7
370
    15
100
AcDbLine
 10
19.9392797206
 20
745.1393556201
 30
0.0
 11
725.925137585
 21
745.1393556201
 31
0.0
  0
SPLINE
  5
262
330
1F
100
AcDbEntity
  8
0
  6
SLD-Solid
 62
   142
420
    32960
370
     0
100
AcDbSpline
210
0.0
220
0.0
230
1.0
 70
     8
 71
     3
 72
    22
 73
    18
 74
     0
 42
0.00000001
 43
0.00000001
 40
0.0
 40
0.0
 40
0.0
 40
0.0
 40
0.125
 40
0.125
 40
0.25
 40
0.25
 40
0.375
 40
0.375
 40
0.5
 40
0.5
 40
0.625
 40
0.625
 40
0.75
 40
0.75
 40
0.875
 40
0.875
 40
1.0
 40
1.0
 40
1.0
 40
1.0
 10
725.9251375849661
 20
745.1393556201019
 30
0.0
 10
725.8728867888364
 20
745.1393556201019
 30
0.0
 10
725.821443394224
 20
745.1260570717757
 30
0.0
 10
725.7184176492951
 20
745.074034644361
 30
0.0
 10
725.6664493922746
 20
745.0349029622814
 30
0.0
 10
725.562416185906
 20
744.931768763641
 30
0.0
 10
725.5110622332119
 20
744.8686852182209
 30
0.0
 10
725.4079537455461
 20
744.7204003028554
 30
0.0
 10
725.3556584664506
 20
744.6341399887801
 30
0.0
 10
725.2520005420118
 20
744.4442819763195
 30
0.0
 10
725.2006946998281
 20
744.3410596076743
 30
0.0
 10
725.0974183837355
 20
744.1187179499167
 30
0.0
 10
725.0449891163287
 20
743.9984130701049
 30
0.0
 10
724.9416184316794
 20
743.7510372600719
 30
0.0
 10
724.8903206645427
 20
743.6232904609479
 30
0.0
 10
724.7867912003579
 20
743.3602763643019
 30
0.0
 10
724.7344594503209
 20
743.2247249766197
 30
0.0
 10
724.682208652778
 20
743.089355620102
 30
0.0
  0
LINE
  5
263
330
1F
100
AcDbEntity
  8
0
  6
SLD-Solid
 62
   142
420
    32960
370
     0
100
AcDbLine
 10
21.1822086528
 20
743.0893556201
 30
0.0
 11
21.1822086528
 21
483.5893556201
 31
0.0
  0
LINE
  5
264
330
1F
100
AcDbEntity
  8
0
  6
SLD-Solid
 62
     7
370
    15
100
AcDbLine
 10
725.925137585
 20
481.5393556201
 30
0.0
 11
19.9392797206
 21
481.5393556201
 31
0.0
  0
SPLINE
  5
265
330
1F
100
AcDbEntity
  8
0
  6
SLD-Solid
 62
   142
420
    32960
370
     0
100
AcDbSpline
210
0.0
220
0.0
230
1.0
 70
     8
 71
     3
 72
    22
 73
    18
 74
     0
 42
0.00000001
 43
0.00000001
 40
0.0
 40
0.0
 40
0.0
 40
0.0
 40
0.125
 40
0.125
 40
0.25
 40
0.25
 40
0.375
 40
0.375
 40
0.5
 40
0.5
 40
0.625
 40
0.625
 40
0.75
 40
0.75
 40
0.875
 40
0.875
 40
1.0
 40
1.0
 40
1.0
 40
1.0
 10
19.93927972058973
 20
481.5393556201018
 30
0.0
 10
19.99153051671954
 20
481.5393556201018
 30
0.0
 10
20.04297391133136
 20
481.5526541684288
 30
0.0
 10
20.14599965626085
 20
481.6046765958431
 30
0.0
 10
20.19796791328143
 20
481.6438082779224
 30
0.0
 10
20.3020011196503
 20
481.7469424765629
 30
0.0
 10
20.35335507234382
 20
481.8100260219828
 30
0.0
 10
20.45646356000985
 20
481.9583109373481
 30
0.0
 10
20.50875883910519
 20
482.0445712514235
 30
0.0
 10
20.61241676354364
 20
482.234429263884
 30
0.0
 10
20.66372260572768
 20
482.3376516325299
 30
0.0
 10
20.76699892182054
 20
482.5599932902873
 30
0.0
 10
20.81942818922722
 20
482.6802981700992
 30
0.0
 10
20.9227988738766
 20
482.927673980132
 30
0.0
 10
20.97409664101302
 20
483.0554207792557
 30
0.0
 10
21.07762610519781
 20
483.3184348759019
 30
0.0
 10
21.12995785523508
 20
483.4539862635845
 30
0.0
 10
21.18220865277798
 20
483.589355620102
 30
0.0
  0
SPLINE
  5
266
330
1F
100
AcDbEntity
  8
0
  6
SLD-Solid
 62
   142
420
    32960
370
     0
100
AcDbSpline
210
0.0
220
0.0
230
1.0
 70
     8
 71
     3
 72
    22
 73
    18
 74
     0
 42
0.00000001
 43
0.00000001
 40
0.0
 40
0.0
 40
0.0
 40
0.0
 40
0.125
 40
0.125
 40
0.25
 40
0.25
 40
0.375
 40
0.375
 40
0.5
 40
0.5
 40
0.625
 40
0.625
 40
0.75
 40
0.75
 40
0.875
 40
0.875
 40
1.0
 40
1.0
 40
1.0
 40
1.0
 10
724.682208652778
 20
483.5893556201019
 30
0.0
 10
724.7344594489078
 20
483.4539862672452
 30
0.0
 10
724.7859028435201
 20
483.320729759964
 30
0.0
 10
724.888928588449
 20
483.0589201135132
 30
0.0
 10
724.9408968454696
 20
482.9294264578162
 30
0.0
 10
725.044930051838
 20
482.6804140551968
 30
0.0
 10
725.0962840045323
 20
482.5625511172244
 30
0.0
 10
725.1993924921981
 20
482.3403421899365
 30
0.0
 10
725.2516877712935
 20
482.2350397730377
 30
0.0
 10
725.3553456957322
 20
482.0451066995749
 30
0.0
 10
725.4066515379162
 20
481.9603569827058
 30
0.0
 10
725.5099278540087
 20
481.811488182102
 30
0.0
 10
725.5623571214155
 20
481.7470622375557
 30
0.0
 10
725.6657278060646
 20
481.6444628821583
 30
0.0
 10
725.7170255732015
 20
481.6055711436048
 30
0.0
 10
725.820555037386
 20
481.5529152910415
 30
0.0
 10
725.8728867874232
 20
481.5393556201018
 30
0.0
 10
725.925137584966
 20
481.5393556201018
 30
0.0
  0
LINE
  5
267
330
1F
100
AcDbEntity
  8
0
  6
SLD-Solid
 62
     7
370
    15
100
AcDbLine
 10
726.7322086528
 20
482.3464266879
 30
0.0
 11
726.7322086528
 21
744.3322845523
 31
0.0
  0
SPLINE
  5
268
330
1F
100
AcDbEntity
  8
0
  6
SLD-Solid
 62
   142
420
    32960
370
     0
100
AcDbSpline
210
0.0
220
0.0
230
1.0
 70
     8
 71
     3
 72
    22
 73
    18
 74
     0
 42
0.00000001
 43
0.00000001
 40
0.0
 40
0.0
 40
0.0
 40
0.0
 40
0.125
 40
0.125
 40
0.25
 40
0.25
 40
0.375
 40
0.375
 40
0.5
 40
0.5
 40
0.625
 40
0.625
 40
0.75
 40
0.75
 40
0.875
 40
0.875
 40
1.0
 40
1.0
 40
1.0
 40
1.0
 10
726.732208652778
 20
482.3464266879137
 30
0.0
 10
726.732208652778
 20
482.3986774840434
 30
0.0
 10
726.7189101044511
 20
482.4501208786559
 30
0.0
 10
726.6668876770367
 20
482.5531466235847
 30
0.0
 10
726.6277559949574
 20
482.6051148806054
 30
0.0
 10
726.5246217963169
 20
482.7091480869738
 30
0.0
 10
726.4615382508972
 20
482.7605020396681
 30
0.0
 10
726.3132533355315
 20
482.8636105273337
 30
0.0
 10
726.2269930214563
 20
482.9159058064294
 30
0.0
 10
726.0371350089958
 20
483.0195637308679
 30
0.0
 10
725.9339126403501
 20
483.0708695730518
 30
0.0
 10
725.7115709825928
 20
483.1741458891444
 30
0.0
 10
725.5912661027808
 20
483.2265751565512
 30
0.0
 10
725.343890292748
 20
483.3299458412003
 30
0.0
 10
725.2161434936244
 20
483.3812436083371
 30
0.0
 10
724.9531293969779
 20
483.4847730725219
 30
0.0
 10
724.8175780092956
 20
483.5371048225589
 30
0.0
 10
724.682208652778
 20
483.5893556201019
 30
0.0
  0
SPLINE
  5
269
330
1F
100
AcDbEntity
  8
0
  6
SLD-Solid
 62
   142
420
    32960
370
     0
100
AcDbSpline
210
0.0
220
0.0
230
1.0
 70
     8
 71
     3
 72
    22
 73
    18
 74
     0
 42
0.00000001
 43
0.00000001
 40
0.0
 40
0.0
 40
0.0
 40
0.0
 40
0.125
 40
0.125
 40
0.25
 40
0.25
 40
0.375
 40
0.375
 40
0.5
 40
0.5
 40
0.625
 40
0.625
 40
0.75
 40
0.75
 40
0.875
 40
0.875
 40
1.0
 40
1.0
 40
1.0
 40
1.0
 10
724.682208652778
 20
743.089355620102
 30
0.0
 10
724.8175780056347
 20
743.1416064162319
 30
0.0
 10
724.9508345129157
 20
743.1930498108442
 30
0.0
 10
725.2126441593665
 20
743.2960755557727
 30
0.0
 10
725.3421378150638
 20
743.3480438127937
 30
0.0
 10
725.591150217683
 20
743.4520770191623
 30
0.0
 10
725.7090131556556
 20
743.5034309718563
 30
0.0
 10
725.9312220829437
 20
743.6065394595222
 30
0.0
 10
726.0365244998424
 20
743.6588347386178
 30
0.0
 10
726.2264575733051
 20
743.7624926630565
 30
0.0
 10
726.311207290174
 20
743.81379850524
 30
0.0
 10
726.4600760907779
 20
743.9170748213327
 30
0.0
 10
726.5245020353243
 20
743.9695040887395
 30
0.0
 10
726.6271013907216
 20
744.0728747733884
 30
0.0
 10
726.6659931292752
 20
744.1241725405255
 30
0.0
 10
726.7186489818382
 20
744.22770200471
 30
0.0
 10
726.732208652778
 20
744.2800337547473
 30
0.0
 10
726.732208652778
 20
744.33228455229
 30
0.0
  0
LINE
  5
26A
330
1F
100
AcDbEntity
  8
0
  6
SLD-Solid
 62
   142
420
    32960
370
     0
100
AcDbLine
 10
725.925137585
 20
482.3393556201
 30
0.0
 11
725.2061433383
 21
482.3393556201
 31
0.0
  0
LINE
  5
26B
330
1F
100
AcDbEntity
  8
0
  6
SLD-Solid
 62
   142
420
    32960
370
     0
100
AcDbLine
 10
20.6531987439
 20
482.3393556201
 30
0.0
 11
19.9392797206
 21
482.3393556201
 31
0.0
  0
LINE
  5
26C
330
1F
100
AcDbEntity
  8
0
  6
SLD-Solid
 62
   142
420
    32960
370
     0
100
AcDbLine
 10
726.7322086528
 20
482.3464266879
 30
0.0
 11
725.9322086528
 21
482.3464266879
 31
0.0
  0
LINE
  5
26D
330
1F
100
AcDbEntity
  8
0
  6
SLD-Solid
 62
   142
420
    32960
370
     0
100
AcDbLine
 10
19.9392797206
 20
481.5393556201
 30
0.0
 11
19.9392797206
 21
482.3393556201
 31
0.0
  0
LINE
  5
26E
330
1F
100
AcDbEntity
  8
0
  6
SLD-Solid
 62
   142
420
    32960
370
     0
100
AcDbLine
 10
725.2110870548
 20
482.3464266879
 30
0.0
 11
725.9322086528
 21
482.3464266879
 31
0.0
  0
LINE
  5
26F
330
1F
100
AcDbEntity
  8
0
  6
SLD-Solid
 62
   142
420
    32960
370
     0
100
AcDbLine
 10
726.7322086528
 20
744.3322845523
 30
0.0
 11
725.9217485738
 21
744.3322845523
 31
0.0
  0
LINE
  5
270
330
1F
100
AcDbEntity
  8
0
  6
SLD-Solid
 62
   142
420
    32960
370
     0
100
AcDbLine
 10
12.6322086527
 20
695.8393556201
 30
0.0
 11
12.6322086527
 21
708.3393556201
 31
0.0
  0
LINE
  5
271
330
1F
100
AcDbEntity
  8
0
  6
SLD-Solid
 62
   142
420
    32960
370
     0
100
AcDbLine
 10
12.6322086527
 20
683.3393556201
 30
0.0
 11
12.6322086527
 21
695.8393556201
 31
0.0
  0
LINE
  5
272
330
1F
100
AcDbEntity
  8
0
  6
SLD-Solid
 62
     7
370
    15
100
AcDbLine
 10
785.3225386329
 20
610.7228404586
 30
0.0
 11
746.9210353271
 21
728.9105149857
 31
0.0
  0
LINE
  5
273
330
1F
100
AcDbEntity
  8
0
  6
SLD-Solid
 62
   142
420
    32960
370
     0
100
AcDbLine
 10
746.1029866272
 20
728.8393556201
 30
0.0
 11
746.160190114
 21
728.6633013902
 31
0.0
  0
LINE
  5
274
330
1F
100
AcDbEntity
  8
0
  6
SLD-Solid
 62
     7
370
    15
100
AcDbLine
 10
784.5616934199
 20
610.4756268631
 30
0.0
 11
746.160190114
 21
728.6633013902
 31
0.0
  0
LINE
  5
275
330
1F
100
AcDbEntity
  8
0
  6
SLD-Solid
 62
   142
420
    32960
370
     0
100
AcDbLine
 10
784.5616934199
 20
610.4756268631
 30
0.0
 11
785.3225386329
 21
610.7228404586
 31
0.0
  0
LINE
  5
276
330
1F
100
AcDbEntity
  8
0
  6
SLD-Solid
 62
   142
420
    32960
370
     0
100
AcDbLine
 10
746.160190114
 20
728.6633013902
 30
0.0
 11
746.9210353271
 21
728.9105149857
 31
0.0
  0
LINE
  5
277
330
1F
100
AcDbEntity
  8
0
  6
SLD-Solid
 62
     7
370
    15
100
AcDbLine
 10
728.7322086528
 20
608.0393556201
 30
0.0
 11
783.3728727745
 21
608.0393556201
 31
0.0
  0
LINE
  5
278
330
1F
100
AcDbEntity
  8
0
  6
SLD-Solid
 62
   142
420
    32960
370
     0
100
AcDbLine
 10
728.7322086528
 20
608.0393556201
 30
0.0
 11
726.7322086528
 21
608.0393556201
 31
0.0
  0
LINE
  5
279
330
1F
100
AcDbEntity
  8
0
  6
SLD-Solid
 62
     7
370
    15
100
AcDbLine
 10
728.7322086528
 20
608.8393556201
 30
0.0
 11
783.3728727745
 21
608.8393556201
 31
0.0
  0
LINE
  5
27A
330
1F
100
AcDbEntity
  8
0
  6
SLD-Solid
 62
   142
420
    32960
370
     0
100
AcDbLine
 10
726.7322086528
 20
608.8393556201
 30
0.0
 11
728.7322086528
 21
608.8393556201
 31
0.0
  0
ARC
  5
27B
330
1F
100
AcDbEntity
  8
0
  6
SLD-Solid
 62
   142
420
    32960
370
     0
100
AcDbCircle
 10
783.3728727745
 20
610.0893556201
 30
0.0
 40
2.050000000000019
100
AcDbArc
 50
270.0
 51
18.0
  0
LINE
  5
27C
330
1F
100
AcDbEntity
  8
0
  6
SLD-Solid
 62
   142
420
    32960
370
     0
100
AcDbLine
 10
728.7322086528
 20
608.8393556201
 30
0.0
 11
728.7322086528
 21
608.0393556201
 31
0.0
  0
LINE
  5
27D
330
1F
100
AcDbEntity
  8
0
  6
SLD-Solid
 62
   142
420
    32960
370
     0
100
AcDbLine
 10
783.3728727745
 20
608.0393556201
 30
0.0
 11
783.3728727745
 21
608.8393556201
 31
0.0
  0
LINE
  5
27E
330
1F
100
AcDbEntity
  8
0
  6
SLD-Solid
 62
   142
420
    32960
370
     0
100
AcDbLine
 10
747.4487618475
 20
731.3607572458
 30
0.0
 11
747.433290048
 21
731.3303921297
 31
0.0
  0
SPLINE
  5
27F
330
1F
100
AcDbEntity
  8
0
  6
SLD-Solid
 62
   142
420
    32960
370
     0
100
AcDbSpline
210
0.0
220
0.0
230
1.0
 70
     8
 71
     3
 72
    14
 73
    10
 74
     0
 42
0.00000001
 43
0.00000001
 40
0.0
 40
0.0
 40
0.0
 40
0.0
 40
0.25
 40
0.25
 40
0.5
 40
0.5
 40
0.75
 40
0.75
 40
1.0
 40
1.0
 40
1.0
 40
1.0
 10
725.9251375849661
 20
744.339355620102
 30
0.0
 10
725.8205994142787
 20
744.3393556201019
 30
0.0
 10
725.7189826884811
 20
744.3073985353059
 30
0.0
 10
725.5101123081884
 20
744.1811833645571
 30
0.0
 10
725.408289955369
 20
744.0900581599938
 30
0.0
 10
725.1996258448157
 20
743.857056142283
 30
0.0
 10
725.0975959395098
 20
743.720418298671
 30
0.0
 10
724.8891295978719
 20
743.4162328472031
 30
0.0
 10
724.7867468211922
 20
743.254497977302
 30
0.0
 10
724.682208652778
 20
743.089355620102
 30
0.0
  0
LINE
  5
280
330
1F
100
AcDbEntity
  8
0
  6
SLD-Solid
 62
     7
370
    15
100
AcDbLine
 10
19.9392797206
 20
744.3393556201
 30
0.0
 11
20.6582739673
 21
744.3393556201
 31
0.0
  0
LINE
  5
281
330
1F
100
AcDbEntity
  8
0
  6
SLD-Solid
 62
     7
370
    15
100
AcDbLine
 10
725.2112185616
 20
744.3393556201
 30
0.0
 11
725.925137585
 21
744.3393556201
 31
0.0
  0
SPLINE
  5
282
330
1F
100
AcDbEntity
  8
0
  6
SLD-Solid
 62
   142
420
    32960
370
     0
100
AcDbSpline
210
0.0
220
0.0
230
1.0
 70
     8
 71
     3
 72
    14
 73
    10
 74
     0
 42
0.00000001
 43
0.00000001
 40
0.0
 40
0.0
 40
0.0
 40
0.0
 40
0.25
 40
0.25
 40
0.5
 40
0.5
 40
0.75
 40
0.75
 40
1.0
 40
1.0
 40
1.0
 40
1.0
 10
21.18220865277809
 20
743.0893556201021
 30
0.0
 10
21.07767048209075
 20
743.2544979808931
 30
0.0
 10
20.97605375629286
 20
743.4150698079595
 30
0.0
 10
20.76718337600047
 20
743.7199350773383
 30
0.0
 10
20.66536102318095
 20
743.8563360305012
 30
0.0
 10
20.4566969126273
 20
744.0895058245835
 30
0.0
 10
20.35466700732158
 20
744.1808559327546
 30
0.0
 10
20.14620066568351
 20
744.307043722699
 30
0.0
 10
20.04381788900411
 20
744.3393556201021
 30
0.0
 10
19.93927972058984
 20
744.339355620102
 30
0.0
  0
LINE
  5
283
330
1F
100
AcDbEntity
  8
0
  6
SLD-Solid
 62
     7
370
    15
100
AcDbLine
 10
8.3822086527
 20
593.3464624013
 30
0.0
 11
-53.5677913473
 21
593.3464624013
 31
0.0
  0
LINE
  5
284
330
1F
100
AcDbEntity
  8
0
  6
SLD-Solid
 62
   142
420
    32960
370
     0
100
AcDbLine
 10
-52.6107202794
 20
749.7893556201
 30
0.0
 11
-52.624862415
 21
749.7893556201
 31
0.0
  0
LINE
  5
285
330
1F
100
AcDbEntity
  8
0
  6
SLD-Solid
 62
   142
420
    32960
370
     0
100
AcDbLine
 10
-53.5677913473
 20
593.4393556201
 30
0.0
 11
-53.5677913473
 21
593.3464624013
 31
0.0
  0
LINE
  5
286
330
1F
100
AcDbEntity
  8
0
  6
SLD-Solid
 62
   142
420
    32960
370
     0
100
AcDbLine
 10
8.3822086527
 20
740.6393556201
 30
0.0
 11
8.3822086527
 21
593.3464624013
 31
0.0
  0
LINE
  5
287
330
1F
100
AcDbEntity
  8
0
  6
SLD-Solid
 62
     7
370
    15
100
AcDbLine
 10
716.0322076263
 20
61.5393556201
 30
0.0
 11
716.0322076263
 21
63.5393556201
 31
0.0
  0
LINE
  5
288
330
1F
100
AcDbEntity
  8
0
  6
SLD-Solid
 62
     7
370
    15
100
AcDbLine
 10
646.0322076263
 20
61.5393556201
 30
0.0
 11
716.0322076263
 21
61.5393556201
 31
0.0
  0
LINE
  5
289
330
1F
100
AcDbEntity
  8
0
  6
SLD-Solid
 62
     7
370
    15
100
AcDbLine
 10
646.0322076263
 20
61.5393556201
 30
0.0
 11
646.0322076263
 21
63.5393556201
 31
0.0
  0
LINE
  5
28A
330
1F
100
AcDbEntity
  8
0
  6
SLD-Solid
 62
   142
420
    32960
370
     0
100
AcDbLine
 10
646.0322076263
 20
63.5393556201
 30
0.0
 11
716.0322076263
 21
63.5393556201
 31
0.0
  0
LINE
  5
28B
330
1F
100
AcDbEntity
  8
0
  6
SLD-Solid
 62
     7
370
    15
100
AcDbLine
 10
711.9918578466
 20
-32.4606443799
 30
0.0
 11
650.0725574059
 21
-32.4606443799
 31
0.0
  0
LINE
  5
28C
330
1F
100
AcDbEntity
  8
0
  6
SLD-Solid
 62
   142
420
    32960
370
     0
100
AcDbLine
 10
778.2248846251
 20
645.9734310412
 30
0.0
 11
780.105898408
 21
645.2938818168
 31
0.0
  0
LINE
  5
28D
330
1F
100
AcDbEntity
  8
0
  6
SLD-Solid
 62
   142
420
    32960
370
     0
100
AcDbLine
 10
780.105898408
 20
645.2938818168
 30
0.0
 11
790.4514742142
 21
641.5563610825
 31
0.0
  0
LINE
  5
28E
330
1F
100
AcDbEntity
  8
0
  6
SLD-Solid
 62
   142
420
    32960
370
     0
100
AcDbLine
 10
790.4514742142
 20
641.5563610825
 30
0.0
 11
792.3324879971
 21
640.876811858
 31
0.0
  0
LINE
  5
28F
330
1F
100
AcDbEntity
  8
0
  6
SLD-Solid
 62
   142
420
    32960
370
     0
100
AcDbLine
 10
10.4322086528
 20
695.8393556201
 30
0.0
 11
10.4322086528
 21
712.3393556201
 31
0.0
  0
LINE
  5
290
330
1F
100
AcDbEntity
  8
0
  6
SLD-Solid
 62
   142
420
    32960
370
     0
100
AcDbLine
 10
13.4322086528
 20
712.3393556201
 30
0.0
 11
10.4322086528
 21
712.3393556201
 31
0.0
  0
LINE
  5
291
330
1F
100
AcDbEntity
  8
0
  6
SLD-Solid
 62
   142
420
    32960
370
     0
100
AcDbLine
 10
13.4322086528
 20
708.3393556201
 30
0.0
 11
13.4322086528
 21
712.3393556201
 31
0.0
  0
LINE
  5
292
330
1F
100
AcDbEntity
  8
0
  6
SLD-Solid
 62
   142
420
    32960
370
     0
100
AcDbLine
 10
12.6322086527
 20
695.8393556201
 30
0.0
 11
10.4322086528
 21
695.8393556201
 31
0.0
  0
LINE
  5
293
330
1F
100
AcDbEntity
  8
0
  6
SLD-Solid
 62
   142
420
    32960
370
     0
100
AcDbLine
 10
-53.5677913473
 20
751.8393556201
 30
0.0
 11
-53.4177913472
 21
751.8393556201
 31
0.0
  0
LINE
  5
294
330
1F
100
AcDbEntity
  8
0
  6
SLD-Solid
 62
     7
370
    15
100
AcDbLine
 10
636.1322086528
 20
771.8393556201
 30
0.0
 11
131.1322086528
 21
771.8393556201
 31
0.0
  0
LINE
  5
295
330
1F
100
AcDbEntity
  8
0
  6
SLD-Solid
 62
   142
420
    32960
370
     0
100
AcDbLine
 10
126.1322086528
 20
766.8393556201
 30
0.0
 11
126.1322086528
 21
748.0893556201
 31
0.0
  0
ARC
  5
296
330
1F
100
AcDbEntity
  8
0
  6
SLD-Solid
 62
     7
370
    15
100
AcDbCircle
 10
131.1322086528
 20
766.8393556201
 30
0.0
 40
5.0
100
AcDbArc
 50
90.0
 51
180.0
  0
ARC
  5
297
330
1F
100
AcDbEntity
  8
0
  6
SLD-Solid
 62
   142
420
    32960
370
     0
100
AcDbCircle
 10
636.1322086528
 20
766.8393556201
 30
0.0
 40
5.0
100
AcDbArc
 50
360.0
 51
90.0
  0
LINE
  5
298
330
1F
100
AcDbEntity
  8
0
  6
SLD-Solid
 62
   142
420
    32960
370
     0
100
AcDbLine
 10
641.1322086528
 20
748.0893556201
 30
0.0
 11
641.1322086528
 21
766.8393556201
 31
0.0
  0
LINE
  5
299
330
1F
100
AcDbEntity
  8
0
  6
SLD-Solid
 62
     7
370
    15
100
AcDbLine
 10
641.1322086528
 20
746.0393556201
 30
0.0
 11
126.1322086528
 21
746.0393556201
 31
0.0
  0
LINE
  5
29A
330
1F
100
AcDbEntity
  8
0
  6
SLD-Solid
 62
   142
420
    32960
370
     0
100
AcDbLine
 10
641.1322086528
 20
748.0893556201
 30
0.0
 11
641.1322086528
 21
746.0393556201
 31
0.0
  0
LINE
  5
29B
330
1F
100
AcDbEntity
  8
0
  6
SLD-Solid
 62
   142
420
    32960
370
     0
100
AcDbLine
 10
126.1322086528
 20
746.0393556201
 30
0.0
 11
126.1322086528
 21
748.0893556201
 31
0.0
  0
LINE
  5
29C
330
1F
100
AcDbEntity
  8
0
  6
SLD-Solid
 62
   142
420
    32960
370
     0
100
AcDbLine
 10
-42.6677913472
 20
586.6393556201
 30
0.0
 11
-43.4677913472
 21
586.6393556201
 31
0.0
  0
LINE
  5
29D
330
1F
100
AcDbEntity
  8
0
  6
SLD-Solid
 62
   142
420
    32960
370
     0
100
AcDbLine
 10
-43.4677913472
 20
586.6393556201
 30
0.0
 11
-43.4677913472
 21
591.3893556201
 31
0.0
  0
LINE
  5
29E
330
1F
100
AcDbEntity
  8
0
  6
SLD-Solid
 62
   142
420
    32960
370
     0
100
AcDbLine
 10
8.3822086527
 20
592.6393556201
 30
0.0
 11
-52.3177913473
 21
592.6393556201
 31
0.0
  0
LINE
  5
29F
330
1F
100
AcDbEntity
  8
0
  6
SLD-Solid
 62
   142
420
    32960
370
     0
100
AcDbLine
 10
8.3822086527
 20
591.8393556201
 30
0.0
 11
8.3822086527
 21
592.6393556201
 31
0.0
  0
LINE
  5
2A0
330
1F
100
AcDbEntity
  8
0
  6
SLD-Solid
 62
     7
370
    15
100
AcDbLine
 10
8.3822086527
 20
591.8393556201
 30
0.0
 11
-52.3177913473
 21
591.8393556201
 31
0.0
  0
LINE
  5
2A1
330
1F
100
AcDbEntity
  8
0
  6
SLD-Solid
 62
   142
420
    32960
370
     0
100
AcDbLine
 10
-52.3177913473
 20
591.8393556201
 30
0.0
 11
-52.3177913473
 21
592.6393556201
 31
0.0
  0
SPLINE
  5
2A2
330
1F
100
AcDbEntity
  8
0
  6
SLD-Solid
 62
   142
420
    32960
370
     0
100
AcDbSpline
210
0.0
220
0.0
230
1.0
 70
     8
 71
     3
 72
    14
 73
    10
 74
     0
 42
0.00000001
 43
0.00000001
 40
0.0
 40
0.0
 40
0.0
 40
0.0
 40
0.25
 40
0.25
 40
0.5
 40
0.5
 40
0.75
 40
0.75
 40
1.0
 40
1.0
 40
1.0
 40
1.0
 10
8.382208652733315
 20
591.8393556201174
 30
0.0
 10
8.650553025227437
 20
591.8393556201174
 30
0.0
 10
8.91879181566968
 20
591.8927116329475
 30
0.0
 10
9.414627562493894
 20
592.0980935239912
 30
0.0
 10
9.642029428681864
 20
592.2500385932012
 30
0.0
 10
10.02152567964976
 20
592.6295348441688
 30
0.0
 10
10.17347074885955
 20
592.8569367103571
 30
0.0
 10
10.37885263990346
 20
593.352772457181
 30
0.0
 10
10.43220865273331
 20
593.6210112476233
 30
0.0
 10
10.43220865273331
 20
593.8893556201175
 30
0.0
  0
LINE
  5
2A3
330
1F
100
AcDbEntity
  8
0
  6
SLD-Solid
 62
   142
420
    32960
370
     0
100
AcDbLine
 10
-53.5677913473
 20
586.8393556201
 30
0.0
 11
-53.5677913473
 21
590.5893556201
 31
0.0
  0
LINE
  5
2A4
330
1F
100
AcDbEntity
  8
0
  6
SLD-Solid
 62
   142
420
    32960
370
     0
100
AcDbLine
 10
-53.5677913473
 20
581.8393556201
 30
0.0
 11
-53.5677913473
 21
586.8393556201
 31
0.0
  0
LINE
  5
2A5
330
1F
100
AcDbEntity
  8
0
  6
SLD-Solid
 62
   142
420
    32960
370
     0
100
AcDbLine
 10
-54.3677913473
 20
581.8393556201
 30
0.0
 11
-54.3677913473
 21
586.8393556201
 31
0.0
  0
LINE
  5
2A6
330
1F
100
AcDbEntity
  8
0
  6
SLD-Solid
 62
   142
420
    32960
370
     0
100
AcDbLine
 10
-54.3677913473
 20
586.8393556201
 30
0.0
 11
-54.3677913473
 21
590.5893556201
 31
0.0
  0
ARC
  5
2A7
330
1F
100
AcDbEntity
  8
0
  6
SLD-Solid
 62
   142
420
    32960
370
     0
100
AcDbCircle
 10
-52.3177913473
 20
590.5893556201
 30
0.0
 40
2.050000000000182
100
AcDbArc
 50
90.0
 51
180.0
  0
ARC
  5
2A8
330
1F
100
AcDbEntity
  8
0
  6
SLD-Solid
 62
   142
420
    32960
370
     0
100
AcDbCircle
 10
-52.3177913473
 20
590.5893556201
 30
0.0
 40
1.249999999999972
100
AcDbArc
 50
90.0
 51
180.0
  0
LINE
  5
2A9
330
1F
100
AcDbEntity
  8
0
  6
SLD-Solid
 62
   142
420
    32960
370
     0
100
AcDbLine
 10
-54.3677913473
 20
581.8393556201
 30
0.0
 11
-53.5677913473
 21
581.8393556201
 31
0.0
  0
LINE
  5
2AA
330
1F
100
AcDbEntity
  8
0
  6
SLD-Solid
 62
   142
420
    32960
370
     0
100
AcDbLine
 10
43.5322076263
 20
65.5393556201
 30
0.0
 11
42.0322076263
 21
65.5393556201
 31
0.0
  0
LINE
  5
2AB
330
1F
100
AcDbEntity
  8
0
  6
SLD-Solid
 62
   142
420
    32960
370
     0
100
AcDbLine
 10
42.0322076263
 20
69.8393556201
 30
0.0
 11
42.0322076263
 21
65.5393556201
 31
0.0
  0
ARC
  5
2AC
330
1F
100
AcDbEntity
  8
0
  6
SLD-Solid
 62
     7
370
    15
100
AcDbCircle
 10
44.7822076263
 20
66.7893556201
 30
0.0
 40
2.749999999999954
100
AcDbArc
 50
180.0
 51
243.1295854597
  0
LINE
  5
2AD
330
1F
100
AcDbEntity
  8
0
  6
SLD-Solid
 62
   142
420
    32960
370
     0
100
AcDbLine
 10
43.5322076263
 20
66.7893556201
 30
0.0
 11
43.5392786941
 21
66.656586386
 31
0.0
  0
LINE
  5
2AE
330
1F
100
AcDbEntity
  8
0
  6
SLD-Solid
 62
   142
420
    32960
370
     0
100
AcDbLine
 10
43.5322076263
 20
66.7893556201
 30
0.0
 11
42.0322076263
 21
66.7893556201
 31
0.0
  0
SPLINE
  5
2AF
330
1F
100
AcDbEntity
  8
0
  6
SLD-Solid
 62
   142
420
    32960
370
     0
100
AcDbSpline
210
0.0
220
0.0
230
1.0
 70
     8
 71
     3
 72
    18
 73
    14
 74
     0
 42
0.00000001
 43
0.00000001
 40
0.0
 40
0.0
 40
0.0
 40
0.0
 40
0.1251255006785564
 40
0.2502350516673851
 40
0.3753411032989362
 40
0.5004073679950124
 40
0.630532469609601
 40
0.7500665776784898
 40
0.8126479510472142
 40
0.8749934902351008
 40
0.9374600700548842
 40
0.9687214628022317
 40
1.0
 40
1.0
 40
1.0
 40
1.0
 10
757.8184628764144
 20
719.4171355955706
 30
0.0
 10
757.8953138527862
 20
719.4120493047618
 30
0.0
 10
758.0490060093712
 20
719.401877371491
 30
0.0
 10
758.2792131841751
 20
719.386896767619
 30
0.0
 10
758.5082182551554
 20
719.3722938942237
 30
0.0
 10
758.737264568058
 20
719.35810091564
 30
0.0
 10
758.9538268105248
 20
719.3453606681443
 30
0.0
 10
759.1111813448315
 20
719.3367941154743
 30
0.0
 10
759.2096809112494
 20
719.3316808344778
 30
0.0
 10
759.2679613243242
 20
719.3287742341472
 30
0.0
 10
759.2956636127466
 20
719.327509571563
 30
0.0
 10
759.3065085524036
 20
719.3270644792606
 30
0.0
 10
759.3074126980532
 20
719.3270559415107
 30
0.0
 10
759.3078648948075
 20
719.3270516714655
 30
0.0
  0
SPLINE
  5
2B0
330
1F
100
AcDbEntity
  8
0
  6
SLD-Solid
 62
   142
420
    32960
370
     0
100
AcDbSpline
210
0.0
220
0.0
230
1.0
 70
     8
 71
     3
 72
    18
 73
    14
 74
     0
 42
0.00000001
 43
0.00000001
 40
0.0
 40
0.0
 40
0.0
 40
0.0
 40
0.0624918951733558
 40
0.1249105512569259
 40
0.1873596185527918
 40
0.2497844363471395
 40
0.3219192190622627
 40
0.3747344688689618
 40
0.4996727452920772
 40
0.6247178670878584
 40
0.7498042890466683
 40
0.8702709287662823
 40
1.0
 40
1.0
 40
1.0
 40
1.0
 10
756.2160564146209
 20
719.5324695104428
 30
0.0
 10
756.218207696462
 20
719.53223054487
 30
0.0
 10
756.2225077388904
 20
719.5317528937869
 30
0.0
 10
756.2614491487521
 20
719.5283396439035
 30
0.0
 10
756.3225225104023
 20
719.5231991105479
 30
0.0
 10
756.4078739146398
 20
719.5162281239172
 30
0.0
 10
756.5096304543247
 20
719.5083466715106
 30
0.0
 10
756.6565709270767
 20
719.4973302574895
 30
0.0
 10
756.8451585111707
 20
719.483560488288
 30
0.0
 10
757.0863464609912
 20
719.4666191226149
 30
0.0
 10
757.3268389047659
 20
719.4501344979376
 30
0.0
 10
757.5710357216655
 20
719.4336300370635
 30
0.0
 10
757.7339764293898
 20
719.4227677856138
 30
0.0
 10
757.8184628764144
 20
719.4171355955706
 30
0.0
  0
LINE
  5
2B1
330
1F
100
AcDbEntity
  8
0
  6
SLD-Solid
 62
     7
370
    15
100
AcDbLine
 10
122.8305401301
 20
761.8393556201
 30
0.0
 11
126.1322086528
 21
761.8393556201
 31
0.0
  0
LINE
  5
2B2
330
1F
100
AcDbEntity
  8
0
  6
SLD-Solid
 62
     7
370
    15
100
AcDbLine
 10
641.1322086528
 20
761.8393556201
 30
0.0
 11
644.4267433785
 21
761.8393556201
 31
0.0
  0
LINE
  5
2B3
330
1F
100
AcDbEntity
  8
0
  6
SLD-Solid
 62
     7
370
    15
100
AcDbLine
 10
102.6322086529
 20
762.5393556201
 30
0.0
 11
102.6322086529
 21
763.0393556201
 31
0.0
  0
LINE
  5
2B4
330
1F
100
AcDbEntity
  8
0
  6
SLD-Solid
 62
     7
370
    15
100
AcDbLine
 10
102.6322086529
 20
763.8393556201
 30
0.0
 11
102.6322086529
 21
783.8393556201
 31
0.0
  0
LINE
  5
2B5
330
1F
100
AcDbEntity
  8
0
  6
SLD-Solid
 62
     7
370
    15
100
AcDbLine
 10
664.6322086529
 20
762.6293556201
 30
0.0
 11
664.6322086529
 21
762.6393556201
 31
0.0
  0
LINE
  5
2B6
330
1F
100
AcDbEntity
  8
0
  6
SLD-Solid
 62
     7
370
    15
100
AcDbLine
 10
664.6322086529
 20
763.8393556201
 30
0.0
 11
664.6322086529
 21
783.8393556201
 31
0.0
  0
LINE
  5
2B7
330
1F
100
AcDbEntity
  8
0
  6
SLD-Solid
 62
     7
370
    15
100
AcDbLine
 10
102.6322086529
 20
783.8393556201
 30
0.0
 11
664.6322086529
 21
783.8393556201
 31
0.0
  0
LINE
  5
2B8
330
1F
100
AcDbEntity
  8
0
  6
SLD-Solid
 62
   142
420
    32960
370
     0
100
AcDbLine
 10
14.5131821432
 20
751.4035769064
 30
0.0
 11
9.5865771526
 21
751.8345989927
 31
0.0
  0
LINE
  5
2B9
330
1F
100
AcDbEntity
  8
0
  6
SLD-Solid
 62
   142
420
    32960
370
     0
100
AcDbLine
 10
9.6322086527
 20
678.2393556201
 30
0.0
 11
9.6322086527
 21
676.4393556201
 31
0.0
  0
LINE
  5
2BA
330
1F
100
AcDbEntity
  8
0
  6
SLD-Solid
 62
   142
420
    32960
370
     0
100
AcDbLine
 10
9.6322086527
 20
703.2393556201
 30
0.0
 11
9.6322086527
 21
698.4393556201
 31
0.0
  0
LINE
  5
2BB
330
1F
100
AcDbEntity
  8
0
  6
SLD-Solid
 62
   142
420
    32960
370
     0
100
AcDbLine
 10
9.6322086527
 20
749.7893556201
 30
0.0
 11
9.6322086527
 21
593.8893556201
 31
0.0
  0
LINE
  5
2BC
330
1F
100
AcDbEntity
  8
0
  6
SLD-Solid
 62
   142
420
    32960
370
     0
100
AcDbLine
 10
9.6322086527
 20
708.5393556201
 30
0.0
 11
9.6322086527
 21
683.1507987493
 31
0.0
  0
LINE
  5
2BD
330
1F
100
AcDbEntity
  8
0
  6
SLD-Solid
 62
   142
420
    32960
370
     0
100
AcDbLine
 10
9.6322086527
 20
666.1893556201
 30
0.0
 11
9.6322086527
 21
653.5356542696
 31
0.0
  0
LINE
  5
2BE
330
1F
100
AcDbEntity
  8
0
  6
SLD-Solid
 62
   142
420
    32960
370
     0
100
AcDbLine
 10
9.6322086527
 20
620.1893556201
 30
0.0
 11
9.6322086527
 21
607.5356542696
 31
0.0
  0
LINE
  5
2BF
330
1F
100
AcDbEntity
  8
0
  6
SLD-Solid
 62
   142
420
    32960
370
     0
100
AcDbLine
 10
9.6322086527
 20
666.5393556201
 30
0.0
 11
9.6322086527
 21
641.1507987493
 31
0.0
  0
LINE
  5
2C0
330
1F
100
AcDbEntity
  8
0
  6
SLD-Solid
 62
   142
420
    32960
370
     0
100
AcDbLine
 10
9.6322086527
 20
746.5393556201
 30
0.0
 11
9.6322086527
 21
721.1507987493
 31
0.0
  0
LINE
  5
2C1
330
1F
100
AcDbEntity
  8
0
  6
SLD-Solid
 62
   142
420
    32960
370
     0
100
AcDbLine
 10
9.6322086527
 20
720.8393556201
 30
0.0
 11
9.6322086527
 21
712.8505404314
 31
0.0
  0
LINE
  5
2C2
330
1F
100
AcDbEntity
  8
0
  6
SLD-Solid
 62
   142
420
    32960
370
     0
100
AcDbLine
 10
9.6322086527
 20
720.8393556201
 30
0.0
 11
9.6322086527
 21
712.8505404314
 31
0.0
  0
LINE
  5
2C3
330
1F
100
AcDbEntity
  8
0
  6
SLD-Solid
 62
   142
420
    32960
370
     0
100
AcDbLine
 10
9.6322086527
 20
739.0393556201
 30
0.0
 11
9.6322086527
 21
732.6879708105
 31
0.0
  0
LINE
  5
2C4
330
1F
100
AcDbEntity
  8
0
  6
SLD-Solid
 62
   142
420
    32960
370
     0
100
AcDbLine
 10
9.6322086527
 20
720.8393556201
 30
0.0
 11
9.6322086527
 21
712.8505404314
 31
0.0
  0
LINE
  5
2C5
330
1F
100
AcDbEntity
  8
0
  6
SLD-Solid
 62
   142
420
    32960
370
     0
100
AcDbLine
 10
9.6322086527
 20
720.8393556201
 30
0.0
 11
9.6322086527
 21
712.8505404314
 31
0.0
  0
LINE
  5
2C6
330
1F
100
AcDbEntity
  8
0
  6
SLD-Solid
 62
   142
420
    32960
370
     0
100
AcDbLine
 10
9.6322086527
 20
720.8393556201
 30
0.0
 11
9.6322086527
 21
712.8505404314
 31
0.0
  0
LINE
  5
2C7
330
1F
100
AcDbEntity
  8
0
  6
SLD-Solid
 62
   142
420
    32960
370
     0
100
AcDbLine
 10
9.6322086527
 20
739.0393556201
 30
0.0
 11
9.6322086527
 21
732.6879708105
 31
0.0
  0
LINE
  5
2C8
330
1F
100
AcDbEntity
  8
0
  6
SLD-Solid
 62
   142
420
    32960
370
     0
100
AcDbLine
 10
9.6322086527
 20
720.8393556201
 30
0.0
 11
9.6322086527
 21
712.8505404314
 31
0.0
  0
LINE
  5
2C9
330
1F
100
AcDbEntity
  8
0
  6
SLD-Solid
 62
   142
420
    32960
370
     0
100
AcDbLine
 10
9.6322086527
 20
739.0393556201
 30
0.0
 11
9.6322086527
 21
732.6879708105
 31
0.0
  0
LINE
  5
2CA
330
1F
100
AcDbEntity
  8
0
  6
SLD-Solid
 62
   142
420
    32960
370
     0
100
AcDbLine
 10
9.6322086527
 20
702.4893556201
 30
0.0
 11
9.6322086527
 21
699.1893556201
 31
0.0
  0
LINE
  5
2CB
330
1F
100
AcDbEntity
  8
0
  6
SLD-Solid
 62
   142
420
    32960
370
     0
100
AcDbLine
 10
9.6322086527
 20
684.2393556201
 30
0.0
 11
9.6322086527
 21
679.4393556201
 31
0.0
  0
LINE
  5
2CC
330
1F
100
AcDbEntity
  8
0
  6
SLD-Solid
 62
   142
420
    32960
370
     0
100
AcDbLine
 10
9.6322086527
 20
664.4893556201
 30
0.0
 11
9.6322086527
 21
661.1893556201
 31
0.0
  0
LINE
  5
2CD
330
1F
100
AcDbEntity
  8
0
  6
SLD-Solid
 62
   142
420
    32960
370
     0
100
AcDbLine
 10
9.6322086527
 20
649.0393556201
 30
0.0
 11
9.6322086527
 21
642.6879708105
 31
0.0
  0
LINE
  5
2CE
330
1F
100
AcDbEntity
  8
0
  6
SLD-Solid
 62
   142
420
    32960
370
     0
100
AcDbLine
 10
9.6322086527
 20
649.0393556201
 30
0.0
 11
9.6322086527
 21
642.6879708105
 31
0.0
  0
LINE
  5
2CF
330
1F
100
AcDbEntity
  8
0
  6
SLD-Solid
 62
   142
420
    32960
370
     0
100
AcDbLine
 10
9.6322086527
 20
663.0393556201
 30
0.0
 11
9.6322086527
 21
656.6879708105
 31
0.0
  0
LINE
  5
2D0
330
1F
100
AcDbEntity
  8
0
  6
SLD-Solid
 62
   142
420
    32960
370
     0
100
AcDbLine
 10
9.6322086527
 20
663.0393556201
 30
0.0
 11
9.6322086527
 21
656.6879708105
 31
0.0
  0
LINE
  5
2D1
330
1F
100
AcDbEntity
  8
0
  6
SLD-Solid
 62
   142
420
    32960
370
     0
100
AcDbLine
 10
9.6322086527
 20
648.0393556201
 30
0.0
 11
9.6322086527
 21
643.6393556201
 31
0.0
  0
LINE
  5
2D2
330
1F
100
AcDbEntity
  8
0
  6
SLD-Solid
 62
   142
420
    32960
370
     0
100
AcDbLine
 10
9.6322086527
 20
648.0393556201
 30
0.0
 11
9.6322086527
 21
643.6393556201
 31
0.0
  0
LINE
  5
2D3
330
1F
100
AcDbEntity
  8
0
  6
SLD-Solid
 62
   142
420
    32960
370
     0
100
AcDbLine
 10
9.6322086527
 20
653.2393556201
 30
0.0
 11
9.6322086527
 21
648.4393556201
 31
0.0
  0
ENDSEC
  0
SECTION
  2
OBJECTS
  0
DICTIONARY
  5
C
330
0
100
AcDbDictionary
281
     1
  3
ACAD_GROUP
350
D
  3
ACAD_LAYOUT
350
1A
  3
ACAD_MATERIAL
350
3B
  3
ACAD_MLEADERSTYLE
350
2D5
  3
ACAD_MLINESTYLE
350
17
  3
ACAD_PLOTSETTINGS
350
19
  3
ACAD_PLOTSTYLENAME
350
E
  3
ACAD_TABLESTYLE
350
2D4
  3
ACAD_VISUALSTYLE
350
2A
  0
DICTIONARY
  5
D
102
{ACAD_REACTORS
330
C
102
}
330
C
100
AcDbDictionary
281
     1
  0
DICTIONARY
  5
1A
102
{ACAD_REACTORS
330
C
102
}
330
C
100
AcDbDictionary
281
     1
  3
Layout1
350
1E
  3
Layout2
350
26
  3
Model
350
22
  0
DICTIONARY
  5
3B
102
{ACAD_REACTORS
330
C
102
}
330
C
100
AcDbDictionary
281
     1
  3
ByBlock
350
3D
  3
ByLayer
350
3C
  3
Global
350
3E
  0
DICTIONARY
  5
2D5
102
{ACAD_REACTORS
330
C
102
}
330
C
100
AcDbDictionary
281
     1
  0
DICTIONARY
  5
17
102
{ACAD_REACTORS
330
C
102
}
330
C
100
AcDbDictionary
281
     1
  3
Standard
350
18
  0
DICTIONARY
  5
19
102
{ACAD_REACTORS
330
C
102
}
330
C
100
AcDbDictionary
281
     1
  0
ACDBDICTIONARYWDFLT
  5
E
102
{ACAD_REACTORS
330
C
102
}
330
C
100
AcDbDictionary
281
     1
  3
Normal
350
F
100
AcDbDictionaryWithDefault
340
F
  0
DICTIONARY
  5
2D4
102
{ACAD_REACTORS
330
C
102
}
330
C
100
AcDbDictionary
281
     1
  0
DICTIONARY
  5
2A
102
{ACAD_REACTORS
330
C
102
}
330
C
100
AcDbDictionary
281
     1
  3
2dWireframe
350
2F
  3
3D Hidden
350
31
  3
3dWireframe
350
30
  3
Basic
350
32
  3
Brighten
350
36
  3
ColorChange
350
3A
  3
Conceptual
350
34
  3
Dim
350
35
  3
Facepattern
350
39
  3
Flat
350
2B
  3
FlatWithEdges
350
2C
  3
Gouraud
350
2D
  3
GouraudWithEdges
350
2E
  3
Linepattern
350
38
  3
Realistic
350
33
  3
Thicken
350
37
  0
LAYOUT
  5
1E
102
{ACAD_REACTORS
330
1A
102
}
330
1A
100
AcDbPlotSettings
  1

  2
none_device
  4

  6

 40
0.0
 41
0.0
 42
0.0
 43
0.0
 44
0.0
 45
0.0
 46
0.0
 47
0.0
 48
0.0
 49
0.0
140
0.0
141
0.0
142
1.0
143
1.0
 70
   688
 72
     0
 73
     0
 74
     5
  7

 75
    16
 76
     0
 77
     2
 78
   300
147
1.0
148
0.0
149
0.0
100
AcDbLayout
  1
Layout1
 70
     1
 71
     1
 10
0.0
 20
0.0
 11
420.0
 21
297.0
 12
0.0
 22
0.0
 32
0.0
 14
1.0000000000E+20
 24
1.0000000000E+20
 34
1.0000000000E+20
 15
-1.0000000000E+20
 25
-1.0000000000E+20
 35
-1.0000000000E+20
146
0.0
 13
0.0
 23
0.0
 33
0.0
 16
1.0
 26
0.0
 36
0.0
 17
0.0
 27
1.0
 37
0.0
 76
     0
330
1B
  0
LAYOUT
  5
26
102
{ACAD_REACTORS
330
1A
102
}
330
1A
100
AcDbPlotSettings
  1

  2
none_device
  4

  6

 40
0.0
 41
0.0
 42
0.0
 43
0.0
 44
0.0
 45
0.0
 46
0.0
 47
0.0
 48
0.0
 49
0.0
140
0.0
141
0.0
142
1.0
143
1.0
 70
   688
 72
     0
 73
     0
 74
     5
  7

 75
    16
 76
     0
 77
     2
 78
   300
147
1.0
148
0.0
149
0.0
100
AcDbLayout
  1
Layout2
 70
     1
 71
     2
 10
0.0
 20
0.0
 11
0.0
 21
0.0
 12
0.0
 22
0.0
 32
0.0
 14
0.0
 24
0.0
 34
0.0
 15
0.0
 25
0.0
 35
0.0
146
0.0
 13
0.0
 23
0.0
 33
0.0
 16
1.0
 26
0.0
 36
0.0
 17
0.0
 27
1.0
 37
0.0
 76
     0
330
23
  0
LAYOUT
  5
22
102
{ACAD_REACTORS
330
1A
102
}
330
1A
100
AcDbPlotSettings
  1

  2
none_device
  4

  6

 40
0.0
 41
0.0
 42
0.0
 43
0.0
 44
0.0
 45
0.0
 46
0.0
 47
0.0
 48
0.0
 49
0.0
140
0.0
141
0.0
142
1.0
143
1.0
 70
  1712
 72
     0
 73
     0
 74
     0
  7

 75
     0
 76
     0
 77
     2
 78
   300
147
1.0
148
0.0
149
0.0
100
AcDbLayout
  1
Model
 70
     1
 71
     0
 10
0.0
 20
0.0
 11
841.0
 21
594.0
 12
0.0
 22
0.0
 32
0.0
 14
0.0
 24
0.0
 34
0.0
 15
841.0
 25
594.0
 35
0.0
146
0.0
 13
0.0
 23
0.0
 33
0.0
 16
1.0
 26
0.0
 36
0.0
 17
0.0
 27
1.0
 37
0.0
 76
     0
330
1F
331
29
  0
MATERIAL
  5
3D
102
{ACAD_REACTORS
330
3B
102
}
330
3B
100
AcDbMaterial
  1
ByBlock
 72
     1
 94
      127
  0
MATERIAL
  5
3C
102
{ACAD_REACTORS
330
3B
102
}
330
3B
100
AcDbMaterial
  1
ByLayer
 72
     1
 94
      127
  0
MATERIAL
  5
3E
102
{ACAD_REACTORS
330
3B
102
}
330
3B
100
AcDbMaterial
  1
Global
 72
     1
 94
      127
  0
MLINESTYLE
  5
18
102
{ACAD_REACTORS
330
17
102
}
330
17
100
AcDbMlineStyle
  2
Standard
 70
     0
  3

 62
   256
 51
90.0
 52
90.0
 71
     2
 49
0.5
 62
   256
  6
BYLAYER
 49
-0.5
 62
   256
  6
BYLAYER
  0
ACDBPLACEHOLDER
  5
F
102
{ACAD_REACTORS
330
E
102
}
330
E
  0
VISUALSTYLE
  5
2F
102
{ACAD_REACTORS
330
2A
102
}
330
2A
100
AcDbVisualStyle
  2
2dWireframe
 70
     4
 71
     0
 72
     2
 73
     0
 90
        0
 40
-0.6
 41
-30.0
 62
     5
 63
     7
421
 16777215
 74
     1
 91
        4
 64
     7
 65
   257
 75
     1
175
     1
 42
1.0
 92
        0
 66
   257
 43
1.0
 76
     1
 77
     6
 78
     2
 67
     7
 79
     5
170
     0
171
     0
290
     0
174
     0
 93
        1
 44
0.0
173
     0
291
     0
 45
0.0
  0
VISUALSTYLE
  5
31
102
{ACAD_REACTORS
330
2A
102
}
330
2A
100
AcDbVisualStyle
  2
3D Hidden
 70
     6
 71
     1
 72
     2
 73
     2
 90
        0
 40
-0.6
 41
-30.0
 62
     5
 63
     7
421
 16777215
 74
     2
 91
        2
 64
     7
 65
   257
 75
     2
175
     1
 42
40.0
 92
        0
 66
   257
 43
1.0
 76
     1
 77
     6
 78
     2
 67
     7
 79
     3
170
     0
171
     0
290
     0
174
     0
 93
        1
 44
0.0
173
     0
291
     0
 45
0.0
  0
VISUALSTYLE
  5
30
102
{ACAD_REACTORS
330
2A
102
}
330
2A
100
AcDbVisualStyle
  2
3dWireframe
 70
     5
 71
     0
 72
     2
 73
     0
 90
        0
 40
-0.6
 41
-30.0
 62
     5
 63
     7
421
 16777215
 74
     1
 91
        4
 64
     7
 65
   257
 75
     1
175
     1
 42
1.0
 92
        0
 66
   257
 43
1.0
 76
     1
 77
     6
 78
     2
 67
     7
 79
     5
170
     0
171
     0
290
     0
174
     0
 93
        1
 44
0.0
173
     0
291
     0
 45
0.0
  0
VISUALSTYLE
  5
32
102
{ACAD_REACTORS
330
2A
102
}
330
2A
100
AcDbVisualStyle
  2
Basic
 70
     7
 71
     1
 72
     0
 73
     1
 90
        0
 40
-0.6
 41
-30.0
 62
     5
 63
     7
421
 16777215
 74
     0
 91
        4
 64
     7
 65
   257
 75
     1
175
     1
 42
1.0
 92
        8
 66
     7
 43
1.0
 76
     1
 77
     6
 78
     2
 67
     7
 79
     5
170
     0
171
     0
290
     0
174
     0
 93
        1
 44
0.0
173
     0
291
     1
 45
0.0
  0
VISUALSTYLE
  5
36
102
{ACAD_REACTORS
330
2A
102
}
330
2A
100
AcDbVisualStyle
  2
Brighten
 70
    12
 71
     2
 72
     2
 73
     0
 90
        0
 40
-0.6
 41
-30.0
 62
     5
 63
     7
421
 16777215
 74
     1
 91
        4
 64
     7
 65
   257
 75
     1
175
     1
 42
1.0
 92
        8
 66
     7
 43
1.0
 76
     1
 77
     6
 78
     2
 67
     7
 79
     5
170
     0
171
     0
290
     0
174
     0
 93
        1
 44
50.0
173
     0
291
     1
 45
0.0
  0
VISUALSTYLE
  5
3A
102
{ACAD_REACTORS
330
2A
102
}
330
2A
100
AcDbVisualStyle
  2
ColorChange
 70
    16
 71
     2
 72
     2
 73
     3
 90
        0
 40
-0.6
 41
-30.0
 62
     5
 63
     8
421
  8421504
 74
     1
 91
        4
 64
     7
 65
   257
 75
     1
175
     1
 42
1.0
 92
        8
 66
     8
424
  8421504
 43
1.0
 76
     1
 77
     6
 78
     2
 67
     7
 79
     5
170
     0
171
     0
290
     0
174
     0
 93
        1
 44
0.0
173
     0
291
     1
 45
0.0
  0
VISUALSTYLE
  5
34
102
{ACAD_REACTORS
330
2A
102
}
330
2A
100
AcDbVisualStyle
  2
Conceptual
 70
     9
 71
     3
 72
     2
 73
     0
 90
        0
 40
-0.6
 41
-30.0
 62
     5
 63
     7
421
 16777215
 74
     2
 91
        2
 64
     7
 65
   257
 75
     1
175
     1
 42
40.0
 92
        8
 66
     7
 43
1.0
 76
     1
 77
     6
 78
     2
 67
     7
 79
     3
170
     0
171
     0
290
     0
174
     0
 93
        1
 44
0.0
173
     0
291
     0
 45
0.0
  0
VISUALSTYLE
  5
35
102
{ACAD_REACTORS
330
2A
102
}
330
2A
100
AcDbVisualStyle
  2
Dim
 70
    11
 71
     2
 72
     2
 73
     0
 90
        0
 40
-0.6
 41
-30.0
 62
     5
 63
     7
421
 16777215
 74
     1
 91
        4
 64
     7
 65
   257
 75
     1
175
     1
 42
1.0
 92
        8
 66
     7
 43
1.0
 76
     1
 77
     6
 78
     2
 67
     7
 79
     5
170
     0
171
     0
290
     0
174
     0
 93
        1
 44
-50.0
173
     0
291
     1
 45
0.0
  0
VISUALSTYLE
  5
39
102
{ACAD_REACTORS
330
2A
102
}
330
2A
100
AcDbVisualStyle
  2
Facepattern
 70
    15
 71
     2
 72
     2
 73
     0
 90
        0
 40
-0.6
 41
-30.0
 62
     5
 63
     7
421
 16777215
 74
     1
 91
        4
 64
     7
 65
   257
 75
     1
175
     1
 42
1.0
 92
        8
 66
     7
 43
1.0
 76
     1
 77
     6
 78
     2
 67
     7
 79
     5
170
     0
171
     0
290
     0
174
     0
 93
        1
 44
0.0
173
     0
291
     1
 45
0.0
  0
VISUALSTYLE
  5
2B
102
{ACAD_REACTORS
330
2A
102
}
330
2A
100
AcDbVisualStyle
  2
Flat
 70
     0
 71
     2
 72
     1
 73
     1
 90
        2
 40
-0.6
 41
30.0
 62
     5
 63
     7
421
 16777215
 74
     0
 91
        4
 64
     7
 65
   257
 75
     1
175
     1
 42
1.0
 92
        8
 66
     7
 43
1.0
 76
     1
 77
     6
 78
     2
 67
     7
 79
     5
170
     0
171
     0
290
     0
174
     0
 93
       13
 44
0.0
173
     0
291
     1
 45
0.0
  0
VISUALSTYLE
  5
2C
102
{ACAD_REACTORS
330
2A
102
}
330
2A
100
AcDbVisualStyle
  2
FlatWithEdges
 70
     1
 71
     2
 72
     1
 73
     1
 90
        2
 40
-0.6
 41
30.0
 62
     5
 63
     7
421
 16777215
 74
     1
 91
        4
 64
     7
 65
   257
 75
     1
175
     1
 42
1.0
 92
        0
 66
   257
 43
1.0
 76
     1
 77
     6
 78
     2
 67
     7
 79
     5
170
     0
171
     0
290
     0
174
     0
 93
       13
 44
0.0
173
     0
291
     1
 45
0.0
  0
VISUALSTYLE
  5
2D
102
{ACAD_REACTORS
330
2A
102
}
330
2A
100
AcDbVisualStyle
  2
Gouraud
 70
     2
 71
     2
 72
     2
 73
     1
 90
        2
 40
-0.6
 41
30.0
 62
     5
 63
     7
421
 16777215
 74
     0
 91
        4
 64
     7
 65
   257
 75
     1
175
     1
 42
1.0
 92
        0
 66
     7
 43
1.0
 76
     1
 77
     6
 78
     2
 67
     7
 79
     5
170
     0
171
     0
290
     0
174
     0
 93
       13
 44
0.0
173
     0
291
     1
 45
0.0
  0
VISUALSTYLE
  5
2E
102
{ACAD_REACTORS
330
2A
102
}
330
2A
100
AcDbVisualStyle
  2
GouraudWithEdges
 70
     3
 71
     2
 72
     2
 73
     1
 90
        2
 40
-0.6
 41
30.0
 62
     5
 63
     7
421
 16777215
 74
     1
 91
        4
 64
     7
 65
   257
 75
     1
175
     1
 42
1.0
 92
        0
 66
   257
 43
1.0
 76
     1
 77
     6
 78
     2
 67
     7
 79
     5
170
     0
171
     0
290
     0
174
     0
 93
       13
 44
0.0
173
     0
291
     1
 45
0.0
  0
VISUALSTYLE
  5
38
102
{ACAD_REACTORS
330
2A
102
}
330
2A
100
AcDbVisualStyle
  2
Linepattern
 70
    14
 71
     2
 72
     2
 73
     0
 90
        0
 40
-0.6
 41
-30.0
 62
     5
 63
     7
421
 16777215
 74
     1
 91
        4
 64
     7
 65
   257
 75
     7
175
     7
 42
1.0
 92
        8
 66
     7
 43
1.0
 76
     1
 77
     6
 78
     2
 67
     7
 79
     5
170
     0
171
     0
290
     0
174
     0
 93
        1
 44
0.0
173
     0
291
     1
 45
0.0
  0
VISUALSTYLE
  5
33
102
{ACAD_REACTORS
330
2A
102
}
330
2A
100
AcDbVisualStyle
  2
Realistic
 70
     8
 71
     2
 72
     2
 73
     0
 90
        0
 40
-0.6
 41
-30.0
 62
     5
 63
     7
421
 16777215
 74
     1
 91
        0
 64
     7
 65
   257
 75
     1
175
     1
 42
1.0
 92
        8
 66
     8
424
  7895160
 43
1.0
 76
     1
 77
     6
 78
     2
 67
     7
 79
     5
170
     0
171
     0
290
     0
174
     0
 93
       13
 44
0.0
173
     0
291
     0
 45
0.0
  0
VISUALSTYLE
  5
37
102
{ACAD_REACTORS
330
2A
102
}
330
2A
100
AcDbVisualStyle
  2
Thicken
 70
    13
 71
     2
 72
     2
 73
     0
 90
        0
 40
-0.6
 41
-30.0
 62
     5
 63
     7
421
 16777215
 74
     1
 91
        4
 64
     7
 65
   257
 75
     1
175
     1
 42
1.0
 92
       12
 66
     7
 43
1.0
 76
     1
 77
     6
 78
     2
 67
     7
 79
     5
170
     0
171
     0
290
     0
174
     0
 93
        1
 44
0.0
173
     0
291
     1
 45
0.0
  0
ENDSEC
  0
EOF
