  0
SECTION
  2
HEADER
  9
$ACADVER
  1
AC1021
  9
$ACADMAINTVER
 70
    25
  9
$DWGCODEPAGE
  3
ANSI_1252
  9
$INSBASE
 10
0.0
 20
0.0
 30
0.0
  9
$EXTMIN
 10
0.0
 20
0.0
 30
0.0
  9
$EXTMAX
 10
841.0
 20
594.0
 30
0.0
  9
$LIMMIN
 10
0.0
 20
0.0
  9
$LIMMAX
 10
841.0
 20
594.0
  9
$ORTHOMODE
 70
     0
  9
$REGENMODE
 70
     1
  9
$FILLMODE
 70
     1
  9
$QTEXTMODE
 70
     0
  9
$MIRRTEXT
 70
     1
  9
$LTSCALE
 40
1.0
  9
$ATTMODE
 70
     1
  9
$TEXTSIZE
 40
3.5
  9
$TRACEWID
 40
1.0
  9
$TEXTSTYLE
  7
STANDARD
  9
$CLAYER
  8
0
  9
$CELTYPE
  6
ByLayer
  9
$CECOLOR
 62
   256
  9
$CELTSCALE
 40
1.0
  9
$DISPSILH
 70
     0
  9
$DIMSCALE
 40
1.0
  9
$DIMASZ
 40
3.302
  9
$DIMEXO
 40
1.0
  9
$DIMDLI
 40
3.75
  9
$DIMRND
 40
0.0
  9
$DIMDLE
 40
0.0
  9
$DIMEXE
 40
1.0
  9
$DIMTP
 40
0.0
  9
$DIMTM
 40
0.0
  9
$DIMTXT
 40
3.5
  9
$DIMCEN
 40
2.5
  9
$DIMTSZ
 40
0.0
  9
$DIMTOL
 70
     0
  9
$DIMLIM
 70
     0
  9
$DIMTIH
 70
     1
  9
$DIMTOH
 70
     1
  9
$DIMSE1
 70
     0
  9
$DIMSE2
 70
     0
  9
$DIMTAD
 70
     1
  9
$DIMZIN
 70
     0
  9
$DIMBLK
  1

  9
$DIMASO
 70
     1
  9
$DIMSHO
 70
     1
  9
$DIMPOST
  1

  9
$DIMAPOST
  1

  9
$DIMALT
 70
     0
  9
$DIMALTD
 70
     3
  9
$DIMALTF
 40
0.0393700787
  9
$DIMLFAC
 40
1.0
  9
$DIMTOFL
 70
     1
  9
$DIMTVP
 40
0.0
  9
$DIMTIX
 70
     0
  9
$DIMSOXD
 70
     0
  9
$DIMSAH
 70
     0
  9
$DIMBLK1
  1

  9
$DIMBLK2
  1

  9
$DIMSTYLE
  2
ISO-25
  9
$DIMCLRD
 70
     0
  9
$DIMCLRE
 70
     0
  9
$DIMCLRT
 70
     0
  9
$DIMTFAC
 40
1.0
  9
$DIMGAP
 40
1.524
  9
$DIMJUST
 70
     0
  9
$DIMSD1
 70
     0
  9
$DIMSD2
 70
     0
  9
$DIMTOLJ
 70
     0
  9
$DIMTZIN
 70
     0
  9
$DIMALTZ
 70
     0
  9
$DIMALTTZ
 70
     0
  9
$DIMUPT
 70
     0
  9
$DIMDEC
 70
     1
  9
$DIMTDEC
 70
     1
  9
$DIMALTU
 70
     2
  9
$DIMALTTD
 70
     3
  9
$DIMTXSTY
  7
STANDARD
  9
$DIMAUNIT
 70
     0
  9
$DIMADEC
 70
     1
  9
$DIMALTRND
 40
0.0
  9
$DIMAZIN
 70
     0
  9
$DIMDSEP
 70
    44
  9
$DIMATFIT
 70
     3
  9
$DIMFRAC
 70
     0
  9
$DIMLDRBLK
  1

  9
$DIMLUNIT
 70
     2
  9
$DIMLWD
 70
    -2
  9
$DIMLWE
 70
    -2
  9
$DIMTMOVE
 70
     0
  9
$DIMFXL
 40
1.0
  9
$DIMFXLON
 70
     0
  9
$DIMJOGANG
 40
0.7853981634
  9
$DIMTFILL
 70
     0
  9
$DIMTFILLCLR
 70
     0
  9
$DIMARCSYM
 70
     0
  9
$DIMLTYPE
  6

  9
$DIMLTEX1
  6

  9
$DIMLTEX2
  6

  9
$LUNITS
 70
     2
  9
$LUPREC
 70
     1
  9
$SKETCHINC
 40
1.0
  9
$FILLETRAD
 40
10.0
  9
$AUNITS
 70
     0
  9
$AUPREC
 70
     1
  9
$MENU
  1
.
  9
$ELEVATION
 40
0.0
  9
$PELEVATION
 40
0.0
  9
$THICKNESS
 40
0.0
  9
$LIMCHECK
 70
     0
  9
$CHAMFERA
 40
10.0
  9
$CHAMFERB
 40
10.0
  9
$CHAMFERC
 40
20.0
  9
$CHAMFERD
 40
0.0
  9
$SKPOLY
 70
     0
  9
$TDCREATE
 40
2455700.659229815
  9
$TDUCREATE
 40
2455700.617563148
  9
$TDUPDATE
 40
2455700.659229826
  9
$TDUUPDATE
 40
2455700.61756316
  9
$TDINDWG
 40
0.0000000116
  9
$TDUSRTIMER
 40
0.0000000116
  9
$USRTIMER
 70
     1
  9
$ANGBASE
 50
0.0
  9
$ANGDIR
 70
     0
  9
$PDMODE
 70
     0
  9
$PDSIZE
 40
-1.0
  9
$PLINEWID
 40
0.0
  9
$SPLFRAME
 70
     0
  9
$SPLINETYPE
 70
     6
  9
$SPLINESEGS
 70
     8
  9
$HANDSEED
  5
269
  9
$SURFTAB1
 70
     6
  9
$SURFTAB2
 70
     6
  9
$SURFTYPE
 70
     6
  9
$SURFU
 70
     6
  9
$SURFV
 70
     6
  9
$UCSBASE
  2

  9
$UCSNAME
  2

  9
$UCSORG
 10
0.0
 20
0.0
 30
0.0
  9
$UCSXDIR
 10
1.0
 20
0.0
 30
0.0
  9
$UCSYDIR
 10
0.0
 20
1.0
 30
0.0
  9
$UCSORTHOREF
  2

  9
$UCSORTHOVIEW
 70
     0
  9
$UCSORGTOP
 10
0.0
 20
0.0
 30
0.0
  9
$UCSORGBOTTOM
 10
0.0
 20
0.0
 30
0.0
  9
$UCSORGLEFT
 10
0.0
 20
0.0
 30
0.0
  9
$UCSORGRIGHT
 10
0.0
 20
0.0
 30
0.0
  9
$UCSORGFRONT
 10
0.0
 20
0.0
 30
0.0
  9
$UCSORGBACK
 10
0.0
 20
0.0
 30
0.0
  9
$PUCSBASE
  2

  9
$PUCSNAME
  2

  9
$PUCSORG
 10
0.0
 20
0.0
 30
0.0
  9
$PUCSXDIR
 10
1.0
 20
0.0
 30
0.0
  9
$PUCSYDIR
 10
0.0
 20
1.0
 30
0.0
  9
$PUCSORTHOREF
  2

  9
$PUCSORTHOVIEW
 70
     0
  9
$PUCSORGTOP
 10
0.0
 20
0.0
 30
0.0
  9
$PUCSORGBOTTOM
 10
0.0
 20
0.0
 30
0.0
  9
$PUCSORGLEFT
 10
0.0
 20
0.0
 30
0.0
  9
$PUCSORGRIGHT
 10
0.0
 20
0.0
 30
0.0
  9
$PUCSORGFRONT
 10
0.0
 20
0.0
 30
0.0
  9
$PUCSORGBACK
 10
0.0
 20
0.0
 30
0.0
  9
$USERI1
 70
     0
  9
$USERI2
 70
     0
  9
$USERI3
 70
     0
  9
$USERI4
 70
     0
  9
$USERI5
 70
     0
  9
$USERR1
 40
0.0
  9
$USERR2
 40
0.0
  9
$USERR3
 40
0.0
  9
$USERR4
 40
0.0
  9
$USERR5
 40
0.0
  9
$WORLDVIEW
 70
     1
  9
$SHADEDGE
 70
     3
  9
$SHADEDIF
 70
    70
  9
$TILEMODE
 70
     1
  9
$MAXACTVP
 70
    64
  9
$PINSBASE
 10
0.0
 20
0.0
 30
0.0
  9
$PLIMCHECK
 70
     0
  9
$PEXTMIN
 10
1.0000000000E+20
 20
1.0000000000E+20
 30
1.0000000000E+20
  9
$PEXTMAX
 10
-1.0000000000E+20
 20
-1.0000000000E+20
 30
-1.0000000000E+20
  9
$PLIMMIN
 10
0.0
 20
0.0
  9
$PLIMMAX
 10
420.0
 20
297.0
  9
$UNITMODE
 70
     0
  9
$VISRETAIN
 70
     1
  9
$PLINEGEN
 70
     0
  9
$PSLTSCALE
 70
     1
  9
$TREEDEPTH
 70
  3020
  9
$CMLSTYLE
  2
Standard
  9
$CMLJUST
 70
     0
  9
$CMLSCALE
 40
20.0
  9
$PROXYGRAPHICS
 70
     1
  9
$MEASUREMENT
 70
     1
  9
$CELWEIGHT
370
    -1
  9
$ENDCAPS
280
     0
  9
$JOINSTYLE
280
     0
  9
$LWDISPLAY
290
     1
  9
$INSUNITS
 70
     4
  9
$HYPERLINKBASE
  1

  9
$STYLESHEET
  1

  9
$XEDIT
290
     1
  9
$CEPSNTYPE
380
     0
  9
$PSTYLEMODE
290
     1
  9
$FINGERPRINTGUID
  2
{A9D312FB-1265-4DCF-AFD2-C9E205E78D56}
  9
$VERSIONGUID
  2
{FAEB1C32-E019-11D5-929B-00C0DF256EC4}
  9
$EXTNAMES
290
     1
  9
$PSVPSCALE
 40
0.0
  9
$OLESTARTUP
290
     0
  9
$SORTENTS
280
   127
  9
$INDEXCTL
280
     0
  9
$HIDETEXT
280
     1
  9
$XCLIPFRAME
290
     0
  9
$HALOGAP
280
     0
  9
$OBSCOLOR
 70
   257
  9
$OBSLTYPE
280
     0
  9
$INTERSECTIONDISPLAY
280
     0
  9
$INTERSECTIONCOLOR
 70
   257
  9
$DIMASSOC
280
     2
  9
$PROJECTNAME
  1

  9
$CAMERADISPLAY
290
     0
  9
$LENSLENGTH
 40
50.0
  9
$CAMERAHEIGHT
 40
0.0
  9
$STEPSPERSEC
 40
2.0
  9
$STEPSIZE
 40
6.0
  9
$3DDWFPREC
 40
2.0
  9
$PSOLWIDTH
 40
5.0
  9
$PSOLHEIGHT
 40
80.0
  9
$LOFTANG1
 40
1.5707963268
  9
$LOFTANG2
 40
1.5707963268
  9
$LOFTMAG1
 40
0.0
  9
$LOFTMAG2
 40
0.0
  9
$LOFTPARAM
 70
     7
  9
$LOFTNORMALS
280
     1
  9
$LATITUDE
 40
37.795
  9
$LONGITUDE
 40
-122.394
  9
$NORTHDIRECTION
 40
0.0
  9
$TIMEZONE
 70
 -8000
  9
$LIGHTGLYPHDISPLAY
280
     1
  9
$TILEMODELIGHTSYNCH
280
     1
  9
$SOLIDHIST
280
     1
  9
$SHOWHIST
280
     1
  9
$DWFFRAME
280
     2
  9
$DGNFRAME
280
     2
  9
$REALWORLDSCALE
290
     1
  9
$INTERFERECOLOR
 62
   256
  9
$CSHADOW
280
     0
  9
$SHADOWPLANELOCATION
 40
0.0
  0
ENDSEC
  0
SECTION
  2
CLASSES
  0
CLASS
  1
ACDBDICTIONARYWDFLT
  2
AcDbDictionaryWithDefault
  3
ObjectDBX Classes
 90
        0
 91
        4
280
     0
281
     0
  0
CLASS
  1
VISUALSTYLE
  2
AcDbVisualStyle
  3
ObjectDBX Classes
 90
     4095
 91
        4
280
     0
281
     0
  0
CLASS
  1
MATERIAL
  2
AcDbMaterial
  3
ObjectDBX Classes
 90
     1153
 91
        4
280
     0
281
     0
  0
ENDSEC
  0
SECTION
  2
TABLES
  0
TABLE
  2
VPORT
  5
8
330
0
100
AcDbSymbolTable
 70
     1
  0
VPORT
  5
29
330
8
100
AcDbSymbolTableRecord
100
AcDbViewportTableRecord
  2
*Active
 70
     0
 10
0.0
 20
0.0
 11
1.0
 21
1.0
 12
420.5
 22
297.0
 13
0.0
 23
0.0
 14
10.0
 24
10.0
 15
10.0
 25
10.0
 16
0.0
 26
0.0
 36
1.0
 17
0.0
 27
0.0
 37
0.0
 40
594.0
 41
1.4158249158
 42
50.0
 43
0.0
 44
0.0
 50
0.0
 51
0.0
 71
     0
 72
  2000
 73
     1
 74
     3
 75
     0
 76
     0
 77
     0
 78
     0
281
     0
 65
     1
110
0.0
120
0.0
130
0.0
111
1.0
121
0.0
131
0.0
112
0.0
122
1.0
132
0.0
 79
     0
146
0.0
 60
     3
 61
     5
292
     1
282
     1
141
0.0
142
0.0
 63
   250
  0
ENDTAB
  0
TABLE
  2
LTYPE
  5
5
330
0
100
AcDbSymbolTable
 70
     8
  0
LTYPE
  5
14
330
5
100
AcDbSymbolTableRecord
100
AcDbLinetypeTableRecord
  2
ByBlock
 70
     0
  3

 72
    65
 73
     0
 40
0.0
  0
LTYPE
  5
15
330
5
100
AcDbSymbolTableRecord
100
AcDbLinetypeTableRecord
  2
ByLayer
 70
     0
  3

 72
    65
 73
     0
 40
0.0
  0
LTYPE
  5
16
330
5
100
AcDbSymbolTableRecord
100
AcDbLinetypeTableRecord
  2
Continuous
 70
     0
  3
Solid line
 72
    65
 73
     0
 40
0.0
  0
LTYPE
  5
3F
330
5
100
AcDbSymbolTableRecord
100
AcDbLinetypeTableRecord
  2
SLD-Solid
 70
     0
  3
SolidWorks Line Style
 72
    65
 73
     0
 40
0.0
  0
LTYPE
  5
40
330
5
100
AcDbSymbolTableRecord
100
AcDbLinetypeTableRecord
  2
SLD-Dashed
 70
     0
  3
SolidWorks Line Style
 72
    65
 73
     2
 40
1.905
 49
1.27
 74
     0
 49
-0.635
 74
     0
  0
LTYPE
  5
41
330
5
100
AcDbSymbolTableRecord
100
AcDbLinetypeTableRecord
  2
SLD-Phantom
 70
     0
  3
SolidWorks Line Style
 72
    65
 73
     6
 40
12.7
 49
6.35
 74
     0
 49
-1.27
 74
     0
 49
1.27
 74
     0
 49
-1.27
 74
     0
 49
1.27
 74
     0
 49
-1.27
 74
     0
  0
LTYPE
  5
42
330
5
100
AcDbSymbolTableRecord
100
AcDbLinetypeTableRecord
  2
SLD-Chain
 70
     0
  3
SolidWorks Line Style
 72
    65
 73
     4
 40
10.16
 49
6.35
 74
     0
 49
-1.27
 74
     0
 49
1.27
 74
     0
 49
-1.27
 74
     0
  0
LTYPE
  5
43
330
5
100
AcDbSymbolTableRecord
100
AcDbLinetypeTableRecord
  2
SLD-Center
 70
     0
  3
SolidWorks Line Style
 72
    65
 73
     4
 40
19.05
 49
15.24
 74
     0
 49
-1.27
 74
     0
 49
1.27
 74
     0
 49
-1.27
 74
     0
  0
LTYPE
  5
44
330
5
100
AcDbSymbolTableRecord
100
AcDbLinetypeTableRecord
  2
SLD-Stitch
 70
     0
  3
SolidWorks Line Style
 72
    65
 73
     2
 40
0.635
 49
0.0
 74
     0
 49
-0.635
 74
     0
  0
LTYPE
  5
45
330
5
100
AcDbSymbolTableRecord
100
AcDbLinetypeTableRecord
  2
SLD-Thin-Thick-Chain
 70
     0
  3
SolidWorks Line Style
 72
    65
 73
     4
 40
10.16
 49
6.35
 74
     0
 49
-1.27
 74
     0
 49
1.27
 74
     0
 49
-1.27
 74
     0
  0
ENDTAB
  0
TABLE
  2
LAYER
  5
2
330
0
100
AcDbSymbolTable
 70
     1
  0
LAYER
  5
10
330
2
100
AcDbSymbolTableRecord
100
AcDbLayerTableRecord
  2
0
 70
     0
 62
     7
  6
Continuous
370
    -3
390
F
347
3E
  0
ENDTAB
  0
TABLE
  2
STYLE
  5
3
330
0
100
AcDbSymbolTable
 70
     1
  0
STYLE
  5
11
330
3
100
AcDbSymbolTableRecord
100
AcDbTextStyleTableRecord
  2
STANDARD
 70
     0
 40
0.0
 41
1.0
 50
0.0
 71
     0
 42
2.5
  3
GOTHIC.TTF
  4

1001
ACAD
1000
CENTURY GOTHIC
1071
       34
  0
ENDTAB
  0
TABLE
  2
VIEW
  5
6
330
0
100
AcDbSymbolTable
 70
     0
  0
ENDTAB
  0
TABLE
  2
UCS
  5
7
330
0
100
AcDbSymbolTable
 70
     0
  0
ENDTAB
  0
TABLE
  2
APPID
  5
9
330
0
100
AcDbSymbolTable
 70
     1
  0
APPID
  5
12
330
9
100
AcDbSymbolTableRecord
100
AcDbRegAppTableRecord
  2
ACAD
 70
     0
  0
ENDTAB
  0
TABLE
  2
DIMSTYLE
  5
A
330
0
100
AcDbSymbolTable
 70
     1
100
AcDbDimStyleTable
  0
DIMSTYLE
105
27
330
A
100
AcDbSymbolTableRecord
100
AcDbDimStyleTableRecord
  2
ISO-25
 70
     0
 41
2.5
 42
0.625
 43
3.75
 44
1.25
 73
     0
 74
     0
 77
     1
 78
     8
140
2.5
141
2.5
143
0.0393700787
147
0.625
171
     3
172
     1
271
     2
272
     2
274
     3
278
    44
283
     0
284
     8
340
11
  0
ENDTAB
  0
TABLE
  2
BLOCK_RECORD
  5
1
330
0
100
AcDbSymbolTable
 70
     1
  0
BLOCK_RECORD
  5
1F
330
1
100
AcDbSymbolTableRecord
100
AcDbBlockTableRecord
  2
*Model_Space
340
22
 70
     0
280
     1
281
     0
  0
BLOCK_RECORD
  5
1B
330
1
100
AcDbSymbolTableRecord
100
AcDbBlockTableRecord
  2
*Paper_Space
340
1E
 70
     0
280
     1
281
     0
  0
BLOCK_RECORD
  5
23
330
1
100
AcDbSymbolTableRecord
100
AcDbBlockTableRecord
  2
*Paper_Space0
340
26
 70
     0
280
     1
281
     0
  0
ENDTAB
  0
ENDSEC
  0
SECTION
  2
BLOCKS
  0
BLOCK
  5
20
330
1F
100
AcDbEntity
  8
0
100
AcDbBlockBegin
  2
*Model_Space
 70
     0
 10
0.0
 20
0.0
 30
0.0
  3
*Model_Space
  1

  0
ENDBLK
  5
21
330
1F
100
AcDbEntity
  8
0
100
AcDbBlockEnd
  0
BLOCK
  5
1C
330
1B
100
AcDbEntity
 67
     1
  8
0
100
AcDbBlockBegin
  2
*Paper_Space
 70
     0
 10
0.0
 20
0.0
 30
0.0
  3
*Paper_Space
  1

  0
ENDBLK
  5
1D
330
1B
100
AcDbEntity
 67
     1
  8
0
100
AcDbBlockEnd
  0
BLOCK
  5
24
330
23
100
AcDbEntity
  8
0
100
AcDbBlockBegin
  2
*Paper_Space0
 70
     0
 10
0.0
 20
0.0
 30
0.0
  3
*Paper_Space0
  1

  0
ENDBLK
  5
25
330
23
100
AcDbEntity
  8
0
100
AcDbBlockEnd
  0
ENDSEC
  0
SECTION
  2
ENTITIES
  0
SPLINE
  5
46
330
1F
100
AcDbEntity
  8
0
  6
SLD-Solid
 62
     7
370
    15
100
AcDbSpline
210
0.0
220
0.0
230
1.0
 70
     8
 71
     3
 72
    11
 73
     7
 74
     0
 42
0.00000001
 43
0.00000001
 40
0.0
 40
0.0
 40
0.0
 40
0.0
 40
0.2899261136122571
 40
0.6397610327206287
 40
0.9763297033540156
 40
0.9999999999999999
 40
0.9999999999999999
 40
0.9999999999999999
 40
0.9999999999999999
 10
109.0491938290629
 20
-73.6901428212291
 30
0.0
 10
109.0782737096496
 20
-73.34820579113371
 30
0.0
 10
109.1424423842261
 20
-72.59367566353092
 30
0.0
 10
109.6264568682235
 20
-71.41225528943285
 30
0.0
 10
110.160478532139
 20
-70.53217108832388
 30
0.0
 10
110.5211503086803
 20
-70.08151941439283
 30
0.0
 10
110.5448490440143
 20
-70.0519083512518
 30
0.0
  0
SPLINE
  5
47
330
1F
100
AcDbEntity
  8
0
  6
SLD-Solid
 62
     7
370
    15
100
AcDbSpline
210
0.0
220
0.0
230
1.0
 70
     8
 71
     3
 72
    12
 73
     8
 74
     0
 42
0.00000001
 43
0.00000001
 40
0.0
 40
0.0
 40
0.0
 40
0.0
 40
0.0903634327783347
 40
0.3849656905525641
 40
0.6832840920004569
 40
0.9910260862854599
 40
1.0
 40
1.0
 40
1.0
 40
1.0
 10
88.15507542566775
 20
-70.0519083512518
 30
0.0
 10
88.25248022090577
 20
-70.1760586200157
 30
0.0
 10
88.66744347660571
 20
-70.70496276273686
 30
0.0
 10
89.19325813293588
 20
-71.63108941812058
 30
0.0
 10
89.58596191852463
 20
-72.82391129716781
 30
0.0
 10
89.7413851723694
 20
-73.61724458649421
 30
0.0
 10
89.68439447889787
 20
-74.02934585294996
 30
0.0
 10
89.68277968926208
 20
-74.04102244106386
 30
0.0
  0
SPLINE
  5
48
330
1F
100
AcDbEntity
  8
0
  6
SLD-Solid
 62
     7
370
    15
100
AcDbSpline
210
0.0
220
0.0
230
1.0
 70
     8
 71
     3
 72
    11
 73
     7
 74
     0
 42
0.00000001
 43
0.00000001
 40
0.0
 40
0.0
 40
0.0
 40
0.0
 40
0.0925535171471414
 40
0.4249799083406818
 40
0.7579032427929902
 40
1.0
 40
1.0
 40
1.0
 40
1.0
 10
103.347059684773
 20
-80.64203097216021
 30
0.0
 10
103.5742527830434
 20
-80.63005362173759
 30
0.0
 10
104.6174600544119
 20
-80.57505697286193
 30
0.0
 10
106.407779158126
 20
-80.37836939922327
 30
0.0
 10
108.4734347430547
 20
-80.08836615828685
 30
0.0
 10
109.6849965235068
 20
-79.84693944041754
 30
0.0
 10
110.1950920531378
 20
-79.74529320866475
 30
0.0
  0
SPLINE
  5
49
330
1F
100
AcDbEntity
  8
0
  6
SLD-Solid
 62
     7
370
    15
100
AcDbSpline
210
0.0
220
0.0
230
1.0
 70
     8
 71
     3
 72
    10
 73
     6
 74
     0
 42
0.00000001
 43
0.00000001
 40
0.0
 40
0.0
 40
0.0
 40
0.0
 40
0.2502355006436257
 40
0.7279697107284503
 40
1.0
 40
1.0
 40
1.0
 40
1.0
 10
88.51238954683038
 20
-79.74529320866469
 30
0.0
 10
88.87967201085945
 20
-79.81908256258124
 30
0.0
 10
89.94814754053925
 20
-80.03374600756518
 30
0.0
 10
91.50697290481291
 20
-80.28425544560042
 30
0.0
 10
92.74898541423731
 20
-80.41007981995656
 30
0.0
 10
93.19961360816697
 20
-80.45573154257468
 30
0.0
  0
SPLINE
  5
4A
330
1F
100
AcDbEntity
  8
0
  6
SLD-Solid
 62
     7
370
    15
100
AcDbSpline
210
0.0
220
0.0
230
1.0
 70
     8
 71
     3
 72
     9
 73
     5
 74
     0
 42
0.00000001
 43
0.00000001
 40
0.0
 40
0.0
 40
0.0
 40
0.0
 40
0.7656645869083962
 40
1.0
 40
1.0
 40
1.0
 40
1.0
 10
110.9762051225911
 20
-78.93006504697364
 30
0.0
 10
111.354726959818
 20
-76.68028325045711
 30
0.0
 10
111.8490972672594
 20
-73.74194466854533
 30
0.0
 10
112.482418278174
 20
-70.75245228409594
 30
0.0
 10
112.6308278188862
 20
-70.0519083512518
 30
0.0
  0
LINE
  5
4B
330
1F
100
AcDbEntity
  8
0
  6
SLD-Solid
 62
     7
370
    15
100
AcDbLine
 10
87.6114933384
 20
-78.3763344518
 30
0.0
 11
87.7008742357
 21
-78.9169913933
 31
0.0
  0
SPLINE
  5
4C
330
1F
100
AcDbEntity
  8
0
  6
SLD-Solid
 62
     7
370
    15
100
AcDbSpline
210
0.0
220
0.0
230
1.0
 70
     8
 71
     3
 72
     9
 73
     5
 74
     0
 42
0.00000001
 43
0.00000001
 40
0.0
 40
0.0
 40
0.0
 40
0.0
 40
0.6236616071334228
 40
1.0
 40
1.0
 40
1.0
 40
1.0
 10
86.07025251093758
 20
-70.0519083512518
 30
0.0
 10
86.43134311200807
 20
-71.79953540855632
 30
0.0
 10
87.01032792835761
 20
-74.60173942001896
 30
0.0
 10
87.44711397830268
 20
-77.34422996689588
 30
0.0
 10
87.61149333836549
 20
-78.37633445175929
 30
0.0
  0
SPLINE
  5
4D
330
1F
100
AcDbEntity
  8
0
  6
SLD-Solid
 62
     7
370
    15
100
AcDbSpline
210
0.0
220
0.0
230
1.0
 70
     8
 71
     3
 72
    11
 73
     7
 74
     0
 42
0.00000001
 43
0.00000001
 40
0.0
 40
0.0
 40
0.0
 40
0.0
 40
0.2899261136123312
 40
0.6397610327208347
 40
0.9763297033543498
 40
0.9999999999999999
 40
0.9999999999999999
 40
0.9999999999999999
 40
0.9999999999999999
 10
400.5491938290627
 20
-73.69014282122765
 30
0.0
 10
400.5782737096496
 20
-73.34820579113233
 30
0.0
 10
400.6424423842261
 20
-72.59367566352964
 30
0.0
 10
401.1264568682232
 20
-71.41225528943157
 30
0.0
 10
401.6604785321393
 20
-70.53217108832288
 30
0.0
 10
402.0211503086798
 20
-70.08151941439239
 30
0.0
 10
402.0448490440135
 20
-70.0519083512518
 30
0.0
  0
SPLINE
  5
4E
330
1F
100
AcDbEntity
  8
0
  6
SLD-Solid
 62
     7
370
    15
100
AcDbSpline
210
0.0
220
0.0
230
1.0
 70
     8
 71
     3
 72
    12
 73
     8
 74
     0
 42
0.00000001
 43
0.00000001
 40
0.0
 40
0.0
 40
0.0
 40
0.0
 40
0.0903634327781225
 40
0.3849656905524237
 40
0.6832840920003703
 40
0.9910260862853435
 40
1.0
 40
1.0
 40
1.0
 40
1.0
 10
379.6550754256683
 20
-70.0519083512518
 30
0.0
 10
379.7524802209061
 20
-70.17605862001535
 30
0.0
 10
380.1674434766059
 20
-70.7049627627363
 30
0.0
 10
380.6932581329357
 20
-71.63108941811997
 30
0.0
 10
381.0859619185252
 20
-72.8239112971672
 30
0.0
 10
381.2413851723683
 20
-73.61724458649377
 30
0.0
 10
381.1843944788978
 20
-74.02934585294962
 30
0.0
 10
381.182779689262
 20
-74.0410224410637
 30
0.0
  0
SPLINE
  5
4F
330
1F
100
AcDbEntity
  8
0
  6
SLD-Solid
 62
     7
370
    15
100
AcDbSpline
210
0.0
220
0.0
230
1.0
 70
     8
 71
     3
 72
    11
 73
     7
 74
     0
 42
0.00000001
 43
0.00000001
 40
0.0
 40
0.0
 40
0.0
 40
0.0
 40
0.0925535171469939
 40
0.4249799083404696
 40
0.7579032427927166
 40
1.0
 40
1.0
 40
1.0
 40
1.0
 10
394.8470596847735
 20
-80.64203097215928
 30
0.0
 10
395.0742527830436
 20
-80.63005362173669
 30
0.0
 10
396.1174600544112
 20
-80.57505697286105
 30
0.0
 10
397.9077791581246
 20
-80.37836939922249
 30
0.0
 10
399.9734347430538
 20
-80.08836615828614
 30
0.0
 10
401.1849965235062
 20
-79.8469394404167
 30
0.0
 10
401.6950920531377
 20
-79.74529320866385
 30
0.0
  0
SPLINE
  5
50
330
1F
100
AcDbEntity
  8
0
  6
SLD-Solid
 62
     7
370
    15
100
AcDbSpline
210
0.0
220
0.0
230
1.0
 70
     8
 71
     3
 72
    10
 73
     6
 74
     0
 42
0.00000001
 43
0.00000001
 40
0.0
 40
0.0
 40
0.0
 40
0.0
 40
0.2502355006436247
 40
0.7279697107284484
 40
1.0
 40
1.0
 40
1.0
 40
1.0
 10
380.0123895468303
 20
-79.74529320866381
 30
0.0
 10
380.3796720108594
 20
-79.8190825625803
 30
0.0
 10
381.4481475405391
 20
-80.0337460075643
 30
0.0
 10
383.0069729048129
 20
-80.28425544559953
 30
0.0
 10
384.2489854142372
 20
-80.41007981995568
 30
0.0
 10
384.6996136081668
 20
-80.4557315425738
 30
0.0
  0
LINE
  5
51
330
1F
100
AcDbEntity
  8
0
  6
SLD-Solid
 62
     7
370
    15
100
AcDbLine
 10
379.1114933384
 20
-78.3763344518
 30
0.0
 11
379.2008742357
 21
-78.9169913933
 31
0.0
  0
SPLINE
  5
52
330
1F
100
AcDbEntity
  8
0
  6
SLD-Solid
 62
     7
370
    15
100
AcDbSpline
210
0.0
220
0.0
230
1.0
 70
     8
 71
     3
 72
     9
 73
     5
 74
     0
 42
0.00000001
 43
0.00000001
 40
0.0
 40
0.0
 40
0.0
 40
0.0
 40
0.6236616071334151
 40
1.0
 40
1.0
 40
1.0
 40
1.0
 10
377.5702525109377
 20
-70.0519083512518
 30
0.0
 10
377.9313431120081
 20
-71.79953540855621
 30
0.0
 10
378.5103279283576
 20
-74.60173942001875
 30
0.0
 10
378.9471139783026
 20
-77.34422996689544
 30
0.0
 10
379.1114933383654
 20
-78.37633445175885
 30
0.0
  0
SPLINE
  5
53
330
1F
100
AcDbEntity
  8
0
  6
SLD-Solid
 62
     7
370
    15
100
AcDbSpline
210
0.0
220
0.0
230
1.0
 70
     8
 71
     3
 72
     9
 73
     5
 74
     0
 42
0.00000001
 43
0.00000001
 40
0.0
 40
0.0
 40
0.0
 40
0.0
 40
0.7656645869096577
 40
0.9999999999999999
 40
0.9999999999999999
 40
0.9999999999999999
 40
0.9999999999999999
 10
402.4762051225909
 20
-78.93006504697281
 30
0.0
 10
402.8547269598184
 20
-76.68028325045273
 30
0.0
 10
403.3490972672597
 20
-73.74194466854117
 30
0.0
 10
403.9824182781745
 20
-70.7524522840921
 30
0.0
 10
404.1308278188859
 20
-70.0519083512518
 30
0.0
  0
LINE
  5
54
330
1F
100
AcDbEntity
  8
0
  6
SLD-Solid
 62
     7
370
    15
100
AcDbLine
 10
-57.9462592
 20
-70.0519083513
 30
0.0
 11
839.6537408
 21
-70.0519083513
 31
0.0
  0
LINE
  5
55
330
1F
100
AcDbEntity
  8
0
  6
SLD-Solid
 62
     7
370
    15
100
AcDbLine
 10
839.6537408
 20
-68.7519083513
 30
0.0
 11
840.8537408
 21
-68.7519083513
 31
0.0
  0
LINE
  5
56
330
1F
100
AcDbEntity
  8
0
  6
SLD-Solid
 62
     7
370
    15
100
AcDbLine
 10
-59.1462592
 20
-68.7519083513
 30
0.0
 11
-57.9462592
 21
-68.7519083513
 31
0.0
  0
LINE
  5
57
330
1F
100
AcDbEntity
  8
0
  6
SLD-Solid
 62
     7
370
    15
100
AcDbLine
 10
-59.1462592
 20
-88.1761225472
 30
0.0
 11
840.8537408
 21
-88.1761225472
 31
0.0
  0
SPLINE
  5
58
330
1F
100
AcDbEntity
  8
0
  6
SLD-Solid
 62
     7
370
    15
100
AcDbSpline
210
0.0
220
0.0
230
1.0
 70
     8
 71
     3
 72
    11
 73
     7
 74
     0
 42
0.00000001
 43
0.00000001
 40
0.0
 40
0.0
 40
0.0
 40
0.0
 40
0.2899261136124613
 40
0.639761032720952
 40
0.9763297033545032
 40
1.0
 40
1.0
 40
1.0
 40
1.0
 10
692.0491938290627
 20
-73.69014282122698
 30
0.0
 10
692.0782737096496
 20
-73.34820579113155
 30
0.0
 10
692.142442384226
 20
-72.59367566352887
 30
0.0
 10
692.6264568682229
 20
-71.41225528943085
 30
0.0
 10
693.1604785321395
 20
-70.53217108832254
 30
0.0
 10
693.5211503086791
 20
-70.08151941439216
 30
0.0
 10
693.5448490440126
 20
-70.0519083512518
 30
0.0
  0
SPLINE
  5
59
330
1F
100
AcDbEntity
  8
0
  6
SLD-Solid
 62
     7
370
    15
100
AcDbSpline
210
0.0
220
0.0
230
1.0
 70
     8
 71
     3
 72
    12
 73
     8
 74
     0
 42
0.00000001
 43
0.00000001
 40
0.0
 40
0.0
 40
0.0
 40
0.0
 40
0.0903634327778867
 40
0.3849656905523611
 40
0.6832840920003415
 40
0.9910260862854116
 40
0.9999999999999999
 40
0.9999999999999999
 40
0.9999999999999999
 40
0.9999999999999999
 10
671.155075425669
 20
-70.0519083512518
 30
0.0
 10
671.2524802209065
 20
-70.17605862001503
 30
0.0
 10
671.6674434766061
 20
-70.70496276273586
 30
0.0
 10
672.1932581329357
 20
-71.63108941811919
 30
0.0
 10
672.5859619185253
 20
-72.82391129716665
 30
0.0
 10
672.741385172368
 20
-73.61724458649333
 30
0.0
 10
672.6843944788978
 20
-74.02934585294896
 30
0.0
 10
672.6827796892619
 20
-74.04102244106292
 30
0.0
  0
SPLINE
  5
5A
330
1F
100
AcDbEntity
  8
0
  6
SLD-Solid
 62
     7
370
    15
100
AcDbSpline
210
0.0
220
0.0
230
1.0
 70
     8
 71
     3
 72
    11
 73
     7
 74
     0
 42
0.00000001
 43
0.00000001
 40
0.0
 40
0.0
 40
0.0
 40
0.0
 40
0.0925535171471489
 40
0.4249799083407004
 40
0.7579032427930016
 40
0.9999999999999999
 40
0.9999999999999999
 40
0.9999999999999999
 40
0.9999999999999999
 10
686.3470596847724
 20
-80.64203097215832
 30
0.0
 10
686.5742527830429
 20
-80.63005362173575
 30
0.0
 10
687.6174600544113
 20
-80.57505697286005
 30
0.0
 10
689.4077791581255
 20
-80.37836939922138
 30
0.0
 10
691.4734347430546
 20
-80.08836615828497
 30
0.0
 10
692.6849965235067
 20
-79.8469394404156
 30
0.0
 10
693.1950920531376
 20
-79.74529320866286
 30
0.0
  0
SPLINE
  5
5B
330
1F
100
AcDbEntity
  8
0
  6
SLD-Solid
 62
     7
370
    15
100
AcDbSpline
210
0.0
220
0.0
230
1.0
 70
     8
 71
     3
 72
    10
 73
     6
 74
     0
 42
0.00000001
 43
0.00000001
 40
0.0
 40
0.0
 40
0.0
 40
0.0
 40
0.2502355006436257
 40
0.7279697107284503
 40
1.0
 40
1.0
 40
1.0
 40
1.0
 10
671.5123895468303
 20
-79.7452932086628
 30
0.0
 10
671.8796720108593
 20
-79.8190825625793
 30
0.0
 10
672.948147540539
 20
-80.0337460075633
 30
0.0
 10
674.506972904813
 20
-80.28425544559848
 30
0.0
 10
675.7489854142372
 20
-80.41007981995469
 30
0.0
 10
676.1996136081668
 20
-80.45573154257279
 30
0.0
  0
LINE
  5
5C
330
1F
100
AcDbEntity
  8
0
  6
SLD-Solid
 62
     7
370
    15
100
AcDbLine
 10
670.6114933384
 20
-78.3763344518
 30
0.0
 11
670.7008742357
 21
-78.9169913933
 31
0.0
  0
SPLINE
  5
5D
330
1F
100
AcDbEntity
  8
0
  6
SLD-Solid
 62
     7
370
    15
100
AcDbSpline
210
0.0
220
0.0
230
1.0
 70
     8
 71
     3
 72
     9
 73
     5
 74
     0
 42
0.00000001
 43
0.00000001
 40
0.0
 40
0.0
 40
0.0
 40
0.0
 40
0.6236616071320507
 40
1.0
 40
1.0
 40
1.0
 40
1.0
 10
669.070252510938
 20
-70.0519083512518
 30
0.0
 10
669.4313431120075
 20
-71.79953540855227
 30
0.0
 10
670.0103279283569
 20
-74.60173942001452
 30
0.0
 10
670.4471139783021
 20
-77.34422996689099
 30
0.0
 10
670.6114933383654
 20
-78.37633445175807
 30
0.0
  0
SPLINE
  5
5E
330
1F
100
AcDbEntity
  8
0
  6
SLD-Solid
 62
     7
370
    15
100
AcDbSpline
210
0.0
220
0.0
230
1.0
 70
     8
 71
     3
 72
     9
 73
     5
 74
     0
 42
0.00000001
 43
0.00000001
 40
0.0
 40
0.0
 40
0.0
 40
0.0
 40
0.7656645869079414
 40
0.9999999999999999
 40
0.9999999999999999
 40
0.9999999999999999
 40
0.9999999999999999
 10
693.976205122591
 20
-78.93006504697175
 30
0.0
 10
694.3547269598174
 20
-76.68028325045701
 30
0.0
 10
694.8490972672587
 20
-73.74194466854578
 30
0.0
 10
695.4824182781731
 20
-70.75245228409716
 30
0.0
 10
695.6308278188858
 20
-70.0519083512518
 30
0.0
  0
LINE
  5
5F
330
1F
100
AcDbEntity
  8
0
  6
SLD-Solid
 62
     7
370
    15
100
AcDbLine
 10
794.3537408
 20
701.0642020626
 30
0.0
 11
794.3537408
 21
696.5149001472
 31
0.0
  0
LINE
  5
60
330
1F
100
AcDbEntity
  8
0
  6
SLD-Solid
 62
     7
370
    15
100
AcDbLine
 10
819.3537408
 20
696.5149001472
 30
0.0
 11
819.3537408
 21
701.0642020626
 31
0.0
  0
LINE
  5
61
330
1F
100
AcDbEntity
  8
0
  6
SLD-Solid
 62
     7
370
    15
100
AcDbLine
 10
840.8537408
 20
591.5149001472
 30
0.0
 11
840.8537408
 21
589.5149001472
 31
0.0
  0
LINE
  5
62
330
1F
100
AcDbEntity
  8
0
  6
SLD-Solid
 62
     7
370
    15
100
AcDbLine
 10
840.8537408
 20
74.5149001472
 30
0.0
 11
840.8537408
 21
71.3049001472
 31
0.0
  0
LINE
  5
63
330
1F
100
AcDbEntity
  8
0
  6
SLD-Solid
 62
     7
370
    15
100
AcDbLine
 10
828.8537408
 20
706.1149001472
 30
0.0
 11
828.8537408
 21
769.0578290794
 31
0.0
  0
LINE
  5
64
330
1F
100
AcDbEntity
  8
0
  6
SLD-Solid
 62
   142
420
    32960
370
     0
100
AcDbLine
 10
828.8537408
 20
706.1149001472
 30
0.0
 11
826.8037408
 21
706.1149001472
 31
0.0
  0
SPLINE
  5
65
330
1F
100
AcDbEntity
  8
0
  6
SLD-Solid
 62
   142
420
    32960
370
     0
100
AcDbSpline
210
0.0
220
0.0
230
1.0
 70
     8
 71
     3
 72
    14
 73
    10
 74
     0
 42
0.00000001
 43
0.00000001
 40
0.0
 40
0.0
 40
0.0
 40
0.0
 40
0.25
 40
0.25
 40
0.5
 40
0.5
 40
0.75
 40
0.75
 40
1.0
 40
1.0
 40
1.0
 40
1.0
 10
826.8037407999968
 20
769.0649001472265
 30
0.0
 10
827.072085172491
 20
769.0643108915756
 30
0.0
 10
827.3403239629333
 20
769.0637216359245
 30
0.0
 10
827.8361597097573
 20
769.0625431246225
 30
0.0
 10
828.0635615759454
 20
769.0619538689716
 30
0.0
 10
828.4430578269131
 20
769.0607753576697
 30
0.0
 10
828.595002896123
 20
769.0601861020185
 30
0.0
 10
828.8003847871669
 20
769.0590075907169
 30
0.0
 10
828.8537407999969
 20
769.0584183350655
 30
0.0
 10
828.8537407999969
 20
769.0578290794145
 30
0.0
  0
SPLINE
  5
66
330
1F
100
AcDbEntity
  8
0
  6
SLD-Solid
 62
   142
420
    32960
370
     0
100
AcDbSpline
210
0.0
220
0.0
230
1.0
 70
    24
 71
     3
 72
     8
 73
     4
 74
     0
 42
0.00000001
 43
0.00000001
 40
0.0
 40
0.0
 40
0.0
 40
0.0
 40
1.0
 40
1.0
 40
1.0
 40
1.0
 10
421.9037407999971
 20
706.1149096240853
 30
0.0
 10
421.9037407999971
 20
706.0734832737828
 30
0.0
 10
421.9037407999971
 20
706.0320903912386
 30
0.0
 10
421.9037407999971
 20
705.9908070532283
 30
0.0
  0
SPLINE
  5
67
330
1F
100
AcDbEntity
  8
0
  6
SLD-Solid
 62
   142
420
    32960
370
     0
100
AcDbSpline
210
0.0
220
0.0
230
1.0
 70
    24
 71
     3
 72
     8
 73
     4
 74
     0
 42
0.00000001
 43
0.00000001
 40
0.0
 40
0.0
 40
0.0
 40
0.0
 40
1.0
 40
1.0
 40
1.0
 40
1.0
 10
826.803740799997
 20
705.9908070532294
 30
0.0
 10
826.803740799997
 20
706.0320903912403
 30
0.0
 10
826.803740799997
 20
706.0734832737853
 30
0.0
 10
826.803740799997
 20
706.1149096240886
 30
0.0
  0
LINE
  5
68
330
1F
100
AcDbEntity
  8
0
  6
SLD-Solid
 62
     7
370
    15
100
AcDbLine
 10
419.8537408
 20
769.0578290794
 30
0.0
 11
419.8537408
 21
706.1149001472
 31
0.0
  0
SPLINE
  5
69
330
1F
100
AcDbEntity
  8
0
  6
SLD-Solid
 62
   142
420
    32960
370
     0
100
AcDbSpline
210
0.0
220
0.0
230
1.0
 70
     8
 71
     3
 72
    14
 73
    10
 74
     0
 42
0.00000001
 43
0.00000001
 40
0.0
 40
0.0
 40
0.0
 40
0.0
 40
0.25
 40
0.25
 40
0.5
 40
0.5
 40
0.75
 40
0.75
 40
1.0
 40
1.0
 40
1.0
 40
1.0
 10
419.8537407999968
 20
769.0578290794136
 30
0.0
 10
419.8537407999969
 20
769.0584183350646
 30
0.0
 10
419.9070968128269
 20
769.0590075907156
 30
0.0
 10
420.1124787038706
 20
769.0601861020174
 30
0.0
 10
420.2644237730806
 20
769.0607753576687
 30
0.0
 10
420.6439200240483
 20
769.0619538689704
 30
0.0
 10
420.8713218902366
 20
769.0625431246216
 30
0.0
 10
421.3671576370604
 20
769.0637216359235
 30
0.0
 10
421.6353964275028
 20
769.0643108915745
 30
0.0
 10
421.9037407999969
 20
769.0649001472256
 30
0.0
  0
LINE
  5
6A
330
1F
100
AcDbEntity
  8
0
  6
SLD-Solid
 62
   142
420
    32960
370
     0
100
AcDbLine
 10
421.9037408
 20
706.1149001472
 30
0.0
 11
419.8537408
 21
706.1149001472
 31
0.0
  0
LINE
  5
6B
330
1F
100
AcDbEntity
  8
0
  6
SLD-Solid
 62
     7
370
    15
100
AcDbLine
 10
820.0537408
 20
741.1649001472
 30
0.0
 11
820.0537408
 21
734.8649001472
 31
0.0
  0
ARC
  5
6C
330
1F
100
AcDbEntity
  8
0
  6
SLD-Solid
 62
   142
420
    32960
370
     0
100
AcDbCircle
 10
816.8537408
 20
734.8649001472
 30
0.0
 40
3.200000000000045
100
AcDbArc
 50
180.0
 51
0.0
  0
LINE
  5
6D
330
1F
100
AcDbEntity
  8
0
  6
SLD-Solid
 62
   142
420
    32960
370
     0
100
AcDbLine
 10
813.6537408
 20
734.8649001472
 30
0.0
 11
813.6537408
 21
741.1649001472
 31
0.0
  0
ARC
  5
6E
330
1F
100
AcDbEntity
  8
0
  6
SLD-Solid
 62
   142
420
    32960
370
     0
100
AcDbCircle
 10
816.8537408
 20
741.1649001472
 30
0.0
 40
3.200000000000045
100
AcDbArc
 50
0.0
 51
180.0
  0
ARC
  5
6F
330
1F
100
AcDbEntity
  8
0
  6
SLD-Solid
 62
   142
420
    32960
370
     0
100
AcDbCircle
 10
431.8537408
 20
734.8649001472
 30
0.0
 40
3.199999999999989
100
AcDbArc
 50
180.0
 51
0.0
  0
LINE
  5
70
330
1F
100
AcDbEntity
  8
0
  6
SLD-Solid
 62
   142
420
    32960
370
     0
100
AcDbLine
 10
428.6537408
 20
734.8649001472
 30
0.0
 11
428.6537408
 21
741.1649001472
 31
0.0
  0
ARC
  5
71
330
1F
100
AcDbEntity
  8
0
  6
SLD-Solid
 62
   142
420
    32960
370
     0
100
AcDbCircle
 10
431.8537408
 20
741.1649001472
 30
0.0
 40
3.199999999999989
100
AcDbArc
 50
0.0
 51
180.0
  0
LINE
  5
72
330
1F
100
AcDbEntity
  8
0
  6
SLD-Solid
 62
   142
420
    32960
370
     0
100
AcDbLine
 10
435.0537408
 20
741.1649001472
 30
0.0
 11
435.0537408
 21
734.8649001472
 31
0.0
  0
LINE
  5
73
330
1F
100
AcDbEntity
  8
0
  6
SLD-Solid
 62
   142
420
    32960
370
     0
100
AcDbLine
 10
826.8037408
 20
705.9908070532
 30
0.0
 11
826.8037408
 21
701.0642020626
 31
0.0
  0
LINE
  5
74
330
1F
100
AcDbEntity
  8
0
  6
SLD-Solid
 62
   142
420
    32960
370
     0
100
AcDbLine
 10
421.9037408
 20
701.0642020626
 30
0.0
 11
421.9037408
 21
705.9908070532
 31
0.0
  0
LINE
  5
75
330
1F
100
AcDbEntity
  8
0
  6
SLD-Solid
 62
   142
420
    32960
370
     0
100
AcDbLine
 10
826.8037408
 20
701.0642020626
 30
0.0
 11
421.9037408
 21
701.0642020626
 31
0.0
  0
LINE
  5
76
330
1F
100
AcDbEntity
  8
0
  6
SLD-Solid
 62
     7
370
    15
100
AcDbLine
 10
421.9037408
 20
771.1149001472
 30
0.0
 11
826.8037408
 21
771.1149001472
 31
0.0
  0
LINE
  5
77
330
1F
100
AcDbEntity
  8
0
  6
SLD-Solid
 62
     7
370
    15
100
AcDbLine
 10
828.0537408
 20
771.1149001472
 30
0.0
 11
828.0537408
 21
769.0649001472
 31
0.0
  0
LINE
  5
78
330
1F
100
AcDbEntity
  8
0
  6
SLD-Solid
 62
   142
420
    32960
370
     0
100
AcDbLine
 10
420.6537408
 20
771.1149001472
 30
0.0
 11
421.9037408
 21
771.1149001472
 31
0.0
  0
LINE
  5
79
330
1F
100
AcDbEntity
  8
0
  6
SLD-Solid
 62
   142
420
    32960
370
     0
100
AcDbLine
 10
420.6537408
 20
769.0649001472
 30
0.0
 11
420.6537408
 21
771.1149001472
 31
0.0
  0
LINE
  5
7A
330
1F
100
AcDbEntity
  8
0
  6
SLD-Solid
 62
   142
420
    32960
370
     0
100
AcDbLine
 10
420.6537408
 20
769.0649001472
 30
0.0
 11
421.9037408
 21
769.0649001472
 31
0.0
  0
LINE
  5
7B
330
1F
100
AcDbEntity
  8
0
  6
SLD-Solid
 62
   142
420
    32960
370
     0
100
AcDbLine
 10
828.0537408
 20
769.0649001472
 30
0.0
 11
826.8037408
 21
769.0649001472
 31
0.0
  0
LINE
  5
7C
330
1F
100
AcDbEntity
  8
0
  6
SLD-Solid
 62
   142
420
    32960
370
     0
100
AcDbLine
 10
828.0537408
 20
771.1149001472
 30
0.0
 11
826.8037408
 21
771.1149001472
 31
0.0
  0
SPLINE
  5
7D
330
1F
100
AcDbEntity
  8
0
  6
SLD-Solid
 62
   142
420
    32960
370
     0
100
AcDbSpline
210
0.0
220
0.0
230
1.0
 70
     8
 71
     3
 72
    10
 73
     6
 74
     0
 42
0.00000001
 43
0.00000001
 40
0.0
 40
0.0
 40
0.0
 40
0.0
 40
0.4347688117987378
 40
0.8695376235975162
 40
1.0
 40
1.0
 40
1.0
 40
1.0
 10
828.8537407999969
 20
769.0649001472265
 30
0.0
 10
828.8204840896956
 20
769.3295868179687
 30
0.0
 10
828.7539706690928
 20
769.8589601594533
 30
0.0
 10
828.4185961867474
 20
770.4237861366656
 30
0.0
 10
828.1221615864187
 20
770.6058046032729
 30
0.0
 10
828.0537407999968
 20
770.6478167253891
 30
0.0
  0
SPLINE
  5
7E
330
1F
100
AcDbEntity
  8
0
  6
SLD-Solid
 62
   142
420
    32960
370
     0
100
AcDbSpline
210
0.0
220
0.0
230
1.0
 70
     8
 71
     3
 72
    10
 73
     6
 74
     0
 42
0.00000001
 43
0.00000001
 40
0.0
 40
0.0
 40
0.0
 40
0.0
 40
0.1304623764024442
 40
0.5652311882012359
 40
1.0
 40
1.0
 40
1.0
 40
1.0
 10
420.653740799997
 20
770.647816725388
 30
0.0
 10
420.5853200135752
 20
770.6058046032716
 30
0.0
 10
420.2888854132462
 20
770.4237861366651
 30
0.0
 10
419.9535109309011
 20
769.858960159452
 30
0.0
 10
419.8869975102983
 20
769.3295868179677
 30
0.0
 10
419.853740799997
 20
769.0649001472256
 30
0.0
  0
LINE
  5
7F
330
1F
100
AcDbEntity
  8
0
  6
SLD-Solid
 62
   142
420
    32960
370
     0
100
AcDbLine
 10
419.8537408
 20
769.0649001472
 30
0.0
 11
419.8537408
 21
769.0578290794
 31
0.0
  0
LINE
  5
80
330
1F
100
AcDbEntity
  8
0
  6
SLD-Solid
 62
   142
420
    32960
370
     0
100
AcDbLine
 10
828.8537408
 20
769.0578290794
 30
0.0
 11
828.8537408
 21
769.0649001472
 31
0.0
  0
LINE
  5
81
330
1F
100
AcDbEntity
  8
0
  6
SLD-Solid
 62
   142
420
    32960
370
     0
100
AcDbLine
 10
828.0537408
 20
769.0649001472
 30
0.0
 11
828.8537408
 21
769.0649001472
 31
0.0
  0
LINE
  5
82
330
1F
100
AcDbEntity
  8
0
  6
SLD-Solid
 62
     7
370
    15
100
AcDbLine
 10
-59.1462592
 20
696.5149001472
 30
0.0
 11
-59.1462592
 21
693.9343211047
 31
0.0
  0
LINE
  5
83
330
1F
100
AcDbEntity
  8
0
  6
SLD-Solid
 62
     7
370
    15
100
AcDbLine
 10
840.8537408
 20
696.5149001472
 30
0.0
 11
-59.1462592
 21
696.5149001472
 31
0.0
  0
LINE
  5
84
330
1F
100
AcDbEntity
  8
0
  6
SLD-Solid
 62
   142
420
    32960
370
     0
100
AcDbLine
 10
840.8537408
 20
696.5149001472
 30
0.0
 11
840.8537408
 21
693.9343211047
 31
0.0
  0
LINE
  5
85
330
1F
100
AcDbEntity
  8
0
  6
SLD-Solid
 62
     7
370
    15
100
AcDbLine
 10
840.8537408
 20
693.9343211047
 30
0.0
 11
840.8537408
 21
660.6373687836
 31
0.0
  0
ARC
  5
86
330
1F
100
AcDbEntity
  8
0
  6
SLD-Solid
 62
     7
370
    15
100
AcDbCircle
 10
425.3373084345
 20
665.6147292074
 30
0.0
 40
5.000669288030976
100
AcDbArc
 50
275.5341758579
 51
331.784876003
  0
ARC
  5
87
330
1F
100
AcDbEntity
  8
0
  6
SLD-Solid
 62
     7
370
    15
100
AcDbCircle
 10
435.3359666696
 20
684.2652631748
 30
0.0
 40
4.841279373383162
100
AcDbArc
 50
333.2478610927
 51
91.5842536627
  0
LINE
  5
88
330
1F
100
AcDbEntity
  8
0
  6
SLD-Solid
 62
     7
370
    15
100
AcDbLine
 10
435.202120209
 20
689.1046919733
 30
0.0
 11
356.4206156283
 21
689.1046919733
 31
0.0
  0
LINE
  5
89
330
1F
100
AcDbEntity
  8
0
  6
SLD-Solid
 62
     7
370
    15
100
AcDbLine
 10
351.9636899772
 20
686.4640761938
 30
0.0
 11
342.0484357399
 21
667.6285225812
 31
0.0
  0
ARC
  5
8A
330
1F
100
AcDbEntity
  8
0
  6
SLD-Solid
 62
     7
370
    15
100
AcDbCircle
 10
346.3476130653
 20
665.4447701807
 30
0.0
 40
4.822001682067814
100
AcDbArc
 50
153.0718636158
 51
265.540211537
  0
LINE
  5
8B
330
1F
100
AcDbEntity
  8
0
  6
SLD-Solid
 62
     7
370
    15
100
AcDbLine
 10
335.202120209
 20
689.1046919733
 30
0.0
 11
256.4206156283
 21
689.1046919733
 31
0.0
  0
LINE
  5
8C
330
1F
100
AcDbEntity
  8
0
  6
SLD-Solid
 62
     7
370
    15
100
AcDbLine
 10
251.9636899772
 20
686.4640761938
 30
0.0
 11
242.0484357399
 21
667.6285225812
 31
0.0
  0
ARC
  5
8D
330
1F
100
AcDbEntity
  8
0
  6
SLD-Solid
 62
     7
370
    15
100
AcDbCircle
 10
246.3476130653
 20
665.4447701807
 30
0.0
 40
4.822001682067552
100
AcDbArc
 50
153.0718636158
 51
265.540211537
  0
LINE
  5
8E
330
1F
100
AcDbEntity
  8
0
  6
SLD-Solid
 62
     7
370
    15
100
AcDbLine
 10
235.202120209
 20
689.1046919733
 30
0.0
 11
156.4206156283
 21
689.1046919733
 31
0.0
  0
ARC
  5
8F
330
1F
100
AcDbEntity
  8
0
  6
SLD-Solid
 62
     7
370
    15
100
AcDbCircle
 10
146.3476130653
 20
665.4447701807
 30
0.0
 40
4.822001682067831
100
AcDbArc
 50
153.0718636158
 51
265.540211537
  0
ARC
  5
90
330
1F
100
AcDbEntity
  8
0
  6
SLD-Solid
 62
     7
370
    15
100
AcDbCircle
 10
125.3373084345
 20
665.6147292074
 30
0.0
 40
5.000669288031059
100
AcDbArc
 50
275.534175858
 51
331.784876003
  0
LINE
  5
91
330
1F
100
AcDbEntity
  8
0
  6
SLD-Solid
 62
     7
370
    15
100
AcDbLine
 10
135.202120209
 20
689.1046919733
 30
0.0
 11
56.4206156283
 21
689.1046919733
 31
0.0
  0
ARC
  5
92
330
1F
100
AcDbEntity
  8
0
  6
SLD-Solid
 62
     7
370
    15
100
AcDbCircle
 10
56.3846683774
 20
684.0837779669
 30
0.0
 40
5.021042686941592
100
AcDbArc
 50
89.5897976815
 51
151.7015410578
  0
ARC
  5
93
330
1F
100
AcDbEntity
  8
0
  6
SLD-Solid
 62
     7
370
    15
100
AcDbCircle
 10
46.3476130653
 20
665.4447701807
 30
0.0
 40
4.822001682067353
100
AcDbArc
 50
153.0718636158
 51
265.5402115369
  0
LINE
  5
94
330
1F
100
AcDbEntity
  8
0
  6
SLD-Solid
 62
     7
370
    15
100
AcDbLine
 10
29.7437916228
 20
663.2504958773
 30
0.0
 11
39.6590458601
 21
682.0860494899
 31
0.0
  0
LINE
  5
95
330
1F
100
AcDbEntity
  8
0
  6
SLD-Solid
 62
     7
370
    15
100
AcDbLine
 10
35.202120209
 20
689.1046919733
 30
0.0
 11
-34.1462592
 21
689.1046919733
 31
0.0
  0
LINE
  5
96
330
1F
100
AcDbEntity
  8
0
  6
SLD-Solid
 62
     7
370
    15
100
AcDbLine
 10
-39.1462592
 20
684.2750628419
 30
0.0
 11
-39.1462592
 21
665.4395092292
 31
0.0
  0
ARC
  5
97
330
1F
100
AcDbEntity
  8
0
  6
SLD-Solid
 62
     7
370
    15
100
AcDbCircle
 10
-34.2515997992
 20
665.5139029307
 30
0.0
 40
4.895224721419337
100
AcDbArc
 50
180.8707688506
 51
264.9915779818
  0
LINE
  5
98
330
1F
100
AcDbEntity
  8
0
  6
SLD-Solid
 62
     7
370
    15
100
AcDbLine
 10
-59.1462592
 20
693.9343211047
 30
0.0
 11
-59.1462592
 21
660.6373687836
 31
0.0
  0
LINE
  5
99
330
1F
100
AcDbEntity
  8
0
  6
SLD-Solid
 62
     7
370
    15
100
AcDbLine
 10
820.8537408
 20
665.4395092292
 30
0.0
 11
820.8537408
 21
684.2750628419
 31
0.0
  0
LINE
  5
9A
330
1F
100
AcDbEntity
  8
0
  6
SLD-Solid
 62
     7
370
    15
100
AcDbLine
 10
815.8537408
 20
689.1046919733
 30
0.0
 11
756.4206156283
 21
689.1046919733
 31
0.0
  0
LINE
  5
9B
330
1F
100
AcDbEntity
  8
0
  6
SLD-Solid
 62
     7
370
    15
100
AcDbLine
 10
751.9636899772
 20
686.4640761938
 30
0.0
 11
742.0484357399
 21
667.6285225812
 31
0.0
  0
ARC
  5
9C
330
1F
100
AcDbEntity
  8
0
  6
SLD-Solid
 62
     7
370
    15
100
AcDbCircle
 10
746.3476130653
 20
665.4447701807
 30
0.0
 40
4.822001682067207
100
AcDbArc
 50
153.0718636158
 51
265.5402115369
  0
LINE
  5
9D
330
1F
100
AcDbEntity
  8
0
  6
SLD-Solid
 62
     7
370
    15
100
AcDbLine
 10
729.7437916228
 20
663.2504958773
 30
0.0
 11
739.6590458601
 21
682.0860494899
 31
0.0
  0
LINE
  5
9E
330
1F
100
AcDbEntity
  8
0
  6
SLD-Solid
 62
     7
370
    15
100
AcDbLine
 10
735.202120209
 20
689.1046919733
 30
0.0
 11
656.4206156283
 21
689.1046919733
 31
0.0
  0
LINE
  5
9F
330
1F
100
AcDbEntity
  8
0
  6
SLD-Solid
 62
     7
370
    15
100
AcDbLine
 10
651.9636899772
 20
686.4640761938
 30
0.0
 11
642.0484357399
 21
667.6285225812
 31
0.0
  0
ARC
  5
A0
330
1F
100
AcDbEntity
  8
0
  6
SLD-Solid
 62
     7
370
    15
100
AcDbCircle
 10
646.3476130653
 20
665.4447701807
 30
0.0
 40
4.822001682068389
100
AcDbArc
 50
153.0718636158
 51
265.5402115372
  0
LINE
  5
A1
330
1F
100
AcDbEntity
  8
0
  6
SLD-Solid
 62
     7
370
    15
100
AcDbLine
 10
635.202120209
 20
689.1046919733
 30
0.0
 11
556.4206156283
 21
689.1046919733
 31
0.0
  0
ARC
  5
A2
330
1F
100
AcDbEntity
  8
0
  6
SLD-Solid
 62
     7
370
    15
100
AcDbCircle
 10
556.3846683774
 20
684.0837779669
 30
0.0
 40
5.021042686942155
100
AcDbArc
 50
89.5897976815
 51
151.7015410578
  0
LINE
  5
A3
330
1F
100
AcDbEntity
  8
0
  6
SLD-Solid
 62
     7
370
    15
100
AcDbLine
 10
551.9636899772
 20
686.4640761938
 30
0.0
 11
542.0484357399
 21
667.6285225812
 31
0.0
  0
ARC
  5
A4
330
1F
100
AcDbEntity
  8
0
  6
SLD-Solid
 62
     7
370
    15
100
AcDbCircle
 10
546.3476130653
 20
665.4447701807
 30
0.0
 40
4.822001682067865
100
AcDbArc
 50
153.0718636158
 51
265.540211537
  0
LINE
  5
A5
330
1F
100
AcDbEntity
  8
0
  6
SLD-Solid
 62
     7
370
    15
100
AcDbLine
 10
529.7437916228
 20
663.2504958773
 30
0.0
 11
539.6590458601
 21
682.0860494899
 31
0.0
  0
LINE
  5
A6
330
1F
100
AcDbEntity
  8
0
  6
SLD-Solid
 62
     7
370
    15
100
AcDbLine
 10
535.202120209
 20
689.1046919733
 30
0.0
 11
456.4206156283
 21
689.1046919733
 31
0.0
  0
LINE
  5
A7
330
1F
100
AcDbEntity
  8
0
  6
SLD-Solid
 62
     7
370
    15
100
AcDbLine
 10
451.9636899772
 20
686.4640761938
 30
0.0
 11
442.0484357399
 21
667.6285225812
 31
0.0
  0
ARC
  5
A8
330
1F
100
AcDbEntity
  8
0
  6
SLD-Solid
 62
     7
370
    15
100
AcDbCircle
 10
446.3476130653
 20
665.4447701807
 30
0.0
 40
4.822001682067831
100
AcDbArc
 50
153.0718636158
 51
265.540211537
  0
ARC
  5
A9
330
1F
100
AcDbEntity
  8
0
  6
SLD-Solid
 62
   142
420
    32960
370
     0
100
AcDbCircle
 10
456.3846683774
 20
684.0837779669
 30
0.0
 40
5.021042686941928
100
AcDbArc
 50
89.5897976815
 51
151.7015410578
  0
ARC
  5
AA
330
1F
100
AcDbEntity
  8
0
  6
SLD-Solid
 62
   142
420
    32960
370
     0
100
AcDbCircle
 10
535.3359666696
 20
684.2652631748
 30
0.0
 40
4.841279373383056
100
AcDbArc
 50
333.2478610927
 51
91.5842536627
  0
ARC
  5
AB
330
1F
100
AcDbEntity
  8
0
  6
SLD-Solid
 62
   142
420
    32960
370
     0
100
AcDbCircle
 10
525.3373084345
 20
665.6147292074
 30
0.0
 40
5.000669288030403
100
AcDbArc
 50
275.5341758578
 51
331.784876003
  0
ARC
  5
AC
330
1F
100
AcDbEntity
  8
0
  6
SLD-Solid
 62
   142
420
    32960
370
     0
100
AcDbCircle
 10
635.3359666696
 20
684.2652631748
 30
0.0
 40
4.84127937338305
100
AcDbArc
 50
333.2478610927
 51
91.5842536627
  0
LINE
  5
AD
330
1F
100
AcDbEntity
  8
0
  6
SLD-Solid
 62
   142
420
    32960
370
     0
100
AcDbLine
 10
629.7437916228
 20
663.2504958773
 30
0.0
 11
639.6590458601
 21
682.0860494899
 31
0.0
  0
ARC
  5
AE
330
1F
100
AcDbEntity
  8
0
  6
SLD-Solid
 62
   142
420
    32960
370
     0
100
AcDbCircle
 10
625.3373084345
 20
665.6147292074
 30
0.0
 40
5.000669288030095
100
AcDbArc
 50
275.5341758578
 51
331.784876003
  0
ARC
  5
AF
330
1F
100
AcDbEntity
  8
0
  6
SLD-Solid
 62
   142
420
    32960
370
     0
100
AcDbCircle
 10
656.3846683774
 20
684.0837779669
 30
0.0
 40
5.021042686941553
100
AcDbArc
 50
89.5897976815
 51
151.7015410578
  0
ARC
  5
B0
330
1F
100
AcDbEntity
  8
0
  6
SLD-Solid
 62
   142
420
    32960
370
     0
100
AcDbCircle
 10
735.3359666696
 20
684.2652631748
 30
0.0
 40
4.841279373382857
100
AcDbArc
 50
333.2478610927
 51
91.5842536627
  0
ARC
  5
B1
330
1F
100
AcDbEntity
  8
0
  6
SLD-Solid
 62
   142
420
    32960
370
     0
100
AcDbCircle
 10
725.3373084345
 20
665.6147292075
 30
0.0
 40
5.000669288031907
100
AcDbArc
 50
275.5341758576
 51
331.784876003
  0
ARC
  5
B2
330
1F
100
AcDbEntity
  8
0
  6
SLD-Solid
 62
   142
420
    32960
370
     0
100
AcDbCircle
 10
756.3846683774
 20
684.0837779669
 30
0.0
 40
5.021042686942285
100
AcDbArc
 50
89.5897976815
 51
151.7015410578
  0
ARC
  5
B3
330
1F
100
AcDbEntity
  8
0
  6
SLD-Solid
 62
   142
420
    32960
370
     0
100
AcDbCircle
 10
815.9374749226
 20
684.1883748992
 30
0.0
 40
4.917030097157064
100
AcDbArc
 50
1.0101851092
 51
90.9757604995
  0
ARC
  5
B4
330
1F
100
AcDbEntity
  8
0
  6
SLD-Solid
 62
   142
420
    32960
370
     0
100
AcDbCircle
 10
815.9590813991
 20
665.5139029307
 30
0.0
 40
4.895224721419598
100
AcDbArc
 50
275.0084220182
 51
359.1292311494
  0
ARC
  5
B5
330
1F
100
AcDbEntity
  8
0
  6
SLD-Solid
 62
   142
420
    32960
370
     0
100
AcDbCircle
 10
-34.2299933226
 20
684.1883748992
 30
0.0
 40
4.917030097157037
100
AcDbArc
 50
89.0242395005
 51
178.9898148908
  0
ARC
  5
B6
330
1F
100
AcDbEntity
  8
0
  6
SLD-Solid
 62
   142
420
    32960
370
     0
100
AcDbCircle
 10
35.3359666696
 20
684.2652631748
 30
0.0
 40
4.841279373383053
100
AcDbArc
 50
333.2478610927
 51
91.5842536627
  0
ARC
  5
B7
330
1F
100
AcDbEntity
  8
0
  6
SLD-Solid
 62
   142
420
    32960
370
     0
100
AcDbCircle
 10
25.3373084345
 20
665.6147292074
 30
0.0
 40
5.000669288030339
100
AcDbArc
 50
275.534175858
 51
331.784876003
  0
LINE
  5
B8
330
1F
100
AcDbEntity
  8
0
  6
SLD-Solid
 62
   142
420
    32960
370
     0
100
AcDbLine
 10
51.9636899772
 20
686.4640761938
 30
0.0
 11
42.0484357399
 21
667.6285225812
 31
0.0
  0
ARC
  5
B9
330
1F
100
AcDbEntity
  8
0
  6
SLD-Solid
 62
   142
420
    32960
370
     0
100
AcDbCircle
 10
135.3359666696
 20
684.2652631748
 30
0.0
 40
4.84127937338311
100
AcDbArc
 50
333.2478610927
 51
91.5842536627
  0
LINE
  5
BA
330
1F
100
AcDbEntity
  8
0
  6
SLD-Solid
 62
   142
420
    32960
370
     0
100
AcDbLine
 10
129.7437916228
 20
663.2504958773
 30
0.0
 11
139.6590458601
 21
682.0860494899
 31
0.0
  0
LINE
  5
BB
330
1F
100
AcDbEntity
  8
0
  6
SLD-Solid
 62
   142
420
    32960
370
     0
100
AcDbLine
 10
151.9636899772
 20
686.4640761938
 30
0.0
 11
142.0484357399
 21
667.6285225812
 31
0.0
  0
ARC
  5
BC
330
1F
100
AcDbEntity
  8
0
  6
SLD-Solid
 62
   142
420
    32960
370
     0
100
AcDbCircle
 10
156.3846683774
 20
684.0837779669
 30
0.0
 40
5.021042686941928
100
AcDbArc
 50
89.5897976815
 51
151.7015410578
  0
ARC
  5
BD
330
1F
100
AcDbEntity
  8
0
  6
SLD-Solid
 62
   142
420
    32960
370
     0
100
AcDbCircle
 10
235.3359666696
 20
684.2652631748
 30
0.0
 40
4.841279373383053
100
AcDbArc
 50
333.2478610927
 51
91.5842536627
  0
LINE
  5
BE
330
1F
100
AcDbEntity
  8
0
  6
SLD-Solid
 62
   142
420
    32960
370
     0
100
AcDbLine
 10
229.7437916228
 20
663.2504958773
 30
0.0
 11
239.6590458601
 21
682.0860494899
 31
0.0
  0
ARC
  5
BF
330
1F
100
AcDbEntity
  8
0
  6
SLD-Solid
 62
   142
420
    32960
370
     0
100
AcDbCircle
 10
225.3373084345
 20
665.6147292074
 30
0.0
 40
5.000669288030682
100
AcDbArc
 50
275.5341758578
 51
331.784876003
  0
ARC
  5
C0
330
1F
100
AcDbEntity
  8
0
  6
SLD-Solid
 62
   142
420
    32960
370
     0
100
AcDbCircle
 10
256.3846683774
 20
684.0837779669
 30
0.0
 40
5.021042686941589
100
AcDbArc
 50
89.5897976815
 51
151.7015410578
  0
ARC
  5
C1
330
1F
100
AcDbEntity
  8
0
  6
SLD-Solid
 62
   142
420
    32960
370
     0
100
AcDbCircle
 10
335.3359666696
 20
684.2652631748
 30
0.0
 40
4.841279373383111
100
AcDbArc
 50
333.2478610927
 51
91.5842536627
  0
LINE
  5
C2
330
1F
100
AcDbEntity
  8
0
  6
SLD-Solid
 62
   142
420
    32960
370
     0
100
AcDbLine
 10
329.7437916228
 20
663.2504958773
 30
0.0
 11
339.6590458601
 21
682.0860494899
 31
0.0
  0
ARC
  5
C3
330
1F
100
AcDbEntity
  8
0
  6
SLD-Solid
 62
   142
420
    32960
370
     0
100
AcDbCircle
 10
325.3373084345
 20
665.6147292074
 30
0.0
 40
5.000669288030665
100
AcDbArc
 50
275.5341758579
 51
331.784876003
  0
ARC
  5
C4
330
1F
100
AcDbEntity
  8
0
  6
SLD-Solid
 62
   142
420
    32960
370
     0
100
AcDbCircle
 10
356.3846683774
 20
684.0837779669
 30
0.0
 40
5.021042686941815
100
AcDbArc
 50
89.5897976815
 51
151.7015410578
  0
LINE
  5
C5
330
1F
100
AcDbEntity
  8
0
  6
SLD-Solid
 62
   142
420
    32960
370
     0
100
AcDbLine
 10
429.7437916228
 20
663.2504958773
 30
0.0
 11
439.6590458601
 21
682.0860494899
 31
0.0
  0
LINE
  5
C6
330
1F
100
AcDbEntity
  8
0
  6
SLD-Solid
 62
     7
370
    15
100
AcDbLine
 10
529.7437916228
 20
663.4575511133
 30
0.0
 11
539.6590458601
 21
682.293104726
 31
0.0
  0
ARC
  5
C7
330
1F
100
AcDbEntity
  8
0
  6
SLD-Solid
 62
     7
370
    15
100
AcDbCircle
 10
546.402551539
 20
665.7249467391
 30
0.0
 40
4.899419486447249
100
AcDbArc
 50
182.1278164126
 51
264.966167526
  0
ARC
  5
C8
330
1F
100
AcDbEntity
  8
0
  6
SLD-Solid
 62
     7
370
    15
100
AcDbCircle
 10
646.4025515394
 20
665.7249467399
 30
0.0
 40
4.899419487288911
100
AcDbArc
 50
182.1278167599
 51
264.9661675226
  0
LINE
  5
C9
330
1F
100
AcDbEntity
  8
0
  6
SLD-Solid
 62
     7
370
    15
100
AcDbLine
 10
729.7437916228
 20
663.4575511133
 30
0.0
 11
739.6590458601
 21
682.293104726
 31
0.0
  0
ARC
  5
CA
330
1F
100
AcDbEntity
  8
0
  6
SLD-Solid
 62
     7
370
    15
100
AcDbCircle
 10
746.4025515392
 20
665.7249467395
 30
0.0
 40
4.899419486898216
100
AcDbArc
 50
182.1278165989
 51
264.966167524
  0
ARC
  5
CB
330
1F
100
AcDbEntity
  8
0
  6
SLD-Solid
 62
     7
370
    15
100
AcDbCircle
 10
-34.2515997992
 20
665.7209581667
 30
0.0
 40
4.895224721419339
100
AcDbArc
 50
180.8707688506
 51
264.9915779818
  0
LINE
  5
CC
330
1F
100
AcDbEntity
  8
0
  6
SLD-Solid
 62
     7
370
    15
100
AcDbLine
 10
29.7437916228
 20
663.4575511133
 30
0.0
 11
39.6590458601
 21
682.293104726
 31
0.0
  0
ARC
  5
CD
330
1F
100
AcDbEntity
  8
0
  6
SLD-Solid
 62
     7
370
    15
100
AcDbCircle
 10
46.4025515388
 20
665.7249467385
 30
0.0
 40
4.899419485883533
100
AcDbArc
 50
182.1278161797
 51
264.9661675282
  0
ARC
  5
CE
330
1F
100
AcDbEntity
  8
0
  6
SLD-Solid
 62
     7
370
    15
100
AcDbCircle
 10
125.3373084345
 20
665.8217844435
 30
0.0
 40
5.000669288030808
100
AcDbArc
 50
275.534175858
 51
331.784876003
  0
ARC
  5
CF
330
1F
100
AcDbEntity
  8
0
  6
SLD-Solid
 62
     7
370
    15
100
AcDbCircle
 10
146.4025515391
 20
665.7249467393
 30
0.0
 40
4.899419486645167
100
AcDbArc
 50
182.1278164943
 51
264.9661675251
  0
ARC
  5
D0
330
1F
100
AcDbEntity
  8
0
  6
SLD-Solid
 62
     7
370
    15
100
AcDbCircle
 10
246.4025515391
 20
665.7249467391
 30
0.0
 40
4.899419486523091
100
AcDbArc
 50
182.1278164437
 51
264.9661675256
  0
ARC
  5
D1
330
1F
100
AcDbEntity
  8
0
  6
SLD-Solid
 62
     7
370
    15
100
AcDbCircle
 10
346.402551539
 20
665.7249467391
 30
0.0
 40
4.899419486478489
100
AcDbArc
 50
182.1278164252
 51
264.9661675258
  0
LWPOLYLINE
  5
D2
330
1F
100
AcDbEntity
  8
0
  6
SLD-Solid
 62
     7
370
    15
100
AcDbPolyline
 90
        3
 70
   128
 43
0.0
 10
439.6590458601
 20
682.293104726
 10
440.0867308692
 20
683.4505297814
 10
440.2009713287
 20
684.3785904606
  0
ARC
  5
D3
330
1F
100
AcDbEntity
  8
0
  6
SLD-Solid
 62
     7
370
    15
100
AcDbCircle
 10
425.3373084345
 20
665.8217844435
 30
0.0
 40
5.000669288031392
100
AcDbArc
 50
275.5341758579
 51
331.784876003
  0
ARC
  5
D4
330
1F
100
AcDbEntity
  8
0
  6
SLD-Solid
 62
     7
370
    15
100
AcDbCircle
 10
446.402551539
 20
665.7249467391
 30
0.0
 40
4.899419486456585
100
AcDbArc
 50
182.1278164163
 51
264.9661675259
  0
LINE
  5
D5
330
1F
100
AcDbEntity
  8
0
  6
SLD-Solid
 62
   142
420
    32960
370
     0
100
AcDbLine
 10
429.7437916228
 20
663.4575511133
 30
0.0
 11
439.6590458601
 21
682.293104726
 31
0.0
  0
ARC
  5
D6
330
1F
100
AcDbEntity
  8
0
  6
SLD-Solid
 62
   142
420
    32960
370
     0
100
AcDbCircle
 10
325.3373084345
 20
665.8217844435
 30
0.0
 40
5.000669288030511
100
AcDbArc
 50
275.5341758579
 51
331.784876003
  0
LINE
  5
D7
330
1F
100
AcDbEntity
  8
0
  6
SLD-Solid
 62
   142
420
    32960
370
     0
100
AcDbLine
 10
329.7437916228
 20
663.4575511133
 30
0.0
 11
339.6590458601
 21
682.293104726
 31
0.0
  0
LWPOLYLINE
  5
D8
330
1F
100
AcDbEntity
  8
0
  6
SLD-Solid
 62
   142
420
    32960
370
     0
100
AcDbPolyline
 90
        3
 70
   128
 43
0.0
 10
339.6590458601
 20
682.293104726
 10
340.0867308692
 20
683.4505297814
 10
340.2009713287
 20
684.3785904605
  0
ARC
  5
D9
330
1F
100
AcDbEntity
  8
0
  6
SLD-Solid
 62
   142
420
    32960
370
     0
100
AcDbCircle
 10
225.3373084345
 20
665.8217844435
 30
0.0
 40
5.00066928803108
100
AcDbArc
 50
275.5341758578
 51
331.784876003
  0
LINE
  5
DA
330
1F
100
AcDbEntity
  8
0
  6
SLD-Solid
 62
   142
420
    32960
370
     0
100
AcDbLine
 10
229.7437916228
 20
663.4575511133
 30
0.0
 11
239.6590458601
 21
682.293104726
 31
0.0
  0
LWPOLYLINE
  5
DB
330
1F
100
AcDbEntity
  8
0
  6
SLD-Solid
 62
   142
420
    32960
370
     0
100
AcDbPolyline
 90
        3
 70
   128
 43
0.0
 10
239.6590458601
 20
682.293104726
 10
240.0867308692
 20
683.4505297814
 10
240.2009713287
 20
684.3785904606
  0
LINE
  5
DC
330
1F
100
AcDbEntity
  8
0
  6
SLD-Solid
 62
   142
420
    32960
370
     0
100
AcDbLine
 10
129.7437916228
 20
663.4575511133
 30
0.0
 11
139.6590458601
 21
682.293104726
 31
0.0
  0
LWPOLYLINE
  5
DD
330
1F
100
AcDbEntity
  8
0
  6
SLD-Solid
 62
   142
420
    32960
370
     0
100
AcDbPolyline
 90
        3
 70
   128
 43
0.0
 10
139.6590458601
 20
682.293104726
 10
140.0867308692
 20
683.4505297814
 10
140.2009713287
 20
684.3785904595
  0
ARC
  5
DE
330
1F
100
AcDbEntity
  8
0
  6
SLD-Solid
 62
   142
420
    32960
370
     0
100
AcDbCircle
 10
25.3373084345
 20
665.8217844435
 30
0.0
 40
5.000669288030728
100
AcDbArc
 50
275.534175858
 51
331.784876003
  0
LWPOLYLINE
  5
DF
330
1F
100
AcDbEntity
  8
0
  6
SLD-Solid
 62
   142
420
    32960
370
     0
100
AcDbPolyline
 90
        3
 70
   128
 43
0.0
 10
39.6590458601
 20
682.293104726
 10
40.0867308692
 20
683.4505297814
 10
40.2009713287
 20
684.3785904593
  0
ARC
  5
E0
330
1F
100
AcDbEntity
  8
0
  6
SLD-Solid
 62
   142
420
    32960
370
     0
100
AcDbCircle
 10
815.9590813991
 20
665.7209581667
 30
0.0
 40
4.895224721419711
100
AcDbArc
 50
275.0084220182
 51
359.1292311494
  0
ARC
  5
E1
330
1F
100
AcDbEntity
  8
0
  6
SLD-Solid
 62
   142
420
    32960
370
     0
100
AcDbCircle
 10
725.3373084345
 20
665.8217844435
 30
0.0
 40
5.000669288032269
100
AcDbArc
 50
275.5341758576
 51
331.784876003
  0
LWPOLYLINE
  5
E2
330
1F
100
AcDbEntity
  8
0
  6
SLD-Solid
 62
   142
420
    32960
370
     0
100
AcDbPolyline
 90
        3
 70
   128
 43
0.0
 10
739.6590458601
 20
682.293104726
 10
740.0867308692
 20
683.4505297814
 10
740.2009713283
 20
684.3785904417
  0
ARC
  5
E3
330
1F
100
AcDbEntity
  8
0
  6
SLD-Solid
 62
   142
420
    32960
370
     0
100
AcDbCircle
 10
625.3373084345
 20
665.8217844435
 30
0.0
 40
5.000669288031027
100
AcDbArc
 50
275.5341758578
 51
331.784876003
  0
LINE
  5
E4
330
1F
100
AcDbEntity
  8
0
  6
SLD-Solid
 62
   142
420
    32960
370
     0
100
AcDbLine
 10
629.7437916228
 20
663.4575511133
 30
0.0
 11
639.6590458601
 21
682.293104726
 31
0.0
  0
LWPOLYLINE
  5
E5
330
1F
100
AcDbEntity
  8
0
  6
SLD-Solid
 62
   142
420
    32960
370
     0
100
AcDbPolyline
 90
        3
 70
   128
 43
0.0
 10
639.6590458601
 20
682.293104726
 10
640.0867308692
 20
683.4505297814
 10
640.2009713282
 20
684.3785904386
  0
ARC
  5
E6
330
1F
100
AcDbEntity
  8
0
  6
SLD-Solid
 62
   142
420
    32960
370
     0
100
AcDbCircle
 10
525.3373084345
 20
665.8217844435
 30
0.0
 40
5.000669288031126
100
AcDbArc
 50
275.5341758578
 51
331.784876003
  0
LWPOLYLINE
  5
E7
330
1F
100
AcDbEntity
  8
0
  6
SLD-Solid
 62
   142
420
    32960
370
     0
100
AcDbPolyline
 90
        3
 70
   128
 43
0.0
 10
539.6590458601
 20
682.293104726
 10
540.0867308692
 20
683.4505297814
 10
540.2009713287
 20
684.3785904605
  0
LINE
  5
E8
330
1F
100
AcDbEntity
  8
0
  6
SLD-Solid
 62
   142
420
    32960
370
     0
100
AcDbLine
 10
439.6590458601
 20
682.293104726
 30
0.0
 11
439.6590458601
 21
682.0860494899
 31
0.0
  0
LINE
  5
E9
330
1F
100
AcDbEntity
  8
0
  6
SLD-Solid
 62
   142
420
    32960
370
     0
100
AcDbLine
 10
739.6590458601
 20
682.293104726
 30
0.0
 11
739.6590458601
 21
682.0860494899
 31
0.0
  0
LINE
  5
EA
330
1F
100
AcDbEntity
  8
0
  6
SLD-Solid
 62
   142
420
    32960
370
     0
100
AcDbLine
 10
729.7437916228
 20
663.4575511133
 30
0.0
 11
729.7437916228
 21
663.2504958773
 31
0.0
  0
LINE
  5
EB
330
1F
100
AcDbEntity
  8
0
  6
SLD-Solid
 62
   142
420
    32960
370
     0
100
AcDbLine
 10
539.6590458601
 20
682.293104726
 30
0.0
 11
539.6590458601
 21
682.0860494899
 31
0.0
  0
LINE
  5
EC
330
1F
100
AcDbEntity
  8
0
  6
SLD-Solid
 62
   142
420
    32960
370
     0
100
AcDbLine
 10
529.7437916228
 20
663.4575511133
 30
0.0
 11
529.7437916228
 21
663.2504958773
 31
0.0
  0
LINE
  5
ED
330
1F
100
AcDbEntity
  8
0
  6
SLD-Solid
 62
   142
420
    32960
370
     0
100
AcDbLine
 10
39.6590458601
 20
682.293104726
 30
0.0
 11
39.6590458601
 21
682.0860494899
 31
0.0
  0
LINE
  5
EE
330
1F
100
AcDbEntity
  8
0
  6
SLD-Solid
 62
   142
420
    32960
370
     0
100
AcDbLine
 10
29.7437916228
 20
663.4575511133
 30
0.0
 11
29.7437916228
 21
663.2504958773
 31
0.0
  0
SPLINE
  5
EF
330
1F
100
AcDbEntity
  8
0
  6
SLD-Solid
 62
     7
370
    15
100
AcDbSpline
210
0.0
220
0.0
230
1.0
 70
     8
 71
     3
 72
     8
 73
     4
 74
     0
 42
0.00000001
 43
0.00000001
 40
0.0
 40
0.0
 40
0.0
 40
0.0
 40
1.0
 40
1.0
 40
1.0
 40
1.0
 10
646.5053613909674
 20
660.6098841600339
 30
0.0
 10
646.3272864979906
 20
660.6098841600339
 30
0.0
 10
646.1497183778012
 20
660.6190429930257
 30
0.0
 10
645.9726570294767
 20
660.6373687835646
 30
0.0
  0
ARC
  5
F0
330
1F
100
AcDbEntity
  8
0
  6
SLD-Solid
 62
   142
420
    32960
370
     0
100
AcDbCircle
 10
646.5053211552
 20
665.9915497055
 30
0.0
 40
5.174614371841466
100
AcDbArc
 50
264.0916247812
 51
270.0004455097
  0
SPLINE
  5
F1
330
1F
100
AcDbEntity
  8
0
  6
SLD-Solid
 62
     7
370
    15
100
AcDbSpline
210
0.0
220
0.0
230
1.0
 70
     8
 71
     3
 72
     8
 73
     4
 74
     0
 42
0.00000001
 43
0.00000001
 40
0.0
 40
0.0
 40
0.0
 40
0.0
 40
1.0
 40
1.0
 40
1.0
 40
1.0
 10
346.5053613909674
 20
660.6098841600315
 30
0.0
 10
346.327286497983
 20
660.6098841600315
 30
0.0
 10
346.149718377786
 20
660.6190429930242
 30
0.0
 10
345.9726570294541
 20
660.6373687835647
 30
0.0
  0
ARC
  5
F2
330
1F
100
AcDbEntity
  8
0
  6
SLD-Solid
 62
   142
420
    32960
370
     0
100
AcDbCircle
 10
346.5053211552
 20
665.9915497057
 30
0.0
 40
5.174614371952314
100
AcDbArc
 50
264.091624781
 51
270.0004455096
  0
SPLINE
  5
F3
330
1F
100
AcDbEntity
  8
0
  6
SLD-Solid
 62
     7
370
    15
100
AcDbSpline
210
0.0
220
0.0
230
1.0
 70
     8
 71
     3
 72
     8
 73
     4
 74
     0
 42
0.00000001
 43
0.00000001
 40
0.0
 40
0.0
 40
0.0
 40
0.0
 40
1.0
 40
1.0
 40
1.0
 40
1.0
 10
146.5053613909676
 20
660.6098841600317
 30
0.0
 10
146.3272864979837
 20
660.6098841600317
 30
0.0
 10
146.1497183777872
 20
660.6190429930242
 30
0.0
 10
145.9726570294558
 20
660.6373687835646
 30
0.0
  0
ARC
  5
F4
330
1F
100
AcDbEntity
  8
0
  6
SLD-Solid
 62
     7
370
    15
100
AcDbCircle
 10
146.5053211552
 20
665.9915497056
 30
0.0
 40
5.174614371893537
100
AcDbArc
 50
264.091624781
 51
270.0004455096
  0
SPLINE
  5
F5
330
1F
100
AcDbEntity
  8
0
  6
SLD-Solid
 62
     7
370
    15
100
AcDbSpline
210
0.0
220
0.0
230
1.0
 70
     8
 71
     3
 72
     8
 73
     4
 74
     0
 42
0.00000001
 43
0.00000001
 40
0.0
 40
0.0
 40
0.0
 40
0.0
 40
1.0
 40
1.0
 40
1.0
 40
1.0
 10
446.5053613909674
 20
660.6098841600317
 30
0.0
 10
446.3272864979836
 20
660.6098841600317
 30
0.0
 10
446.1497183777871
 20
660.6190429930242
 30
0.0
 10
445.9726570294558
 20
660.6373687835646
 30
0.0
  0
ARC
  5
F6
330
1F
100
AcDbEntity
  8
0
  6
SLD-Solid
 62
   142
420
    32960
370
     0
100
AcDbCircle
 10
446.5053211552
 20
665.9915497056
 30
0.0
 40
5.174614371893883
100
AcDbArc
 50
264.091624781
 51
270.0004455096
  0
SPLINE
  5
F7
330
1F
100
AcDbEntity
  8
0
  6
SLD-Solid
 62
     7
370
    15
100
AcDbSpline
210
0.0
220
0.0
230
1.0
 70
     8
 71
     3
 72
     8
 73
     4
 74
     0
 42
0.00000001
 43
0.00000001
 40
0.0
 40
0.0
 40
0.0
 40
0.0
 40
1.0
 40
1.0
 40
1.0
 40
1.0
 10
546.5053613909674
 20
660.6098841600317
 30
0.0
 10
546.3272864979836
 20
660.6098841600317
 30
0.0
 10
546.149718377787
 20
660.6190429930242
 30
0.0
 10
545.9726570294557
 20
660.6373687835646
 30
0.0
  0
ARC
  5
F8
330
1F
100
AcDbEntity
  8
0
  6
SLD-Solid
 62
   142
420
    32960
370
     0
100
AcDbCircle
 10
546.5053211552
 20
665.9915497056
 30
0.0
 40
5.174614371892967
100
AcDbArc
 50
264.091624781
 51
270.0004455096
  0
SPLINE
  5
F9
330
1F
100
AcDbEntity
  8
0
  6
SLD-Solid
 62
     7
370
    15
100
AcDbSpline
210
0.0
220
0.0
230
1.0
 70
     8
 71
     3
 72
     8
 73
     4
 74
     0
 42
0.00000001
 43
0.00000001
 40
0.0
 40
0.0
 40
0.0
 40
0.0
 40
1.0
 40
1.0
 40
1.0
 40
1.0
 10
246.5053613909675
 20
660.6098841600315
 30
0.0
 10
246.3272864979828
 20
660.6098841600315
 30
0.0
 10
246.1497183777853
 20
660.6190429930241
 30
0.0
 10
245.972657029453
 20
660.6373687835647
 30
0.0
  0
ARC
  5
FA
330
1F
100
AcDbEntity
  8
0
  6
SLD-Solid
 62
   142
420
    32960
370
     0
100
AcDbCircle
 10
246.5053211552
 20
665.9915497057
 30
0.0
 40
5.174614371960611
100
AcDbArc
 50
264.091624781
 51
270.0004455096
  0
SPLINE
  5
FB
330
1F
100
AcDbEntity
  8
0
  6
SLD-Solid
 62
     7
370
    15
100
AcDbSpline
210
0.0
220
0.0
230
1.0
 70
     8
 71
     3
 72
     8
 73
     4
 74
     0
 42
0.00000001
 43
0.00000001
 40
0.0
 40
0.0
 40
0.0
 40
0.0
 40
1.0
 40
1.0
 40
1.0
 40
1.0
 10
746.5053613909676
 20
660.6098841600309
 30
0.0
 10
746.3272864979807
 20
660.6098841600309
 30
0.0
 10
746.1497183777814
 20
660.6190429930236
 30
0.0
 10
745.9726570294471
 20
660.6373687835646
 30
0.0
  0
ARC
  5
FC
330
1F
100
AcDbEntity
  8
0
  6
SLD-Solid
 62
   142
420
    32960
370
     0
100
AcDbCircle
 10
746.5053211552
 20
665.9915497056
 30
0.0
 40
5.174614371936623
100
AcDbArc
 50
264.0916247809
 51
270.0004455096
  0
SPLINE
  5
FD
330
1F
100
AcDbEntity
  8
0
  6
SLD-Solid
 62
     7
370
    15
100
AcDbSpline
210
0.0
220
0.0
230
1.0
 70
     8
 71
     3
 72
     8
 73
     4
 74
     0
 42
0.00000001
 43
0.00000001
 40
0.0
 40
0.0
 40
0.0
 40
0.0
 40
1.0
 40
1.0
 40
1.0
 40
1.0
 10
46.50536139096745
 20
660.6098841600306
 30
0.0
 10
46.32728649797963
 20
660.6098841600306
 30
0.0
 10
46.1497183777791
 20
660.6190429930235
 30
0.0
 10
45.97265702944381
 20
660.6373687835647
 30
0.0
  0
ARC
  5
FE
330
1F
100
AcDbEntity
  8
0
  6
SLD-Solid
 62
   142
420
    32960
370
     0
100
AcDbCircle
 10
46.5053211552
 20
665.9915497056
 30
0.0
 40
5.174614371862385
100
AcDbArc
 50
264.0916247808
 51
270.0004455097
  0
SPLINE
  5
FF
330
1F
100
AcDbEntity
  8
0
  6
SLD-Solid
 62
     7
370
    15
100
AcDbSpline
210
0.0
220
0.0
230
1.0
 70
     8
 71
     3
 72
     8
 73
     4
 74
     0
 42
0.00000001
 43
0.00000001
 40
0.0
 40
0.0
 40
0.0
 40
0.0
 40
1.0
 40
1.0
 40
1.0
 40
1.0
 10
-34.14625920000636
 20
660.6098841600307
 30
0.0
 10
-34.32433409299379
 20
660.6098841600307
 30
0.0
 10
-34.50190221319382
 20
660.6190429930234
 30
0.0
 10
-34.67896356152872
 20
660.6373687835646
 30
0.0
  0
ARC
  5
100
330
1F
100
AcDbEntity
  8
0
  6
SLD-Solid
 62
     7
370
    15
100
AcDbCircle
 10
-34.1462994358
 20
665.9915497056
 30
0.0
 40
5.174614371891151
100
AcDbArc
 50
264.0916247808
 51
270.0004455096
  0
SPLINE
  5
101
330
1F
100
AcDbEntity
  8
0
  6
SLD-Solid
 62
     7
370
    15
100
AcDbSpline
210
0.0
220
0.0
230
1.0
 70
     8
 71
     3
 72
     8
 73
     4
 74
     0
 42
0.00000001
 43
0.00000001
 40
0.0
 40
0.0
 40
0.0
 40
0.0
 40
1.0
 40
1.0
 40
1.0
 40
1.0
 10
425.8195703332445
 20
660.6373687835647
 30
0.0
 10
425.6425089849128
 20
660.6190429930242
 30
0.0
 10
425.4649408647159
 20
660.6098841600316
 30
0.0
 10
425.2868659717316
 20
660.6098841600316
 30
0.0
  0
LINE
  5
102
330
1F
100
AcDbEntity
  8
0
  6
SLD-Solid
 62
   142
420
    32960
370
     0
100
AcDbLine
 10
429.7437916228
 20
663.4575511133
 30
0.0
 11
429.7437916228
 21
663.2504958773
 31
0.0
  0
ARC
  5
103
330
1F
100
AcDbEntity
  8
0
  6
SLD-Solid
 62
   142
420
    32960
370
     0
100
AcDbCircle
 10
425.2869062075
 20
665.9915497055
 30
0.0
 40
5.174614371821913
100
AcDbArc
 50
269.9995544903
 51
275.9083752191
  0
SPLINE
  5
104
330
1F
100
AcDbEntity
  8
0
  6
SLD-Solid
 62
     7
370
    15
100
AcDbSpline
210
0.0
220
0.0
230
1.0
 70
     8
 71
     3
 72
     8
 73
     4
 74
     0
 42
0.00000001
 43
0.00000001
 40
0.0
 40
0.0
 40
0.0
 40
0.0
 40
1.0
 40
1.0
 40
1.0
 40
1.0
 10
125.8195703332547
 20
660.6373687835647
 30
0.0
 10
125.6425089849196
 20
660.6190429930235
 30
0.0
 10
125.4649408647193
 20
660.6098841600306
 30
0.0
 10
125.2868659717316
 20
660.6098841600306
 30
0.0
  0
LINE
  5
105
330
1F
100
AcDbEntity
  8
0
  6
SLD-Solid
 62
   142
420
    32960
370
     0
100
AcDbLine
 10
129.7437916228
 20
663.4575511133
 30
0.0
 11
129.7437916228
 21
663.2504958773
 31
0.0
  0
ARC
  5
106
330
1F
100
AcDbEntity
  8
0
  6
SLD-Solid
 62
   142
420
    32960
370
     0
100
AcDbCircle
 10
125.2869062075
 20
665.9915497055
 30
0.0
 40
5.174614371822595
100
AcDbArc
 50
269.9995544903
 51
275.9083752192
  0
LINE
  5
107
330
1F
100
AcDbEntity
  8
0
  6
SLD-Solid
 62
     7
370
    15
100
AcDbLine
 10
625.2868659717
 20
660.60988416
 30
0.0
 11
546.505361391
 21
660.60988416
 31
0.0
  0
LINE
  5
108
330
1F
100
AcDbEntity
  8
0
  6
SLD-Solid
 62
     7
370
    15
100
AcDbLine
 10
725.2868659717
 20
660.60988416
 30
0.0
 11
646.505361391
 21
660.60988416
 31
0.0
  0
LINE
  5
109
330
1F
100
AcDbEntity
  8
0
  6
SLD-Solid
 62
     7
370
    15
100
AcDbLine
 10
815.8537408
 20
660.60988416
 30
0.0
 11
746.505361391
 21
660.60988416
 31
0.0
  0
LINE
  5
10A
330
1F
100
AcDbEntity
  8
0
  6
SLD-Solid
 62
     7
370
    15
100
AcDbLine
 10
840.8537408
 20
660.6373687836
 30
0.0
 11
840.8537408
 21
641.5149001472
 31
0.0
  0
LINE
  5
10B
330
1F
100
AcDbEntity
  8
0
  6
SLD-Solid
 62
     7
370
    15
100
AcDbLine
 10
840.8537408
 20
641.5149001472
 30
0.0
 11
-59.1462592
 21
641.5149001472
 31
0.0
  0
LINE
  5
10C
330
1F
100
AcDbEntity
  8
0
  6
SLD-Solid
 62
     7
370
    15
100
AcDbLine
 10
-59.1462592
 20
660.6373687836
 30
0.0
 11
-59.1462592
 21
641.5149001472
 31
0.0
  0
LINE
  5
10D
330
1F
100
AcDbEntity
  8
0
  6
SLD-Solid
 62
     7
370
    15
100
AcDbLine
 10
25.2868659717
 20
660.60988416
 30
0.0
 11
-34.1462592
 21
660.60988416
 31
0.0
  0
LINE
  5
10E
330
1F
100
AcDbEntity
  8
0
  6
SLD-Solid
 62
     7
370
    15
100
AcDbLine
 10
125.2868659717
 20
660.60988416
 30
0.0
 11
46.505361391
 21
660.60988416
 31
0.0
  0
LINE
  5
10F
330
1F
100
AcDbEntity
  8
0
  6
SLD-Solid
 62
     7
370
    15
100
AcDbLine
 10
225.2868659717
 20
660.60988416
 30
0.0
 11
146.505361391
 21
660.60988416
 31
0.0
  0
LINE
  5
110
330
1F
100
AcDbEntity
  8
0
  6
SLD-Solid
 62
     7
370
    15
100
AcDbLine
 10
325.2868659717
 20
660.60988416
 30
0.0
 11
246.505361391
 21
660.60988416
 31
0.0
  0
LINE
  5
111
330
1F
100
AcDbEntity
  8
0
  6
SLD-Solid
 62
     7
370
    15
100
AcDbLine
 10
425.2868659717
 20
660.60988416
 30
0.0
 11
346.505361391
 21
660.60988416
 31
0.0
  0
LINE
  5
112
330
1F
100
AcDbEntity
  8
0
  6
SLD-Solid
 62
     7
370
    15
100
AcDbLine
 10
525.2868659717
 20
660.60988416
 30
0.0
 11
446.505361391
 21
660.60988416
 31
0.0
  0
SPLINE
  5
113
330
1F
100
AcDbEntity
  8
0
  6
SLD-Solid
 62
   142
420
    32960
370
     0
100
AcDbSpline
210
0.0
220
0.0
230
1.0
 70
     8
 71
     3
 72
     8
 73
     4
 74
     0
 42
0.00000001
 43
0.00000001
 40
0.0
 40
0.0
 40
0.0
 40
0.0
 40
1.0
 40
1.0
 40
1.0
 40
1.0
 10
325.8195703332456
 20
660.6373687835647
 30
0.0
 10
325.6425089849135
 20
660.6190429930242
 30
0.0
 10
325.4649408647163
 20
660.6098841600315
 30
0.0
 10
325.2868659717317
 20
660.6098841600315
 30
0.0
  0
SPLINE
  5
114
330
1F
100
AcDbEntity
  8
0
  6
SLD-Solid
 62
   142
420
    32960
370
     0
100
AcDbSpline
210
0.0
220
0.0
230
1.0
 70
     8
 71
     3
 72
     8
 73
     4
 74
     0
 42
0.00000001
 43
0.00000001
 40
0.0
 40
0.0
 40
0.0
 40
0.0
 40
1.0
 40
1.0
 40
1.0
 40
1.0
 10
225.8195703332428
 20
660.6373687835646
 30
0.0
 10
225.6425089849117
 20
660.6190429930242
 30
0.0
 10
225.4649408647153
 20
660.6098841600317
 30
0.0
 10
225.2868659717317
 20
660.6098841600317
 30
0.0
  0
SPLINE
  5
115
330
1F
100
AcDbEntity
  8
0
  6
SLD-Solid
 62
   142
420
    32960
370
     0
100
AcDbSpline
210
0.0
220
0.0
230
1.0
 70
     8
 71
     3
 72
     8
 73
     4
 74
     0
 42
0.00000001
 43
0.00000001
 40
0.0
 40
0.0
 40
0.0
 40
0.0
 40
1.0
 40
1.0
 40
1.0
 40
1.0
 10
25.8195703332536
 20
660.6373687835646
 30
0.0
 10
25.64250898491888
 20
660.6190429930235
 30
0.0
 10
25.46494086471895
 20
660.6098841600307
 30
0.0
 10
25.28686597173169
 20
660.6098841600307
 30
0.0
  0
SPLINE
  5
116
330
1F
100
AcDbEntity
  8
0
  6
SLD-Solid
 62
   142
420
    32960
370
     0
100
AcDbSpline
210
0.0
220
0.0
230
1.0
 70
     8
 71
     3
 72
     8
 73
     4
 74
     0
 42
0.00000001
 43
0.00000001
 40
0.0
 40
0.0
 40
0.0
 40
0.0
 40
1.0
 40
1.0
 40
1.0
 40
1.0
 10
816.3864451615142
 20
660.6373687835647
 30
0.0
 10
816.2093838131799
 20
660.6190429930238
 30
0.0
 10
816.0318156929804
 20
660.6098841600308
 30
0.0
 10
815.8537407999935
 20
660.6098841600308
 30
0.0
  0
SPLINE
  5
117
330
1F
100
AcDbEntity
  8
0
  6
SLD-Solid
 62
   142
420
    32960
370
     0
100
AcDbSpline
210
0.0
220
0.0
230
1.0
 70
     8
 71
     3
 72
     8
 73
     4
 74
     0
 42
0.00000001
 43
0.00000001
 40
0.0
 40
0.0
 40
0.0
 40
0.0
 40
1.0
 40
1.0
 40
1.0
 40
1.0
 10
725.8195703332219
 20
660.6373687835646
 30
0.0
 10
725.6425089848976
 20
660.6190429930257
 30
0.0
 10
725.4649408647083
 20
660.609884160034
 30
0.0
 10
725.2868659717318
 20
660.609884160034
 30
0.0
  0
SPLINE
  5
118
330
1F
100
AcDbEntity
  8
0
  6
SLD-Solid
 62
   142
420
    32960
370
     0
100
AcDbSpline
210
0.0
220
0.0
230
1.0
 70
     8
 71
     3
 72
     8
 73
     4
 74
     0
 42
0.00000001
 43
0.00000001
 40
0.0
 40
0.0
 40
0.0
 40
0.0
 40
1.0
 40
1.0
 40
1.0
 40
1.0
 10
625.8195703332427
 20
660.6373687835646
 30
0.0
 10
625.6425089849116
 20
660.6190429930242
 30
0.0
 10
625.4649408647152
 20
660.6098841600317
 30
0.0
 10
625.2868659717317
 20
660.6098841600317
 30
0.0
  0
SPLINE
  5
119
330
1F
100
AcDbEntity
  8
0
  6
SLD-Solid
 62
   142
420
    32960
370
     0
100
AcDbSpline
210
0.0
220
0.0
230
1.0
 70
     8
 71
     3
 72
     8
 73
     4
 74
     0
 42
0.00000001
 43
0.00000001
 40
0.0
 40
0.0
 40
0.0
 40
0.0
 40
1.0
 40
1.0
 40
1.0
 40
1.0
 10
525.8195703332428
 20
660.6373687835646
 30
0.0
 10
525.6425089849116
 20
660.6190429930242
 30
0.0
 10
525.4649408647153
 20
660.6098841600317
 30
0.0
 10
525.2868659717316
 20
660.6098841600317
 30
0.0
  0
LINE
  5
11A
330
1F
100
AcDbEntity
  8
0
  6
SLD-Solid
 62
   142
420
    32960
370
     0
100
AcDbLine
 10
725.2868659717
 20
660.8169353339
 30
0.0
 11
725.2868659717
 21
660.60988416
 31
0.0
  0
LINE
  5
11B
330
1F
100
AcDbEntity
  8
0
  6
SLD-Solid
 62
   142
420
    32960
370
     0
100
AcDbLine
 10
646.505361391
 20
660.8169353339
 30
0.0
 11
725.2868659717
 21
660.8169353339
 31
0.0
  0
LINE
  5
11C
330
1F
100
AcDbEntity
  8
0
  6
SLD-Solid
 62
   142
420
    32960
370
     0
100
AcDbLine
 10
525.2868659717
 20
660.8169353339
 30
0.0
 11
525.2868659717
 21
660.60988416
 31
0.0
  0
LINE
  5
11D
330
1F
100
AcDbEntity
  8
0
  6
SLD-Solid
 62
   142
420
    32960
370
     0
100
AcDbLine
 10
446.505361391
 20
660.8169353339
 30
0.0
 11
525.2868659717
 21
660.8169353339
 31
0.0
  0
LINE
  5
11E
330
1F
100
AcDbEntity
  8
0
  6
SLD-Solid
 62
     7
370
    15
100
AcDbLine
 10
146.505361391
 20
660.8169353339
 30
0.0
 11
225.2868659717
 21
660.8169353339
 31
0.0
  0
LINE
  5
11F
330
1F
100
AcDbEntity
  8
0
  6
SLD-Solid
 62
   142
420
    32960
370
     0
100
AcDbLine
 10
225.2868659717
 20
660.8169353339
 30
0.0
 11
225.2868659717
 21
660.60988416
 31
0.0
  0
LINE
  5
120
330
1F
100
AcDbEntity
  8
0
  6
SLD-Solid
 62
   142
420
    32960
370
     0
100
AcDbLine
 10
625.2868659717
 20
660.8169353339
 30
0.0
 11
625.2868659717
 21
660.60988416
 31
0.0
  0
LINE
  5
121
330
1F
100
AcDbEntity
  8
0
  6
SLD-Solid
 62
   142
420
    32960
370
     0
100
AcDbLine
 10
546.505361391
 20
660.8169353339
 30
0.0
 11
625.2868659717
 21
660.8169353339
 31
0.0
  0
LINE
  5
122
330
1F
100
AcDbEntity
  8
0
  6
SLD-Solid
 62
   142
420
    32960
370
     0
100
AcDbLine
 10
346.505361391
 20
660.8169353339
 30
0.0
 11
425.2868659717
 21
660.8169353339
 31
0.0
  0
LINE
  5
123
330
1F
100
AcDbEntity
  8
0
  6
SLD-Solid
 62
   142
420
    32960
370
     0
100
AcDbLine
 10
325.2868659717
 20
660.8169353339
 30
0.0
 11
325.2868659717
 21
660.60988416
 31
0.0
  0
LINE
  5
124
330
1F
100
AcDbEntity
  8
0
  6
SLD-Solid
 62
   142
420
    32960
370
     0
100
AcDbLine
 10
246.505361391
 20
660.8169353339
 30
0.0
 11
325.2868659717
 21
660.8169353339
 31
0.0
  0
LINE
  5
125
330
1F
100
AcDbEntity
  8
0
  6
SLD-Solid
 62
     7
370
    15
100
AcDbLine
 10
-34.1462592
 20
660.8169353339
 30
0.0
 11
25.2868659717
 21
660.8169353339
 31
0.0
  0
LINE
  5
126
330
1F
100
AcDbEntity
  8
0
  6
SLD-Solid
 62
   142
420
    32960
370
     0
100
AcDbLine
 10
25.2868659717
 20
660.8169353339
 30
0.0
 11
25.2868659717
 21
660.60988416
 31
0.0
  0
LINE
  5
127
330
1F
100
AcDbEntity
  8
0
  6
SLD-Solid
 62
   142
420
    32960
370
     0
100
AcDbLine
 10
815.8537408
 20
660.8169353339
 30
0.0
 11
815.8537408
 21
660.60988416
 31
0.0
  0
LINE
  5
128
330
1F
100
AcDbEntity
  8
0
  6
SLD-Solid
 62
   142
420
    32960
370
     0
100
AcDbLine
 10
746.505361391
 20
660.8169353339
 30
0.0
 11
815.8537408
 21
660.8169353339
 31
0.0
  0
LINE
  5
129
330
1F
100
AcDbEntity
  8
0
  6
SLD-Solid
 62
   142
420
    32960
370
     0
100
AcDbLine
 10
46.505361391
 20
660.8169353339
 30
0.0
 11
125.2868659717
 21
660.8169353339
 31
0.0
  0
LINE
  5
12A
330
1F
100
AcDbEntity
  8
0
  6
SLD-Solid
 62
     7
370
    15
100
AcDbLine
 10
225.8195703332
 20
660.8444240196
 30
0.0
 11
145.9726570295
 21
660.8444240196
 31
0.0
  0
ARC
  5
12B
330
1F
100
AcDbEntity
  8
0
  6
SLD-Solid
 62
   142
420
    32960
370
     0
100
AcDbCircle
 10
225.2869062075
 20
665.9915497056
 30
0.0
 40
5.174614371860566
100
AcDbArc
 50
269.9995544903
 51
275.908375219
  0
LINE
  5
12C
330
1F
100
AcDbEntity
  8
0
  6
SLD-Solid
 62
     7
370
    15
100
AcDbLine
 10
25.8195703333
 20
660.8444240196
 30
0.0
 11
-34.6789635615
 21
660.8444240196
 31
0.0
  0
ARC
  5
12D
330
1F
100
AcDbEntity
  8
0
  6
SLD-Solid
 62
   142
420
    32960
370
     0
100
AcDbCircle
 10
25.2869062075
 20
665.9915497055
 30
0.0
 40
5.174614371816799
100
AcDbArc
 50
269.9995544903
 51
275.9083752192
  0
LINE
  5
12E
330
1F
100
AcDbEntity
  8
0
  6
SLD-Solid
 62
   142
420
    32960
370
     0
100
AcDbLine
 10
125.8195703333
 20
660.8444240196
 30
0.0
 11
45.9726570294
 21
660.8444240196
 31
0.0
  0
LINE
  5
12F
330
1F
100
AcDbEntity
  8
0
  6
SLD-Solid
 62
   142
420
    32960
370
     0
100
AcDbLine
 10
325.8195703332
 20
660.8444240196
 30
0.0
 11
245.9726570295
 21
660.8444240196
 31
0.0
  0
LINE
  5
130
330
1F
100
AcDbEntity
  8
0
  6
SLD-Solid
 62
   142
420
    32960
370
     0
100
AcDbLine
 10
425.8195703332
 20
660.8444240196
 30
0.0
 11
345.9726570295
 21
660.8444240196
 31
0.0
  0
LINE
  5
131
330
1F
100
AcDbEntity
  8
0
  6
SLD-Solid
 62
   142
420
    32960
370
     0
100
AcDbLine
 10
525.8195703332
 20
660.8444240196
 30
0.0
 11
445.9726570295
 21
660.8444240196
 31
0.0
  0
LINE
  5
132
330
1F
100
AcDbEntity
  8
0
  6
SLD-Solid
 62
   142
420
    32960
370
     0
100
AcDbLine
 10
625.8195703332
 20
660.8444240196
 30
0.0
 11
545.9726570295
 21
660.8444240196
 31
0.0
  0
LINE
  5
133
330
1F
100
AcDbEntity
  8
0
  6
SLD-Solid
 62
   142
420
    32960
370
     0
100
AcDbLine
 10
725.8195703332
 20
660.8444240196
 30
0.0
 11
645.9726570295
 21
660.8444240196
 31
0.0
  0
LINE
  5
134
330
1F
100
AcDbEntity
  8
0
  6
SLD-Solid
 62
   142
420
    32960
370
     0
100
AcDbLine
 10
816.3864451615
 20
660.8444240196
 30
0.0
 11
745.9726570294
 21
660.8444240196
 31
0.0
  0
LINE
  5
135
330
1F
100
AcDbEntity
  8
0
  6
SLD-Solid
 62
     7
370
    15
100
AcDbLine
 10
-59.1462592
 20
641.5149001472
 30
0.0
 11
-59.1462592
 21
640.2649001472
 31
0.0
  0
LINE
  5
136
330
1F
100
AcDbEntity
  8
0
  6
SLD-Solid
 62
     7
370
    15
100
AcDbLine
 10
840.8537408
 20
641.5149001472
 30
0.0
 11
840.8537408
 21
640.2649001472
 31
0.0
  0
LINE
  5
137
330
1F
100
AcDbEntity
  8
0
  6
SLD-Solid
 62
     7
370
    15
100
AcDbLine
 10
840.8537408
 20
617.0149001472
 30
0.0
 11
-59.1462592
 21
617.0149001472
 31
0.0
  0
LINE
  5
138
330
1F
100
AcDbEntity
  8
0
  6
SLD-Solid
 62
   142
420
    32960
370
     0
100
AcDbLine
 10
-59.1462592
 20
619.0649001472
 30
0.0
 11
-59.1462592
 21
617.0149001472
 31
0.0
  0
LINE
  5
139
330
1F
100
AcDbEntity
  8
0
  6
SLD-Solid
 62
   142
420
    32960
370
     0
100
AcDbLine
 10
840.8537408
 20
619.0649001472
 30
0.0
 11
840.8537408
 21
617.0149001472
 31
0.0
  0
LINE
  5
13A
330
1F
100
AcDbEntity
  8
0
  6
SLD-Solid
 62
     7
370
    15
100
AcDbLine
 10
-59.1462592
 20
640.2649001472
 30
0.0
 11
-59.1462592
 21
619.0649001472
 31
0.0
  0
LINE
  5
13B
330
1F
100
AcDbEntity
  8
0
  6
SLD-Solid
 62
   142
420
    32960
370
     0
100
AcDbLine
 10
840.8537408
 20
640.2649001472
 30
0.0
 11
840.8537408
 21
619.0649001472
 31
0.0
  0
LINE
  5
13C
330
1F
100
AcDbEntity
  8
0
  6
SLD-Solid
 62
     7
370
    15
100
AcDbLine
 10
840.8537408
 20
617.0149001472
 30
0.0
 11
840.8537408
 21
615.7649001472
 31
0.0
  0
LINE
  5
13D
330
1F
100
AcDbEntity
  8
0
  6
SLD-Solid
 62
     7
370
    15
100
AcDbLine
 10
-59.1462592
 20
617.0149001472
 30
0.0
 11
-59.1462592
 21
615.7649001472
 31
0.0
  0
LINE
  5
13E
330
1F
100
AcDbEntity
  8
0
  6
SLD-Solid
 62
     7
370
    15
100
AcDbLine
 10
840.8537408
 20
615.7649001472
 30
0.0
 11
840.8537408
 21
593.5649001472
 31
0.0
  0
LINE
  5
13F
330
1F
100
AcDbEntity
  8
0
  6
SLD-Solid
 62
     7
370
    15
100
AcDbLine
 10
-59.1462592
 20
615.7649001472
 30
0.0
 11
-59.1462592
 21
593.5649001472
 31
0.0
  0
LWPOLYLINE
  5
140
330
1F
100
AcDbEntity
  8
0
  6
SLD-Solid
 62
   142
420
    32960
370
     0
100
AcDbPolyline
 90
        3
 70
   128
 43
0.0
 10
755.8537408
 20
596.5149001472
 10
757.3527439598
 20
596.6901084884
 10
758.0537408
 20
596.8985286739
  0
LWPOLYLINE
  5
141
330
1F
100
AcDbEntity
  8
0
  6
SLD-Solid
 62
   142
420
    32960
370
     0
100
AcDbPolyline
 90
        3
 70
   128
 43
0.0
 10
758.0537408
 20
609.1312716206
 10
756.6083447418
 20
609.4709494725
 10
755.8037408
 20
609.5147078367
  0
ARC
  5
142
330
1F
100
AcDbEntity
  8
0
  6
SLD-Solid
 62
   142
420
    32960
370
     0
100
AcDbCircle
 10
25.8537408
 20
603.0149001472
 30
0.0
 40
6.499999999999976
100
AcDbArc
 50
89.5592588878
 51
143.1301023574
  0
ARC
  5
143
330
1F
100
AcDbEntity
  8
0
  6
SLD-Solid
 62
   142
420
    32960
370
     0
100
AcDbCircle
 10
25.8537408
 20
603.0149001472
 30
0.0
 40
6.499999999999934
100
AcDbArc
 50
216.8698976427
 51
270.0
  0
ARC
  5
144
330
1F
100
AcDbEntity
  8
0
  6
SLD-Solid
 62
   142
420
    32960
370
     0
100
AcDbCircle
 10
801.8537408
 20
601.0149001472
 30
0.0
 40
4.799999999999915
100
AcDbArc
 50
155.0283901734
 51
204.9716098103
  0
ARC
  5
145
330
1F
100
AcDbEntity
  8
0
  6
SLD-Solid
 62
   142
420
    32960
370
     0
100
AcDbCircle
 10
-20.1462592
 20
601.0149001472
 30
0.0
 40
4.799999999999971
100
AcDbArc
 50
137.4010384936
 51
222.5989586934
  0
LINE
  5
146
330
1F
100
AcDbEntity
  8
0
  6
SLD-Solid
 62
     7
370
    15
100
AcDbLine
 10
840.8537408
 20
591.5149001472
 30
0.0
 11
836.0537408
 21
591.5149001472
 31
0.0
  0
LINE
  5
147
330
1F
100
AcDbEntity
  8
0
  6
SLD-Solid
 62
     7
370
    15
100
AcDbLine
 10
758.0537408
 20
591.5149001472
 30
0.0
 11
755.8037408
 21
591.5149001472
 31
0.0
  0
LINE
  5
148
330
1F
100
AcDbEntity
  8
0
  6
SLD-Solid
 62
     7
370
    15
100
AcDbLine
 10
515.9037408
 20
591.5149001472
 30
0.0
 11
510.8037408
 21
591.5149001472
 31
0.0
  0
LINE
  5
149
330
1F
100
AcDbEntity
  8
0
  6
SLD-Solid
 62
     7
370
    15
100
AcDbLine
 10
270.9037408
 20
591.5149001472
 30
0.0
 11
265.8037408
 21
591.5149001472
 31
0.0
  0
LINE
  5
14A
330
1F
100
AcDbEntity
  8
0
  6
SLD-Solid
 62
     7
370
    15
100
AcDbLine
 10
25.9037408
 20
591.5149001472
 30
0.0
 11
20.6537407998
 21
591.5149001472
 31
0.0
  0
LINE
  5
14B
330
1F
100
AcDbEntity
  8
0
  6
SLD-Solid
 62
     7
370
    15
100
AcDbLine
 10
-57.3462592002
 20
591.5149001472
 30
0.0
 11
-59.1462592
 21
591.5149001472
 31
0.0
  0
LINE
  5
14C
330
1F
100
AcDbEntity
  8
0
  6
SLD-Solid
 62
   142
420
    32960
370
     0
100
AcDbLine
 10
-59.1462592
 20
593.5649001472
 30
0.0
 11
-59.1462592
 21
591.5149001472
 31
0.0
  0
LINE
  5
14D
330
1F
100
AcDbEntity
  8
0
  6
SLD-Solid
 62
   142
420
    32960
370
     0
100
AcDbLine
 10
840.8537408
 20
593.5649001472
 30
0.0
 11
840.8537408
 21
591.5149001472
 31
0.0
  0
ARC
  5
14E
330
1F
100
AcDbEntity
  8
0
  6
SLD-Solid
 62
   142
420
    32960
370
     0
100
AcDbCircle
 10
344.3505644608
 20
-71.8503413865
 30
0.0
 40
1.498704915935544
100
AcDbArc
 50
182.8711035151
 51
298.8471995542
  0
LINE
  5
14F
330
1F
100
AcDbEntity
  8
0
  6
SLD-Solid
 62
   142
420
    32960
370
     0
100
AcDbLine
 10
349.7418052806
 20
-70.7612168045
 30
0.0
 11
345.0736527163
 21
-73.1630712901
 31
0.0
  0
ARC
  5
150
330
1F
100
AcDbEntity
  8
0
  6
SLD-Solid
 62
   142
420
    32960
370
     0
100
AcDbCircle
 10
343.3688754755
 20
-69.2557635866
 30
0.0
 40
6.548329839874496
100
AcDbArc
 50
186.9832872656
 51
346.7088858336
  0
ARC
  5
151
330
1F
100
AcDbEntity
  8
0
  6
SLD-Solid
 62
   142
420
    32960
370
     0
100
AcDbCircle
 10
343.5841411175
 20
-69.4038717203
 30
0.0
 40
7.285151706811971
100
AcDbArc
 50
268.1876606107
 51
354.8966189864
  0
ARC
  5
152
330
1F
100
AcDbEntity
  8
0
  6
SLD-Solid
 62
   142
420
    32960
370
     0
100
AcDbCircle
 10
343.1834808561
 20
-69.3359960511
 30
0.0
 40
7.351355046856953
100
AcDbArc
 50
185.5886115269
 51
271.3271088761
  0
LINE
  5
153
330
1F
100
AcDbEntity
  8
0
  6
SLD-Solid
 62
   142
420
    32960
370
     0
100
AcDbLine
 10
142.8537407971
 20
-70.0519083513
 30
0.0
 11
142.8537407971
 21
-72.016822201
 31
0.0
  0
ARC
  5
154
330
1F
100
AcDbEntity
  8
0
  6
SLD-Solid
 62
   142
420
    32960
370
     0
100
AcDbCircle
 10
141.8826024939
 20
-71.9861348163
 30
0.0
 40
0.971623033675521
100
AcDbArc
 50
268.2978000298
 51
358.190090174
  0
LINE
  5
155
330
1F
100
AcDbEntity
  8
0
  6
SLD-Solid
 62
   142
420
    32960
370
     0
100
AcDbLine
 10
139.8537407971
 20
-72.9573290925
 30
0.0
 11
141.8537407971
 21
-72.9573290925
 31
0.0
  0
ARC
  5
156
330
1F
100
AcDbEntity
  8
0
  6
SLD-Solid
 62
   142
420
    32960
370
     0
100
AcDbCircle
 10
139.8248791004
 20
-71.9861348163
 30
0.0
 40
0.9716230336754927
100
AcDbArc
 50
181.809909826
 51
271.7021999702
  0
LINE
  5
157
330
1F
100
AcDbEntity
  8
0
  6
SLD-Solid
 62
   142
420
    32960
370
     0
100
AcDbLine
 10
138.8537407971
 20
-70.0519083513
 30
0.0
 11
138.8537407971
 21
-72.016822201
 31
0.0
  0
LINE
  5
158
330
1F
100
AcDbEntity
  8
0
  6
SLD-Solid
 62
   142
420
    32960
370
     0
100
AcDbLine
 10
838.8037408
 20
589.5149001472
 30
0.0
 11
836.0537408
 21
589.5149001472
 31
0.0
  0
LINE
  5
159
330
1F
100
AcDbEntity
  8
0
  6
SLD-Solid
 62
   142
420
    32960
370
     0
100
AcDbLine
 10
838.8037408
 20
589.5149001472
 30
0.0
 11
838.8037408
 21
74.5149001472
 31
0.0
  0
LINE
  5
15A
330
1F
100
AcDbEntity
  8
0
  6
SLD-Solid
 62
   142
420
    32960
370
     0
100
AcDbLine
 10
836.0537408
 20
74.5149001472
 30
0.0
 11
838.8037408
 21
74.5149001472
 31
0.0
  0
LINE
  5
15B
330
1F
100
AcDbEntity
  8
0
  6
SLD-Solid
 62
     7
370
    15
100
AcDbLine
 10
97.8537408
 20
-70.0519083513
 30
0.0
 11
97.8537408
 21
-80.1605291089
 31
0.0
  0
LINE
  5
15C
330
1F
100
AcDbEntity
  8
0
  6
SLD-Solid
 62
     7
370
    15
100
AcDbLine
 10
100.8537408
 20
-80.1605291089
 30
0.0
 11
100.8537408
 21
-70.0519083513
 31
0.0
  0
LINE
  5
15D
330
1F
100
AcDbEntity
  8
0
  6
SLD-Solid
 62
   142
420
    32960
370
     0
100
AcDbLine
 10
110.066891157
 20
-70.0519083513
 30
0.0
 11
109.9885440604
 21
-70.0965671546
 31
0.0
  0
LWPOLYLINE
  5
15E
330
1F
100
AcDbEntity
  8
0
  6
SLD-Solid
 62
   142
420
    32960
370
     0
100
AcDbPolyline
 90
        9
 70
   128
 43
0.0
 10
97.8537408
 20
-80.1605291089
 10
97.9679215012
 20
-80.337912635
 10
98.2930806282
 20
-80.4882911273
 10
98.7797156514
 20
-80.5887708234
 10
99.3537408
 20
-80.6240546005
 10
99.9277659485
 20
-80.5887708234
 10
100.4144009718
 20
-80.4882911273
 10
100.7395600988
 20
-80.337912635
 10
100.8537408
 20
-80.1605291089
  0
ARC
  5
15F
330
1F
100
AcDbEntity
  8
0
  6
SLD-Solid
 62
   142
420
    32960
370
     0
100
AcDbCircle
 10
99.8776136757
 20
-79.7101022778
 30
0.0
 40
0.9764498166443104
100
AcDbArc
 50
1.4730549926
 51
91.4009438083
  0
ARC
  5
160
330
1F
100
AcDbEntity
  8
0
  6
SLD-Solid
 62
   142
420
    32960
370
     0
100
AcDbCircle
 10
98.8298679243
 20
-79.7101022778
 30
0.0
 40
0.9764498166444321
100
AcDbArc
 50
88.5990561917
 51
178.5269450074
  0
LWPOLYLINE
  5
161
330
1F
100
AcDbEntity
  8
0
  6
SLD-Solid
 62
   142
420
    32960
370
     0
100
AcDbPolyline
 90
        9
 70
   128
 43
0.0
 10
98.8537408
 20
-78.7339443345
 10
98.8918010337
 20
-78.7930721765
 10
99.0001874094
 20
-78.8431983406
 10
99.1623990838
 20
-78.8766915727
 10
99.3537408
 20
-78.8884528317
 10
99.5450825162
 20
-78.8766915727
 10
99.7072941906
 20
-78.8431983406
 10
99.8156805662
 20
-78.7930721765
 10
99.8537408
 20
-78.7339443345
  0
LINE
  5
162
330
1F
100
AcDbEntity
  8
0
  6
SLD-Solid
 62
     7
370
    15
100
AcDbLine
 10
109.0279048362
 20
-73.6597462784
 30
0.0
 11
109.0205553118
 21
-73.8649417451
 31
0.0
  0
ARC
  5
163
330
1F
100
AcDbEntity
  8
0
  6
SLD-Solid
 62
   142
420
    32960
370
     0
100
AcDbCircle
 10
110.0675569979
 20
-69.1580324654
 30
0.0
 40
0.9418547697247417
100
AcDbArc
 50
265.187756198
 51
288.3667284169
  0
ARC
  5
164
330
1F
100
AcDbEntity
  8
0
  6
SLD-Solid
 62
   142
420
    32960
370
     0
100
AcDbCircle
 10
109.9016846423
 20
-78.6654658539
 30
0.0
 40
1.056025610322119
100
AcDbArc
 50
274.7179789945
 51
357.771185392
  0
ARC
  5
165
330
1F
100
AcDbEntity
  8
0
  6
SLD-Solid
 62
   142
420
    32960
370
     0
100
AcDbCircle
 10
88.8057969577
 20
-78.6654658539
 30
0.0
 40
1.056025610322097
100
AcDbArc
 50
182.228814608
 51
265.2820210055
  0
ARC
  5
166
330
1F
100
AcDbEntity
  8
0
  6
SLD-Solid
 62
   142
420
    32960
370
     0
100
AcDbCircle
 10
110.1283513128
 20
-79.4208026857
 30
0.0
 40
0.3283607131480457
100
AcDbArc
 50
244.8003740147
 51
329.0454085633
  0
ARC
  5
167
330
1F
100
AcDbEntity
  8
0
  6
SLD-Solid
 62
   142
420
    32960
370
     0
100
AcDbCircle
 10
88.5791302879
 20
-79.4208027841
 30
0.0
 40
0.3283606238080349
100
AcDbArc
 50
210.9546804032
 51
295.1996331966
  0
ARC
  5
168
330
1F
100
AcDbEntity
  8
0
  6
SLD-Solid
 62
   142
420
    32960
370
     0
100
AcDbCircle
 10
110.4910642402
 20
-78.8514350036
 30
0.0
 40
0.4878622020747618
100
AcDbArc
 50
307.824671804
 51
17.2781048109
  0
ARC
  5
169
330
1F
100
AcDbEntity
  8
0
  6
SLD-Solid
 62
   142
420
    32960
370
     0
100
AcDbCircle
 10
88.2164173598
 20
-78.8514350036
 30
0.0
 40
0.487862202071531
100
AcDbArc
 50
162.721895189
 51
232.1753281934
  0
LINE
  5
16A
330
1F
100
AcDbEntity
  8
0
  6
SLD-Solid
 62
   142
420
    32960
370
     0
100
AcDbLine
 10
718.8537408
 20
-70.0519083513
 30
0.0
 11
718.8537408
 21
-74.8383428754
 31
0.0
  0
ARC
  5
16B
330
1F
100
AcDbEntity
  8
0
  6
SLD-Solid
 62
   142
420
    32960
370
     0
100
AcDbCircle
 10
719.8248791032
 20
-74.8076554907
 30
0.0
 40
0.971623033675444
100
AcDbArc
 50
181.809909826
 51
271.7021999702
  0
LINE
  5
16C
330
1F
100
AcDbEntity
  8
0
  6
SLD-Solid
 62
   142
420
    32960
370
     0
100
AcDbLine
 10
739.8537408
 20
-75.7788497669
 30
0.0
 11
719.8537408
 21
-75.7788497669
 31
0.0
  0
ARC
  5
16D
330
1F
100
AcDbEntity
  8
0
  6
SLD-Solid
 62
   142
420
    32960
370
     0
100
AcDbCircle
 10
739.8826024968
 20
-74.8076554907
 30
0.0
 40
0.9716230336757966
100
AcDbArc
 50
268.2978000298
 51
358.190090174
  0
LINE
  5
16E
330
1F
100
AcDbEntity
  8
0
  6
SLD-Solid
 62
   142
420
    32960
370
     0
100
AcDbLine
 10
740.8537408
 20
-74.8383428754
 30
0.0
 11
740.8537408
 21
-70.0519083513
 31
0.0
  0
LINE
  5
16F
330
1F
100
AcDbEntity
  8
0
  6
SLD-Solid
 62
   142
420
    32960
370
     0
100
AcDbLine
 10
738.8537408
 20
-70.0519083513
 30
0.0
 11
738.8537408
 21
-72.016822201
 31
0.0
  0
ARC
  5
170
330
1F
100
AcDbEntity
  8
0
  6
SLD-Solid
 62
   142
420
    32960
370
     0
100
AcDbCircle
 10
736.9114641935
 20
-71.9554474316
 30
0.0
 40
1.943246067350574
100
AcDbArc
 50
268.2978000298
 51
358.190090174
  0
LINE
  5
171
330
1F
100
AcDbEntity
  8
0
  6
SLD-Solid
 62
   142
420
    32960
370
     0
100
AcDbLine
 10
734.8537408
 20
-73.8978359839
 30
0.0
 11
736.8537408
 21
-73.8978359839
 31
0.0
  0
ARC
  5
172
330
1F
100
AcDbEntity
  8
0
  6
SLD-Solid
 62
   142
420
    32960
370
     0
100
AcDbCircle
 10
734.7960174064
 20
-71.9554474316
 30
0.0
 40
1.943246067351003
100
AcDbArc
 50
181.809909826
 51
271.7021999702
  0
LINE
  5
173
330
1F
100
AcDbEntity
  8
0
  6
SLD-Solid
 62
   142
420
    32960
370
     0
100
AcDbLine
 10
732.8537408
 20
-70.0519083513
 30
0.0
 11
732.8537408
 21
-72.016822201
 31
0.0
  0
LINE
  5
174
330
1F
100
AcDbEntity
  8
0
  6
SLD-Solid
 62
   142
420
    32960
370
     0
100
AcDbLine
 10
135.8537408007
 20
-70.0519083513
 30
0.0
 11
135.8537408007
 21
-74.8383428754
 31
0.0
  0
ARC
  5
175
330
1F
100
AcDbEntity
  8
0
  6
SLD-Solid
 62
   142
420
    32960
370
     0
100
AcDbCircle
 10
136.8248791039
 20
-74.8076554907
 30
0.0
 40
0.9716230336755763
100
AcDbArc
 50
181.809909826
 51
271.7021999702
  0
LINE
  5
176
330
1F
100
AcDbEntity
  8
0
  6
SLD-Solid
 62
   142
420
    32960
370
     0
100
AcDbLine
 10
156.8537408007
 20
-75.7788497669
 30
0.0
 11
136.8537408007
 21
-75.7788497669
 31
0.0
  0
ARC
  5
177
330
1F
100
AcDbEntity
  8
0
  6
SLD-Solid
 62
   142
420
    32960
370
     0
100
AcDbCircle
 10
156.8826024975
 20
-74.8076554907
 30
0.0
 40
0.9716230336753846
100
AcDbArc
 50
268.2978000298
 51
358.190090174
  0
LINE
  5
178
330
1F
100
AcDbEntity
  8
0
  6
SLD-Solid
 62
   142
420
    32960
370
     0
100
AcDbLine
 10
157.8537408007
 20
-74.8383428754
 30
0.0
 11
157.8537408007
 21
-70.0519083513
 31
0.0
  0
LINE
  5
179
330
1F
100
AcDbEntity
  8
0
  6
SLD-Solid
 62
   142
420
    32960
370
     0
100
AcDbLine
 10
143.8537407971
 20
-70.0519083513
 30
0.0
 11
143.8537407971
 21
-72.016822201
 31
0.0
  0
ARC
  5
17A
330
1F
100
AcDbEntity
  8
0
  6
SLD-Solid
 62
   142
420
    32960
370
     0
100
AcDbCircle
 10
141.9114641907
 20
-71.9554474316
 30
0.0
 40
1.943246067350918
100
AcDbArc
 50
268.2978000298
 51
358.190090174
  0
LINE
  5
17B
330
1F
100
AcDbEntity
  8
0
  6
SLD-Solid
 62
   142
420
    32960
370
     0
100
AcDbLine
 10
139.8537407971
 20
-73.8978359839
 30
0.0
 11
141.8537407971
 21
-73.8978359839
 31
0.0
  0
ARC
  5
17C
330
1F
100
AcDbEntity
  8
0
  6
SLD-Solid
 62
   142
420
    32960
370
     0
100
AcDbCircle
 10
139.7960174036
 20
-71.9554474316
 30
0.0
 40
1.943246067350832
100
AcDbArc
 50
181.809909826
 51
271.7021999702
  0
LINE
  5
17D
330
1F
100
AcDbEntity
  8
0
  6
SLD-Solid
 62
   142
420
    32960
370
     0
100
AcDbLine
 10
137.8537407971
 20
-70.0519083513
 30
0.0
 11
137.8537407971
 21
-72.016822201
 31
0.0
  0
LINE
  5
17E
330
1F
100
AcDbEntity
  8
0
  6
SLD-Solid
 62
   142
420
    32960
370
     0
100
AcDbLine
 10
840.8537408
 20
79.5149001472
 30
0.0
 11
840.8537408
 21
74.5149001472
 31
0.0
  0
LINE
  5
17F
330
1F
100
AcDbEntity
  8
0
  6
SLD-Solid
 62
     7
370
    15
100
AcDbLine
 10
840.8537408
 20
584.5149001472
 30
0.0
 11
840.8537408
 21
79.5149001472
 31
0.0
  0
LINE
  5
180
330
1F
100
AcDbEntity
  8
0
  6
SLD-Solid
 62
     7
370
    15
100
AcDbLine
 10
840.8537408
 20
589.5149001472
 30
0.0
 11
840.8537408
 21
584.5149001472
 31
0.0
  0
LINE
  5
181
330
1F
100
AcDbEntity
  8
0
  6
SLD-Solid
 62
   142
420
    32960
370
     0
100
AcDbLine
 10
840.0537408
 20
584.5149001472
 30
0.0
 11
840.0537408
 21
79.5149001472
 31
0.0
  0
LINE
  5
182
330
1F
100
AcDbEntity
  8
0
  6
SLD-Solid
 62
   142
420
    32960
370
     0
100
AcDbLine
 10
840.8537408
 20
79.5149001472
 30
0.0
 11
840.0537408
 21
79.5149001472
 31
0.0
  0
LINE
  5
183
330
1F
100
AcDbEntity
  8
0
  6
SLD-Solid
 62
   142
420
    32960
370
     0
100
AcDbLine
 10
840.0537408
 20
589.5149001472
 30
0.0
 11
840.0537408
 21
584.5149001472
 31
0.0
  0
LINE
  5
184
330
1F
100
AcDbEntity
  8
0
  6
SLD-Solid
 62
   142
420
    32960
370
     0
100
AcDbLine
 10
840.8537408
 20
589.5149001472
 30
0.0
 11
840.0537408
 21
589.5149001472
 31
0.0
  0
LINE
  5
185
330
1F
100
AcDbEntity
  8
0
  6
SLD-Solid
 62
   142
420
    32960
370
     0
100
AcDbLine
 10
840.0537408
 20
589.5149001472
 30
0.0
 11
838.8037408
 21
589.5149001472
 31
0.0
  0
LINE
  5
186
330
1F
100
AcDbEntity
  8
0
  6
SLD-Solid
 62
   142
420
    32960
370
     0
100
AcDbLine
 10
838.8037408
 20
74.5149001472
 30
0.0
 11
840.8537408
 21
74.5149001472
 31
0.0
  0
ARC
  5
187
330
1F
100
AcDbEntity
  8
0
  6
SLD-Solid
 62
   142
420
    32960
370
     0
100
AcDbCircle
 10
736.9114641935
 20
-71.9214699704
 30
0.0
 40
1.943246067350671
100
AcDbArc
 50
268.2978000298
 51
358.190090174
  0
LINE
  5
188
330
1F
100
AcDbEntity
  8
0
  6
SLD-Solid
 62
   142
420
    32960
370
     0
100
AcDbLine
 10
734.8537408
 20
-73.8638585227
 30
0.0
 11
736.8537408
 21
-73.8638585227
 31
0.0
  0
ARC
  5
189
330
1F
100
AcDbEntity
  8
0
  6
SLD-Solid
 62
   142
420
    32960
370
     0
100
AcDbCircle
 10
734.7960174064
 20
-71.9214699704
 30
0.0
 40
1.943246067351006
100
AcDbArc
 50
181.809909826
 51
271.7021999702
  0
ARC
  5
18A
330
1F
100
AcDbEntity
  8
0
  6
SLD-Solid
 62
   142
420
    32960
370
     0
100
AcDbCircle
 10
448.4114641935
 20
-74.7429906448
 30
0.0
 40
1.943246067350831
100
AcDbArc
 50
268.2978000298
 51
358.190090174
  0
LINE
  5
18B
330
1F
100
AcDbEntity
  8
0
  6
SLD-Solid
 62
   142
420
    32960
370
     0
100
AcDbLine
 10
448.3537408
 20
-76.6853791971
 30
0.0
 11
428.3537408
 21
-76.6853791971
 31
0.0
  0
ARC
  5
18C
330
1F
100
AcDbEntity
  8
0
  6
SLD-Solid
 62
   142
420
    32960
370
     0
100
AcDbCircle
 10
428.2960174064
 20
-74.7429906448
 30
0.0
 40
1.943246067351006
100
AcDbArc
 50
181.809909826
 51
271.7021999702
  0
LINE
  5
18D
330
1F
100
AcDbEntity
  8
0
  6
SLD-Solid
 62
     7
370
    15
100
AcDbLine
 10
392.3537408
 20
-80.1605291089
 30
0.0
 11
392.3537408
 21
-70.0519083513
 31
0.0
  0
LINE
  5
18E
330
1F
100
AcDbEntity
  8
0
  6
SLD-Solid
 62
   142
420
    32960
370
     0
100
AcDbLine
 10
389.3537408
 20
-70.0519083513
 30
0.0
 11
389.3537408
 21
-80.1605291089
 31
0.0
  0
LINE
  5
18F
330
1F
100
AcDbEntity
  8
0
  6
SLD-Solid
 62
   142
420
    32960
370
     0
100
AcDbLine
 10
380.4336395389
 20
-70.0519083513
 30
0.0
 11
380.2189375396
 21
-70.0965671546
 31
0.0
  0
LINE
  5
190
330
1F
100
AcDbEntity
  8
0
  6
SLD-Solid
 62
   142
420
    32960
370
     0
100
AcDbLine
 10
401.4885440604
 20
-70.0965671546
 30
0.0
 11
401.273842061
 21
-70.0519083513
 31
0.0
  0
LWPOLYLINE
  5
191
330
1F
100
AcDbEntity
  8
0
  6
SLD-Solid
 62
   142
420
    32960
370
     0
100
AcDbPolyline
 90
        9
 70
   128
 43
0.0
 10
389.3537408
 20
-80.1605291089
 10
389.4679215012
 20
-80.337912635
 10
389.7930806282
 20
-80.4882911273
 10
390.2797156514
 20
-80.5887708234
 10
390.8537408
 20
-80.6240546005
 10
391.4277659485
 20
-80.5887708234
 10
391.9144009718
 20
-80.4882911273
 10
392.2395600988
 20
-80.337912635
 10
392.3537408
 20
-80.1605291089
  0
LINE
  5
192
330
1F
100
AcDbEntity
  8
0
  6
SLD-Solid
 62
     7
370
    15
100
AcDbLine
 10
400.5279048362
 20
-73.6597462784
 30
0.0
 11
400.5205553118
 21
-73.8649417451
 31
0.0
  0
ARC
  5
193
330
1F
100
AcDbEntity
  8
0
  6
SLD-Solid
 62
   142
420
    32960
370
     0
100
AcDbCircle
 10
401.5675569979
 20
-69.1580324654
 30
0.0
 40
0.9418547697146266
100
AcDbArc
 50
265.1877561979
 51
288.3667284169
  0
ARC
  5
194
330
1F
100
AcDbEntity
  8
0
  6
SLD-Solid
 62
   142
420
    32960
370
     0
100
AcDbCircle
 10
401.4016846423
 20
-78.6654658539
 30
0.0
 40
1.056025610321963
100
AcDbArc
 50
274.7179789945
 51
357.771185392
  0
ARC
  5
195
330
1F
100
AcDbEntity
  8
0
  6
SLD-Solid
 62
   142
420
    32960
370
     0
100
AcDbCircle
 10
380.139924602
 20
-69.1580324654
 30
0.0
 40
0.9418547697235989
100
AcDbArc
 50
251.6332715832
 51
274.812243802
  0
ARC
  5
196
330
1F
100
AcDbEntity
  8
0
  6
SLD-Solid
 62
   142
420
    32960
370
     0
100
AcDbCircle
 10
380.3057969577
 20
-78.6654658539
 30
0.0
 40
1.056025610322045
100
AcDbArc
 50
182.228814608
 51
265.2820210055
  0
ARC
  5
197
330
1F
100
AcDbEntity
  8
0
  6
SLD-Solid
 62
   142
420
    32960
370
     0
100
AcDbCircle
 10
401.6283513128
 20
-79.4208026788
 30
0.0
 40
0.3283607194034673
100
AcDbArc
 50
244.8003745196
 51
329.0454147925
  0
ARC
  5
198
330
1F
100
AcDbEntity
  8
0
  6
SLD-Solid
 62
   142
420
    32960
370
     0
100
AcDbCircle
 10
380.0791302872
 20
-79.4208026816
 30
0.0
 40
0.3283607168545747
100
AcDbArc
 50
210.9545877454
 51
295.1996256862
  0
ARC
  5
199
330
1F
100
AcDbEntity
  8
0
  6
SLD-Solid
 62
   142
420
    32960
370
     0
100
AcDbCircle
 10
379.7164173598
 20
-78.8514350036
 30
0.0
 40
0.4878622020720201
100
AcDbArc
 50
162.721895189
 51
232.1753281943
  0
ARC
  5
19A
330
1F
100
AcDbEntity
  8
0
  6
SLD-Solid
 62
   142
420
    32960
370
     0
100
AcDbCircle
 10
401.9910642402
 20
-78.8514350036
 30
0.0
 40
0.4878622020720453
100
AcDbArc
 50
307.824671806
 51
17.278104811
  0
LWPOLYLINE
  5
19B
330
1F
100
AcDbEntity
  8
0
  6
SLD-Solid
 62
   142
420
    32960
370
     0
100
AcDbPolyline
 90
        9
 70
   128
 43
0.0
 10
392.3537408
 20
-79.6850008508
 10
392.2395600988
 20
-79.8623843769
 10
391.9144009718
 20
-80.0127628691
 10
391.4277659485
 20
-80.1132425653
 10
390.8537408
 20
-80.1485263424
 10
390.2797156514
 20
-80.1132425653
 10
389.7930806282
 20
-80.0127628691
 10
389.4679215012
 20
-79.8623843769
 10
389.3537408
 20
-79.6850008508
  0
CIRCLE
  5
19C
330
1F
100
AcDbEntity
  8
0
  6
SLD-Solid
 62
     7
370
    15
100
AcDbCircle
 10
794.0537408
 20
601.0149001472
 30
0.0
 40
7.5
  0
CIRCLE
  5
19D
330
1F
100
AcDbEntity
  8
0
  6
SLD-Solid
 62
     7
370
    15
100
AcDbCircle
 10
794.0537408
 20
63.0149001472
 30
0.0
 40
7.499999999999886
  0
LINE
  5
19E
330
1F
100
AcDbEntity
  8
0
  6
SLD-Solid
 62
     7
370
    15
100
AcDbLine
 10
758.0537408
 20
613.0149001472
 30
0.0
 11
758.0537408
 21
51.0149001472
 31
0.0
  0
LINE
  5
19F
330
1F
100
AcDbEntity
  8
0
  6
SLD-Solid
 62
     7
370
    15
100
AcDbLine
 10
836.0537408
 20
613.0149001472
 30
0.0
 11
758.0537408
 21
613.0149001472
 31
0.0
  0
LINE
  5
1A0
330
1F
100
AcDbEntity
  8
0
  6
SLD-Solid
 62
     7
370
    15
100
AcDbLine
 10
836.0537408
 20
51.0149001472
 30
0.0
 11
836.0537408
 21
613.0149001472
 31
0.0
  0
LINE
  5
1A1
330
1F
100
AcDbEntity
  8
0
  6
SLD-Solid
 62
     7
370
    15
100
AcDbLine
 10
758.0537408
 20
51.0149001472
 30
0.0
 11
836.0537408
 21
51.0149001472
 31
0.0
  0
CIRCLE
  5
1A2
330
1F
100
AcDbEntity
  8
0
  6
SLD-Solid
 62
     7
370
    15
100
AcDbCircle
 10
794.0537408
 20
601.0149001472
 30
0.0
 40
4.0
  0
CIRCLE
  5
1A3
330
1F
100
AcDbEntity
  8
0
  6
SLD-Solid
 62
     7
370
    15
100
AcDbCircle
 10
794.0537408
 20
63.0149001472
 30
0.0
 40
4.0
  0
LINE
  5
1A4
330
1F
100
AcDbEntity
  8
0
  6
SLD-Solid
 62
   142
420
    32960
370
     0
100
AcDbLine
 10
349.1028391348
 20
-70.0519083513
 30
0.0
 11
344.5937114388
 21
-72.3719414764
 31
0.0
  0
LINE
  5
1A5
330
1F
100
AcDbEntity
  8
0
  6
SLD-Solid
 62
   142
420
    32960
370
     0
100
AcDbLine
 10
343.8537408
 20
-71.959387839
 30
0.0
 11
343.8537408
 21
-70.0519083513
 31
0.0
  0
ARC
  5
1A6
330
1F
100
AcDbEntity
  8
0
  6
SLD-Solid
 62
   142
420
    32960
370
     0
100
AcDbCircle
 10
344.3526820203
 20
-71.9343648419
 30
0.0
 40
0.4995683053119219
100
AcDbArc
 50
182.8711035151
 51
298.8471995542
  0
ARC
  5
1A7
330
1F
100
AcDbEntity
  8
0
  6
SLD-Solid
 62
   142
420
    32960
370
     0
100
AcDbCircle
 10
739.9114641935
 20
-74.7429906448
 30
0.0
 40
1.943246067350888
100
AcDbArc
 50
268.2978000298
 51
358.190090174
  0
LINE
  5
1A8
330
1F
100
AcDbEntity
  8
0
  6
SLD-Solid
 62
   142
420
    32960
370
     0
100
AcDbLine
 10
739.8537408
 20
-76.6853791971
 30
0.0
 11
719.8537408
 21
-76.6853791971
 31
0.0
  0
ARC
  5
1A9
330
1F
100
AcDbEntity
  8
0
  6
SLD-Solid
 62
   142
420
    32960
370
     0
100
AcDbCircle
 10
719.7960174064
 20
-74.7429906448
 30
0.0
 40
1.943246067351004
100
AcDbArc
 50
181.809909826
 51
271.7021999702
  0
LINE
  5
1AA
330
1F
100
AcDbEntity
  8
0
  6
SLD-Solid
 62
   142
420
    32960
370
     0
100
AcDbLine
 10
-56.6962592
 20
44.5649001472
 30
0.0
 11
-56.6962592
 21
47.0149001472
 31
0.0
  0
LINE
  5
1AB
330
1F
100
AcDbEntity
  8
0
  6
SLD-Solid
 62
     7
370
    15
100
AcDbLine
 10
838.4037408
 20
47.0149001472
 30
0.0
 11
-56.6962592
 21
47.0149001472
 31
0.0
  0
LINE
  5
1AC
330
1F
100
AcDbEntity
  8
0
  6
SLD-Solid
 62
   142
420
    32960
370
     0
100
AcDbLine
 10
838.4037408
 20
47.0149001472
 30
0.0
 11
838.4037408
 21
44.5649001472
 31
0.0
  0
LINE
  5
1AD
330
1F
100
AcDbEntity
  8
0
  6
SLD-Solid
 62
     7
370
    15
100
AcDbLine
 10
838.4037408
 20
44.5649001472
 30
0.0
 11
840.8537408
 21
44.5649001472
 31
0.0
  0
LINE
  5
1AE
330
1F
100
AcDbEntity
  8
0
  6
SLD-Solid
 62
     7
370
    15
100
AcDbLine
 10
840.8537408
 20
-46.7519083513
 30
0.0
 11
840.8537408
 21
44.5649001472
 31
0.0
  0
LINE
  5
1AF
330
1F
100
AcDbEntity
  8
0
  6
SLD-Solid
 62
   142
420
    32960
370
     0
100
AcDbLine
 10
840.8537408
 20
-46.7519083513
 30
0.0
 11
838.4037408
 21
-46.7519083513
 31
0.0
  0
LINE
  5
1B0
330
1F
100
AcDbEntity
  8
0
  6
SLD-Solid
 62
     7
370
    15
100
AcDbLine
 10
-59.1462592
 20
44.5649001472
 30
0.0
 11
-59.1462592
 21
-46.7519083513
 31
0.0
  0
LINE
  5
1B1
330
1F
100
AcDbEntity
  8
0
  6
SLD-Solid
 62
   142
420
    32960
370
     0
100
AcDbLine
 10
-59.1462592
 20
44.5649001472
 30
0.0
 11
-56.6962592
 21
44.5649001472
 31
0.0
  0
LINE
  5
1B2
330
1F
100
AcDbEntity
  8
0
  6
SLD-Solid
 62
   142
420
    32960
370
     0
100
AcDbLine
 10
-56.6962592
 20
-46.7519083513
 30
0.0
 11
-59.1462592
 21
-46.7519083513
 31
0.0
  0
LINE
  5
1B3
330
1F
100
AcDbEntity
  8
0
  6
SLD-Solid
 62
     7
370
    15
100
AcDbLine
 10
839.6537408
 20
-70.0519083513
 30
0.0
 11
839.6537408
 21
-47.2519083513
 31
0.0
  0
LINE
  5
1B4
330
1F
100
AcDbEntity
  8
0
  6
SLD-Solid
 62
     7
370
    15
100
AcDbLine
 10
-57.9462592
 20
-70.0519083513
 30
0.0
 11
-57.9462592
 21
-47.2519083513
 31
0.0
  0
LINE
  5
1B5
330
1F
100
AcDbEntity
  8
0
  6
SLD-Solid
 62
   142
420
    32960
370
     0
100
AcDbLine
 10
838.4037408
 20
-47.2519083513
 30
0.0
 11
839.6537408
 21
-47.2519083513
 31
0.0
  0
LINE
  5
1B6
330
1F
100
AcDbEntity
  8
0
  6
SLD-Solid
 62
   142
420
    32960
370
     0
100
AcDbLine
 10
838.4037408
 20
-46.7519083513
 30
0.0
 11
838.4037408
 21
-47.2519083513
 31
0.0
  0
LINE
  5
1B7
330
1F
100
AcDbEntity
  8
0
  6
SLD-Solid
 62
   142
420
    32960
370
     0
100
AcDbLine
 10
-56.6962592
 20
-47.2519083513
 30
0.0
 11
-56.6962592
 21
-46.7519083513
 31
0.0
  0
LINE
  5
1B8
330
1F
100
AcDbEntity
  8
0
  6
SLD-Solid
 62
   142
420
    32960
370
     0
100
AcDbLine
 10
-57.9462592
 20
-47.2519083513
 30
0.0
 11
-56.6962592
 21
-47.2519083513
 31
0.0
  0
LINE
  5
1B9
330
1F
100
AcDbEntity
  8
0
  6
SLD-Solid
 62
     7
370
    15
100
AcDbLine
 10
-59.1462592
 20
48.2649001472
 30
0.0
 11
-59.1462592
 21
70.0649001472
 31
0.0
  0
LINE
  5
1BA
330
1F
100
AcDbEntity
  8
0
  6
SLD-Solid
 62
     7
370
    15
100
AcDbLine
 10
-59.1462592
 20
45.8049001472
 30
0.0
 11
-59.1462592
 21
48.2649001472
 31
0.0
  0
LINE
  5
1BB
330
1F
100
AcDbEntity
  8
0
  6
SLD-Solid
 62
     7
370
    15
100
AcDbLine
 10
-59.1462592
 20
-68.7519083513
 30
0.0
 11
-59.1462592
 21
-47.2519083513
 31
0.0
  0
LINE
  5
1BC
330
1F
100
AcDbEntity
  8
0
  6
SLD-Solid
 62
   142
420
    32960
370
     0
100
AcDbLine
 10
-59.1462592
 20
-47.2519083513
 30
0.0
 11
-59.1462592
 21
-46.7519083513
 31
0.0
  0
LINE
  5
1BD
330
1F
100
AcDbEntity
  8
0
  6
SLD-Solid
 62
   142
420
    32960
370
     0
100
AcDbLine
 10
-59.1462592
 20
44.5649001472
 30
0.0
 11
-59.1462592
 21
45.8049001472
 31
0.0
  0
LINE
  5
1BE
330
1F
100
AcDbEntity
  8
0
  6
SLD-Solid
 62
   142
420
    32960
370
     0
100
AcDbLine
 10
-59.1462592
 20
70.0649001472
 30
0.0
 11
-59.1462592
 21
71.3049001472
 31
0.0
  0
LINE
  5
1BF
330
1F
100
AcDbEntity
  8
0
  6
SLD-Solid
 62
     7
370
    15
100
AcDbLine
 10
-57.9462592
 20
45.8049001472
 30
0.0
 11
-57.9462592
 21
47.0149001472
 31
0.0
  0
LINE
  5
1C0
330
1F
100
AcDbEntity
  8
0
  6
SLD-Solid
 62
   142
420
    32960
370
     0
100
AcDbLine
 10
-57.9462592
 20
44.5649001472
 30
0.0
 11
-57.9462592
 21
45.8049001472
 31
0.0
  0
LINE
  5
1C1
330
1F
100
AcDbEntity
  8
0
  6
SLD-Solid
 62
   142
420
    32960
370
     0
100
AcDbLine
 10
-57.9462592
 20
-47.2519083513
 30
0.0
 11
-57.9462592
 21
-46.7519083513
 31
0.0
  0
LINE
  5
1C2
330
1F
100
AcDbEntity
  8
0
  6
SLD-Solid
 62
     7
370
    15
100
AcDbLine
 10
840.8537408
 20
-68.7519083513
 30
0.0
 11
840.8537408
 21
-47.2519083513
 31
0.0
  0
LINE
  5
1C3
330
1F
100
AcDbEntity
  8
0
  6
SLD-Solid
 62
   142
420
    32960
370
     0
100
AcDbLine
 10
840.8537408
 20
-47.2519083513
 30
0.0
 11
839.6537408
 21
-47.2519083513
 31
0.0
  0
LINE
  5
1C4
330
1F
100
AcDbEntity
  8
0
  6
SLD-Solid
 62
     7
370
    15
100
AcDbLine
 10
840.8537408
 20
45.8049001472
 30
0.0
 11
840.8537408
 21
48.2649001472
 31
0.0
  0
LINE
  5
1C5
330
1F
100
AcDbEntity
  8
0
  6
SLD-Solid
 62
     7
370
    15
100
AcDbLine
 10
840.8537408
 20
48.2649001472
 30
0.0
 11
840.8537408
 21
70.0649001472
 31
0.0
  0
LINE
  5
1C6
330
1F
100
AcDbEntity
  8
0
  6
SLD-Solid
 62
   142
420
    32960
370
     0
100
AcDbLine
 10
840.8537408
 20
70.0649001472
 30
0.0
 11
840.8537408
 21
71.3049001472
 31
0.0
  0
LINE
  5
1C7
330
1F
100
AcDbEntity
  8
0
  6
SLD-Solid
 62
   142
420
    32960
370
     0
100
AcDbLine
 10
840.8537408
 20
44.5649001472
 30
0.0
 11
840.8537408
 21
45.8049001472
 31
0.0
  0
LINE
  5
1C8
330
1F
100
AcDbEntity
  8
0
  6
SLD-Solid
 62
   142
420
    32960
370
     0
100
AcDbLine
 10
840.8537408
 20
-47.2519083513
 30
0.0
 11
840.8537408
 21
-46.7519083513
 31
0.0
  0
LINE
  5
1C9
330
1F
100
AcDbEntity
  8
0
  6
SLD-Solid
 62
     7
370
    15
100
AcDbLine
 10
839.6537408
 20
45.8049001472
 30
0.0
 11
839.6537408
 21
47.0149001472
 31
0.0
  0
LINE
  5
1CA
330
1F
100
AcDbEntity
  8
0
  6
SLD-Solid
 62
   142
420
    32960
370
     0
100
AcDbLine
 10
839.6537408
 20
-47.2519083513
 30
0.0
 11
839.6537408
 21
-46.7519083513
 31
0.0
  0
LINE
  5
1CB
330
1F
100
AcDbEntity
  8
0
  6
SLD-Solid
 62
   142
420
    32960
370
     0
100
AcDbLine
 10
839.6537408
 20
44.5649001472
 30
0.0
 11
839.6537408
 21
45.8049001472
 31
0.0
  0
LINE
  5
1CC
330
1F
100
AcDbEntity
  8
0
  6
SLD-Solid
 62
   142
420
    32960
370
     0
100
AcDbLine
 10
-59.1462592
 20
-47.2519083513
 30
0.0
 11
-57.9462592
 21
-47.2519083513
 31
0.0
  0
LINE
  5
1CD
330
1F
100
AcDbEntity
  8
0
  6
SLD-Solid
 62
   142
420
    32960
370
     0
100
AcDbLine
 10
-56.6962592
 20
47.0149001472
 30
0.0
 11
-57.9462592
 21
47.0149001472
 31
0.0
  0
LINE
  5
1CE
330
1F
100
AcDbEntity
  8
0
  6
SLD-Solid
 62
   142
420
    32960
370
     0
100
AcDbLine
 10
839.6537408
 20
47.0149001472
 30
0.0
 11
838.4037408
 21
47.0149001472
 31
0.0
  0
LINE
  5
1CF
330
1F
100
AcDbEntity
  8
0
  6
SLD-Solid
 62
   142
420
    32960
370
     0
100
AcDbLine
 10
840.8537408
 20
45.8049001472
 30
0.0
 11
839.6537408
 21
45.8049001472
 31
0.0
  0
LINE
  5
1D0
330
1F
100
AcDbEntity
  8
0
  6
SLD-Solid
 62
   142
420
    32960
370
     0
100
AcDbLine
 10
-59.1462592
 20
45.8049001472
 30
0.0
 11
-57.9462592
 21
45.8049001472
 31
0.0
  0
LINE
  5
1D1
330
1F
100
AcDbEntity
  8
0
  6
SLD-Solid
 62
   142
420
    32960
370
     0
100
AcDbLine
 10
-57.9462592
 20
47.0149001472
 30
0.0
 11
-57.9462592
 21
48.2649001472
 31
0.0
  0
LINE
  5
1D2
330
1F
100
AcDbEntity
  8
0
  6
SLD-Solid
 62
   142
420
    32960
370
     0
100
AcDbLine
 10
839.6537408
 20
47.0149001472
 30
0.0
 11
839.6537408
 21
48.2649001472
 31
0.0
  0
LINE
  5
1D3
330
1F
100
AcDbEntity
  8
0
  6
SLD-Solid
 62
     7
370
    15
100
AcDbLine
 10
-57.9462592
 20
48.2649001472
 30
0.0
 11
-57.9462592
 21
70.0649001472
 31
0.0
  0
LINE
  5
1D4
330
1F
100
AcDbEntity
  8
0
  6
SLD-Solid
 62
     7
370
    15
100
AcDbLine
 10
839.6537408
 20
48.2649001472
 30
0.0
 11
839.6537408
 21
70.0649001472
 31
0.0
  0
LWPOLYLINE
  5
1D5
330
1F
100
AcDbEntity
  8
0
  6
SLD-Solid
 62
   142
420
    32960
370
     0
100
AcDbPolyline
 90
        3
 70
   128
 43
0.0
 10
755.8537408
 20
54.5149001472
 10
757.3527439598
 20
54.6901084884
 10
758.0537408
 20
54.8985286739
  0
LWPOLYLINE
  5
1D6
330
1F
100
AcDbEntity
  8
0
  6
SLD-Solid
 62
   142
420
    32960
370
     0
100
AcDbPolyline
 90
        3
 70
   128
 43
0.0
 10
758.0537408
 20
67.1312716206
 10
756.6083447418
 20
67.4709494725
 10
755.8037408
 20
67.5147078367
  0
ARC
  5
1D7
330
1F
100
AcDbEntity
  8
0
  6
SLD-Solid
 62
   142
420
    32960
370
     0
100
AcDbCircle
 10
25.8537408
 20
61.0149001472
 30
0.0
 40
6.499999999999909
100
AcDbArc
 50
89.5592588879
 51
143.1301023549
  0
ARC
  5
1D8
330
1F
100
AcDbEntity
  8
0
  6
SLD-Solid
 62
   142
420
    32960
370
     0
100
AcDbCircle
 10
25.8537408
 20
61.0149001472
 30
0.0
 40
6.499999999999908
100
AcDbArc
 50
216.8698976451
 51
270.0
  0
ARC
  5
1D9
330
1F
100
AcDbEntity
  8
0
  6
SLD-Solid
 62
   142
420
    32960
370
     0
100
AcDbCircle
 10
801.8537408
 20
63.0149001472
 30
0.0
 40
4.79999999999999
100
AcDbArc
 50
155.0283915394
 51
204.9716084607
  0
ARC
  5
1DA
330
1F
100
AcDbEntity
  8
0
  6
SLD-Solid
 62
   142
420
    32960
370
     0
100
AcDbCircle
 10
-20.1462592
 20
63.0149001472
 30
0.0
 40
4.79999999999994
100
AcDbArc
 50
137.4011868068
 51
222.5988131764
  0
LINE
  5
1DB
330
1F
100
AcDbEntity
  8
0
  6
SLD-Solid
 62
     7
370
    15
100
AcDbLine
 10
839.6537408
 20
72.5149001472
 30
0.0
 11
836.0537408
 21
72.5149001472
 31
0.0
  0
LINE
  5
1DC
330
1F
100
AcDbEntity
  8
0
  6
SLD-Solid
 62
     7
370
    15
100
AcDbLine
 10
758.0537408
 20
72.5149001472
 30
0.0
 11
755.8037408
 21
72.5149001472
 31
0.0
  0
LINE
  5
1DD
330
1F
100
AcDbEntity
  8
0
  6
SLD-Solid
 62
     7
370
    15
100
AcDbLine
 10
515.9037408
 20
72.5149001472
 30
0.0
 11
510.8037408
 21
72.5149001472
 31
0.0
  0
LINE
  5
1DE
330
1F
100
AcDbEntity
  8
0
  6
SLD-Solid
 62
     7
370
    15
100
AcDbLine
 10
270.9037408
 20
72.5149001472
 30
0.0
 11
265.8037408
 21
72.5149001472
 31
0.0
  0
LINE
  5
1DF
330
1F
100
AcDbEntity
  8
0
  6
SLD-Solid
 62
     7
370
    15
100
AcDbLine
 10
25.9037408
 20
72.5149001472
 30
0.0
 11
20.6537407999
 21
72.5149001472
 31
0.0
  0
LINE
  5
1E0
330
1F
100
AcDbEntity
  8
0
  6
SLD-Solid
 62
     7
370
    15
100
AcDbLine
 10
-57.3462592001
 20
72.5149001472
 30
0.0
 11
-57.9462592
 21
72.5149001472
 31
0.0
  0
LINE
  5
1E1
330
1F
100
AcDbEntity
  8
0
  6
SLD-Solid
 62
   142
420
    32960
370
     0
100
AcDbLine
 10
-57.9462592
 20
70.0649001472
 30
0.0
 11
-57.9462592
 21
72.5149001472
 31
0.0
  0
LINE
  5
1E2
330
1F
100
AcDbEntity
  8
0
  6
SLD-Solid
 62
   142
420
    32960
370
     0
100
AcDbLine
 10
839.6537408
 20
70.0649001472
 30
0.0
 11
839.6537408
 21
72.5149001472
 31
0.0
  0
LINE
  5
1E3
330
1F
100
AcDbEntity
  8
0
  6
SLD-Solid
 62
   142
420
    32960
370
     0
100
AcDbLine
 10
-59.1462592
 20
70.0649001472
 30
0.0
 11
-57.9462592
 21
70.0649001472
 31
0.0
  0
LINE
  5
1E4
330
1F
100
AcDbEntity
  8
0
  6
SLD-Solid
 62
   142
420
    32960
370
     0
100
AcDbLine
 10
840.8537408
 20
70.0649001472
 30
0.0
 11
839.6537408
 21
70.0649001472
 31
0.0
  0
LINE
  5
1E5
330
1F
100
AcDbEntity
  8
0
  6
SLD-Solid
 62
   142
420
    32960
370
     0
100
AcDbLine
 10
840.8537408
 20
71.3049001472
 30
0.0
 11
839.6537408
 21
71.3049001472
 31
0.0
  0
LINE
  5
1E6
330
1F
100
AcDbEntity
  8
0
  6
SLD-Solid
 62
   142
420
    32960
370
     0
100
AcDbLine
 10
-57.9462592
 20
71.3049001472
 30
0.0
 11
-59.1462592
 21
71.3049001472
 31
0.0
  0
LINE
  5
1E7
330
1F
100
AcDbEntity
  8
0
  6
SLD-Solid
 62
   142
420
    32960
370
     0
100
AcDbLine
 10
342.8537408
 20
-71.959387839
 30
0.0
 11
342.8537408
 21
-70.0519083513
 31
0.0
  0
ARC
  5
1E8
330
1F
100
AcDbEntity
  8
0
  6
SLD-Solid
 62
   142
420
    32960
370
     0
100
AcDbCircle
 10
343.3696503313
 20
-69.2910434925
 30
0.0
 40
6.54727639912026
100
AcDbArc
 50
186.6734726145
 51
346.7184194388
  0
LINE
  5
1E9
330
1F
100
AcDbEntity
  8
0
  6
SLD-Solid
 62
   142
420
    32960
370
     0
100
AcDbLine
 10
349.7418052806
 20
-70.7951942657
 30
0.0
 11
345.0736527163
 21
-73.1970487513
 31
0.0
  0
ARC
  5
1EA
330
1F
100
AcDbEntity
  8
0
  6
SLD-Solid
 62
   142
420
    32960
370
     0
100
AcDbCircle
 10
344.3505644608
 20
-71.8843188477
 30
0.0
 40
1.498704915935648
100
AcDbArc
 50
182.8711035151
 51
298.8471995542
  0
ARC
  5
1EB
330
1F
100
AcDbEntity
  8
0
  6
SLD-Solid
 62
   142
420
    32960
370
     0
100
AcDbCircle
 10
141.9114641907
 20
-71.9214699704
 30
0.0
 40
1.943246067351005
100
AcDbArc
 50
268.2978000298
 51
358.190090174
  0
LINE
  5
1EC
330
1F
100
AcDbEntity
  8
0
  6
SLD-Solid
 62
   142
420
    32960
370
     0
100
AcDbLine
 10
139.8537407971
 20
-73.8638585227
 30
0.0
 11
141.8537407971
 21
-73.8638585227
 31
0.0
  0
ARC
  5
1ED
330
1F
100
AcDbEntity
  8
0
  6
SLD-Solid
 62
   142
420
    32960
370
     0
100
AcDbCircle
 10
139.7960174036
 20
-71.9214699704
 30
0.0
 40
1.943246067350948
100
AcDbArc
 50
181.809909826
 51
271.7021999702
  0
LINE
  5
1EE
330
1F
100
AcDbEntity
  8
0
  6
SLD-Solid
 62
     7
370
    15
100
AcDbLine
 10
840.8537408
 20
-81.0456883591
 30
0.0
 11
840.8537408
 21
-68.7519083513
 31
0.0
  0
LINE
  5
1EF
330
1F
100
AcDbEntity
  8
0
  6
SLD-Solid
 62
   142
420
    32960
370
     0
100
AcDbLine
 10
158.8537408007
 20
-74.8383428754
 30
0.0
 11
158.8537408007
 21
-70.0519083513
 31
0.0
  0
ARC
  5
1F0
330
1F
100
AcDbEntity
  8
0
  6
SLD-Solid
 62
   142
420
    32960
370
     0
100
AcDbCircle
 10
156.9114641942
 20
-74.776968106
 30
0.0
 40
1.943246067350713
100
AcDbArc
 50
268.2978000298
 51
358.190090174
  0
LINE
  5
1F1
330
1F
100
AcDbEntity
  8
0
  6
SLD-Solid
 62
   142
420
    32960
370
     0
100
AcDbLine
 10
156.8537408007
 20
-76.7193566583
 30
0.0
 11
136.8537408007
 21
-76.7193566583
 31
0.0
  0
ARC
  5
1F2
330
1F
100
AcDbEntity
  8
0
  6
SLD-Solid
 62
   142
420
    32960
370
     0
100
AcDbCircle
 10
136.7960174071
 20
-74.776968106
 30
0.0
 40
1.943246067350949
100
AcDbArc
 50
181.809909826
 51
271.7021999702
  0
LINE
  5
1F3
330
1F
100
AcDbEntity
  8
0
  6
SLD-Solid
 62
   142
420
    32960
370
     0
100
AcDbLine
 10
134.8537408007
 20
-70.0519083513
 30
0.0
 11
134.8537408007
 21
-74.8383428754
 31
0.0
  0
ARC
  5
1F4
330
1F
100
AcDbEntity
  8
0
  6
SLD-Solid
 62
   142
420
    32960
370
     0
100
AcDbCircle
 10
343.5849102822
 20
-69.4396767225
 30
0.0
 40
7.283349452559111
100
AcDbArc
 50
268.1811581879
 51
355.1780797196
  0
ARC
  5
1F5
330
1F
100
AcDbEntity
  8
0
  6
SLD-Solid
 62
   142
420
    32960
370
     0
100
AcDbCircle
 10
343.182873627
 20
-69.3719464027
 30
0.0
 40
7.349396778288395
100
AcDbArc
 50
185.3085643173
 51
271.3321977752
  0
LINE
  5
1F6
330
1F
100
AcDbEntity
  8
0
  6
SLD-Solid
 62
   142
420
    32960
370
     0
100
AcDbLine
 10
741.8537408
 20
-74.8383428754
 30
0.0
 11
741.8537408
 21
-70.0519083513
 31
0.0
  0
ARC
  5
1F7
330
1F
100
AcDbEntity
  8
0
  6
SLD-Solid
 62
   142
420
    32960
370
     0
100
AcDbCircle
 10
739.9114641935
 20
-74.776968106
 30
0.0
 40
1.94324606735089
100
AcDbArc
 50
268.2978000298
 51
358.190090174
  0
LINE
  5
1F8
330
1F
100
AcDbEntity
  8
0
  6
SLD-Solid
 62
   142
420
    32960
370
     0
100
AcDbLine
 10
739.8537408
 20
-76.7193566583
 30
0.0
 11
719.8537408
 21
-76.7193566583
 31
0.0
  0
ARC
  5
1F9
330
1F
100
AcDbEntity
  8
0
  6
SLD-Solid
 62
   142
420
    32960
370
     0
100
AcDbCircle
 10
719.7960174064
 20
-74.776968106
 30
0.0
 40
1.943246067351005
100
AcDbArc
 50
181.809909826
 51
271.7021999702
  0
LINE
  5
1FA
330
1F
100
AcDbEntity
  8
0
  6
SLD-Solid
 62
   142
420
    32960
370
     0
100
AcDbLine
 10
717.8537408
 20
-70.0519083513
 30
0.0
 11
717.8537408
 21
-74.8383428754
 31
0.0
  0
LINE
  5
1FB
330
1F
100
AcDbEntity
  8
0
  6
SLD-Solid
 62
   142
420
    32960
370
     0
100
AcDbLine
 10
450.3537408
 20
-74.8383428754
 30
0.0
 11
450.3537408
 21
-70.0519083513
 31
0.0
  0
ARC
  5
1FC
330
1F
100
AcDbEntity
  8
0
  6
SLD-Solid
 62
   142
420
    32960
370
     0
100
AcDbCircle
 10
448.4114641935
 20
-74.776968106
 30
0.0
 40
1.943246067350708
100
AcDbArc
 50
268.2978000298
 51
358.190090174
  0
LINE
  5
1FD
330
1F
100
AcDbEntity
  8
0
  6
SLD-Solid
 62
   142
420
    32960
370
     0
100
AcDbLine
 10
448.3537408
 20
-76.7193566583
 30
0.0
 11
428.3537408
 21
-76.7193566583
 31
0.0
  0
ARC
  5
1FE
330
1F
100
AcDbEntity
  8
0
  6
SLD-Solid
 62
   142
420
    32960
370
     0
100
AcDbCircle
 10
428.2960174064
 20
-74.776968106
 30
0.0
 40
1.943246067350957
100
AcDbArc
 50
181.809909826
 51
271.7021999702
  0
LINE
  5
1FF
330
1F
100
AcDbEntity
  8
0
  6
SLD-Solid
 62
   142
420
    32960
370
     0
100
AcDbLine
 10
426.3537408
 20
-70.0519083513
 30
0.0
 11
426.3537408
 21
-74.8383428754
 31
0.0
  0
LINE
  5
200
330
1F
100
AcDbEntity
  8
0
  6
SLD-Solid
 62
   142
420
    32960
370
     0
100
AcDbLine
 10
-59.1462592
 20
-81.0456883591
 30
0.0
 11
-59.1462592
 21
-68.7519083513
 31
0.0
  0
LINE
  5
201
330
1F
100
AcDbEntity
  8
0
  6
SLD-Solid
 62
     7
370
    15
100
AcDbLine
 10
840.8537408
 20
-88.1761225472
 30
0.0
 11
840.8537408
 21
-81.0456883591
 31
0.0
  0
LINE
  5
202
330
1F
100
AcDbEntity
  8
0
  6
SLD-Solid
 62
     7
370
    15
100
AcDbLine
 10
-59.1462592
 20
-88.1761225472
 30
0.0
 11
-59.1462592
 21
-81.0456883591
 31
0.0
  0
LINE
  5
203
330
1F
100
AcDbEntity
  8
0
  6
SLD-Solid
 62
     7
370
    15
100
AcDbLine
 10
25.9037408
 20
51.0649001472
 30
0.0
 11
265.8037408
 21
51.0649001472
 31
0.0
  0
LINE
  5
204
330
1F
100
AcDbEntity
  8
0
  6
SLD-Solid
 62
     7
370
    15
100
AcDbLine
 10
25.9037408
 20
612.9649001472
 30
0.0
 11
25.9037408
 21
51.0649001472
 31
0.0
  0
LINE
  5
205
330
1F
100
AcDbEntity
  8
0
  6
SLD-Solid
 62
     7
370
    15
100
AcDbLine
 10
265.8037408
 20
612.9649001472
 30
0.0
 11
25.9037408
 21
612.9649001472
 31
0.0
  0
LINE
  5
206
330
1F
100
AcDbEntity
  8
0
  6
SLD-Solid
 62
     7
370
    15
100
AcDbLine
 10
265.8037408
 20
51.0649001472
 30
0.0
 11
265.8037408
 21
612.9649001472
 31
0.0
  0
LINE
  5
207
330
1F
100
AcDbEntity
  8
0
  6
SLD-Solid
 62
   142
420
    32960
370
     0
100
AcDbLine
 10
737.8537408
 20
-70.0519083513
 30
0.0
 11
737.8537408
 21
-72.016822201
 31
0.0
  0
ARC
  5
208
330
1F
100
AcDbEntity
  8
0
  6
SLD-Solid
 62
   142
420
    32960
370
     0
100
AcDbCircle
 10
736.8826024968
 20
-71.9861348163
 30
0.0
 40
0.9716230336757032
100
AcDbArc
 50
268.2978000298
 51
358.190090174
  0
LINE
  5
209
330
1F
100
AcDbEntity
  8
0
  6
SLD-Solid
 62
   142
420
    32960
370
     0
100
AcDbLine
 10
734.8537408
 20
-72.9573290925
 30
0.0
 11
736.8537408
 21
-72.9573290925
 31
0.0
  0
ARC
  5
20A
330
1F
100
AcDbEntity
  8
0
  6
SLD-Solid
 62
   142
420
    32960
370
     0
100
AcDbCircle
 10
734.8248791032
 20
-71.9861348163
 30
0.0
 40
0.971623033675326
100
AcDbArc
 50
181.809909826
 51
271.7021999702
  0
LINE
  5
20B
330
1F
100
AcDbEntity
  8
0
  6
SLD-Solid
 62
   142
420
    32960
370
     0
100
AcDbLine
 10
733.8537408
 20
-70.0519083513
 30
0.0
 11
733.8537408
 21
-72.016822201
 31
0.0
  0
LINE
  5
20C
330
1F
100
AcDbEntity
  8
0
  6
SLD-Solid
 62
   142
420
    32960
370
     0
100
AcDbLine
 10
427.3537408
 20
-70.0519083513
 30
0.0
 11
427.3537408
 21
-74.8383428754
 31
0.0
  0
ARC
  5
20D
330
1F
100
AcDbEntity
  8
0
  6
SLD-Solid
 62
   142
420
    32960
370
     0
100
AcDbCircle
 10
428.3248791032
 20
-74.8076554907
 30
0.0
 40
0.9716230336755345
100
AcDbArc
 50
181.809909826
 51
271.7021999702
  0
LINE
  5
20E
330
1F
100
AcDbEntity
  8
0
  6
SLD-Solid
 62
   142
420
    32960
370
     0
100
AcDbLine
 10
448.3537408
 20
-75.7788497669
 30
0.0
 11
428.3537408
 21
-75.7788497669
 31
0.0
  0
ARC
  5
20F
330
1F
100
AcDbEntity
  8
0
  6
SLD-Solid
 62
   142
420
    32960
370
     0
100
AcDbCircle
 10
448.3826024968
 20
-74.8076554907
 30
0.0
 40
0.9716230336754432
100
AcDbArc
 50
268.2978000298
 51
358.190090174
  0
LINE
  5
210
330
1F
100
AcDbEntity
  8
0
  6
SLD-Solid
 62
   142
420
    32960
370
     0
100
AcDbLine
 10
449.3537408
 20
-74.8383428754
 30
0.0
 11
449.3537408
 21
-70.0519083513
 31
0.0
  0
LINE
  5
211
330
1F
100
AcDbEntity
  8
0
  6
SLD-Solid
 62
   142
420
    32960
370
     0
100
AcDbLine
 10
441.3537408
 20
-70.0519083513
 30
0.0
 11
441.3537408
 21
-72.016822201
 31
0.0
  0
ARC
  5
212
330
1F
100
AcDbEntity
  8
0
  6
SLD-Solid
 62
   142
420
    32960
370
     0
100
AcDbCircle
 10
439.4114641935
 20
-71.9554474316
 30
0.0
 40
1.943246067350888
100
AcDbArc
 50
268.2978000298
 51
358.190090174
  0
LINE
  5
213
330
1F
100
AcDbEntity
  8
0
  6
SLD-Solid
 62
   142
420
    32960
370
     0
100
AcDbLine
 10
437.3537408
 20
-73.8978359839
 30
0.0
 11
439.3537408
 21
-73.8978359839
 31
0.0
  0
ARC
  5
214
330
1F
100
AcDbEntity
  8
0
  6
SLD-Solid
 62
   142
420
    32960
370
     0
100
AcDbCircle
 10
437.2960174064
 20
-71.9554474316
 30
0.0
 40
1.943246067351063
100
AcDbArc
 50
181.809909826
 51
271.7021999702
  0
LINE
  5
215
330
1F
100
AcDbEntity
  8
0
  6
SLD-Solid
 62
   142
420
    32960
370
     0
100
AcDbLine
 10
435.3537408
 20
-70.0519083513
 30
0.0
 11
435.3537408
 21
-72.016822201
 31
0.0
  0
ARC
  5
216
330
1F
100
AcDbEntity
  8
0
  6
SLD-Solid
 62
   142
420
    32960
370
     0
100
AcDbCircle
 10
437.2960174064
 20
-71.9214699704
 30
0.0
 40
1.943246067351005
100
AcDbArc
 50
181.809909826
 51
271.7021999702
  0
LINE
  5
217
330
1F
100
AcDbEntity
  8
0
  6
SLD-Solid
 62
   142
420
    32960
370
     0
100
AcDbLine
 10
437.3537408
 20
-73.8638585227
 30
0.0
 11
439.3537408
 21
-73.8638585227
 31
0.0
  0
ARC
  5
218
330
1F
100
AcDbEntity
  8
0
  6
SLD-Solid
 62
   142
420
    32960
370
     0
100
AcDbCircle
 10
439.4114641935
 20
-71.9214699704
 30
0.0
 40
1.94324606735083
100
AcDbArc
 50
268.2978000298
 51
358.190090174
  0
LINE
  5
219
330
1F
100
AcDbEntity
  8
0
  6
SLD-Solid
 62
     7
370
    15
100
AcDbLine
 10
575.8537408
 20
687.0149001472
 30
0.0
 11
552.3030515278
 21
687.0149001472
 31
0.0
  0
LINE
  5
21A
330
1F
100
AcDbEntity
  8
0
  6
SLD-Solid
 62
     7
370
    15
100
AcDbLine
 10
539.3196843095
 20
687.0149001472
 30
0.0
 11
490.8537408
 21
687.0149001472
 31
0.0
  0
LINE
  5
21B
330
1F
100
AcDbEntity
  8
0
  6
SLD-Solid
 62
     7
370
    15
100
AcDbLine
 10
490.8537408
 20
687.0149001472
 30
0.0
 11
490.8537408
 21
660.8444240196
 31
0.0
  0
LINE
  5
21C
330
1F
100
AcDbEntity
  8
0
  6
SLD-Solid
 62
     7
370
    15
100
AcDbLine
 10
438.3658900813
 20
688.0149001472
 30
0.0
 11
353.256845756
 21
688.0149001472
 31
0.0
  0
LINE
  5
21D
330
1F
100
AcDbEntity
  8
0
  6
SLD-Solid
 62
     7
370
    15
100
AcDbLine
 10
290.8537408
 20
687.0149001472
 30
0.0
 11
252.3030515278
 21
687.0149001472
 31
0.0
  0
LINE
  5
21E
330
1F
100
AcDbEntity
  8
0
  6
SLD-Solid
 62
     7
370
    15
100
AcDbLine
 10
239.3196843095
 20
687.0149001472
 30
0.0
 11
205.8537408
 21
687.0149001472
 31
0.0
  0
LINE
  5
21F
330
1F
100
AcDbEntity
  8
0
  6
SLD-Solid
 62
     7
370
    15
100
AcDbLine
 10
290.8537408
 20
660.8444240196
 30
0.0
 11
290.8537408
 21
687.0149001472
 31
0.0
  0
LINE
  5
220
330
1F
100
AcDbEntity
  8
0
  6
SLD-Solid
 62
   142
420
    32960
370
     0
100
AcDbLine
 10
205.8537408
 20
687.0149001472
 30
0.0
 11
205.8537408
 21
660.8444240196
 31
0.0
  0
LINE
  5
221
330
1F
100
AcDbEntity
  8
0
  6
SLD-Solid
 62
   142
420
    32960
370
     0
100
AcDbLine
 10
575.8537408
 20
660.8444240196
 30
0.0
 11
575.8537408
 21
687.0149001472
 31
0.0
  0
ARC
  5
222
330
1F
100
AcDbEntity
  8
0
  6
SLD-Solid
 62
   142
420
    32960
370
     0
100
AcDbCircle
 10
807.8537408
 20
671.0149001472
 30
0.0
 40
12.70000000000013
100
AcDbArc
 50
90.0
 51
233.2089460867
  0
ARC
  5
223
330
1F
100
AcDbEntity
  8
0
  6
SLD-Solid
 62
   142
420
    32960
370
     0
100
AcDbCircle
 10
807.8537408
 20
671.0149001472
 30
0.0
 40
12.70000000000005
100
AcDbArc
 50
306.7910539133
 51
90.0
  0
ARC
  5
224
330
1F
100
AcDbEntity
  8
0
  6
SLD-Solid
 62
   142
420
    32960
370
     0
100
AcDbCircle
 10
682.8776136757
 20
-79.7101022778
 30
0.0
 40
0.9764498166443968
100
AcDbArc
 50
1.4730549926
 51
91.4009438083
  0
ARC
  5
225
330
1F
100
AcDbEntity
  8
0
  6
SLD-Solid
 62
   142
420
    32960
370
     0
100
AcDbCircle
 10
681.8298679243
 20
-79.7101022778
 30
0.0
 40
0.9764498166445116
100
AcDbArc
 50
88.5990561917
 51
178.5269450074
  0
LWPOLYLINE
  5
226
330
1F
100
AcDbEntity
  8
0
  6
SLD-Solid
 62
   142
420
    32960
370
     0
100
AcDbPolyline
 90
        9
 70
   128
 43
0.0
 10
681.8537408
 20
-78.7339443345
 10
681.8918010337
 20
-78.7930721765
 10
682.0001874094
 20
-78.8431983406
 10
682.1623990838
 20
-78.8766915727
 10
682.3537408
 20
-78.8884528317
 10
682.5450825162
 20
-78.8766915727
 10
682.7072941906
 20
-78.8431983406
 10
682.8156805662
 20
-78.7930721765
 10
682.8537408
 20
-78.7339443345
  0
LINE
  5
227
330
1F
100
AcDbEntity
  8
0
  6
SLD-Solid
 62
   142
420
    32960
370
     0
100
AcDbLine
 10
440.3537408
 20
-70.0519083513
 30
0.0
 11
440.3537408
 21
-72.016822201
 31
0.0
  0
ARC
  5
228
330
1F
100
AcDbEntity
  8
0
  6
SLD-Solid
 62
   142
420
    32960
370
     0
100
AcDbCircle
 10
439.3826024968
 20
-71.9861348163
 30
0.0
 40
0.971623033675314
100
AcDbArc
 50
268.2978000298
 51
358.190090174
  0
LINE
  5
229
330
1F
100
AcDbEntity
  8
0
  6
SLD-Solid
 62
   142
420
    32960
370
     0
100
AcDbLine
 10
437.3537408
 20
-72.9573290925
 30
0.0
 11
439.3537408
 21
-72.9573290925
 31
0.0
  0
ARC
  5
22A
330
1F
100
AcDbEntity
  8
0
  6
SLD-Solid
 62
   142
420
    32960
370
     0
100
AcDbCircle
 10
437.3248791032
 20
-71.9861348163
 30
0.0
 40
0.9716230336754652
100
AcDbArc
 50
181.809909826
 51
271.7021999702
  0
LINE
  5
22B
330
1F
100
AcDbEntity
  8
0
  6
SLD-Solid
 62
   142
420
    32960
370
     0
100
AcDbLine
 10
436.3537408
 20
-70.0519083513
 30
0.0
 11
436.3537408
 21
-72.016822201
 31
0.0
  0
LINE
  5
22C
330
1F
100
AcDbEntity
  8
0
  6
SLD-Solid
 62
   142
420
    32960
370
     0
100
AcDbLine
 10
693.066891157
 20
-70.0519083513
 30
0.0
 11
692.9885440604
 21
-70.0965671546
 31
0.0
  0
LINE
  5
22D
330
1F
100
AcDbEntity
  8
0
  6
SLD-Solid
 62
   142
420
    32960
370
     0
100
AcDbLine
 10
671.7189375396
 20
-70.0965671546
 30
0.0
 11
671.640590443
 21
-70.0519083513
 31
0.0
  0
LINE
  5
22E
330
1F
100
AcDbEntity
  8
0
  6
SLD-Solid
 62
   142
420
    32960
370
     0
100
AcDbLine
 10
680.8537408
 20
-70.0519083513
 30
0.0
 11
680.8537408
 21
-80.1605291089
 31
0.0
  0
LINE
  5
22F
330
1F
100
AcDbEntity
  8
0
  6
SLD-Solid
 62
   142
420
    32960
370
     0
100
AcDbLine
 10
683.8537408
 20
-80.1605291089
 30
0.0
 11
683.8537408
 21
-70.0519083513
 31
0.0
  0
LWPOLYLINE
  5
230
330
1F
100
AcDbEntity
  8
0
  6
SLD-Solid
 62
   142
420
    32960
370
     0
100
AcDbPolyline
 90
        9
 70
   128
 43
0.0
 10
680.8537408
 20
-80.1605291089
 10
680.9679215012
 20
-80.337912635
 10
681.2930806282
 20
-80.4882911273
 10
681.7797156514
 20
-80.5887708234
 10
682.3537408
 20
-80.6240546005
 10
682.9277659485
 20
-80.5887708234
 10
683.4144009718
 20
-80.4882911273
 10
683.7395600988
 20
-80.337912635
 10
683.8537408
 20
-80.1605291089
  0
LINE
  5
231
330
1F
100
AcDbEntity
  8
0
  6
SLD-Solid
 62
     7
370
    15
100
AcDbLine
 10
692.0279048362
 20
-73.6597462784
 30
0.0
 11
692.0205553118
 21
-73.8649417451
 31
0.0
  0
ARC
  5
232
330
1F
100
AcDbEntity
  8
0
  6
SLD-Solid
 62
   142
420
    32960
370
     0
100
AcDbCircle
 10
693.0675569979
 20
-69.1580324654
 30
0.0
 40
0.9418547697057573
100
AcDbArc
 50
265.1877561978
 51
288.3667284168
  0
ARC
  5
233
330
1F
100
AcDbEntity
  8
0
  6
SLD-Solid
 62
   142
420
    32960
370
     0
100
AcDbCircle
 10
692.9016846423
 20
-78.6654658539
 30
0.0
 40
1.056025610322161
100
AcDbArc
 50
274.7179789945
 51
357.771185392
  0
ARC
  5
234
330
1F
100
AcDbEntity
  8
0
  6
SLD-Solid
 62
   142
420
    32960
370
     0
100
AcDbCircle
 10
671.639924602
 20
-69.1580324654
 30
0.0
 40
0.9418547697392075
100
AcDbArc
 50
251.6332715836
 51
274.8122438018
  0
ARC
  5
235
330
1F
100
AcDbEntity
  8
0
  6
SLD-Solid
 62
   142
420
    32960
370
     0
100
AcDbCircle
 10
671.8057969577
 20
-78.6654658539
 30
0.0
 40
1.056025610322455
100
AcDbArc
 50
182.228814608
 51
265.2820210055
  0
ARC
  5
236
330
1F
100
AcDbEntity
  8
0
  6
SLD-Solid
 62
   142
420
    32960
370
     0
100
AcDbCircle
 10
693.1283513108
 20
-79.4208029854
 30
0.0
 40
0.3283604410687764
100
AcDbArc
 50
244.8003520533
 51
329.0451376199
  0
ARC
  5
237
330
1F
100
AcDbEntity
  8
0
  6
SLD-Solid
 62
   142
420
    32960
370
     0
100
AcDbCircle
 10
671.5791302889
 20
-79.4208029392
 30
0.0
 40
0.3283604829820693
100
AcDbArc
 50
210.9548206412
 51
295.1996445636
  0
ARC
  5
238
330
1F
100
AcDbEntity
  8
0
  6
SLD-Solid
 62
   142
420
    32960
370
     0
100
AcDbCircle
 10
671.2164173598
 20
-78.8514350036
 30
0.0
 40
0.4878622020692103
100
AcDbArc
 50
162.7218951889
 51
232.1753281918
  0
ARC
  5
239
330
1F
100
AcDbEntity
  8
0
  6
SLD-Solid
 62
   142
420
    32960
370
     0
100
AcDbCircle
 10
693.4910642402
 20
-78.8514350036
 30
0.0
 40
0.4878622020640321
100
AcDbArc
 50
307.824671812
 51
17.2781048114
  0
LINE
  5
23A
330
1F
100
AcDbEntity
  8
0
  6
SLD-Solid
 62
     7
370
    15
100
AcDbLine
 10
755.8037408
 20
612.9649001472
 30
0.0
 11
515.9037408
 21
612.9649001472
 31
0.0
  0
LINE
  5
23B
330
1F
100
AcDbEntity
  8
0
  6
SLD-Solid
 62
     7
370
    15
100
AcDbLine
 10
515.9037408
 20
612.9649001472
 30
0.0
 11
515.9037408
 21
51.0649001472
 31
0.0
  0
LINE
  5
23C
330
1F
100
AcDbEntity
  8
0
  6
SLD-Solid
 62
     7
370
    15
100
AcDbLine
 10
515.9037408
 20
51.0649001472
 30
0.0
 11
755.8037408
 21
51.0649001472
 31
0.0
  0
LINE
  5
23D
330
1F
100
AcDbEntity
  8
0
  6
SLD-Solid
 62
     7
370
    15
100
AcDbLine
 10
755.8037408
 20
51.0649001472
 30
0.0
 11
755.8037408
 21
612.9649001472
 31
0.0
  0
LINE
  5
23E
330
1F
100
AcDbEntity
  8
0
  6
SLD-Solid
 62
     7
370
    15
100
AcDbLine
 10
-59.1462592
 20
71.3049001472
 30
0.0
 11
-59.1462592
 21
74.5149001472
 31
0.0
  0
LINE
  5
23F
330
1F
100
AcDbEntity
  8
0
  6
SLD-Solid
 62
     7
370
    15
100
AcDbLine
 10
-59.1462592
 20
589.5149001472
 30
0.0
 11
-59.1462592
 21
591.5149001472
 31
0.0
  0
LINE
  5
240
330
1F
100
AcDbEntity
  8
0
  6
SLD-Solid
 62
     7
370
    15
100
AcDbLine
 10
813.8037403625
 20
663.3149011737
 30
0.0
 11
802.1037403625
 21
663.3149011737
 31
0.0
  0
LINE
  5
241
330
1F
100
AcDbEntity
  8
0
  6
SLD-Solid
 62
     7
370
    15
100
AcDbLine
 10
818.7037403625
 20
665.4149011737
 30
0.0
 11
818.7037403625
 21
677.6154690237
 31
0.0
  0
LINE
  5
242
330
1F
100
AcDbEntity
  8
0
  6
SLD-Solid
 62
     7
370
    15
100
AcDbLine
 10
802.1037403625
 20
661.5149011737
 30
0.0
 11
813.8037403625
 21
661.5149011737
 31
0.0
  0
LINE
  5
243
330
1F
100
AcDbEntity
  8
0
  6
SLD-Solid
 62
     7
370
    15
100
AcDbLine
 10
809.4443300404
 20
683.6149011737
 30
0.0
 11
806.2631515596
 21
683.6149011737
 31
0.0
  0
LINE
  5
244
330
1F
100
AcDbEntity
  8
0
  6
SLD-Solid
 62
     7
370
    15
100
AcDbLine
 10
801.9037403625
 20
678.4149011737
 30
0.0
 11
797.5324044133
 21
678.4149011737
 31
0.0
  0
LINE
  5
245
330
1F
100
AcDbEntity
  8
0
  6
SLD-Solid
 62
     7
370
    15
100
AcDbLine
 10
816.6677877241
 20
661.8714556808
 30
0.0
 11
816.2037403625
 21
661.9149011737
 31
0.0
  0
LINE
  5
246
330
1F
100
AcDbEntity
  8
0
  6
SLD-Solid
 62
     7
370
    15
100
AcDbLine
 10
797.5037403625
 20
668.8149011737
 30
0.0
 11
801.9037403625
 21
668.8149011737
 31
0.0
  0
LWPOLYLINE
  5
247
330
1F
100
AcDbEntity
  8
0
  6
SLD-Solid
 62
     7
370
    15
100
AcDbPolyline
 90
        3
 70
   128
 43
0.0
 10
795.2605438125
 20
669.3713096244
 10
796.1514240897
 20
669.0093349004
 10
797.5037403625
 20
668.8149011737
  0
ARC
  5
248
330
1F
100
AcDbEntity
  8
0
  6
SLD-Solid
 62
   142
420
    32960
370
     0
100
AcDbCircle
 10
802.1037403625
 20
662.4149011737
 30
0.0
 40
0.8999999999999773
100
AcDbArc
 50
90.0
 51
270.0
  0
ARC
  5
249
330
1F
100
AcDbEntity
  8
0
  6
SLD-Solid
 62
   142
420
    32960
370
     0
100
AcDbCircle
 10
813.8037403625
 20
662.4149011737
 30
0.0
 40
0.8999999999999773
100
AcDbArc
 50
270.0
 51
90.0
  0
ARC
  5
24A
330
1F
100
AcDbEntity
  8
0
  6
SLD-Solid
 62
   142
420
    32960
370
     0
100
AcDbCircle
 10
801.9037403625
 20
673.6149011737
 30
0.0
 40
4.799999999999955
100
AcDbArc
 50
270.0
 51
90.0
  0
LINE
  5
24B
330
1F
100
AcDbEntity
  8
0
  6
SLD-Solid
 62
   142
420
    32960
370
     0
100
AcDbLine
 10
816.2037403625
 20
661.9149011737
 30
0.0
 11
816.2037403625
 21
662.9149011737
 31
0.0
  0
ARC
  5
24C
330
1F
100
AcDbEntity
  8
0
  6
SLD-Solid
 62
   142
420
    32960
370
     0
100
AcDbCircle
 10
816.2037403625
 20
665.4149011737
 30
0.0
 40
2.5
100
AcDbArc
 50
270.0
 51
0.0
  0
ARC
  5
24D
330
1F
100
AcDbEntity
  8
0
  6
SLD-Solid
 62
   142
420
    32960
370
     0
100
AcDbCircle
 10
156.9114641942
 20
-74.7429906448
 30
0.0
 40
1.943246067350777
100
AcDbArc
 50
268.2978000298
 51
358.190090174
  0
LINE
  5
24E
330
1F
100
AcDbEntity
  8
0
  6
SLD-Solid
 62
   142
420
    32960
370
     0
100
AcDbLine
 10
156.8537408007
 20
-76.6853791971
 30
0.0
 11
136.8537408007
 21
-76.6853791971
 31
0.0
  0
ARC
  5
24F
330
1F
100
AcDbEntity
  8
0
  6
SLD-Solid
 62
   142
420
    32960
370
     0
100
AcDbCircle
 10
136.7960174071
 20
-74.7429906448
 30
0.0
 40
1.943246067351035
100
AcDbArc
 50
181.809909826
 51
271.7021999702
  0
ARC
  5
250
330
1F
100
AcDbEntity
  8
0
  6
SLD-Solid
 62
   142
420
    32960
370
     0
100
AcDbCircle
 10
816.8537408
 20
737.2149001473
 30
0.0
 40
3.999999999999977
100
AcDbArc
 50
36.8698976458
 51
143.1301023542
  0
ARC
  5
251
330
1F
100
AcDbEntity
  8
0
  6
SLD-Solid
 62
   142
420
    32960
370
     0
100
AcDbCircle
 10
816.8537408
 20
737.2149001473
 30
0.0
 40
4.000000000000029
100
AcDbArc
 50
216.8793960858
 51
323.1206045978
  0
LINE
  5
252
330
1F
100
AcDbEntity
  8
0
  6
SLD-Solid
 62
     7
370
    15
100
AcDbLine
 10
270.9037408
 20
51.0649001472
 30
0.0
 11
510.8037408
 21
51.0649001472
 31
0.0
  0
LINE
  5
253
330
1F
100
AcDbEntity
  8
0
  6
SLD-Solid
 62
     7
370
    15
100
AcDbLine
 10
270.9037408
 20
612.9649001472
 30
0.0
 11
270.9037408
 21
51.0649001472
 31
0.0
  0
LINE
  5
254
330
1F
100
AcDbEntity
  8
0
  6
SLD-Solid
 62
     7
370
    15
100
AcDbLine
 10
510.8037408
 20
51.0649001472
 30
0.0
 11
510.8037408
 21
612.9649001472
 31
0.0
  0
LINE
  5
255
330
1F
100
AcDbEntity
  8
0
  6
SLD-Solid
 62
     7
370
    15
100
AcDbLine
 10
510.8037408
 20
612.9649001472
 30
0.0
 11
270.9037408
 21
612.9649001472
 31
0.0
  0
LINE
  5
256
330
1F
100
AcDbEntity
  8
0
  6
SLD-Solid
 62
     7
370
    15
100
AcDbLine
 10
-59.1462592
 20
584.5149001472
 30
0.0
 11
-59.1462592
 21
589.5149001472
 31
0.0
  0
LINE
  5
257
330
1F
100
AcDbEntity
  8
0
  6
SLD-Solid
 62
   142
420
    32960
370
     0
100
AcDbLine
 10
-59.1462592
 20
589.5149001472
 30
0.0
 11
-58.3462592
 21
589.5149001472
 31
0.0
  0
LINE
  5
258
330
1F
100
AcDbEntity
  8
0
  6
SLD-Solid
 62
   142
420
    32960
370
     0
100
AcDbLine
 10
-58.3462592
 20
584.5149001472
 30
0.0
 11
-58.3462592
 21
589.5149001472
 31
0.0
  0
LINE
  5
259
330
1F
100
AcDbEntity
  8
0
  6
SLD-Solid
 62
   142
420
    32960
370
     0
100
AcDbLine
 10
-59.1462592
 20
79.5149001472
 30
0.0
 11
-58.3462592
 21
79.5149001472
 31
0.0
  0
LINE
  5
25A
330
1F
100
AcDbEntity
  8
0
  6
SLD-Solid
 62
     7
370
    15
100
AcDbLine
 10
-59.1462592
 20
79.5149001472
 30
0.0
 11
-59.1462592
 21
584.5149001472
 31
0.0
  0
LINE
  5
25B
330
1F
100
AcDbEntity
  8
0
  6
SLD-Solid
 62
   142
420
    32960
370
     0
100
AcDbLine
 10
-58.3462592
 20
79.5149001472
 30
0.0
 11
-58.3462592
 21
584.5149001472
 31
0.0
  0
LINE
  5
25C
330
1F
100
AcDbEntity
  8
0
  6
SLD-Solid
 62
   142
420
    32960
370
     0
100
AcDbLine
 10
-59.1462592
 20
74.5149001472
 30
0.0
 11
-59.1462592
 21
79.5149001472
 31
0.0
  0
LINE
  5
25D
330
1F
100
AcDbEntity
  8
0
  6
SLD-Solid
 62
   142
420
    32960
370
     0
100
AcDbLine
 10
-59.1462592
 20
74.5149001472
 30
0.0
 11
-57.3462592001
 21
74.5149001472
 31
0.0
  0
LINE
  5
25E
330
1F
100
AcDbEntity
  8
0
  6
SLD-Solid
 62
   142
420
    32960
370
     0
100
AcDbLine
 10
-57.3462592002
 20
589.5149001472
 30
0.0
 11
-58.3462592
 21
589.5149001472
 31
0.0
  0
LINE
  5
25F
330
1F
100
AcDbEntity
  8
0
  6
SLD-Solid
 62
     7
370
    15
100
AcDbLine
 10
-57.3462592
 20
51.0149001471
 30
0.0
 11
20.6537408
 21
51.0149001471
 31
0.0
  0
LINE
  5
260
330
1F
100
AcDbEntity
  8
0
  6
SLD-Solid
 62
     7
370
    15
100
AcDbLine
 10
20.6537407998
 20
613.0149001471
 30
0.0
 11
-57.3462592002
 21
613.0149001471
 31
0.0
  0
CIRCLE
  5
261
330
1F
100
AcDbEntity
  8
0
  6
SLD-Solid
 62
     7
370
    15
100
AcDbCircle
 10
-21.3462592002
 20
601.0149001471
 30
0.0
 40
7.500000000000005
  0
CIRCLE
  5
262
330
1F
100
AcDbEntity
  8
0
  6
SLD-Solid
 62
     7
370
    15
100
AcDbCircle
 10
-21.3462592
 20
63.0149001471
 30
0.0
 40
7.500000000000007
  0
LINE
  5
263
330
1F
100
AcDbEntity
  8
0
  6
SLD-Solid
 62
     7
370
    15
100
AcDbLine
 10
-57.3462592002
 20
613.0149001471
 30
0.0
 11
-57.3462592
 21
51.0149001471
 31
0.0
  0
LINE
  5
264
330
1F
100
AcDbEntity
  8
0
  6
SLD-Solid
 62
     7
370
    15
100
AcDbLine
 10
20.6537408
 20
51.0149001471
 30
0.0
 11
20.6537407998
 21
613.0149001471
 31
0.0
  0
CIRCLE
  5
265
330
1F
100
AcDbEntity
  8
0
  6
SLD-Solid
 62
     7
370
    15
100
AcDbCircle
 10
-21.3462592
 20
63.0149001471
 30
0.0
 40
4.000000000000004
  0
CIRCLE
  5
266
330
1F
100
AcDbEntity
  8
0
  6
SLD-Solid
 62
     7
370
    15
100
AcDbCircle
 10
-21.3462592002
 20
601.0149001471
 30
0.0
 40
4.000000000000004
  0
ENDSEC
  0
SECTION
  2
OBJECTS
  0
DICTIONARY
  5
C
330
0
100
AcDbDictionary
281
     1
  3
ACAD_GROUP
350
D
  3
ACAD_LAYOUT
350
1A
  3
ACAD_MATERIAL
350
3B
  3
ACAD_MLEADERSTYLE
350
268
  3
ACAD_MLINESTYLE
350
17
  3
ACAD_PLOTSETTINGS
350
19
  3
ACAD_PLOTSTYLENAME
350
E
  3
ACAD_TABLESTYLE
350
267
  3
ACAD_VISUALSTYLE
350
2A
  0
DICTIONARY
  5
D
102
{ACAD_REACTORS
330
C
102
}
330
C
100
AcDbDictionary
281
     1
  0
DICTIONARY
  5
1A
102
{ACAD_REACTORS
330
C
102
}
330
C
100
AcDbDictionary
281
     1
  3
Layout1
350
1E
  3
Layout2
350
26
  3
Model
350
22
  0
DICTIONARY
  5
3B
102
{ACAD_REACTORS
330
C
102
}
330
C
100
AcDbDictionary
281
     1
  3
ByBlock
350
3D
  3
ByLayer
350
3C
  3
Global
350
3E
  0
DICTIONARY
  5
268
102
{ACAD_REACTORS
330
C
102
}
330
C
100
AcDbDictionary
281
     1
  0
DICTIONARY
  5
17
102
{ACAD_REACTORS
330
C
102
}
330
C
100
AcDbDictionary
281
     1
  3
Standard
350
18
  0
DICTIONARY
  5
19
102
{ACAD_REACTORS
330
C
102
}
330
C
100
AcDbDictionary
281
     1
  0
ACDBDICTIONARYWDFLT
  5
E
102
{ACAD_REACTORS
330
C
102
}
330
C
100
AcDbDictionary
281
     1
  3
Normal
350
F
100
AcDbDictionaryWithDefault
340
F
  0
DICTIONARY
  5
267
102
{ACAD_REACTORS
330
C
102
}
330
C
100
AcDbDictionary
281
     1
  0
DICTIONARY
  5
2A
102
{ACAD_REACTORS
330
C
102
}
330
C
100
AcDbDictionary
281
     1
  3
2dWireframe
350
2F
  3
3D Hidden
350
31
  3
3dWireframe
350
30
  3
Basic
350
32
  3
Brighten
350
36
  3
ColorChange
350
3A
  3
Conceptual
350
34
  3
Dim
350
35
  3
Facepattern
350
39
  3
Flat
350
2B
  3
FlatWithEdges
350
2C
  3
Gouraud
350
2D
  3
GouraudWithEdges
350
2E
  3
Linepattern
350
38
  3
Realistic
350
33
  3
Thicken
350
37
  0
LAYOUT
  5
1E
102
{ACAD_REACTORS
330
1A
102
}
330
1A
100
AcDbPlotSettings
  1

  2
none_device
  4

  6

 40
0.0
 41
0.0
 42
0.0
 43
0.0
 44
0.0
 45
0.0
 46
0.0
 47
0.0
 48
0.0
 49
0.0
140
0.0
141
0.0
142
1.0
143
1.0
 70
   688
 72
     0
 73
     0
 74
     5
  7

 75
    16
 76
     0
 77
     2
 78
   300
147
1.0
148
0.0
149
0.0
100
AcDbLayout
  1
Layout1
 70
     1
 71
     1
 10
0.0
 20
0.0
 11
420.0
 21
297.0
 12
0.0
 22
0.0
 32
0.0
 14
1.0000000000E+20
 24
1.0000000000E+20
 34
1.0000000000E+20
 15
-1.0000000000E+20
 25
-1.0000000000E+20
 35
-1.0000000000E+20
146
0.0
 13
0.0
 23
0.0
 33
0.0
 16
1.0
 26
0.0
 36
0.0
 17
0.0
 27
1.0
 37
0.0
 76
     0
330
1B
  0
LAYOUT
  5
26
102
{ACAD_REACTORS
330
1A
102
}
330
1A
100
AcDbPlotSettings
  1

  2
none_device
  4

  6

 40
0.0
 41
0.0
 42
0.0
 43
0.0
 44
0.0
 45
0.0
 46
0.0
 47
0.0
 48
0.0
 49
0.0
140
0.0
141
0.0
142
1.0
143
1.0
 70
   688
 72
     0
 73
     0
 74
     5
  7

 75
    16
 76
     0
 77
     2
 78
   300
147
1.0
148
0.0
149
0.0
100
AcDbLayout
  1
Layout2
 70
     1
 71
     2
 10
0.0
 20
0.0
 11
0.0
 21
0.0
 12
0.0
 22
0.0
 32
0.0
 14
0.0
 24
0.0
 34
0.0
 15
0.0
 25
0.0
 35
0.0
146
0.0
 13
0.0
 23
0.0
 33
0.0
 16
1.0
 26
0.0
 36
0.0
 17
0.0
 27
1.0
 37
0.0
 76
     0
330
23
  0
LAYOUT
  5
22
102
{ACAD_REACTORS
330
1A
102
}
330
1A
100
AcDbPlotSettings
  1

  2
none_device
  4

  6

 40
0.0
 41
0.0
 42
0.0
 43
0.0
 44
0.0
 45
0.0
 46
0.0
 47
0.0
 48
0.0
 49
0.0
140
0.0
141
0.0
142
1.0
143
1.0
 70
  1712
 72
     0
 73
     0
 74
     0
  7

 75
     0
 76
     0
 77
     2
 78
   300
147
1.0
148
0.0
149
0.0
100
AcDbLayout
  1
Model
 70
     1
 71
     0
 10
0.0
 20
0.0
 11
841.0
 21
594.0
 12
0.0
 22
0.0
 32
0.0
 14
0.0
 24
0.0
 34
0.0
 15
841.0
 25
594.0
 35
0.0
146
0.0
 13
0.0
 23
0.0
 33
0.0
 16
1.0
 26
0.0
 36
0.0
 17
0.0
 27
1.0
 37
0.0
 76
     0
330
1F
331
29
  0
MATERIAL
  5
3D
102
{ACAD_REACTORS
330
3B
102
}
330
3B
100
AcDbMaterial
  1
ByBlock
 72
     1
 94
      127
  0
MATERIAL
  5
3C
102
{ACAD_REACTORS
330
3B
102
}
330
3B
100
AcDbMaterial
  1
ByLayer
 72
     1
 94
      127
  0
MATERIAL
  5
3E
102
{ACAD_REACTORS
330
3B
102
}
330
3B
100
AcDbMaterial
  1
Global
 72
     1
 94
      127
  0
MLINESTYLE
  5
18
102
{ACAD_REACTORS
330
17
102
}
330
17
100
AcDbMlineStyle
  2
Standard
 70
     0
  3

 62
   256
 51
90.0
 52
90.0
 71
     2
 49
0.5
 62
   256
  6
BYLAYER
 49
-0.5
 62
   256
  6
BYLAYER
  0
ACDBPLACEHOLDER
  5
F
102
{ACAD_REACTORS
330
E
102
}
330
E
  0
VISUALSTYLE
  5
2F
102
{ACAD_REACTORS
330
2A
102
}
330
2A
100
AcDbVisualStyle
  2
2dWireframe
 70
     4
 71
     0
 72
     2
 73
     0
 90
        0
 40
-0.6
 41
-30.0
 62
     5
 63
     7
421
 16777215
 74
     1
 91
        4
 64
     7
 65
   257
 75
     1
175
     1
 42
1.0
 92
        0
 66
   257
 43
1.0
 76
     1
 77
     6
 78
     2
 67
     7
 79
     5
170
     0
171
     0
290
     0
174
     0
 93
        1
 44
0.0
173
     0
291
     0
 45
0.0
  0
VISUALSTYLE
  5
31
102
{ACAD_REACTORS
330
2A
102
}
330
2A
100
AcDbVisualStyle
  2
3D Hidden
 70
     6
 71
     1
 72
     2
 73
     2
 90
        0
 40
-0.6
 41
-30.0
 62
     5
 63
     7
421
 16777215
 74
     2
 91
        2
 64
     7
 65
   257
 75
     2
175
     1
 42
40.0
 92
        0
 66
   257
 43
1.0
 76
     1
 77
     6
 78
     2
 67
     7
 79
     3
170
     0
171
     0
290
     0
174
     0
 93
        1
 44
0.0
173
     0
291
     0
 45
0.0
  0
VISUALSTYLE
  5
30
102
{ACAD_REACTORS
330
2A
102
}
330
2A
100
AcDbVisualStyle
  2
3dWireframe
 70
     5
 71
     0
 72
     2
 73
     0
 90
        0
 40
-0.6
 41
-30.0
 62
     5
 63
     7
421
 16777215
 74
     1
 91
        4
 64
     7
 65
   257
 75
     1
175
     1
 42
1.0
 92
        0
 66
   257
 43
1.0
 76
     1
 77
     6
 78
     2
 67
     7
 79
     5
170
     0
171
     0
290
     0
174
     0
 93
        1
 44
0.0
173
     0
291
     0
 45
0.0
  0
VISUALSTYLE
  5
32
102
{ACAD_REACTORS
330
2A
102
}
330
2A
100
AcDbVisualStyle
  2
Basic
 70
     7
 71
     1
 72
     0
 73
     1
 90
        0
 40
-0.6
 41
-30.0
 62
     5
 63
     7
421
 16777215
 74
     0
 91
        4
 64
     7
 65
   257
 75
     1
175
     1
 42
1.0
 92
        8
 66
     7
 43
1.0
 76
     1
 77
     6
 78
     2
 67
     7
 79
     5
170
     0
171
     0
290
     0
174
     0
 93
        1
 44
0.0
173
     0
291
     1
 45
0.0
  0
VISUALSTYLE
  5
36
102
{ACAD_REACTORS
330
2A
102
}
330
2A
100
AcDbVisualStyle
  2
Brighten
 70
    12
 71
     2
 72
     2
 73
     0
 90
        0
 40
-0.6
 41
-30.0
 62
     5
 63
     7
421
 16777215
 74
     1
 91
        4
 64
     7
 65
   257
 75
     1
175
     1
 42
1.0
 92
        8
 66
     7
 43
1.0
 76
     1
 77
     6
 78
     2
 67
     7
 79
     5
170
     0
171
     0
290
     0
174
     0
 93
        1
 44
50.0
173
     0
291
     1
 45
0.0
  0
VISUALSTYLE
  5
3A
102
{ACAD_REACTORS
330
2A
102
}
330
2A
100
AcDbVisualStyle
  2
ColorChange
 70
    16
 71
     2
 72
     2
 73
     3
 90
        0
 40
-0.6
 41
-30.0
 62
     5
 63
     8
421
  8421504
 74
     1
 91
        4
 64
     7
 65
   257
 75
     1
175
     1
 42
1.0
 92
        8
 66
     8
424
  8421504
 43
1.0
 76
     1
 77
     6
 78
     2
 67
     7
 79
     5
170
     0
171
     0
290
     0
174
     0
 93
        1
 44
0.0
173
     0
291
     1
 45
0.0
  0
VISUALSTYLE
  5
34
102
{ACAD_REACTORS
330
2A
102
}
330
2A
100
AcDbVisualStyle
  2
Conceptual
 70
     9
 71
     3
 72
     2
 73
     0
 90
        0
 40
-0.6
 41
-30.0
 62
     5
 63
     7
421
 16777215
 74
     2
 91
        2
 64
     7
 65
   257
 75
     1
175
     1
 42
40.0
 92
        8
 66
     7
 43
1.0
 76
     1
 77
     6
 78
     2
 67
     7
 79
     3
170
     0
171
     0
290
     0
174
     0
 93
        1
 44
0.0
173
     0
291
     0
 45
0.0
  0
VISUALSTYLE
  5
35
102
{ACAD_REACTORS
330
2A
102
}
330
2A
100
AcDbVisualStyle
  2
Dim
 70
    11
 71
     2
 72
     2
 73
     0
 90
        0
 40
-0.6
 41
-30.0
 62
     5
 63
     7
421
 16777215
 74
     1
 91
        4
 64
     7
 65
   257
 75
     1
175
     1
 42
1.0
 92
        8
 66
     7
 43
1.0
 76
     1
 77
     6
 78
     2
 67
     7
 79
     5
170
     0
171
     0
290
     0
174
     0
 93
        1
 44
-50.0
173
     0
291
     1
 45
0.0
  0
VISUALSTYLE
  5
39
102
{ACAD_REACTORS
330
2A
102
}
330
2A
100
AcDbVisualStyle
  2
Facepattern
 70
    15
 71
     2
 72
     2
 73
     0
 90
        0
 40
-0.6
 41
-30.0
 62
     5
 63
     7
421
 16777215
 74
     1
 91
        4
 64
     7
 65
   257
 75
     1
175
     1
 42
1.0
 92
        8
 66
     7
 43
1.0
 76
     1
 77
     6
 78
     2
 67
     7
 79
     5
170
     0
171
     0
290
     0
174
     0
 93
        1
 44
0.0
173
     0
291
     1
 45
0.0
  0
VISUALSTYLE
  5
2B
102
{ACAD_REACTORS
330
2A
102
}
330
2A
100
AcDbVisualStyle
  2
Flat
 70
     0
 71
     2
 72
     1
 73
     1
 90
        2
 40
-0.6
 41
30.0
 62
     5
 63
     7
421
 16777215
 74
     0
 91
        4
 64
     7
 65
   257
 75
     1
175
     1
 42
1.0
 92
        8
 66
     7
 43
1.0
 76
     1
 77
     6
 78
     2
 67
     7
 79
     5
170
     0
171
     0
290
     0
174
     0
 93
       13
 44
0.0
173
     0
291
     1
 45
0.0
  0
VISUALSTYLE
  5
2C
102
{ACAD_REACTORS
330
2A
102
}
330
2A
100
AcDbVisualStyle
  2
FlatWithEdges
 70
     1
 71
     2
 72
     1
 73
     1
 90
        2
 40
-0.6
 41
30.0
 62
     5
 63
     7
421
 16777215
 74
     1
 91
        4
 64
     7
 65
   257
 75
     1
175
     1
 42
1.0
 92
        0
 66
   257
 43
1.0
 76
     1
 77
     6
 78
     2
 67
     7
 79
     5
170
     0
171
     0
290
     0
174
     0
 93
       13
 44
0.0
173
     0
291
     1
 45
0.0
  0
VISUALSTYLE
  5
2D
102
{ACAD_REACTORS
330
2A
102
}
330
2A
100
AcDbVisualStyle
  2
Gouraud
 70
     2
 71
     2
 72
     2
 73
     1
 90
        2
 40
-0.6
 41
30.0
 62
     5
 63
     7
421
 16777215
 74
     0
 91
        4
 64
     7
 65
   257
 75
     1
175
     1
 42
1.0
 92
        0
 66
     7
 43
1.0
 76
     1
 77
     6
 78
     2
 67
     7
 79
     5
170
     0
171
     0
290
     0
174
     0
 93
       13
 44
0.0
173
     0
291
     1
 45
0.0
  0
VISUALSTYLE
  5
2E
102
{ACAD_REACTORS
330
2A
102
}
330
2A
100
AcDbVisualStyle
  2
GouraudWithEdges
 70
     3
 71
     2
 72
     2
 73
     1
 90
        2
 40
-0.6
 41
30.0
 62
     5
 63
     7
421
 16777215
 74
     1
 91
        4
 64
     7
 65
   257
 75
     1
175
     1
 42
1.0
 92
        0
 66
   257
 43
1.0
 76
     1
 77
     6
 78
     2
 67
     7
 79
     5
170
     0
171
     0
290
     0
174
     0
 93
       13
 44
0.0
173
     0
291
     1
 45
0.0
  0
VISUALSTYLE
  5
38
102
{ACAD_REACTORS
330
2A
102
}
330
2A
100
AcDbVisualStyle
  2
Linepattern
 70
    14
 71
     2
 72
     2
 73
     0
 90
        0
 40
-0.6
 41
-30.0
 62
     5
 63
     7
421
 16777215
 74
     1
 91
        4
 64
     7
 65
   257
 75
     7
175
     7
 42
1.0
 92
        8
 66
     7
 43
1.0
 76
     1
 77
     6
 78
     2
 67
     7
 79
     5
170
     0
171
     0
290
     0
174
     0
 93
        1
 44
0.0
173
     0
291
     1
 45
0.0
  0
VISUALSTYLE
  5
33
102
{ACAD_REACTORS
330
2A
102
}
330
2A
100
AcDbVisualStyle
  2
Realistic
 70
     8
 71
     2
 72
     2
 73
     0
 90
        0
 40
-0.6
 41
-30.0
 62
     5
 63
     7
421
 16777215
 74
     1
 91
        0
 64
     7
 65
   257
 75
     1
175
     1
 42
1.0
 92
        8
 66
     8
424
  7895160
 43
1.0
 76
     1
 77
     6
 78
     2
 67
     7
 79
     5
170
     0
171
     0
290
     0
174
     0
 93
       13
 44
0.0
173
     0
291
     0
 45
0.0
  0
VISUALSTYLE
  5
37
102
{ACAD_REACTORS
330
2A
102
}
330
2A
100
AcDbVisualStyle
  2
Thicken
 70
    13
 71
     2
 72
     2
 73
     0
 90
        0
 40
-0.6
 41
-30.0
 62
     5
 63
     7
421
 16777215
 74
     1
 91
        4
 64
     7
 65
   257
 75
     1
175
     1
 42
1.0
 92
       12
 66
     7
 43
1.0
 76
     1
 77
     6
 78
     2
 67
     7
 79
     5
170
     0
171
     0
290
     0
174
     0
 93
        1
 44
0.0
173
     0
291
     1
 45
0.0
  0
ENDSEC
  0
EOF
